999
DXF file: C:\Users\sesa63760\Dev\_Creo\CAD\MCADPP0003179_3D-CAD\drw0001_6.dxf
999
Pro/ENGINEER 2019471 by Parametric Technology Corporation
  0
SECTION
  2
HEADER
  9
$ACADVER
  1
AC1024
  9
$DWGCODEPAGE
  3
ANSI_1252
  9
$EXTMAX
 10
418.3568017152
 20
591.67604814
 30
0.0
  9
$EXTMIN
 10
0.0
 20
0.0
 30
0.0
  9
$LIMMIN
 10
0.0
 20
0.0
  9
$LIMMAX
 10
418.3568017152
 20
591.67604814
  9
$VIEWCTR
 10
209.1784008576
 20
295.83802407
  9
$VIEWSIZE
 40
591.67604814
  9
$CLAYER
  8
0
  9
$LTSCALE
 40
38.5685127676
  9
$CELTYPE
  6
BYLAYER
  9
$DIMSCALE
 40
1.0
  9
$DIMASZ
 40
4.9804381157
  9
$DIMEXO
 40
1.0
  9
$DIMDLI
 40
26.647336094
  9
$DIMEXE
 40
1.0
  9
$DIMCEN
 40
6.3112111802
  9
$DIMLFAC
 40
1.0
  9
$DIMBLK
  1
_FILLED
  9
$DIMALT
 70
0
  9
$DIMALTF
 40
0.0393700787
  9
$DIMTXT
 40
6.9726133619
  9
$DIMTOL
 70
1
  9
$DIMLIM
 70
0
  9
$DIMTFAC
 40
1.0
  9
$DIMTP
 40
0.01
  9
$DIMTM
 40
0.01
  9
$DIMGAP
 40
0.625
  9
$DIMDSEP
 70
46
  9
$AUNITS
 70
0
  9
$PDMODE
 70
3
  9
$PDSIZE
 40
0.3125
  9
$HANDSEED
  5
56F
  9
$TILEMODE
 70
1
  9
$MEASUREMENT
 70
1
  9
$INSUNITS
 70
4
  0
ENDSEC
  0
SECTION
  2
CLASSES
  0
CLASS
  1
ACDBDICTIONARYWDFLT
  2
AcDbDictionaryWithDefault
  3
AutoCAD 2000
 90
0
 91
1
280
0
281
0
  0
CLASS
  1
ACDBPLACEHOLDER
  2
AcDbPlaceHolder
  3
AutoCAD 2000
 90
0
 91
1
280
0
281
0
  0
CLASS
  1
LAYOUT
  2
AcDbLayout
  3
AutoCAD 2000
 90
0
 91
0
280
0
281
0
  0
ENDSEC
  0
SECTION
  2
TABLES
  0
TABLE
  2
VPORT
  5
8
100
AcDbSymbolTable
 70
2
  0
VPORT
  5
1F4
100
AcDbSymbolTableRecord
100
AcDbViewportTableRecord
  2
*ACTIVE
 70
0
 10
0.0
 20
0.0
 11
1.0
 21
1.0
 12
209.1784008576
 22
295.83802407
 13
0.0
 23
0.0
 14
1.0
 24
1.0
 15
0.0
 25
0.0
 16
0.0
 26
0.0
 36
1.0
 17
0.0
 27
0.0
 37
0.0
 40
591.67604814
 41
0.7070707071
 42
50.0
 43
0.0
 44
0.0
 50
0.0
 51
0.0
 71
0
 72
100
 73
1
 74
1
 75
0
 76
0
 77
0
 78
0
  0
ENDTAB
  0
TABLE
  2
LTYPE
  5
5
100
AcDbSymbolTable
 70
6
  0
LTYPE
  5
14
100
AcDbSymbolTableRecord
100
AcDbLinetypeTableRecord
  2
BYBLOCK
 70
0
  3

 72
65
 73
0
 40
0.0
  0
LTYPE
  5
15
100
AcDbSymbolTableRecord
100
AcDbLinetypeTableRecord
  2
BYLAYER
 70
0
  3

 72
65
 73
0
 40
0.0
  0
LTYPE
  5
16
100
AcDbSymbolTableRecord
100
AcDbLinetypeTableRecord
  2
CONTINUOUS
 70
64
  3
Solid line
 72
65
 73
0
 40
0.0
  0
LTYPE
  5
1F5
100
AcDbSymbolTableRecord
100
AcDbLinetypeTableRecord
  2
CENTER
 70
64
  3
____ _ ____ _ ____ _ ____ _ ____ _ ____ _ ____
 72
65
 73
4
 40
0.6
 49
0.375
 74
0
 49
-0.075
 74
0
 49
0.075
 74
0
 49
-0.075
 74
0
  0
LTYPE
  5
1F6
100
AcDbSymbolTableRecord
100
AcDbLinetypeTableRecord
  2
HIDDEN
 70
64
  3
- - - - - - - - - - - - - - - - - - - -
 72
65
 73
2
 40
0.2
 49
0.1
 74
0
 49
-0.1
 74
0
  0
LTYPE
  5
1F7
100
AcDbSymbolTableRecord
100
AcDbLinetypeTableRecord
  2
PHANTOM
 70
64
  3
_____ _ _ _____ _ _ _____ _ _ _____
 72
65
 73
6
 40
0.8
 49
0.45
 74
0
 49
-0.05
 74
0
 49
0.1
 74
0
 49
-0.05
 74
0
 49
0.1
 74
0
 49
-0.05
 74
0
  0
LTYPE
  5
1F8
100
AcDbSymbolTableRecord
100
AcDbLinetypeTableRecord
  2
DOT
 70
64
  3
. . . . . . . . . . . . . . . . . . . .
 72
65
 73
2
 40
0.2
 49
0.1
 74
0
 49
-0.1
 74
0
  0
LTYPE
  5
1F9
100
AcDbSymbolTableRecord
100
AcDbLinetypeTableRecord
  2
DASHED
 70
64
  3
- - - - - - - - - - - - - - - - - - - -
 72
65
 73
2
 40
0.2
 49
0.1
 74
0
 49
-0.1
 74
0
  0
ENDTAB
  0
TABLE
  2
LAYER
  5
2
100
AcDbSymbolTable
 70
36
  0
LAYER
  5
10
100
AcDbSymbolTableRecord
100
AcDbLayerTableRecord
  2
0
 70
0
 62
7
  6
CONTINUOUS
370
-3
390
F
  0
LAYER
  5
1FA
100
AcDbSymbolTableRecord
100
AcDbLayerTableRecord
  2
DEFAULT_1
 70
0
 62
7
  6
CENTER
370
-3
390
F
  0
LAYER
  5
1FB
100
AcDbSymbolTableRecord
100
AcDbLayerTableRecord
  2
DEFAULT_2
 70
0
 62
8
  6
HIDDEN
370
-3
390
F
  0
LAYER
  5
1FC
100
AcDbSymbolTableRecord
100
AcDbLayerTableRecord
  2
DEFAULT_3
 70
0
 62
7
  6
PHANTOM
370
-3
390
F
  0
LAYER
  5
1FD
100
AcDbSymbolTableRecord
100
AcDbLayerTableRecord
  2
00_COMPONENTS
 70
0
 62
7
  6
CONTINUOUS
370
-3
390
F
  0
LAYER
  5
1FE
100
AcDbSymbolTableRecord
100
AcDbLayerTableRecord
  2
01_1_DEFAULT_DATUMS
 70
0
 62
7
  6
CONTINUOUS
370
-3
390
F
  0
LAYER
  5
1FF
100
AcDbSymbolTableRecord
100
AcDbLayerTableRecord
  2
01_PLANES
 70
0
 62
7
  6
CONTINUOUS
370
-3
390
F
  0
LAYER
  5
200
100
AcDbSymbolTableRecord
100
AcDbLayerTableRecord
  2
02_COORD_SYS
 70
0
 62
7
  6
CONTINUOUS
370
-3
390
F
  0
LAYER
  5
201
100
AcDbSymbolTableRecord
100
AcDbLayerTableRecord
  2
03_AXES
 70
0
 62
7
  6
CONTINUOUS
370
-3
390
F
  0
LAYER
  5
202
100
AcDbSymbolTableRecord
100
AcDbLayerTableRecord
  2
04_POINTS
 70
0
 62
7
  6
CONTINUOUS
370
-3
390
F
  0
LAYER
  5
203
100
AcDbSymbolTableRecord
100
AcDbLayerTableRecord
  2
05_CURVES
 70
0
 62
7
  6
CONTINUOUS
370
-3
390
F
  0
LAYER
  5
204
100
AcDbSymbolTableRecord
100
AcDbLayerTableRecord
  2
06_SURFS
 70
0
 62
7
  6
CONTINUOUS
370
-3
390
F
  0
LAYER
  5
205
100
AcDbSymbolTableRecord
100
AcDbLayerTableRecord
  2
07_COSMETICS
 70
0
 62
7
  6
CONTINUOUS
370
-3
390
F
  0
LAYER
  5
206
100
AcDbSymbolTableRecord
100
AcDbLayerTableRecord
  2
10_NOTES
 70
0
 62
7
  6
CONTINUOUS
370
-3
390
F
  0
LAYER
  5
207
100
AcDbSymbolTableRecord
100
AcDbLayerTableRecord
  2
11_NOTES_PUB
 70
0
 62
7
  6
CONTINUOUS
370
-3
390
F
  0
LAYER
  5
208
100
AcDbSymbolTableRecord
100
AcDbLayerTableRecord
  2
13_REF_GTOL
 70
0
 62
7
  6
CONTINUOUS
370
-3
390
F
  0
LAYER
  5
209
100
AcDbSymbolTableRecord
100
AcDbLayerTableRecord
  2
16_MISC
 70
0
 62
7
  6
CONTINUOUS
370
-3
390
F
  0
LAYER
  5
20A
100
AcDbSymbolTableRecord
100
AcDbLayerTableRecord
  2
17_NO_PRINT
 70
0
 62
7
  6
CONTINUOUS
370
-3
390
F
  0
LAYER
  5
20B
100
AcDbSymbolTableRecord
100
AcDbLayerTableRecord
  2
18_DATUM_CAMS_JOINTS
 70
0
 62
7
  6
CONTINUOUS
370
-3
390
F
  0
LAYER
  5
20C
100
AcDbSymbolTableRecord
100
AcDbLayerTableRecord
  2
19_DATUM_FUNCTIONAL
 70
0
 62
7
  6
CONTINUOUS
370
-3
390
F
  0
LAYER
  5
20D
100
AcDbSymbolTableRecord
100
AcDbLayerTableRecord
  2
20_DATUM_KINEMATIC_SCHEME
 70
0
 62
7
  6
CONTINUOUS
370
-3
390
F
  0
ENDTAB
  0
TABLE
  2
STYLE
  5
3
100
AcDbSymbolTable
 70
1
  0
STYLE
  5
11
100
AcDbSymbolTableRecord
100
AcDbTextStyleTableRecord
  2
STANDARD
 70
0
 40
0.0
 41
0.8
 50
0.0
 71
0
 42
0.2
  3
txt
  4

  0
STYLE
  5
20E
100
AcDbSymbolTableRecord
100
AcDbTextStyleTableRecord
  2
TEXTSTYLE_1
 70
0
 40
0.0
 41
0.8
 50
0.0
 71
0
 42
0.2
  3
gdt
  4

  0
ENDTAB
  0
TABLE
  2
VIEW
  5
6
100
AcDbSymbolTable
 70
0
  0
ENDTAB
  0
TABLE
  2
UCS
  5
7
100
AcDbSymbolTable
 70
0
  0
ENDTAB
  0
TABLE
  2
APPID
  5
9
100
AcDbSymbolTable
 70
1
  0
APPID
  5
20F
100
AcDbSymbolTableRecord
100
AcDbRegAppTableRecord
  2
ACAD
 70
0
  0
ENDTAB
  0
TABLE
  2
BLOCK_RECORD
  5
1
100
AcDbSymbolTable
 70
0
  0
BLOCK_RECORD
  5
210
100
AcDbSymbolTableRecord
100
AcDbBlockTableRecord
  2
*Model_Space
  0
BLOCK_RECORD
  5
211
100
AcDbSymbolTableRecord
100
AcDbBlockTableRecord
  2
*Paper_Space
  0
BLOCK_RECORD
  5
212
100
AcDbSymbolTableRecord
100
AcDbBlockTableRecord
  2
_FILLED
  0
ENDTAB
  0
TABLE
  2
DIMSTYLE
  5
A
100
AcDbSymbolTable
 70
1
100
AcDbDimStyleTable
 71
0
  0
DIMSTYLE
105
213
100
AcDbSymbolTableRecord
100
AcDbDimStyleTableRecord
  2
STANDARD
 70
0
  3

  4

 40
1.0
 41
4.9804381157
 42
1.0
 43
0.38
 44
1.0
 45
0.0
 46
0.0
 47
0.01
 48
0.01
140
6.9726133619
141
0.09
142
0.0
143
25.4
144
1.0
145
0.0
146
1.0
147
0.625
 71
1
 72
0
 73
0
 74
0
 75
0
 76
0
 77
1
 78
8
 79
2
170
0
171
1
172
0
173
0
174
0
175
0
176
0
177
0
178
0
270
2
179
2
271
2
272
2
273
2
274
2
275
0
280
0
281
0
282
0
283
1
284
8
285
0
286
0
287
3
288
0
340
11
278
46
341
212
342
212
343
212
344
212
  0
ENDTAB
  0
ENDSEC
  0
SECTION
  2
BLOCKS
  0
BLOCK
  5
20
100
AcDbEntity
  8
0
100
AcDbBlockBegin
  2
*Model_Space
 70
0
 10
0.0
 20
0.0
 30
0.0
  3
*Model_Space
  1

  0
ENDBLK
  5
21
100
AcDbEntity
  8
0
100
AcDbBlockEnd
  0
BLOCK
  5
1C
100
AcDbEntity
  8
0
100
AcDbBlockBegin
  2
*Paper_Space
 70
0
 10
0.0
 20
0.0
 30
0.0
  3
*Paper_Space
  1

  0
ENDBLK
  5
1D
100
AcDbEntity
  8
0
100
AcDbBlockEnd
  0
BLOCK
  5
214
100
AcDbEntity
  8
0
100
AcDbBlockBegin
  2
_FILLED
 70
64
 10
0.0
 20
0.0
  3
_FILLED
  1

  0
SOLID
  5
215
100
AcDbEntity
  8
0
  6
BYBLOCK
 62
0
100
AcDbTrace
 10
0.0
 20
0.0
 11
-1.0
 21
0.25
 12
-1.0
 22
-0.25
 13
-1.0
 23
-0.25
  0
ENDBLK
  5
216
100
AcDbEntity
  8
0
  6
BYBLOCK
 62
0
100
AcDbBlockEnd
  0
ENDSEC
  0
SECTION
  2
ENTITIES
  0
LINE
  5
217
100
AcDbEntity
  8
0
100
AcDbLine
 62
7
  6
CONTINUOUS
 10
47.318429304
 20
267.8726182615
 11
47.318429304
 21
259.5414298785
  0
LINE
  5
218
100
AcDbEntity
  8
0
100
AcDbLine
 62
7
  6
CONTINUOUS
 10
47.826429304
 20
268.38062407
 11
47.826429304
 21
259.03342407
  0
LINE
  5
219
100
AcDbEntity
  8
0
100
AcDbLine
 62
7
  6
CONTINUOUS
 10
50.290229304
 20
259.0334997816
 11
50.290229304
 21
268.3805483584
  0
LINE
  5
21A
100
AcDbEntity
  8
0
100
AcDbLine
 62
7
  6
CONTINUOUS
 10
50.391829304
 20
272.3429993799
 11
50.391829304
 21
255.0710270791
  0
LINE
  5
21B
100
AcDbEntity
  8
0
100
AcDbLine
 62
7
  6
CONTINUOUS
 10
51.280829304
 20
255.0710487602
 11
51.280829304
 21
272.3430089217
  0
LINE
  5
21C
100
AcDbEntity
  8
0
100
AcDbLine
 62
7
  6
CONTINUOUS
 10
51.306229304
 20
340.3392464855
 11
51.306229304
 21
227.1025791561
  0
LINE
  5
21D
100
AcDbEntity
  8
0
100
AcDbLine
 62
7
  6
CONTINUOUS
 10
54.709829304
 20
227.1025804584
 11
54.709829304
 21
340.3392464855
  0
LINE
  5
21E
100
AcDbEntity
  8
0
100
AcDbLine
 62
7
  6
CONTINUOUS
 10
55.243229304
 20
271.7080196367
 11
55.243229304
 21
255.7060285034
  0
LINE
  5
21F
100
AcDbEntity
  8
0
100
AcDbLine
 62
7
  6
CONTINUOUS
 10
61.059829304
 20
346.1402601415
 11
61.059829304
 21
320.3124833062
  0
LINE
  5
220
100
AcDbEntity
  8
0
100
AcDbLine
 62
7
  6
CONTINUOUS
 10
61.186829304
 20
199.57202407
 11
61.186829304
 21
301.80702407
  0
LINE
  5
221
100
AcDbEntity
  8
0
100
AcDbLine
 62
7
  6
CONTINUOUS
 10
63.853829304
 20
199.57202407
 11
63.853829304
 21
301.80702407
  0
LINE
  5
222
100
AcDbEntity
  8
0
100
AcDbLine
 62
7
  6
CONTINUOUS
 10
68.654429304
 20
259.8208293845
 11
68.654429304
 21
267.5932187555
  0
LINE
  5
223
100
AcDbEntity
  8
0
100
AcDbLine
 62
7
  6
CONTINUOUS
 10
47.318429304
 20
259.54142407
 11
47.826429304
 21
259.03342407
  0
LINE
  5
224
100
AcDbEntity
  8
0
100
AcDbLine
 62
7
  6
CONTINUOUS
 10
92.390729304
 20
334.3497457722
 11
92.390729304
 21
329.4142639347
  0
LINE
  5
225
100
AcDbEntity
  8
0
100
AcDbLine
 62
7
  6
CONTINUOUS
 10
98.774065638
 20
333.2984954522
 11
99.0459249631
 21
333.8462383679
  0
LINE
  5
226
100
AcDbEntity
  8
0
100
AcDbLine
 62
7
  6
CONTINUOUS
 10
98.740729304
 20
334.3497589435
 11
98.740729304
 21
329.4142639347
  0
LINE
  5
227
100
AcDbEntity
  8
0
100
AcDbLine
 62
7
  6
CONTINUOUS
 10
98.778829304
 20
320.3124833062
 11
98.778829304
 21
321.0432914797
  0
LINE
  5
228
100
AcDbEntity
  8
0
100
AcDbLine
 62
7
  6
CONTINUOUS
 10
98.9027455257
 20
333.4444007788
 11
98.774065638
 21
333.2984954522
  0
LINE
  5
229
100
AcDbEntity
  8
0
100
AcDbLine
 62
7
  6
CONTINUOUS
 10
112.3965096513
 20
350.3048573039
 11
112.3965096513
 21
349.2496034612
  0
LINE
  5
22A
100
AcDbEntity
  8
0
100
AcDbLine
 62
7
  6
CONTINUOUS
 10
117.879629304
 20
333.1100124841
 11
117.879629304
 21
328.1745306466
  0
LINE
  5
22B
100
AcDbEntity
  8
0
100
AcDbLine
 62
7
  6
CONTINUOUS
 10
124.262965638
 20
332.0587621641
 11
124.5348249631
 21
332.6065050798
  0
LINE
  5
22C
100
AcDbEntity
  8
0
100
AcDbLine
 62
7
  6
CONTINUOUS
 10
124.3916455257
 20
332.2046674907
 11
124.262965638
 21
332.0587621641
  0
LINE
  5
22D
100
AcDbEntity
  8
0
100
AcDbLine
 62
7
  6
CONTINUOUS
 10
47.318429304
 20
267.87262407
 11
47.826429304
 21
268.38062407
  0
LINE
  5
22E
100
AcDbEntity
  8
0
100
AcDbLine
 62
7
  6
CONTINUOUS
 10
97.9538061658
 20
328.467213623
 11
98.408677949
 21
328.8393005785
  0
LINE
  5
22F
100
AcDbEntity
  8
0
100
AcDbLine
 62
7
  6
CONTINUOUS
 10
66.520829304
 20
194.23802407
 11
245.336829304
 21
194.23802407
  0
LINE
  5
230
100
AcDbEntity
  8
0
100
AcDbLine
 62
7
  6
CONTINUOUS
 10
245.336829304
 20
196.90502407
 11
66.520829304
 21
196.90502407
  0
LINE
  5
231
100
AcDbEntity
  8
0
100
AcDbLine
 62
7
  6
CONTINUOUS
 10
92.0855336448
 20
333.8462383679
 11
92.3572305252
 21
333.2984675813
  0
LINE
  5
232
100
AcDbEntity
  8
0
100
AcDbLine
 62
7
  6
CONTINUOUS
 10
124.229629304
 20
333.1100256554
 11
124.229629304
 21
328.1745306466
  0
LINE
  5
233
100
AcDbEntity
  8
0
100
AcDbLine
 62
7
  6
CONTINUOUS
 10
132.078229304
 20
349.2496034612
 11
132.078229304
 21
346.1402601415
  0
LINE
  5
234
100
AcDbEntity
  8
0
100
AcDbLine
 62
7
  6
CONTINUOUS
 10
123.4427061658
 20
327.2274803349
 11
123.897577949
 21
327.5995672904
  0
LINE
  5
235
100
AcDbEntity
  8
0
100
AcDbLine
 62
7
  6
CONTINUOUS
 10
138.428229304
 20
331.3151162381
 11
138.428229304
 21
346.6668257776
  0
LINE
  5
236
100
AcDbEntity
  8
0
100
AcDbLine
 62
7
  6
CONTINUOUS
 10
144.2965679219
 20
333.0281668047
 11
144.2965679219
 21
331.4129907272
  0
LINE
  5
237
100
AcDbEntity
  8
0
100
AcDbLine
 62
7
  6
CONTINUOUS
 10
144.3869941826
 20
342.3887735123
 11
144.3869941826
 21
336.35571931
  0
LINE
  5
238
100
AcDbEntity
  8
0
100
AcDbLine
 62
7
  6
CONTINUOUS
 10
144.4548138781
 20
343.3181642042
 11
144.4548138781
 21
337.2851100019
  0
LINE
  5
239
100
AcDbEntity
  8
0
100
AcDbLine
 62
7
  6
CONTINUOUS
 10
145.1412032044
 20
350.3048573039
 11
145.1412032044
 21
350.9719422513
  0
LINE
  5
23A
100
AcDbEntity
  8
0
100
AcDbLine
 62
7
  6
CONTINUOUS
 10
145.2878444572
 20
342.7717074238
 11
145.2878444572
 21
342.8115516251
  0
LINE
  5
23B
100
AcDbEntity
  8
0
100
AcDbLine
 62
7
  6
CONTINUOUS
 10
146.048229304
 20
331.3251263375
 11
146.048229304
 21
328.2157830178
  0
LINE
  5
23C
100
AcDbEntity
  8
0
100
AcDbLine
 62
7
  6
CONTINUOUS
 10
145.2878444572
 20
342.7717074238
 11
145.2889111211
 21
342.8115516251
  0
LINE
  5
23D
100
AcDbEntity
  8
0
100
AcDbLine
 62
7
  6
CONTINUOUS
 10
144.3908970609
 20
342.4812584874
 11
144.3869941826
 21
342.3887735123
  0
LINE
  5
23E
100
AcDbEntity
  8
0
100
AcDbLine
 62
7
  6
CONTINUOUS
 10
144.4548138781
 20
343.3181642042
 11
144.4587182255
 21
343.4106490645
  0
LINE
  5
23F
100
AcDbEntity
  8
0
100
AcDbLine
 62
7
  6
CONTINUOUS
 10
145.1412032044
 20
350.9719422513
 11
145.1451075518
 21
351.0644271115
  0
LINE
  5
240
100
AcDbEntity
  8
0
100
AcDbLine
 62
7
  6
CONTINUOUS
 10
144.3903648306
 20
342.4812984128
 11
144.4581845262
 21
343.4106891047
  0
LINE
  5
241
100
AcDbEntity
  8
0
100
AcDbLine
 62
7
  6
CONTINUOUS
 10
144.4548138781
 20
343.3181642042
 11
144.3869941826
 21
342.3887735123
  0
LINE
  5
242
100
AcDbEntity
  8
0
100
AcDbLine
 62
7
  6
CONTINUOUS
 10
145.1445738525
 20
351.0644671517
 11
145.0891434409
 21
350.3048573039
  0
LINE
  5
243
100
AcDbEntity
  8
0
100
AcDbLine
 62
7
  6
CONTINUOUS
 10
145.1412032044
 20
350.9719422513
 11
145.0925245395
 21
350.3048573039
  0
LINE
  5
244
100
AcDbEntity
  8
0
100
AcDbLine
 62
7
  6
CONTINUOUS
 10
144.319174487
 20
333.337963702
 11
144.2965679219
 21
333.0281668047
  0
LINE
  5
245
100
AcDbEntity
  8
0
100
AcDbLine
 62
7
  6
CONTINUOUS
 10
145.2090228999
 20
341.6915489085
 11
145.2878444572
 21
342.7717074238
  0
LINE
  5
246
100
AcDbEntity
  8
0
100
AcDbLine
 62
7
  6
CONTINUOUS
 10
54.709829304
 20
227.102101311
 11
51.306229304
 21
227.102101311
  0
LINE
  5
247
100
AcDbEntity
  8
0
100
AcDbLine
 62
7
  6
CONTINUOUS
 10
257.147829304
 20
227.102101311
 11
260.551429304
 21
227.102101311
  0
LINE
  5
248
100
AcDbEntity
  8
0
100
AcDbLine
 62
7
  6
CONTINUOUS
 10
51.306229304
 20
227.1438444683
 11
54.709829304
 21
227.1438444683
  0
LINE
  5
249
100
AcDbEntity
  8
0
100
AcDbLine
 62
7
  6
CONTINUOUS
 10
257.147829304
 20
227.1438444683
 11
260.551429304
 21
227.1438444683
  0
LINE
  5
24A
100
AcDbEntity
  8
0
100
AcDbLine
 62
7
  6
CONTINUOUS
 10
260.551429304
 20
232.1309538921
 11
257.147829304
 21
232.1309538921
  0
LINE
  5
24B
100
AcDbEntity
  8
0
100
AcDbLine
 62
7
  6
CONTINUOUS
 10
54.709829304
 20
232.1309538921
 11
51.306229304
 21
232.1309538921
  0
LINE
  5
24C
100
AcDbEntity
  8
0
100
AcDbLine
 62
7
  6
CONTINUOUS
 10
117.5744336448
 20
332.6065050798
 11
117.8461305252
 21
332.0587342933
  0
LINE
  5
24D
100
AcDbEntity
  8
0
100
AcDbLine
 62
7
  6
CONTINUOUS
 10
179.703229304
 20
349.2496034612
 11
173.353229304
 21
346.6668257776
  0
LINE
  5
24E
100
AcDbEntity
  8
0
100
AcDbLine
 62
7
  6
CONTINUOUS
 10
173.353229304
 20
343.557482458
 11
179.703229304
 21
346.1402601415
  0
LINE
  5
24F
100
AcDbEntity
  8
0
100
AcDbLine
 62
7
  6
CONTINUOUS
 10
93.1776524421
 20
328.467213623
 11
92.7227806589
 21
328.8393005785
  0
LINE
  5
250
100
AcDbEntity
  8
0
100
AcDbLine
 62
7
  6
CONTINUOUS
 10
165.733229304
 20
328.2157830178
 11
165.733229304
 21
331.3251263375
  0
LINE
  5
251
100
AcDbEntity
  8
0
100
AcDbLine
 62
7
  6
CONTINUOUS
 10
166.7969750991
 20
337.0153923946
 11
166.7969750991
 21
341.035332906
  0
LINE
  5
252
100
AcDbEntity
  8
0
100
AcDbLine
 62
7
  6
CONTINUOUS
 10
167.4833644254
 20
350.702224644
 11
167.4833644254
 21
350.3048573039
  0
LINE
  5
253
100
AcDbEntity
  8
0
100
AcDbLine
 62
7
  6
CONTINUOUS
 10
173.353229304
 20
331.3151162381
 11
173.353229304
 21
346.6668257776
  0
LINE
  5
254
100
AcDbEntity
  8
0
100
AcDbLine
 62
7
  6
CONTINUOUS
 10
167.5737906861
 20
341.7316281985
 11
167.5511841209
 21
341.4218313012
  0
LINE
  5
255
100
AcDbEntity
  8
0
100
AcDbLine
 62
7
  6
CONTINUOUS
 10
194.1527455257
 20
333.4444007788
 11
194.024065638
 21
333.2984954522
  0
LINE
  5
256
100
AcDbEntity
  8
0
100
AcDbLine
 62
7
  6
CONTINUOUS
 10
193.2038061658
 20
328.467213623
 11
193.658677949
 21
328.8393005785
  0
LINE
  5
257
100
AcDbEntity
  8
0
100
AcDbLine
 62
7
  6
CONTINUOUS
 10
261.465829304
 20
255.07102407
 11
260.576829304
 21
255.07102407
  0
LINE
  5
258
100
AcDbEntity
  8
0
100
AcDbLine
 62
7
  6
CONTINUOUS
 10
50.391829304
 20
255.07102407
 11
51.280829304
 21
255.07102407
  0
LINE
  5
259
100
AcDbEntity
  8
0
100
AcDbLine
 62
7
  6
CONTINUOUS
 10
61.186829304
 20
255.70602407
 11
55.243229304
 21
255.70602407
  0
LINE
  5
25A
100
AcDbEntity
  8
0
100
AcDbLine
 62
7
  6
CONTINUOUS
 10
250.670829304
 20
255.70602407
 11
256.614429304
 21
255.70602407
  0
LINE
  5
25B
100
AcDbEntity
  8
0
100
AcDbLine
 62
7
  6
CONTINUOUS
 10
260.576829304
 20
258.2698673401
 11
261.465829304
 21
258.2698673401
  0
LINE
  5
25C
100
AcDbEntity
  8
0
100
AcDbLine
 62
7
  6
CONTINUOUS
 10
179.703229304
 20
349.2496034612
 11
179.703229304
 21
346.1402601415
  0
LINE
  5
25D
100
AcDbEntity
  8
0
100
AcDbLine
 62
7
  6
CONTINUOUS
 10
182.2772693753
 20
349.2496034612
 11
182.2772693753
 21
350.3048573039
  0
LINE
  5
25E
100
AcDbEntity
  8
0
100
AcDbLine
 62
7
  6
CONTINUOUS
 10
187.640729304
 20
334.3497457722
 11
187.640729304
 21
329.4142639347
  0
LINE
  5
25F
100
AcDbEntity
  8
0
100
AcDbLine
 62
7
  6
CONTINUOUS
 10
194.024065638
 20
333.2984954522
 11
194.2959249631
 21
333.8462383679
  0
LINE
  5
260
100
AcDbEntity
  8
0
100
AcDbLine
 62
7
  6
CONTINUOUS
 10
55.243229304
 20
259.03342407
 11
54.709829304
 21
259.03342407
  0
LINE
  5
261
100
AcDbEntity
  8
0
100
AcDbLine
 62
7
  6
CONTINUOUS
 10
51.306229304
 20
259.03342407
 11
51.280829304
 21
259.03342407
  0
LINE
  5
262
100
AcDbEntity
  8
0
100
AcDbLine
 62
7
  6
CONTINUOUS
 10
50.290229304
 20
259.03342407
 11
47.826429304
 21
259.03342407
  0
LINE
  5
263
100
AcDbEntity
  8
0
100
AcDbLine
 62
7
  6
CONTINUOUS
 10
256.614429304
 20
259.03342407
 11
257.147829304
 21
259.03342407
  0
LINE
  5
264
100
AcDbEntity
  8
0
100
AcDbLine
 62
7
  6
CONTINUOUS
 10
261.567429304
 20
259.03342407
 11
264.031229304
 21
259.03342407
  0
LINE
  5
265
100
AcDbEntity
  8
0
100
AcDbLine
 62
7
  6
CONTINUOUS
 10
260.576829304
 20
259.7050687429
 11
261.465829304
 21
259.7050687429
  0
LINE
  5
266
100
AcDbEntity
  8
0
100
AcDbLine
 62
7
  6
CONTINUOUS
 10
68.654429304
 20
259.82082407
 11
63.853829304
 21
259.82082407
  0
LINE
  5
267
100
AcDbEntity
  8
0
100
AcDbLine
 62
7
  6
CONTINUOUS
 10
243.203229304
 20
259.82082407
 11
248.003829304
 21
259.82082407
  0
LINE
  5
268
100
AcDbEntity
  8
0
100
AcDbLine
 62
7
  6
CONTINUOUS
 10
50.391829304
 20
259.85892407
 11
50.290229304
 21
259.85892407
  0
LINE
  5
269
100
AcDbEntity
  8
0
100
AcDbLine
 62
7
  6
CONTINUOUS
 10
261.465829304
 20
259.85892407
 11
261.567429304
 21
259.85892407
  0
LINE
  5
26A
100
AcDbEntity
  8
0
100
AcDbLine
 62
7
  6
CONTINUOUS
 10
261.465829304
 20
260.43613907
 11
260.576829304
 21
260.43613907
  0
LINE
  5
26B
100
AcDbEntity
  8
0
100
AcDbLine
 62
7
  6
CONTINUOUS
 10
260.576829304
 20
266.97790907
 11
261.465829304
 21
266.97790907
  0
LINE
  5
26C
100
AcDbEntity
  8
0
100
AcDbLine
 62
7
  6
CONTINUOUS
 10
50.391829304
 20
267.55512407
 11
50.290229304
 21
267.55512407
  0
LINE
  5
26D
100
AcDbEntity
  8
0
100
AcDbLine
 62
7
  6
CONTINUOUS
 10
261.465829304
 20
267.55512407
 11
261.567429304
 21
267.55512407
  0
LINE
  5
26E
100
AcDbEntity
  8
0
100
AcDbLine
 62
7
  6
CONTINUOUS
 10
68.654429304
 20
267.59322407
 11
63.853829304
 21
267.59322407
  0
LINE
  5
26F
100
AcDbEntity
  8
0
100
AcDbLine
 62
7
  6
CONTINUOUS
 10
243.203229304
 20
267.59322407
 11
248.003829304
 21
267.59322407
  0
LINE
  5
270
100
AcDbEntity
  8
0
100
AcDbLine
 62
7
  6
CONTINUOUS
 10
261.465829304
 20
267.7089793971
 11
260.576829304
 21
267.7089793971
  0
LINE
  5
271
100
AcDbEntity
  8
0
100
AcDbLine
 62
7
  6
CONTINUOUS
 10
55.243229304
 20
268.38062407
 11
54.709829304
 21
268.38062407
  0
LINE
  5
272
100
AcDbEntity
  8
0
100
AcDbLine
 62
7
  6
CONTINUOUS
 10
51.306229304
 20
268.38062407
 11
51.280829304
 21
268.38062407
  0
LINE
  5
273
100
AcDbEntity
  8
0
100
AcDbLine
 62
7
  6
CONTINUOUS
 10
50.290229304
 20
268.38062407
 11
47.826429304
 21
268.38062407
  0
LINE
  5
274
100
AcDbEntity
  8
0
100
AcDbLine
 62
7
  6
CONTINUOUS
 10
256.614429304
 20
268.38062407
 11
257.147829304
 21
268.38062407
  0
LINE
  5
275
100
AcDbEntity
  8
0
100
AcDbLine
 62
7
  6
CONTINUOUS
 10
261.567429304
 20
268.38062407
 11
264.031229304
 21
268.38062407
  0
LINE
  5
276
100
AcDbEntity
  8
0
100
AcDbLine
 62
7
  6
CONTINUOUS
 10
260.576829304
 20
269.1441808
 11
261.465829304
 21
269.1441808
  0
LINE
  5
277
100
AcDbEntity
  8
0
100
AcDbLine
 62
7
  6
CONTINUOUS
 10
118.6665524421
 20
327.2274803349
 11
118.2116806589
 21
327.5995672904
  0
LINE
  5
278
100
AcDbEntity
  8
0
100
AcDbLine
 62
7
  6
CONTINUOUS
 10
193.990729304
 20
334.3497589435
 11
193.990729304
 21
329.4142639347
  0
LINE
  5
279
100
AcDbEntity
  8
0
100
AcDbLine
 62
7
  6
CONTINUOUS
 10
219.6416455257
 20
332.2046674907
 11
219.512965638
 21
332.0587621641
  0
LINE
  5
27A
100
AcDbEntity
  8
0
100
AcDbLine
 62
7
  6
CONTINUOUS
 10
258.773429304
 20
368.3171357486
 11
259.154429304
 21
368.6981357486
  0
LINE
  5
27B
100
AcDbEntity
  8
0
100
AcDbLine
 62
7
  6
CONTINUOUS
 10
218.6927061658
 20
327.2274803349
 11
219.147577949
 21
327.5995672904
  0
LINE
  5
27C
100
AcDbEntity
  8
0
100
AcDbLine
 62
7
  6
CONTINUOUS
 10
273.6900359554
 20
339.7569505252
 11
273.5723004635
 21
339.7085448874
  0
LINE
  5
27D
100
AcDbEntity
  8
0
100
AcDbLine
 62
7
  6
CONTINUOUS
 10
259.4236146935
 20
330.8023872625
 11
259.5413501854
 21
330.8507929003
  0
LINE
  5
27E
100
AcDbEntity
  8
0
100
AcDbLine
 62
7
  6
CONTINUOUS
 10
273.5723004635
 20
336.6194620217
 11
273.6900359554
 21
336.6678676595
  0
LINE
  5
27F
100
AcDbEntity
  8
0
100
AcDbLine
 62
7
  6
CONTINUOUS
 10
274.1760439145
 20
335.5032502014
 11
274.0583084226
 21
335.4548445636
  0
LINE
  5
280
100
AcDbEntity
  8
0
100
AcDbLine
 62
7
  6
CONTINUOUS
 10
260.0273581445
 20
329.6861754422
 11
259.9096226526
 21
329.6377698044
  0
LINE
  5
281
100
AcDbEntity
  8
0
100
AcDbLine
 62
7
  6
CONTINUOUS
 10
365.0377477301
 20
366.6365006019
 11
365.2770682873
 21
366.7257799407
  0
LINE
  5
282
100
AcDbEntity
  8
0
100
AcDbLine
 62
7
  6
CONTINUOUS
 10
365.7212011724
 20
365.5366955202
 11
365.4818806152
 21
365.4474161814
  0
LINE
  5
283
100
AcDbEntity
  8
0
100
AcDbLine
 62
7
  6
CONTINUOUS
 10
61.186829304
 20
271.70802407
 11
55.243229304
 21
271.70802407
  0
LINE
  5
284
100
AcDbEntity
  8
0
100
AcDbLine
 62
7
  6
CONTINUOUS
 10
250.670829304
 20
271.70802407
 11
256.614429304
 21
271.70802407
  0
LINE
  5
285
100
AcDbEntity
  8
0
100
AcDbLine
 62
7
  6
CONTINUOUS
 10
261.465829304
 20
272.34302407
 11
260.576829304
 21
272.34302407
  0
LINE
  5
286
100
AcDbEntity
  8
0
100
AcDbLine
 62
7
  6
CONTINUOUS
 10
50.391829304
 20
272.34302407
 11
51.280829304
 21
272.34302407
  0
LINE
  5
287
100
AcDbEntity
  8
0
100
AcDbLine
 62
7
  6
CONTINUOUS
 10
250.670829304
 20
274.7050031138
 11
253.337829304
 21
274.7050031138
  0
LINE
  5
288
100
AcDbEntity
  8
0
100
AcDbLine
 62
7
  6
CONTINUOUS
 10
250.670829304
 20
275.2974640862
 11
253.337829304
 21
275.2974640862
  0
LINE
  5
289
100
AcDbEntity
  8
0
100
AcDbLine
 62
7
  6
CONTINUOUS
 10
51.306229304
 20
276.6209124877
 11
54.709829304
 21
276.6209124877
  0
LINE
  5
28A
100
AcDbEntity
  8
0
100
AcDbLine
 62
7
  6
CONTINUOUS
 10
257.147829304
 20
276.6209124877
 11
260.551429304
 21
276.6209124877
  0
LINE
  5
28B
100
AcDbEntity
  8
0
100
AcDbLine
 62
7
  6
CONTINUOUS
 10
253.858529304
 20
277.96912407
 11
257.338329304
 21
277.96912407
  0
LINE
  5
28C
100
AcDbEntity
  8
0
100
AcDbLine
 62
7
  6
CONTINUOUS
 10
253.337829304
 20
277.98182407
 11
253.858529304
 21
277.98182407
  0
LINE
  5
28D
100
AcDbEntity
  8
0
100
AcDbLine
 62
7
  6
CONTINUOUS
 10
248.003829304
 20
280.43292407
 11
245.933729304
 21
280.43292407
  0
LINE
  5
28E
100
AcDbEntity
  8
0
100
AcDbLine
 62
7
  6
CONTINUOUS
 10
257.211329304
 20
282.0678603465
 11
257.338329304
 21
282.0678603465
  0
LINE
  5
28F
100
AcDbEntity
  8
0
100
AcDbLine
 62
7
  6
CONTINUOUS
 10
257.211329304
 20
283.3886603465
 11
257.338329304
 21
283.3886603465
  0
LINE
  5
290
100
AcDbEntity
  8
0
100
AcDbLine
 62
7
  6
CONTINUOUS
 10
257.338329304
 20
283.4690269091
 11
257.211329304
 21
283.4690269091
  0
LINE
  5
291
100
AcDbEntity
  8
0
100
AcDbLine
 62
7
  6
CONTINUOUS
 10
213.078829304
 20
320.3124833062
 11
213.078829304
 21
321.0432914797
  0
LINE
  5
292
100
AcDbEntity
  8
0
100
AcDbLine
 62
7
  6
CONTINUOUS
 10
213.129629304
 20
333.1100124841
 11
213.129629304
 21
328.1745306466
  0
LINE
  5
293
100
AcDbEntity
  8
0
100
AcDbLine
 62
7
  6
CONTINUOUS
 10
219.512965638
 20
332.0587621641
 11
219.7848249631
 21
332.6065050798
  0
LINE
  5
294
100
AcDbEntity
  8
0
100
AcDbLine
 62
7
  6
CONTINUOUS
 10
248.003829304
 20
284.97952407
 11
245.933729304
 21
284.97952407
  0
LINE
  5
295
100
AcDbEntity
  8
0
100
AcDbLine
 62
7
  6
CONTINUOUS
 10
248.003829304
 20
286.30032407
 11
245.933729304
 21
286.30032407
  0
LINE
  5
296
100
AcDbEntity
  8
0
100
AcDbLine
 62
7
  6
CONTINUOUS
 10
377.670829304
 20
286.82102407
 11
375.003829304
 21
286.82102407
  0
LINE
  5
297
100
AcDbEntity
  8
0
100
AcDbLine
 62
7
  6
CONTINUOUS
 10
253.337829304
 20
287.43062407
 11
253.858529304
 21
287.43062407
  0
LINE
  5
298
100
AcDbEntity
  8
0
100
AcDbLine
 62
7
  6
CONTINUOUS
 10
253.858529304
 20
287.44332407
 11
257.338329304
 21
287.44332407
  0
LINE
  5
299
100
AcDbEntity
  8
0
100
AcDbLine
 62
7
  6
CONTINUOUS
 10
253.337829304
 20
288.75142407
 11
253.858529304
 21
288.75142407
  0
LINE
  5
29A
100
AcDbEntity
  8
0
100
AcDbLine
 62
7
  6
CONTINUOUS
 10
253.858529304
 20
288.76412407
 11
257.338329304
 21
288.76412407
  0
LINE
  5
29B
100
AcDbEntity
  8
0
100
AcDbLine
 62
7
  6
CONTINUOUS
 10
260.551429304
 20
289.0252522056
 11
263.218429304
 21
289.0252522056
  0
LINE
  5
29C
100
AcDbEntity
  8
0
100
AcDbLine
 62
7
  6
CONTINUOUS
 10
250.670829304
 20
289.10702407
 11
248.003829304
 21
289.10702407
  0
LINE
  5
29D
100
AcDbEntity
  8
0
100
AcDbLine
 62
7
  6
CONTINUOUS
 10
61.186829304
 20
289.10702407
 11
63.853829304
 21
289.10702407
  0
LINE
  5
29E
100
AcDbEntity
  8
0
100
AcDbLine
 62
7
  6
CONTINUOUS
 10
260.551429304
 20
289.5742385495
 11
263.218429304
 21
289.5742385495
  0
LINE
  5
29F
100
AcDbEntity
  8
0
100
AcDbLine
 62
7
  6
CONTINUOUS
 10
375.003829304
 20
290.7621307348
 11
377.670829304
 21
290.7621307348
  0
LINE
  5
2A0
100
AcDbEntity
  8
0
100
AcDbLine
 62
7
  6
CONTINUOUS
 10
373.479829304
 20
294.18702407
 11
359.382829304
 21
294.18702407
  0
LINE
  5
2A1
100
AcDbEntity
  8
0
100
AcDbLine
 62
7
  6
CONTINUOUS
 10
263.739129304
 20
294.9706675895
 11
267.218929304
 21
294.9706675895
  0
LINE
  5
2A2
100
AcDbEntity
  8
0
100
AcDbLine
 62
7
  6
CONTINUOUS
 10
263.218429304
 20
294.9833675895
 11
263.739129304
 21
294.9833675895
  0
LINE
  5
2A3
100
AcDbEntity
  8
0
100
AcDbLine
 62
7
  6
CONTINUOUS
 10
359.001829304
 20
296.47302407
 11
357.935029304
 21
296.47302407
  0
LINE
  5
2A4
100
AcDbEntity
  8
0
100
AcDbLine
 62
7
  6
CONTINUOUS
 10
257.147829304
 20
297.4344675895
 11
255.814329304
 21
297.4344675895
  0
LINE
  5
2A5
100
AcDbEntity
  8
0
100
AcDbLine
 62
7
  6
CONTINUOUS
 10
187.3355336448
 20
333.8462383679
 11
187.6072305252
 21
333.2984675813
  0
LINE
  5
2A6
100
AcDbEntity
  8
0
100
AcDbLine
 62
7
  6
CONTINUOUS
 10
219.479629304
 20
333.1100256554
 11
219.479629304
 21
328.1745306466
  0
LINE
  5
2A7
100
AcDbEntity
  8
0
100
AcDbLine
 62
7
  6
CONTINUOUS
 10
364.716829304
 20
298.94952407
 11
366.113829304
 21
298.94952407
  0
LINE
  5
2A8
100
AcDbEntity
  8
0
100
AcDbLine
 62
7
  6
CONTINUOUS
 10
267.091929304
 20
299.069403866
 11
267.218929304
 21
299.069403866
  0
LINE
  5
2A9
100
AcDbEntity
  8
0
100
AcDbLine
 62
7
  6
CONTINUOUS
 10
357.935029304
 20
300.0524057621
 11
359.001829304
 21
300.0524057621
  0
LINE
  5
2AA
100
AcDbEntity
  8
0
100
AcDbLine
 62
7
  6
CONTINUOUS
 10
267.218929304
 20
300.4705704285
 11
267.091929304
 21
300.4705704285
  0
LINE
  5
2AB
100
AcDbEntity
  8
0
100
AcDbLine
 62
7
  6
CONTINUOUS
 10
356.309429304
 20
300.53702407
 11
357.833429304
 21
300.53702407
  0
LINE
  5
2AC
100
AcDbEntity
  8
0
100
AcDbLine
 62
7
  6
CONTINUOUS
 10
359.001829304
 20
300.53702407
 11
359.382829304
 21
300.53702407
  0
LINE
  5
2AD
100
AcDbEntity
  8
0
100
AcDbLine
 62
7
  6
CONTINUOUS
 10
357.935029304
 20
301.8031303046
 11
359.001829304
 21
301.8031303046
  0
LINE
  5
2AE
100
AcDbEntity
  8
0
100
AcDbLine
 62
7
  6
CONTINUOUS
 10
250.670829304
 20
301.80702407
 11
248.003829304
 21
301.80702407
  0
LINE
  5
2AF
100
AcDbEntity
  8
0
100
AcDbLine
 62
7
  6
CONTINUOUS
 10
61.186829304
 20
301.80702407
 11
63.853829304
 21
301.80702407
  0
LINE
  5
2B0
100
AcDbEntity
  8
0
100
AcDbLine
 62
7
  6
CONTINUOUS
 10
357.833429304
 20
301.85782407
 11
357.935029304
 21
301.85782407
  0
LINE
  5
2B1
100
AcDbEntity
  8
0
100
AcDbLine
 62
7
  6
CONTINUOUS
 10
257.147829304
 20
301.9810675895
 11
255.814329304
 21
301.9810675895
  0
LINE
  5
2B2
100
AcDbEntity
  8
0
100
AcDbLine
 62
7
  6
CONTINUOUS
 10
359.001829304
 20
302.61220407
 11
357.935029304
 21
302.61220407
  0
LINE
  5
2B3
100
AcDbEntity
  8
0
100
AcDbLine
 62
7
  6
CONTINUOUS
 10
359.382829304
 20
302.8830012039
 11
362.049829304
 21
302.8830012039
  0
LINE
  5
2B4
100
AcDbEntity
  8
0
100
AcDbLine
 62
7
  6
CONTINUOUS
 10
263.218429304
 20
304.4321675895
 11
263.739129304
 21
304.4321675895
  0
LINE
  5
2B5
100
AcDbEntity
  8
0
100
AcDbLine
 62
7
  6
CONTINUOUS
 10
263.739129304
 20
304.4448675895
 11
267.218929304
 21
304.4448675895
  0
LINE
  5
2B6
100
AcDbEntity
  8
0
100
AcDbLine
 62
7
  6
CONTINUOUS
 10
377.670829304
 20
308.2799174052
 11
375.003829304
 21
308.2799174052
  0
LINE
  5
2B7
100
AcDbEntity
  8
0
100
AcDbLine
 62
7
  6
CONTINUOUS
 10
263.218429304
 20
310.2364600178
 11
260.551429304
 21
310.2364600178
  0
LINE
  5
2B8
100
AcDbEntity
  8
0
100
AcDbLine
 62
7
  6
CONTINUOUS
 10
188.4276524421
 20
328.467213623
 11
187.9727806589
 21
328.8393005785
  0
LINE
  5
2B9
100
AcDbEntity
  8
0
100
AcDbLine
 62
7
  6
CONTINUOUS
 10
372.480498558
 20
359.4043502179
 11
372.4749557703
 21
359.4031231602
  0
LINE
  5
2BA
100
AcDbEntity
  8
0
100
AcDbLine
 62
7
  6
CONTINUOUS
 10
372.4753286528
 20
359.4036621514
 11
372.4801403911
 21
359.4047273475
  0
LINE
  5
2BB
100
AcDbEntity
  8
0
100
AcDbLine
 62
7
  6
CONTINUOUS
 10
357.935029304
 20
311.16184407
 11
359.001829304
 21
311.16184407
  0
LINE
  5
2BC
100
AcDbEntity
  8
0
100
AcDbLine
 62
7
  6
CONTINUOUS
 10
357.833429304
 20
311.91622407
 11
357.935029304
 21
311.91622407
  0
LINE
  5
2BD
100
AcDbEntity
  8
0
100
AcDbLine
 62
7
  6
CONTINUOUS
 10
359.001829304
 20
311.9709178354
 11
357.935029304
 21
311.9709178354
  0
LINE
  5
2BE
100
AcDbEntity
  8
0
100
AcDbLine
 62
7
  6
CONTINUOUS
 10
377.670829304
 20
312.22102407
 11
375.003829304
 21
312.22102407
  0
LINE
  5
2BF
100
AcDbEntity
  8
0
100
AcDbLine
 62
7
  6
CONTINUOUS
 10
356.309429304
 20
313.23702407
 11
357.833429304
 21
313.23702407
  0
LINE
  5
2C0
100
AcDbEntity
  8
0
100
AcDbLine
 62
7
  6
CONTINUOUS
 10
359.001829304
 20
313.23702407
 11
359.382829304
 21
313.23702407
  0
LINE
  5
2C1
100
AcDbEntity
  8
0
100
AcDbLine
 62
7
  6
CONTINUOUS
 10
357.935029304
 20
313.7216423779
 11
359.001829304
 21
313.7216423779
  0
LINE
  5
2C2
100
AcDbEntity
  8
0
100
AcDbLine
 62
7
  6
CONTINUOUS
 10
263.739129304
 20
314.3931557696
 11
267.218929304
 21
314.3931557696
  0
LINE
  5
2C3
100
AcDbEntity
  8
0
100
AcDbLine
 62
7
  6
CONTINUOUS
 10
263.218429304
 20
314.4058557696
 11
263.739129304
 21
314.4058557696
  0
LINE
  5
2C4
100
AcDbEntity
  8
0
100
AcDbLine
 62
7
  6
CONTINUOUS
 10
364.716829304
 20
314.82452407
 11
366.113829304
 21
314.82452407
  0
LINE
  5
2C5
100
AcDbEntity
  8
0
100
AcDbLine
 62
7
  6
CONTINUOUS
 10
362.049829304
 20
314.8793930364
 11
364.716829304
 21
314.8793930364
  0
LINE
  5
2C6
100
AcDbEntity
  8
0
100
AcDbLine
 62
7
  6
CONTINUOUS
 10
257.147829304
 20
316.8569557696
 11
255.814329304
 21
316.8569557696
  0
LINE
  5
2C7
100
AcDbEntity
  8
0
100
AcDbLine
 62
7
  6
CONTINUOUS
 10
359.001829304
 20
317.30102407
 11
357.935029304
 21
317.30102407
  0
LINE
  5
2C8
100
AcDbEntity
  8
0
100
AcDbLine
 62
7
  6
CONTINUOUS
 10
375.003829304
 20
318.57102407
 11
377.670829304
 21
318.57102407
  0
LINE
  5
2C9
100
AcDbEntity
  8
0
100
AcDbLine
 62
7
  6
CONTINUOUS
 10
260.551429304
 20
318.6202513573
 11
262.0702389195
 21
318.6202513573
  0
LINE
  5
2CA
100
AcDbEntity
  8
0
100
AcDbLine
 62
7
  6
CONTINUOUS
 10
373.479829304
 20
319.58702407
 11
364.716829304
 21
319.58702407
  0
LINE
  5
2CB
100
AcDbEntity
  8
0
100
AcDbLine
 62
7
  6
CONTINUOUS
 10
276.4518293041
 20
319.6037847096
 11
271.9076255391
 21
319.6037847096
  0
LINE
  5
2CC
100
AcDbEntity
  8
0
100
AcDbLine
 62
7
  6
CONTINUOUS
 10
261.6943034702
 20
319.6037847096
 11
254.861829304
 21
319.6037847096
  0
LINE
  5
2CD
100
AcDbEntity
  8
0
100
AcDbLine
 62
7
  6
CONTINUOUS
 10
250.670829304
 20
320.3124833062
 11
213.078829304
 21
320.3124833062
  0
LINE
  5
2CE
100
AcDbEntity
  8
0
100
AcDbLine
 62
7
  6
CONTINUOUS
 10
98.778829304
 20
320.3124833062
 11
61.059829304
 21
320.3124833062
  0
LINE
  5
2CF
100
AcDbEntity
  8
0
100
AcDbLine
 62
7
  6
CONTINUOUS
 10
98.778829304
 20
320.4635619004
 11
213.078829304
 21
320.4635619004
  0
LINE
  5
2D0
100
AcDbEntity
  8
0
100
AcDbLine
 62
7
  6
CONTINUOUS
 10
98.778829304
 20
321.0432914797
 11
213.078829304
 21
321.0432914797
  0
LINE
  5
2D1
100
AcDbEntity
  8
0
100
AcDbLine
 62
7
  6
CONTINUOUS
 10
346.047829304
 20
322.76202407
 11
373.479829304
 21
322.76202407
  0
LINE
  5
2D2
100
AcDbEntity
  8
0
100
AcDbLine
 62
7
  6
CONTINUOUS
 10
132.078229304
 20
346.1402601415
 11
138.428229304
 21
343.557482458
  0
LINE
  5
2D3
100
AcDbEntity
  8
0
100
AcDbLine
 62
7
  6
CONTINUOUS
 10
138.428229304
 20
346.6668257776
 11
132.078229304
 21
349.2496034612
  0
LINE
  5
2D4
100
AcDbEntity
  8
0
100
AcDbLine
 62
7
  6
CONTINUOUS
 10
213.9165524421
 20
327.2274803349
 11
213.4616806589
 21
327.5995672904
  0
LINE
  5
2D5
100
AcDbEntity
  8
0
100
AcDbLine
 62
7
  6
CONTINUOUS
 10
264.539229304
 20
267.87262407
 11
264.031229304
 21
268.38062407
  0
LINE
  5
2D6
100
AcDbEntity
  8
0
100
AcDbLine
 62
7
  6
CONTINUOUS
 10
212.8244336448
 20
332.6065050798
 11
213.0961305252
 21
332.0587342933
  0
LINE
  5
2D7
100
AcDbEntity
  8
0
100
AcDbLine
 62
7
  6
CONTINUOUS
 10
243.203229304
 20
267.5932187555
 11
243.203229304
 21
259.8208293845
  0
LINE
  5
2D8
100
AcDbEntity
  8
0
100
AcDbLine
 62
7
  6
CONTINUOUS
 10
245.933729304
 20
286.3003209322
 11
245.933729304
 21
280.4329272078
  0
LINE
  5
2D9
100
AcDbEntity
  8
0
100
AcDbLine
 62
7
  6
CONTINUOUS
 10
248.003829304
 20
301.80702407
 11
248.003829304
 21
199.57202407
  0
LINE
  5
2DA
100
AcDbEntity
  8
0
100
AcDbLine
 62
7
  6
CONTINUOUS
 10
250.670829304
 20
199.57202407
 11
250.670829304
 21
353.9908668825
  0
LINE
  5
2DB
100
AcDbEntity
  8
0
100
AcDbLine
 62
7
  6
CONTINUOUS
 10
253.1616612452
 20
337.2250798366
 11
253.1616612452
 21
338.264400987
  0
LINE
  5
2DC
100
AcDbEntity
  8
0
100
AcDbLine
 62
7
  6
CONTINUOUS
 10
253.337829304
 20
274.7051910316
 11
253.337829304
 21
319.6511320145
  0
LINE
  5
2DD
100
AcDbEntity
  8
0
100
AcDbLine
 62
7
  6
CONTINUOUS
 10
253.337829304
 20
351.4996282925
 11
253.337829304
 21
353.9908660895
  0
LINE
  5
2DE
100
AcDbEntity
  8
0
100
AcDbLine
 62
7
  6
CONTINUOUS
 10
259.1798332868
 20
333.1528187319
 11
259.5413501854
 21
335.4548445636
  0
LINE
  5
2DF
100
AcDbEntity
  8
0
100
AcDbLine
 62
7
  6
CONTINUOUS
 10
269.1678383875
 20
343.5633629328
 11
269.1190707499
 21
343.4465013856
  0
LINE
  5
2E0
100
AcDbEntity
  8
0
100
AcDbLine
 62
7
  6
CONTINUOUS
 10
269.1190707499
 20
340.3574185199
 11
269.1678383875
 21
340.4742800671
  0
LINE
  5
2E1
100
AcDbEntity
  8
0
100
AcDbLine
 62
7
  6
CONTINUOUS
 10
270.3411653937
 20
339.991879721
 11
270.2923977562
 21
339.8750181738
  0
LINE
  5
2E2
100
AcDbEntity
  8
0
100
AcDbLine
 62
7
  6
CONTINUOUS
 10
278.0185452497
 20
330.9840833493
 11
278.0011836745
 21
330.9580046864
  0
LINE
  5
2E3
100
AcDbEntity
  8
0
100
AcDbLine
 62
7
  6
CONTINUOUS
 10
372.463829304
 20
359.4794323183
 11
372.4583297631
 21
359.4782943816
  0
LINE
  5
2E4
100
AcDbEntity
  8
0
100
AcDbLine
 62
7
  6
CONTINUOUS
 10
372.459034175
 20
359.477299266
 11
372.463829304
 21
359.4781980144
  0
LINE
  5
2E5
100
AcDbEntity
  8
0
100
AcDbLine
 62
7
  6
CONTINUOUS
 10
346.047829304
 20
325.42902407
 11
373.479829304
 21
325.42902407
  0
LINE
  5
2E6
100
AcDbEntity
  8
0
100
AcDbLine
 62
7
  6
CONTINUOUS
 10
277.975829304
 20
325.7830856597
 11
273.7851812209
 21
325.7830856597
  0
LINE
  5
2E7
100
AcDbEntity
  8
0
100
AcDbLine
 62
7
  6
CONTINUOUS
 10
377.670829304
 20
326.95302407
 11
375.003829304
 21
326.95302407
  0
LINE
  5
2E8
100
AcDbEntity
  8
0
100
AcDbLine
 62
7
  6
CONTINUOUS
 10
165.733229304
 20
328.2157830178
 11
146.048229304
 21
328.2157830178
  0
LINE
  5
2E9
100
AcDbEntity
  8
0
100
AcDbLine
 62
7
  6
CONTINUOUS
 10
377.670829304
 20
328.47702407
 11
375.003829304
 21
328.47702407
  0
LINE
  5
2EA
100
AcDbEntity
  8
0
100
AcDbLine
 62
7
  6
CONTINUOUS
 10
165.733229304
 20
331.3251263375
 11
146.048229304
 21
331.3251263375
  0
LINE
  5
2EB
100
AcDbEntity
  8
0
100
AcDbLine
 62
7
  6
CONTINUOUS
 10
362.049829304
 20
331.5437323925
 11
359.382829304
 21
331.5437323925
  0
LINE
  5
2EC
100
AcDbEntity
  8
0
100
AcDbLine
 62
7
  6
CONTINUOUS
 10
51.306229304
 20
334.5382328295
 11
54.709829304
 21
334.5382328295
  0
LINE
  5
2ED
100
AcDbEntity
  8
0
100
AcDbLine
 62
7
  6
CONTINUOUS
 10
375.003829304
 20
334.82702407
 11
377.670829304
 21
334.82702407
  0
LINE
  5
2EE
100
AcDbEntity
  8
0
100
AcDbLine
 62
7
  6
CONTINUOUS
 10
253.858529304
 20
288.7641214543
 11
253.858529304
 21
277.9691266857
  0
LINE
  5
2EF
100
AcDbEntity
  8
0
100
AcDbLine
 62
7
  6
CONTINUOUS
 10
254.861829304
 20
351.4424597345
 11
254.861829304
 21
344.3169307895
  0
LINE
  5
2F0
100
AcDbEntity
  8
0
100
AcDbLine
 62
7
  6
CONTINUOUS
 10
254.861829304
 20
332.4730539206
 11
254.861829304
 21
319.6037847096
  0
LINE
  5
2F1
100
AcDbEntity
  8
0
100
AcDbLine
 62
7
  6
CONTINUOUS
 10
255.814329304
 20
319.6037847096
 11
255.814329304
 21
316.8569589074
  0
LINE
  5
2F2
100
AcDbEntity
  8
0
100
AcDbLine
 62
7
  6
CONTINUOUS
 10
255.814329304
 20
301.9810644516
 11
255.814329304
 21
297.4344707273
  0
LINE
  5
2F3
100
AcDbEntity
  8
0
100
AcDbLine
 62
7
  6
CONTINUOUS
 10
256.614429304
 20
255.7060285034
 11
256.614429304
 21
271.7080196367
  0
LINE
  5
2F4
100
AcDbEntity
  8
0
100
AcDbLine
 62
7
  6
CONTINUOUS
 10
257.147829304
 20
227.1032503136
 11
257.147829304
 21
277.96912407
  0
LINE
  5
2F5
100
AcDbEntity
  8
0
100
AcDbLine
 62
7
  6
CONTINUOUS
 10
257.147829304
 20
288.76412407
 11
257.147829304
 21
319.6037847096
  0
LINE
  5
2F6
100
AcDbEntity
  8
0
100
AcDbLine
 62
7
  6
CONTINUOUS
 10
257.211329304
 20
282.0678603465
 11
257.211329304
 21
283.4690269091
  0
LINE
  5
2F7
100
AcDbEntity
  8
0
100
AcDbLine
 62
7
  6
CONTINUOUS
 10
257.338329304
 20
277.9691274455
 11
257.338329304
 21
283.3886603465
  0
LINE
  5
2F8
100
AcDbEntity
  8
0
100
AcDbLine
 62
7
  6
CONTINUOUS
 10
257.338329304
 20
283.4690269091
 11
257.338329304
 21
288.764121023
  0
LINE
  5
2F9
100
AcDbEntity
  8
0
100
AcDbLine
 62
7
  6
CONTINUOUS
 10
258.773429304
 20
368.3171315626
 11
258.773429304
 21
353.2041399347
  0
LINE
  5
2FA
100
AcDbEntity
  8
0
100
AcDbLine
 62
7
  6
CONTINUOUS
 10
259.154429304
 20
368.6981357486
 11
259.154429304
 21
352.8231357486
  0
LINE
  5
2FB
100
AcDbEntity
  8
0
100
AcDbLine
 62
7
  6
CONTINUOUS
 10
259.179829304
 20
336.2419015977
 11
259.179829304
 21
333.1528187319
  0
LINE
  5
2FC
100
AcDbEntity
  8
0
100
AcDbLine
 62
7
  6
CONTINUOUS
 10
259.4236146934
 20
331.6004954585
 11
259.4236146934
 21
330.8023872625
  0
LINE
  5
2FD
100
AcDbEntity
  8
0
100
AcDbLine
 62
7
  6
CONTINUOUS
 10
259.4236146935
 20
335.5032502014
 11
259.4236146935
 21
338.5923330671
  0
LINE
  5
2FE
100
AcDbEntity
  8
0
100
AcDbLine
 62
7
  6
CONTINUOUS
 10
259.9096226526
 20
339.7569505252
 11
259.9096226526
 21
336.6678676595
  0
LINE
  5
2FF
100
AcDbEntity
  8
0
100
AcDbLine
 62
7
  6
CONTINUOUS
 10
259.9807452746
 20
348.9484073692
 11
259.9807452746
 21
349.9877285196
  0
LINE
  5
300
100
AcDbEntity
  8
0
100
AcDbLine
 62
7
  6
CONTINUOUS
 10
260.0273581445
 20
336.6194620217
 11
260.0273581445
 21
339.7085448874
  0
LINE
  5
301
100
AcDbEntity
  8
0
100
AcDbLine
 62
7
  6
CONTINUOUS
 10
260.132329304
 20
353.1082940445
 11
260.132329304
 21
354.0041280756
  0
LINE
  5
302
100
AcDbEntity
  8
0
100
AcDbLine
 62
7
  6
CONTINUOUS
 10
260.3840244376
 20
361.0424861176
 11
260.3840244376
 21
360.6812979575
  0
LINE
  5
303
100
AcDbEntity
  8
0
100
AcDbLine
 62
7
  6
CONTINUOUS
 10
260.551429304
 20
227.1032464229
 11
260.551429304
 21
319.6037847096
  0
LINE
  5
304
100
AcDbEntity
  8
0
100
AcDbLine
 62
7
  6
CONTINUOUS
 10
260.551429304
 20
356.1332841764
 11
260.551429304
 21
360.3837254542
  0
LINE
  5
305
100
AcDbEntity
  8
0
100
AcDbLine
 62
7
  6
CONTINUOUS
 10
260.551429304
 20
361.3400586483
 11
260.551429304
 21
374.874520916
  0
LINE
  5
306
100
AcDbEntity
  8
0
100
AcDbLine
 62
7
  6
CONTINUOUS
 10
261.465829304
 20
255.0710270791
 11
261.465829304
 21
260.43613907
  0
LINE
  5
307
100
AcDbEntity
  8
0
100
AcDbLine
 62
7
  6
CONTINUOUS
 10
261.465829304
 20
266.97790907
 11
261.465829304
 21
272.3429993799
  0
LINE
  5
308
100
AcDbEntity
  8
0
100
AcDbLine
 62
7
  6
CONTINUOUS
 10
261.567429304
 20
268.3805483584
 11
261.567429304
 21
259.0334997816
  0
LINE
  5
309
100
AcDbEntity
  8
0
100
AcDbLine
 62
7
  6
CONTINUOUS
 10
261.592829304
 20
320.4875789824
 11
261.592829304
 21
333.1528187429
  0
LINE
  5
30A
100
AcDbEntity
  8
0
100
AcDbLine
 62
7
  6
CONTINUOUS
 10
262.481829304
 20
351.4992199959
 11
262.481829304
 21
353.2009665305
  0
LINE
  5
30B
100
AcDbEntity
  8
0
100
AcDbLine
 62
7
  6
CONTINUOUS
 10
263.218429304
 20
289.0252918673
 11
263.218429304
 21
316.8751204607
  0
LINE
  5
30C
100
AcDbEntity
  8
0
100
AcDbLine
 62
7
  6
CONTINUOUS
 10
263.218429304
 20
365.9371747644
 11
263.218429304
 21
374.8745207823
  0
LINE
  5
30D
100
AcDbEntity
  8
0
100
AcDbLine
 62
7
  6
CONTINUOUS
 10
263.2584932142
 20
339.991879721
 11
263.2584932142
 21
343.0809625867
  0
LINE
  5
30E
100
AcDbEntity
  8
0
100
AcDbLine
 62
7
  6
CONTINUOUS
 10
263.5919268708
 20
366.5574923493
 11
263.5919268708
 21
366.1963041892
  0
LINE
  5
30F
100
AcDbEntity
  8
0
100
AcDbLine
 62
7
  6
CONTINUOUS
 10
263.624829304
 20
359.7663412682
 11
263.624829304
 21
360.6476958163
  0
LINE
  5
310
100
AcDbEntity
  8
0
100
AcDbLine
 62
7
  6
CONTINUOUS
 10
263.739129304
 20
316.4637137173
 11
263.739129304
 21
314.3931583853
  0
LINE
  5
311
100
AcDbEntity
  8
0
100
AcDbLine
 62
7
  6
CONTINUOUS
 10
263.739129304
 20
304.4448649738
 11
263.739129304
 21
294.9706702051
  0
LINE
  5
312
100
AcDbEntity
  8
0
100
AcDbLine
 62
7
  6
CONTINUOUS
 10
264.031229304
 20
259.03342407
 11
264.031229304
 21
268.38062407
  0
LINE
  5
313
100
AcDbEntity
  8
0
100
AcDbLine
 62
7
  6
CONTINUOUS
 10
264.4318202205
 20
343.5633629328
 11
264.4318202205
 21
340.4742800671
  0
LINE
  5
314
100
AcDbEntity
  8
0
100
AcDbLine
 62
7
  6
CONTINUOUS
 10
264.480587858
 20
340.3574185199
 11
264.480587858
 21
343.4465013856
  0
LINE
  5
315
100
AcDbEntity
  8
0
100
AcDbLine
 62
7
  6
CONTINUOUS
 10
264.539229304
 20
259.5414298785
 11
264.539229304
 21
267.8726182615
  0
LINE
  5
316
100
AcDbEntity
  8
0
100
AcDbLine
 62
7
  6
CONTINUOUS
 10
277.975829304
 20
331.0120290708
 11
277.9613160018
 21
330.9842202403
  0
LINE
  5
317
100
AcDbEntity
  8
0
100
AcDbLine
 62
7
  6
CONTINUOUS
 10
362.303829304
 20
377.02912407
 11
362.684829304
 21
377.41012407
  0
LINE
  5
318
100
AcDbEntity
  8
0
100
AcDbLine
 62
7
  6
CONTINUOUS
 10
54.709829304
 20
340.3392464855
 11
51.306229304
 21
340.3392464855
  0
LINE
  5
319
100
AcDbEntity
  8
0
100
AcDbLine
 62
7
  6
CONTINUOUS
 10
359.382829304
 20
340.59282407
 11
362.049829304
 21
340.59282407
  0
LINE
  5
31A
100
AcDbEntity
  8
0
100
AcDbLine
 62
7
  6
CONTINUOUS
 10
61.059829304
 20
346.1402601415
 11
132.078229304
 21
346.1402601415
  0
LINE
  5
31B
100
AcDbEntity
  8
0
100
AcDbLine
 62
7
  6
CONTINUOUS
 10
179.703229304
 20
346.1402601415
 11
250.670829304
 21
346.1402601415
  0
LINE
  5
31C
100
AcDbEntity
  8
0
100
AcDbLine
 62
7
  6
CONTINUOUS
 10
134.618229304
 20
348.2164923878
 11
177.163229304
 21
348.2164923878
  0
LINE
  5
31D
100
AcDbEntity
  8
0
100
AcDbLine
 62
7
  6
CONTINUOUS
 10
373.987829304
 20
348.5897136339
 11
372.463829304
 21
348.5897136339
  0
LINE
  5
31E
100
AcDbEntity
  8
0
100
AcDbLine
 62
7
  6
CONTINUOUS
 10
61.059829304
 20
349.2496034612
 11
132.078229304
 21
349.2496034612
  0
LINE
  5
31F
100
AcDbEntity
  8
0
100
AcDbLine
 62
7
  6
CONTINUOUS
 10
179.703229304
 20
349.2496034612
 11
250.670829304
 21
349.2496034612
  0
LINE
  5
320
100
AcDbEntity
  8
0
100
AcDbLine
 62
7
  6
CONTINUOUS
 10
144.4548138781
 20
337.2851100019
 11
166.7969750991
 21
337.0153923946
  0
LINE
  5
321
100
AcDbEntity
  8
0
100
AcDbLine
 62
7
  6
CONTINUOUS
 10
167.4959943369
 20
341.0268942507
 11
145.1538331159
 21
341.296611858
  0
LINE
  5
322
100
AcDbEntity
  8
0
100
AcDbLine
 62
7
  6
CONTINUOUS
 10
145.2090228999
 20
341.6915489085
 11
167.5511841209
 21
341.4218313012
  0
LINE
  5
323
100
AcDbEntity
  8
0
100
AcDbLine
 62
7
  6
CONTINUOUS
 10
170.7108752951
 20
342.934036114
 11
173.353229304
 21
342.9021372572
  0
LINE
  5
324
100
AcDbEntity
  8
0
100
AcDbLine
 62
7
  6
CONTINUOUS
 10
138.428229304
 20
344.19815346
 11
142.0852596956
 21
344.154005292
  0
LINE
  5
325
100
AcDbEntity
  8
0
100
AcDbLine
 62
7
  6
CONTINUOUS
 10
259.5413501854
 20
330.8507929003
 11
259.1798332868
 21
333.1528187319
  0
LINE
  5
326
100
AcDbEntity
  8
0
100
AcDbLine
 62
7
  6
CONTINUOUS
 10
266.799829304
 20
353.6146252426
 11
266.799829304
 21
352.5753040922
  0
LINE
  5
327
100
AcDbEntity
  8
0
100
AcDbLine
 62
7
  6
CONTINUOUS
 10
267.091929304
 20
299.069403866
 11
267.091929304
 21
300.4705704285
  0
LINE
  5
328
100
AcDbEntity
  8
0
100
AcDbLine
 62
7
  6
CONTINUOUS
 10
267.218929304
 20
294.970670965
 11
267.218929304
 21
299.069403866
  0
LINE
  5
329
100
AcDbEntity
  8
0
100
AcDbLine
 62
7
  6
CONTINUOUS
 10
267.218929304
 20
300.4705704285
 11
267.218929304
 21
304.4448645424
  0
LINE
  5
32A
100
AcDbEntity
  8
0
100
AcDbLine
 62
7
  6
CONTINUOUS
 10
267.218929304
 20
314.3931591451
 11
267.218929304
 21
315.4148316774
  0
LINE
  5
32B
100
AcDbEntity
  8
0
100
AcDbLine
 62
7
  6
CONTINUOUS
 10
269.1190707499
 20
343.4465013856
 11
269.1190707499
 21
340.3574185199
  0
LINE
  5
32C
100
AcDbEntity
  8
0
100
AcDbLine
 62
7
  6
CONTINUOUS
 10
269.1678383875
 20
340.4742800671
 11
269.1678383875
 21
343.5633629328
  0
LINE
  5
32D
100
AcDbEntity
  8
0
100
AcDbLine
 62
7
  6
CONTINUOUS
 10
269.974829304
 20
359.7663412682
 11
269.974829304
 21
360.6476958163
  0
LINE
  5
32E
100
AcDbEntity
  8
0
100
AcDbLine
 62
7
  6
CONTINUOUS
 10
270.0077317372
 20
366.5574923493
 11
270.0077317372
 21
366.1963041892
  0
LINE
  5
32F
100
AcDbEntity
  8
0
100
AcDbLine
 62
7
  6
CONTINUOUS
 10
270.3411653937
 20
343.0809625867
 11
270.3411653937
 21
339.991879721
  0
LINE
  5
330
100
AcDbEntity
  8
0
100
AcDbLine
 62
7
  6
CONTINUOUS
 10
270.711429304
 20
365.3877881304
 11
270.711429304
 21
365.5485306352
  0
LINE
  5
331
100
AcDbEntity
  8
0
100
AcDbLine
 62
7
  6
CONTINUOUS
 10
271.117829304
 20
351.4982535426
 11
271.117829304
 21
353.2009665305
  0
LINE
  5
332
100
AcDbEntity
  8
0
100
AcDbLine
 62
7
  6
CONTINUOUS
 10
271.498829304
 20
351.1181060336
 11
271.498829304
 21
350.8792241073
  0
LINE
  5
333
100
AcDbEntity
  8
0
100
AcDbLine
 62
7
  6
CONTINUOUS
 10
271.498829304
 20
351.3188964198
 11
271.498829304
 21
351.4424597345
  0
LINE
  5
334
100
AcDbEntity
  8
0
100
AcDbLine
 62
7
  6
CONTINUOUS
 10
272.006829304
 20
320.4875789824
 11
272.006829304
 21
333.1528187209
  0
LINE
  5
335
100
AcDbEntity
  8
0
100
AcDbLine
 62
7
  6
CONTINUOUS
 10
273.2156341704
 20
361.0424861176
 11
273.2156341704
 21
360.6812979575
  0
LINE
  5
336
100
AcDbEntity
  8
0
100
AcDbLine
 62
7
  6
CONTINUOUS
 10
273.467329304
 20
353.1082940445
 11
273.467329304
 21
354.0041280756
  0
LINE
  5
337
100
AcDbEntity
  8
0
100
AcDbLine
 62
7
  6
CONTINUOUS
 10
273.5723004635
 20
339.7085448874
 11
273.5723004635
 21
336.6194620217
  0
LINE
  5
338
100
AcDbEntity
  8
0
100
AcDbLine
 62
7
  6
CONTINUOUS
 10
273.6189133334
 20
348.9484073692
 11
273.6189133334
 21
349.9877285196
  0
LINE
  5
339
100
AcDbEntity
  8
0
100
AcDbLine
 62
7
  6
CONTINUOUS
 10
273.6900359554
 20
336.6678676595
 11
273.6900359554
 21
339.7569505252
  0
LINE
  5
33A
100
AcDbEntity
  8
0
100
AcDbLine
 62
7
  6
CONTINUOUS
 10
274.1760439145
 20
338.5923330671
 11
274.1760439145
 21
335.5032502014
  0
LINE
  5
33B
100
AcDbEntity
  8
0
100
AcDbLine
 62
7
  6
CONTINUOUS
 10
274.419829304
 20
336.2419015977
 11
274.419829304
 21
333.1528187319
  0
LINE
  5
33C
100
AcDbEntity
  8
0
100
AcDbLine
 62
7
  6
CONTINUOUS
 10
274.719549304
 20
336.7122615678
 11
274.719549304
 21
337.6639428793
  0
LINE
  5
33D
100
AcDbEntity
  8
0
100
AcDbLine
 62
7
  6
CONTINUOUS
 10
276.451829304
 20
350.9945427189
 11
276.451829304
 21
351.3188964198
  0
LINE
  5
33E
100
AcDbEntity
  8
0
100
AcDbLine
 62
7
  6
CONTINUOUS
 10
277.975829304
 20
321.1164721331
 11
277.975829304
 21
330.9766458139
  0
LINE
  5
33F
100
AcDbEntity
  8
0
100
AcDbLine
 62
7
  6
CONTINUOUS
 10
277.975829304
 20
345.8009825647
 11
277.975829304
 21
349.4818552954
  0
LINE
  5
340
100
AcDbEntity
  8
0
100
AcDbLine
 62
7
  6
CONTINUOUS
 10
278.610829304
 20
346.8461589359
 11
278.610829304
 21
345.074024607
  0
LINE
  5
341
100
AcDbEntity
  8
0
100
AcDbLine
 62
7
  6
CONTINUOUS
 10
274.4198253212
 20
333.1528187319
 11
274.0583084226
 21
330.8507929003
  0
LINE
  5
342
100
AcDbEntity
  8
0
100
AcDbLine
 62
7
  6
CONTINUOUS
 10
264.539229304
 20
259.54142407
 11
264.031229304
 21
259.03342407
  0
LINE
  5
343
100
AcDbEntity
  8
0
100
AcDbLine
 62
7
  6
CONTINUOUS
 10
253.3574336591
 20
351.4996282925
 11
253.3025218922
 21
351.4986180165
  0
LINE
  5
344
100
AcDbEntity
  8
0
100
AcDbLine
 62
7
  6
CONTINUOUS
 10
253.3025218922
 20
351.4986180165
 11
252.9986460327
 21
351.4955562403
  0
LINE
  5
345
100
AcDbEntity
  8
0
100
AcDbLine
 62
7
  6
CONTINUOUS
 10
364.716829304
 20
349.7193859935
 11
362.049829304
 21
349.7193859935
  0
LINE
  5
346
100
AcDbEntity
  8
0
100
AcDbLine
 62
7
  6
CONTINUOUS
 10
371.930429304
 20
350.2218284569
 11
372.463829304
 21
350.2218284569
  0
LINE
  5
347
100
AcDbEntity
  8
0
100
AcDbLine
 62
7
  6
CONTINUOUS
 10
182.2772693754
 20
350.3048573039
 11
112.3965096512
 21
350.3048573039
  0
LINE
  5
348
100
AcDbEntity
  8
0
100
AcDbLine
 62
7
  6
CONTINUOUS
 10
370.825529304
 20
350.3080818823
 11
371.930429304
 21
350.3080818823
  0
LINE
  5
349
100
AcDbEntity
  8
0
100
AcDbLine
 62
7
  6
CONTINUOUS
 10
371.930429304
 20
350.4354481473
 11
372.463829304
 21
350.4354481473
  0
LINE
  5
34A
100
AcDbEntity
  8
0
100
AcDbLine
 62
7
  6
CONTINUOUS
 10
372.463829304
 20
350.5195028127
 11
373.987829304
 21
350.5195028127
  0
LINE
  5
34B
100
AcDbEntity
  8
0
100
AcDbLine
 62
7
  6
CONTINUOUS
 10
371.930429304
 20
350.7270529228
 11
372.463829304
 21
350.7270529228
  0
LINE
  5
34C
100
AcDbEntity
  8
0
100
AcDbLine
 62
7
  6
CONTINUOUS
 10
271.498829304
 20
350.9945427189
 11
276.451829304
 21
350.9945427189
  0
LINE
  5
34D
100
AcDbEntity
  8
0
100
AcDbLine
 62
7
  6
CONTINUOUS
 10
254.861829304
 20
351.1181060336
 11
262.9550536421
 21
351.1181060336
  0
LINE
  5
34E
100
AcDbEntity
  8
0
100
AcDbLine
 62
7
  6
CONTINUOUS
 10
270.6421597348
 20
351.1181060336
 11
271.498829304
 21
351.1181060336
  0
LINE
  5
34F
100
AcDbEntity
  8
0
100
AcDbLine
 62
7
  6
CONTINUOUS
 10
276.451829304
 20
351.3188964198
 11
271.498829304
 21
351.3188964198
  0
LINE
  5
350
100
AcDbEntity
  8
0
100
AcDbLine
 62
7
  6
CONTINUOUS
 10
371.930429304
 20
351.3353903325
 11
372.463829304
 21
351.3353903325
  0
LINE
  5
351
100
AcDbEntity
  8
0
100
AcDbLine
 62
7
  6
CONTINUOUS
 10
254.861829304
 20
351.4424597345
 11
264.120753069
 21
351.4424597345
  0
LINE
  5
352
100
AcDbEntity
  8
0
100
AcDbLine
 62
7
  6
CONTINUOUS
 10
269.4789744339
 20
351.4424597345
 11
271.498829304
 21
351.4424597345
  0
LINE
  5
353
100
AcDbEntity
  8
0
100
AcDbLine
 62
7
  6
CONTINUOUS
 10
250.670829304
 20
351.4954617054
 11
252.9986460327
 21
351.4955562403
  0
LINE
  5
354
100
AcDbEntity
  8
0
100
AcDbLine
 62
7
  6
CONTINUOUS
 10
371.930429304
 20
351.8742056998
 11
372.463829304
 21
351.8742056998
  0
LINE
  5
355
100
AcDbEntity
  8
0
100
AcDbLine
 62
7
  6
CONTINUOUS
 10
377.670829304
 20
352.5305818823
 11
378.280429304
 21
352.5305818823
  0
LINE
  5
356
100
AcDbEntity
  8
0
100
AcDbLine
 62
7
  6
CONTINUOUS
 10
371.930429304
 20
352.735134649
 11
372.463829304
 21
352.735134649
  0
LINE
  5
357
100
AcDbEntity
  8
0
100
AcDbLine
 62
7
  6
CONTINUOUS
 10
371.930429304
 20
352.7846469728
 11
372.463829304
 21
352.7846469728
  0
LINE
  5
358
100
AcDbEntity
  8
0
100
AcDbLine
 62
7
  6
CONTINUOUS
 10
259.154429304
 20
352.8231357486
 11
260.1528849696
 21
352.8231357486
  0
LINE
  5
359
100
AcDbEntity
  8
0
100
AcDbLine
 62
7
  6
CONTINUOUS
 10
362.049829304
 20
352.91182407
 11
359.382829304
 21
352.91182407
  0
LINE
  5
35A
100
AcDbEntity
  8
0
100
AcDbLine
 62
7
  6
CONTINUOUS
 10
371.930429304
 20
353.4886431766
 11
372.463829304
 21
353.4886431766
  0
LINE
  5
35B
100
AcDbEntity
  8
0
100
AcDbLine
 62
7
  6
CONTINUOUS
 10
354.366329304
 20
353.54682407
 11
362.049829304
 21
353.54682407
  0
LINE
  5
35C
100
AcDbEntity
  8
0
100
AcDbLine
 62
7
  6
CONTINUOUS
 10
253.337829304
 20
353.9893556872
 11
250.670829304
 21
353.9893556872
  0
LINE
  5
35D
100
AcDbEntity
  8
0
100
AcDbLine
 62
7
  6
CONTINUOUS
 10
250.670829304
 20
353.9911855474
 11
253.337829304
 21
353.9911855474
  0
LINE
  5
35E
100
AcDbEntity
  8
0
100
AcDbLine
 62
7
  6
CONTINUOUS
 10
371.930429304
 20
354.1680783433
 11
372.463829304
 21
354.1680783433
  0
LINE
  5
35F
100
AcDbEntity
  8
0
100
AcDbLine
 62
7
  6
CONTINUOUS
 10
369.276129304
 20
354.2450818823
 11
370.812829304
 21
354.2450818823
  0
LINE
  5
360
100
AcDbEntity
  8
0
100
AcDbLine
 62
7
  6
CONTINUOUS
 10
371.930429304
 20
354.5625818823
 11
372.463829304
 21
354.5625818823
  0
LINE
  5
361
100
AcDbEntity
  8
0
100
AcDbLine
 62
7
  6
CONTINUOUS
 10
371.930429304
 20
355.3245818823
 11
372.463829304
 21
355.3245818823
  0
LINE
  5
362
100
AcDbEntity
  8
0
100
AcDbLine
 62
7
  6
CONTINUOUS
 10
364.716829304
 20
355.3590714131
 11
362.049829304
 21
355.3590714131
  0
LINE
  5
363
100
AcDbEntity
  8
0
100
AcDbLine
 62
7
  6
CONTINUOUS
 10
370.812829304
 20
355.6420818823
 11
369.276129304
 21
355.6420818823
  0
LINE
  5
364
100
AcDbEntity
  8
0
100
AcDbLine
 62
7
  6
CONTINUOUS
 10
371.930429304
 20
355.7190854214
 11
372.463829304
 21
355.7190854214
  0
LINE
  5
365
100
AcDbEntity
  8
0
100
AcDbLine
 62
7
  6
CONTINUOUS
 10
371.930429304
 20
356.398520588
 11
372.463829304
 21
356.398520588
  0
LINE
  5
366
100
AcDbEntity
  8
0
100
AcDbLine
 62
7
  6
CONTINUOUS
 10
371.930429304
 20
357.1025167918
 11
372.463829304
 21
357.1025167918
  0
LINE
  5
367
100
AcDbEntity
  8
0
100
AcDbLine
 62
7
  6
CONTINUOUS
 10
371.930429304
 20
357.1520291156
 11
372.463829304
 21
357.1520291156
  0
LINE
  5
368
100
AcDbEntity
  8
0
100
AcDbLine
 62
7
  6
CONTINUOUS
 10
377.670829304
 20
357.3565818823
 11
378.280429304
 21
357.3565818823
  0
LINE
  5
369
100
AcDbEntity
  8
0
100
AcDbLine
 62
7
  6
CONTINUOUS
 10
371.930429304
 20
358.0129580649
 11
372.463829304
 21
358.0129580649
  0
LINE
  5
36A
100
AcDbEntity
  8
0
100
AcDbLine
 62
7
  6
CONTINUOUS
 10
371.930429304
 20
358.5517734321
 11
372.463829304
 21
358.5517734321
  0
LINE
  5
36B
100
AcDbEntity
  8
0
100
AcDbLine
 62
7
  6
CONTINUOUS
 10
371.930429304
 20
359.1601108419
 11
372.463829304
 21
359.1601108419
  0
LINE
  5
36C
100
AcDbEntity
  8
0
100
AcDbLine
 62
7
  6
CONTINUOUS
 10
371.930429304
 20
359.4517156173
 11
372.463829304
 21
359.4517156173
  0
LINE
  5
36D
100
AcDbEntity
  8
0
100
AcDbLine
 62
7
  6
CONTINUOUS
 10
370.825529304
 20
359.5790818823
 11
371.930429304
 21
359.5790818823
  0
LINE
  5
36E
100
AcDbEntity
  8
0
100
AcDbLine
 62
7
  6
CONTINUOUS
 10
371.930429304
 20
359.6653353077
 11
372.463829304
 21
359.6653353077
  0
LINE
  5
36F
100
AcDbEntity
  8
0
100
AcDbLine
 62
7
  6
CONTINUOUS
 10
371.701829304
 20
361.0681018298
 11
370.939829304
 21
361.0681018298
  0
LINE
  5
370
100
AcDbEntity
  8
0
100
AcDbLine
 62
7
  6
CONTINUOUS
 10
354.366329304
 20
361.16682407
 11
362.049829304
 21
361.16682407
  0
LINE
  5
371
100
AcDbEntity
  8
0
100
AcDbLine
 62
7
  6
CONTINUOUS
 10
371.701829304
 20
361.5113254379
 11
370.939829304
 21
361.5113254379
  0
LINE
  5
372
100
AcDbEntity
  8
0
100
AcDbLine
 62
7
  6
CONTINUOUS
 10
362.684829304
 20
361.53512407
 11
364.081829304
 21
361.53512407
  0
LINE
  5
373
100
AcDbEntity
  8
0
100
AcDbLine
 62
7
  6
CONTINUOUS
 10
359.382829304
 20
361.80182407
 11
362.049829304
 21
361.80182407
  0
LINE
  5
374
100
AcDbEntity
  8
0
100
AcDbLine
 62
7
  6
CONTINUOUS
 10
146.6645323786
 20
352.3457956918
 11
165.9600352512
 21
352.1128577583
  0
LINE
  5
375
100
AcDbEntity
  8
0
100
AcDbLine
 62
7
  6
CONTINUOUS
 10
273.6900359554
 20
329.6377698044
 11
273.5723004635
 21
329.6861754422
  0
LINE
  5
376
100
AcDbEntity
  8
0
100
AcDbLine
 62
7
  6
CONTINUOUS
 10
259.5413501854
 20
335.4548445636
 11
259.4236146935
 21
335.5032502014
  0
LINE
  5
377
100
AcDbEntity
  8
0
100
AcDbLine
 62
7
  6
CONTINUOUS
 10
259.9096226526
 20
336.6678676595
 11
260.0273581445
 21
336.6194620217
  0
LINE
  5
378
100
AcDbEntity
  8
0
100
AcDbLine
 62
7
  6
CONTINUOUS
 10
274.0583084226
 20
330.8507929003
 11
274.1760439145
 21
330.8023872625
  0
LINE
  5
379
100
AcDbEntity
  8
0
100
AcDbLine
 62
7
  6
CONTINUOUS
 10
260.0273581445
 20
339.7085448874
 11
259.9096226526
 21
339.7569505252
  0
LINE
  5
37A
100
AcDbEntity
  8
0
100
AcDbLine
 62
7
  6
CONTINUOUS
 10
263.3072608517
 20
339.8750181738
 11
263.2584932142
 21
339.991879721
  0
LINE
  5
37B
100
AcDbEntity
  8
0
100
AcDbLine
 62
7
  6
CONTINUOUS
 10
264.4318202205
 20
340.4742800671
 11
264.480587858
 21
340.3574185199
  0
LINE
  5
37C
100
AcDbEntity
  8
0
100
AcDbLine
 62
7
  6
CONTINUOUS
 10
264.480587858
 20
343.4465013856
 11
264.4318202205
 21
343.5633629328
  0
LINE
  5
37D
100
AcDbEntity
  8
0
100
AcDbLine
 62
7
  6
CONTINUOUS
 10
280.4379973628
 20
337.2250798366
 11
280.4379973628
 21
338.264400987
  0
LINE
  5
37E
100
AcDbEntity
  8
0
100
AcDbLine
 62
7
  6
CONTINUOUS
 10
373.987829304
 20
386.6781088886
 11
374.949636915
 21
387.9040243785
  0
LINE
  5
37F
100
AcDbEntity
  8
0
100
AcDbLine
 62
7
  6
CONTINUOUS
 10
362.049829304
 20
365.61182407
 11
359.382829304
 21
365.61182407
  0
LINE
  5
380
100
AcDbEntity
  8
0
100
AcDbLine
 62
7
  6
CONTINUOUS
 10
354.366329304
 20
366.24682407
 11
362.049829304
 21
366.24682407
  0
LINE
  5
381
100
AcDbEntity
  8
0
100
AcDbLine
 62
7
  6
CONTINUOUS
 10
263.218429304
 20
366.3105357486
 11
263.4432325702
 21
366.3105357486
  0
LINE
  5
382
100
AcDbEntity
  8
0
100
AcDbLine
 62
7
  6
CONTINUOUS
 10
259.154429304
 20
368.6981357486
 11
260.551429304
 21
368.6981357486
  0
LINE
  5
383
100
AcDbEntity
  8
0
100
AcDbLine
 62
7
  6
CONTINUOUS
 10
263.218429304
 20
371.1073381276
 11
260.551429304
 21
371.1073381276
  0
LINE
  5
384
100
AcDbEntity
  8
0
100
AcDbLine
 62
7
  6
CONTINUOUS
 10
354.366329304
 20
373.86682407
 11
362.049829304
 21
373.86682407
  0
LINE
  5
385
100
AcDbEntity
  8
0
100
AcDbLine
 62
7
  6
CONTINUOUS
 10
260.551429304
 20
374.8745604441
 11
263.218429304
 21
374.8745604441
  0
LINE
  5
386
100
AcDbEntity
  8
0
100
AcDbLine
 62
7
  6
CONTINUOUS
 10
366.748829304
 20
375.02252407
 11
367.1715197761
 21
375.02252407
  0
LINE
  5
387
100
AcDbEntity
  8
0
100
AcDbLine
 62
7
  6
CONTINUOUS
 10
258.773429304
 20
353.2041357486
 11
259.154429304
 21
352.8231357486
  0
LINE
  5
388
100
AcDbEntity
  8
0
100
AcDbLine
 62
7
  6
CONTINUOUS
 10
274.0583084226
 20
335.4548445636
 11
274.4198253212
 21
333.1528187319
  0
LINE
  5
389
100
AcDbEntity
  8
0
100
AcDbLine
 62
7
  6
CONTINUOUS
 10
355.547429304
 20
312.47502407
 11
356.309429304
 21
313.23702407
  0
LINE
  5
38A
100
AcDbEntity
  8
0
100
AcDbLine
 62
7
  6
CONTINUOUS
 10
371.930429304
 20
376.7199173388
 11
372.463829304
 21
376.7199173388
  0
LINE
  5
38B
100
AcDbEntity
  8
0
100
AcDbLine
 62
7
  6
CONTINUOUS
 10
371.930429304
 20
377.2587327061
 11
372.463829304
 21
377.2587327061
  0
LINE
  5
38C
100
AcDbEntity
  8
0
100
AcDbLine
 62
7
  6
CONTINUOUS
 10
362.684829304
 20
377.41012407
 11
364.081829304
 21
377.41012407
  0
LINE
  5
38D
100
AcDbEntity
  8
0
100
AcDbLine
 62
7
  6
CONTINUOUS
 10
377.670829304
 20
377.9151088886
 11
378.280429304
 21
377.9151088886
  0
LINE
  5
38E
100
AcDbEntity
  8
0
100
AcDbLine
 62
7
  6
CONTINUOUS
 10
371.930429304
 20
378.1196616553
 11
372.463829304
 21
378.1196616553
  0
LINE
  5
38F
100
AcDbEntity
  8
0
100
AcDbLine
 62
7
  6
CONTINUOUS
 10
371.930429304
 20
378.1691739791
 11
372.463829304
 21
378.1691739791
  0
LINE
  5
390
100
AcDbEntity
  8
0
100
AcDbLine
 62
7
  6
CONTINUOUS
 10
371.930429304
 20
378.8731701829
 11
372.463829304
 21
378.8731701829
  0
LINE
  5
391
100
AcDbEntity
  8
0
100
AcDbLine
 62
7
  6
CONTINUOUS
 10
371.930429304
 20
379.5526053496
 11
372.463829304
 21
379.5526053496
  0
LINE
  5
392
100
AcDbEntity
  8
0
100
AcDbLine
 62
7
  6
CONTINUOUS
 10
369.276129304
 20
379.6296088886
 11
370.812829304
 21
379.6296088886
  0
LINE
  5
393
100
AcDbEntity
  8
0
100
AcDbLine
 62
7
  6
CONTINUOUS
 10
371.930429304
 20
379.9471088886
 11
372.463829304
 21
379.9471088886
  0
LINE
  5
394
100
AcDbEntity
  8
0
100
AcDbLine
 62
7
  6
CONTINUOUS
 10
364.081829304
 20
380.64862407
 11
366.748829304
 21
380.64862407
  0
LINE
  5
395
100
AcDbEntity
  8
0
100
AcDbLine
 62
7
  6
CONTINUOUS
 10
371.930429304
 20
380.7091088886
 11
372.463829304
 21
380.7091088886
  0
LINE
  5
396
100
AcDbEntity
  8
0
100
AcDbLine
 62
7
  6
CONTINUOUS
 10
370.812829304
 20
381.0266088886
 11
369.276129304
 21
381.0266088886
  0
LINE
  5
397
100
AcDbEntity
  8
0
100
AcDbLine
 62
7
  6
CONTINUOUS
 10
371.930429304
 20
381.1036124276
 11
372.463829304
 21
381.1036124276
  0
LINE
  5
398
100
AcDbEntity
  8
0
100
AcDbLine
 62
7
  6
CONTINUOUS
 10
371.930429304
 20
381.7830475943
 11
372.463829304
 21
381.7830475943
  0
LINE
  5
399
100
AcDbEntity
  8
0
100
AcDbLine
 62
7
  6
CONTINUOUS
 10
371.930429304
 20
382.4870437981
 11
372.463829304
 21
382.4870437981
  0
LINE
  5
39A
100
AcDbEntity
  8
0
100
AcDbLine
 62
7
  6
CONTINUOUS
 10
371.930429304
 20
382.5365561219
 11
372.463829304
 21
382.5365561219
  0
LINE
  5
39B
100
AcDbEntity
  8
0
100
AcDbLine
 62
7
  6
CONTINUOUS
 10
377.670829304
 20
382.7411088886
 11
378.280429304
 21
382.7411088886
  0
LINE
  5
39C
100
AcDbEntity
  8
0
100
AcDbLine
 62
7
  6
CONTINUOUS
 10
371.930429304
 20
383.3974850711
 11
372.463829304
 21
383.3974850711
  0
LINE
  5
39D
100
AcDbEntity
  8
0
100
AcDbLine
 62
7
  6
CONTINUOUS
 10
371.930429304
 20
383.9363004384
 11
372.463829304
 21
383.9363004384
  0
LINE
  5
39E
100
AcDbEntity
  8
0
100
AcDbLine
 62
7
  6
CONTINUOUS
 10
371.930429304
 20
384.5446378481
 11
372.463829304
 21
384.5446378481
  0
LINE
  5
39F
100
AcDbEntity
  8
0
100
AcDbLine
 62
7
  6
CONTINUOUS
 10
371.930429304
 20
384.8362426236
 11
372.463829304
 21
384.8362426236
  0
LINE
  5
3A0
100
AcDbEntity
  8
0
100
AcDbLine
 62
7
  6
CONTINUOUS
 10
370.825529304
 20
384.9636088886
 11
371.930429304
 21
384.9636088886
  0
LINE
  5
3A1
100
AcDbEntity
  8
0
100
AcDbLine
 62
7
  6
CONTINUOUS
 10
371.930429304
 20
385.049862314
 11
372.463829304
 21
385.049862314
  0
LINE
  5
3A2
100
AcDbEntity
  8
0
100
AcDbLine
 62
7
  6
CONTINUOUS
 10
373.987829304
 20
385.1954115663
 11
372.463829304
 21
385.1954115663
  0
LINE
  5
3A3
100
AcDbEntity
  8
0
100
AcDbLine
 62
7
  6
CONTINUOUS
 10
373.987829304
 20
386.681977137
 11
372.463829304
 21
386.681977137
  0
LINE
  5
3A4
100
AcDbEntity
  8
0
100
AcDbLine
 62
7
  6
CONTINUOUS
 10
270.711429304
 20
365.5485357486
 11
270.4696674798
 21
365.7902975728
  0
LINE
  5
3A5
100
AcDbEntity
  8
0
100
AcDbLine
 62
7
  6
CONTINUOUS
 10
278.0156356664
 20
345.8102810985
 11
278.0072525929
 21
345.8228790552
  0
LINE
  5
3A6
100
AcDbEntity
  8
0
100
AcDbLine
 62
7
  6
CONTINUOUS
 10
278.0192753998
 20
346.1754915404
 11
278.029913738
 21
346.1594424185
  0
LINE
  5
3A7
100
AcDbEntity
  8
0
100
AcDbLine
 62
7
  6
CONTINUOUS
 10
277.975829304
 20
346.1470742517
 11
277.9847477939
 21
346.1299927273
  0
LINE
  5
3A8
100
AcDbEntity
  8
0
100
AcDbLine
 62
7
  6
CONTINUOUS
 10
277.9733939642
 20
345.7826219757
 11
277.9663842513
 21
345.7960532347
  0
LINE
  5
3A9
100
AcDbEntity
  8
0
100
AcDbLine
 62
7
  6
CONTINUOUS
 10
340.967829304
 20
394.77102407
 11
373.479829304
 21
394.77102407
  0
LINE
  5
3AA
100
AcDbEntity
  8
0
100
AcDbLine
 62
7
  6
CONTINUOUS
 10
340.967829304
 20
397.43802407
 11
373.479829304
 21
397.43802407
  0
LINE
  5
3AB
100
AcDbEntity
  8
0
100
AcDbLine
 62
7
  6
CONTINUOUS
 10
355.547429304
 20
301.29902407
 11
356.309429304
 21
300.53702407
  0
LINE
  5
3AC
100
AcDbEntity
  8
0
100
AcDbLine
 62
7
  6
CONTINUOUS
 10
367.8450026395
 20
362.9121293594
 11
367.951059322
 21
363.1443814867
  0
LINE
  5
3AD
100
AcDbEntity
  8
0
100
AcDbLine
 62
7
  6
CONTINUOUS
 10
369.1064308647
 20
362.617429894
 11
369.0003741822
 21
362.3851777666
  0
LINE
  5
3AE
100
AcDbEntity
  8
0
100
AcDbLine
 62
7
  6
CONTINUOUS
 10
366.494829304
 20
299.33052407
 11
366.113829304
 21
298.94952407
  0
LINE
  5
3AF
100
AcDbEntity
  8
0
100
AcDbLine
 62
7
  6
CONTINUOUS
 10
340.967829304
 20
397.43802407
 11
340.967829304
 21
394.77102407
  0
LINE
  5
3B0
100
AcDbEntity
  8
0
100
AcDbLine
 62
7
  6
CONTINUOUS
 10
365.3929730626
 20
369.9931887229
 11
365.1605793673
 21
370.0991807985
  0
LINE
  5
3B1
100
AcDbEntity
  8
0
100
AcDbLine
 62
7
  6
CONTINUOUS
 10
366.494829304
 20
314.44352407
 11
366.113829304
 21
314.82452407
  0
LINE
  5
3B2
100
AcDbEntity
  8
0
100
AcDbLine
 62
7
  6
CONTINUOUS
 10
346.047829304
 20
322.76202407
 11
346.047829304
 21
325.42902407
  0
LINE
  5
3B3
100
AcDbEntity
  8
0
100
AcDbLine
 62
7
  6
CONTINUOUS
 10
347.571829304
 20
325.42902407
 11
347.571829304
 21
322.76202407
  0
LINE
  5
3B4
100
AcDbEntity
  8
0
100
AcDbLine
 62
7
  6
CONTINUOUS
 10
349.603829304
 20
322.76202407
 11
349.603829304
 21
325.42902407
  0
LINE
  5
3B5
100
AcDbEntity
  8
0
100
AcDbLine
 62
7
  6
CONTINUOUS
 10
351.127829304
 20
322.76202407
 11
351.127829304
 21
325.42902407
  0
LINE
  5
3B6
100
AcDbEntity
  8
0
100
AcDbLine
 62
7
  6
CONTINUOUS
 10
353.9716520193
 20
325.42902407
 11
353.9716520193
 21
322.76202407
  0
LINE
  5
3B7
100
AcDbEntity
  8
0
100
AcDbLine
 62
7
  6
CONTINUOUS
 10
355.547429304
 20
312.47502407
 11
355.547429304
 21
301.29902407
  0
LINE
  5
3B8
100
AcDbEntity
  8
0
100
AcDbLine
 62
7
  6
CONTINUOUS
 10
356.309429304
 20
313.23702407
 11
356.309429304
 21
300.53702407
  0
LINE
  5
3B9
100
AcDbEntity
  8
0
100
AcDbLine
 62
7
  6
CONTINUOUS
 10
365.6878521604
 20
371.2538485201
 11
365.732829304
 21
371.2333349653
  0
LINE
  5
3BA
100
AcDbEntity
  8
0
100
AcDbLine
 62
7
  6
CONTINUOUS
 10
369.2908685864
 20
355.6418768066
 11
369.2766873081
 21
355.6508323845
  0
LINE
  5
3BB
100
AcDbEntity
  8
0
100
AcDbLine
 62
7
  6
CONTINUOUS
 10
369.2902938496
 20
355.6420818823
 11
369.276129304
 21
355.6510299528
  0
LINE
  5
3BC
100
AcDbEntity
  8
0
100
AcDbLine
 62
7
  6
CONTINUOUS
 10
373.987829304
 20
321.3616103494
 11
374.949636915
 21
320.1356948595
  0
LINE
  5
3BD
100
AcDbEntity
  8
0
100
AcDbLine
 62
7
  6
CONTINUOUS
 10
357.833429304
 20
300.5371046153
 11
357.833429304
 21
313.2369435247
  0
LINE
  5
3BE
100
AcDbEntity
  8
0
100
AcDbLine
 62
7
  6
CONTINUOUS
 10
357.935029304
 20
317.3009772671
 11
357.935029304
 21
311.16184407
  0
LINE
  5
3BF
100
AcDbEntity
  8
0
100
AcDbLine
 62
7
  6
CONTINUOUS
 10
357.935029304
 20
302.61220407
 11
357.935029304
 21
296.4730869486
  0
LINE
  5
3C0
100
AcDbEntity
  8
0
100
AcDbLine
 62
7
  6
CONTINUOUS
 10
358.5177080389
 20
322.76202407
 11
358.5177080389
 21
325.42902407
  0
LINE
  5
3C1
100
AcDbEntity
  8
0
100
AcDbLine
 62
7
  6
CONTINUOUS
 10
358.874829304
 20
353.54682407
 11
358.874829304
 21
361.16682407
  0
LINE
  5
3C2
100
AcDbEntity
  8
0
100
AcDbLine
 62
7
  6
CONTINUOUS
 10
358.874829304
 20
366.24682407
 11
358.874829304
 21
373.86682407
  0
LINE
  5
3C3
100
AcDbEntity
  8
0
100
AcDbLine
 62
7
  6
CONTINUOUS
 10
359.001829304
 20
296.4731008322
 11
359.001829304
 21
317.3009611914
  0
LINE
  5
3C4
100
AcDbEntity
  8
0
100
AcDbLine
 62
7
  6
CONTINUOUS
 10
359.382829304
 20
366.24682407
 11
359.382829304
 21
361.16682407
  0
LINE
  5
3C5
100
AcDbEntity
  8
0
100
AcDbLine
 62
7
  6
CONTINUOUS
 10
359.382829304
 20
353.54682407
 11
359.382829304
 21
325.42902407
  0
LINE
  5
3C6
100
AcDbEntity
  8
0
100
AcDbLine
 62
7
  6
CONTINUOUS
 10
359.382829304
 20
322.76202407
 11
359.382829304
 21
294.1872522345
  0
LINE
  5
3C7
100
AcDbEntity
  8
0
100
AcDbLine
 62
7
  6
CONTINUOUS
 10
359.8375307543
 20
325.42902407
 11
359.8375307543
 21
322.76202407
  0
LINE
  5
3C8
100
AcDbEntity
  8
0
100
AcDbLine
 62
7
  6
CONTINUOUS
 10
362.049829304
 20
294.18702407
 11
362.049829304
 21
322.76202407
  0
LINE
  5
3C9
100
AcDbEntity
  8
0
100
AcDbLine
 62
7
  6
CONTINUOUS
 10
362.049829304
 20
325.42902407
 11
362.049829304
 21
373.86682407
  0
LINE
  5
3CA
100
AcDbEntity
  8
0
100
AcDbLine
 62
7
  6
CONTINUOUS
 10
362.303829304
 20
377.029119884
 11
362.303829304
 21
361.9161282561
  0
LINE
  5
3CB
100
AcDbEntity
  8
0
100
AcDbLine
 62
7
  6
CONTINUOUS
 10
362.684829304
 20
377.41012407
 11
362.684829304
 21
361.53512407
  0
LINE
  5
3CC
100
AcDbEntity
  8
0
100
AcDbLine
 62
7
  6
CONTINUOUS
 10
364.081829304
 20
380.64862407
 11
364.081829304
 21
368.1838809949
  0
LINE
  5
3CD
100
AcDbEntity
  8
0
100
AcDbLine
 62
7
  6
CONTINUOUS
 10
364.081829304
 20
364.6398590017
 11
364.081829304
 21
360.83662407
  0
LINE
  5
3CE
100
AcDbEntity
  8
0
100
AcDbLine
 62
7
  6
CONTINUOUS
 10
364.716829304
 20
294.18702407
 11
364.716829304
 21
322.76202407
  0
LINE
  5
3CF
100
AcDbEntity
  8
0
100
AcDbLine
 62
7
  6
CONTINUOUS
 10
364.716829304
 20
325.42902407
 11
364.716829304
 21
358.16962407
  0
LINE
  5
3D0
100
AcDbEntity
  8
0
100
AcDbLine
 62
7
  6
CONTINUOUS
 10
365.2734143764
 20
358.0368969535
 11
365.2734143764
 21
358.1405439752
  0
LINE
  5
3D1
100
AcDbEntity
  8
0
100
AcDbLine
 62
7
  6
CONTINUOUS
 10
365.7212011724
 20
364.6591127761
 11
365.7212011724
 21
365.5366955202
  0
LINE
  5
3D2
100
AcDbEntity
  8
0
100
AcDbLine
 62
7
  6
CONTINUOUS
 10
365.732829304
 20
371.3382144993
 11
365.732829304
 21
368.1609071754
  0
LINE
  5
3D3
100
AcDbEntity
  8
0
100
AcDbLine
 62
7
  6
CONTINUOUS
 10
365.796329304
 20
363.8950919812
 11
365.796329304
 21
363.9334762716
  0
LINE
  5
3D4
100
AcDbEntity
  8
0
100
AcDbLine
 62
7
  6
CONTINUOUS
 10
366.113829304
 20
298.94952407
 11
366.113829304
 21
314.82452407
  0
LINE
  5
3D5
100
AcDbEntity
  8
0
100
AcDbLine
 62
7
  6
CONTINUOUS
 10
366.494829304
 20
299.33052407
 11
366.494829304
 21
314.44352407
  0
LINE
  5
3D6
100
AcDbEntity
  8
0
100
AcDbLine
 62
7
  6
CONTINUOUS
 10
366.748829304
 20
329.9243259829
 11
366.748829304
 21
347.3497221571
  0
LINE
  5
3D7
100
AcDbEntity
  8
0
100
AcDbLine
 62
7
  6
CONTINUOUS
 10
366.748829304
 20
374.5288017268
 11
366.748829304
 21
380.64862407
  0
LINE
  5
3D8
100
AcDbEntity
  8
0
100
AcDbLine
 62
7
  6
CONTINUOUS
 10
369.0003741822
 20
362.3851777666
 11
369.0003741822
 21
361.4987305504
  0
LINE
  5
3D9
100
AcDbEntity
  8
0
100
AcDbLine
 62
7
  6
CONTINUOUS
 10
369.1064308647
 20
361.7398471499
 11
369.1064308647
 21
362.617429894
  0
LINE
  5
3DA
100
AcDbEntity
  8
0
100
AcDbLine
 62
7
  6
CONTINUOUS
 10
369.276129304
 20
383.4141656289
 11
369.276129304
 21
381.0266088886
  0
LINE
  5
3DB
100
AcDbEntity
  8
0
100
AcDbLine
 62
7
  6
CONTINUOUS
 10
369.276129304
 20
379.6296088886
 11
369.276129304
 21
377.2420088886
  0
LINE
  5
3DC
100
AcDbEntity
  8
0
100
AcDbLine
 62
7
  6
CONTINUOUS
 10
369.276129304
 20
358.0296386226
 11
369.276129304
 21
355.6420818823
  0
LINE
  5
3DD
100
AcDbEntity
  8
0
100
AcDbLine
 62
7
  6
CONTINUOUS
 10
369.276129304
 20
354.2450818823
 11
369.276129304
 21
351.8574818823
  0
LINE
  5
3DE
100
AcDbEntity
  8
0
100
AcDbLine
 62
7
  6
CONTINUOUS
 10
367.7668225965
 20
371.7304702443
 11
367.765193592
 21
371.6180520307
  0
LINE
  5
3DF
100
AcDbEntity
  8
0
100
AcDbLine
 62
7
  6
CONTINUOUS
 10
365.7331403488
 20
371.6180515627
 11
365.7360983037
 21
371.8024183791
  0
LINE
  5
3E0
100
AcDbEntity
  8
0
100
AcDbLine
 62
7
  6
CONTINUOUS
 10
363.8279127568
 20
366.6007600442
 11
363.8322942792
 21
366.8525785115
  0
LINE
  5
3E1
100
AcDbEntity
  8
0
100
AcDbLine
 62
7
  6
CONTINUOUS
 10
364.272405272
 20
363.3209053437
 11
364.2765152183
 21
363.5569851569
  0
LINE
  5
3E2
100
AcDbEntity
  8
0
100
AcDbLine
 62
7
  6
CONTINUOUS
 10
365.097843102
 20
368.16090714
 11
365.1014969622
 21
368.3677580279
  0
LINE
  5
3E3
100
AcDbEntity
  8
0
100
AcDbLine
 62
7
  6
CONTINUOUS
 10
365.2734143764
 20
358.1405439752
 11
365.2820863934
 21
358.387061875
  0
LINE
  5
3E4
100
AcDbEntity
  8
0
100
AcDbLine
 62
7
  6
CONTINUOUS
 10
378.0473643287
 20
366.3489415682
 11
378.0465650051
 21
366.3446770703
  0
LINE
  5
3E5
100
AcDbEntity
  8
0
100
AcDbLine
 62
7
  6
CONTINUOUS
 10
372.7178593171
 20
340.4772887714
 11
373.987829304
 21
346.0055038059
  0
LINE
  5
3E6
100
AcDbEntity
  8
0
100
AcDbLine
 62
7
  6
CONTINUOUS
 10
364.716829304
 20
358.16962407
 11
362.7930164313
 21
360.0934369427
  0
LINE
  5
3E7
100
AcDbEntity
  8
0
100
AcDbLine
 62
7
  6
CONTINUOUS
 10
362.303829304
 20
361.91612407
 11
362.684829304
 21
361.53512407
  0
LINE
  5
3E8
100
AcDbEntity
  8
0
100
AcDbLine
 62
7
  6
CONTINUOUS
 10
364.081829304
 20
360.83662407
 11
365.1713565991
 21
359.7470967749
  0
LINE
  5
3E9
100
AcDbEntity
  8
0
100
AcDbLine
 62
7
  6
CONTINUOUS
 10
370.7125229251
 20
354.6362282289
 11
370.7125229251
 21
354.7398752507
  0
LINE
  5
3EA
100
AcDbEntity
  8
0
100
AcDbLine
 62
7
  6
CONTINUOUS
 10
370.812829304
 20
381.0266088886
 11
370.812829304
 21
379.6296088886
  0
LINE
  5
3EB
100
AcDbEntity
  8
0
100
AcDbLine
 62
7
  6
CONTINUOUS
 10
370.812829304
 20
355.6420818823
 11
370.812829304
 21
354.2450818823
  0
LINE
  5
3EC
100
AcDbEntity
  8
0
100
AcDbLine
 62
7
  6
CONTINUOUS
 10
370.825529304
 20
384.9636088886
 11
370.825529304
 21
376.6979085791
  0
LINE
  5
3ED
100
AcDbEntity
  8
0
100
AcDbLine
 62
7
  6
CONTINUOUS
 10
370.825529304
 20
359.5790818823
 11
370.825529304
 21
350.3080818823
  0
LINE
  5
3EE
100
AcDbEntity
  8
0
100
AcDbLine
 62
7
  6
CONTINUOUS
 10
370.939829304
 20
361.5113254379
 11
370.939829304
 21
361.0681018298
  0
LINE
  5
3EF
100
AcDbEntity
  8
0
100
AcDbLine
 62
7
  6
CONTINUOUS
 10
371.701829304
 20
361.0681018298
 11
371.701829304
 21
361.5113254379
  0
LINE
  5
3F0
100
AcDbEntity
  8
0
100
AcDbLine
 62
7
  6
CONTINUOUS
 10
371.930429304
 20
350.2218284569
 11
371.930429304
 21
359.6653353077
  0
LINE
  5
3F1
100
AcDbEntity
  8
0
100
AcDbLine
 62
7
  6
CONTINUOUS
 10
371.930429304
 20
376.7199173388
 11
371.930429304
 21
385.049862314
  0
LINE
  5
3F2
100
AcDbEntity
  8
0
100
AcDbLine
 62
7
  6
CONTINUOUS
 10
372.3758312773
 20
362.5015957247
 11
372.3758312773
 21
361.6240129806
  0
LINE
  5
3F3
100
AcDbEntity
  8
0
100
AcDbLine
 62
7
  6
CONTINUOUS
 10
372.463829304
 20
348.5897713916
 11
372.463829304
 21
360.7497896277
  0
LINE
  5
3F4
100
AcDbEntity
  8
0
100
AcDbLine
 62
7
  6
CONTINUOUS
 10
372.463829304
 20
376.5467054086
 11
372.463829304
 21
386.6819193793
  0
LINE
  5
3F5
100
AcDbEntity
  8
0
100
AcDbLine
 62
7
  6
CONTINUOUS
 10
372.4651650358
 20
361.3759737389
 11
372.4651650358
 21
362.2624209551
  0
LINE
  5
3F6
100
AcDbEntity
  8
0
100
AcDbLine
 62
7
  6
CONTINUOUS
 10
373.479829304
 20
319.58702407
 11
373.479829304
 21
294.18702407
  0
LINE
  5
3F7
100
AcDbEntity
  8
0
100
AcDbLine
 62
7
  6
CONTINUOUS
 10
373.654974256
 20
362.7062832865
 11
373.654974256
 21
361.8618787686
  0
LINE
  5
3F8
100
AcDbEntity
  8
0
100
AcDbLine
 62
7
  6
CONTINUOUS
 10
373.987829304
 20
322.8983113509
 11
373.987829304
 21
321.3618956103
  0
LINE
  5
3F9
100
AcDbEntity
  8
0
100
AcDbLine
 62
7
  6
CONTINUOUS
 10
373.987829304
 20
325.594239449
 11
373.987829304
 21
360.7497896277
  0
LINE
  5
3FA
100
AcDbEntity
  8
0
100
AcDbLine
 62
7
  6
CONTINUOUS
 10
373.987829304
 20
375.7511543238
 11
373.987829304
 21
386.6819193793
  0
LINE
  5
3FB
100
AcDbEntity
  8
0
100
AcDbLine
 62
7
  6
CONTINUOUS
 10
374.876829304
 20
320.2284951005
 11
374.876829304
 21
291.7673490918
  0
LINE
  5
3FC
100
AcDbEntity
  8
0
100
AcDbLine
 62
7
  6
CONTINUOUS
 10
374.949636915
 20
387.9040243785
 11
374.949636915
 21
374.7306402188
  0
LINE
  5
3FD
100
AcDbEntity
  8
0
100
AcDbLine
 62
7
  6
CONTINUOUS
 10
374.949636915
 20
355.20797752
 11
374.949636915
 21
326.7863781909
  0
LINE
  5
3FE
100
AcDbEntity
  8
0
100
AcDbLine
 62
7
  6
CONTINUOUS
 10
374.949636915
 20
323.1563470675
 11
374.949636915
 21
320.1356948595
  0
LINE
  5
3FF
100
AcDbEntity
  8
0
100
AcDbLine
 62
7
  6
CONTINUOUS
 10
375.003829304
 20
393.24702407
 11
375.003829304
 21
374.6580314534
  0
LINE
  5
400
100
AcDbEntity
  8
0
100
AcDbLine
 62
7
  6
CONTINUOUS
 10
375.003829304
 20
334.82702407
 11
375.003829304
 21
326.95302407
  0
LINE
  5
401
100
AcDbEntity
  8
0
100
AcDbLine
 62
7
  6
CONTINUOUS
 10
375.003829304
 20
323.1708859126
 11
375.003829304
 21
286.82102407
  0
LINE
  5
402
100
AcDbEntity
  8
0
100
AcDbLine
 62
7
  6
CONTINUOUS
 10
376.146829304
 20
371.6180512838
 11
376.146829304
 21
368.1609071055
  0
LINE
  5
403
100
AcDbEntity
  8
0
100
AcDbLine
 62
7
  6
CONTINUOUS
 10
377.670829304
 20
286.82102407
 11
377.670829304
 21
393.24702407
  0
LINE
  5
404
100
AcDbEntity
  8
0
100
AcDbLine
 62
7
  6
CONTINUOUS
 10
378.280429304
 20
352.5306209471
 11
378.280429304
 21
357.3565428175
  0
LINE
  5
405
100
AcDbEntity
  8
0
100
AcDbLine
 62
7
  6
CONTINUOUS
 10
378.280429304
 20
377.9151479534
 11
378.280429304
 21
382.7410698238
  0
LINE
  5
406
100
AcDbEntity
  8
0
100
AcDbLine
 62
7
  6
CONTINUOUS
 10
374.1128360115
 20
371.5056323232
 11
374.114465016
 21
371.6180505369
  0
LINE
  5
407
100
AcDbEntity
  8
0
100
AcDbLine
 62
7
  6
CONTINUOUS
 10
376.1465182592
 20
371.6180510049
 11
376.1435603043
 21
371.4336841884
  0
LINE
  5
408
100
AcDbEntity
  8
0
100
AcDbLine
 62
7
  6
CONTINUOUS
 10
378.0517458511
 20
366.6007600355
 11
378.0473643287
 21
366.3489415682
  0
LINE
  5
409
100
AcDbEntity
  8
0
100
AcDbLine
 62
7
  6
CONTINUOUS
 10
378.0473643287
 20
366.0918718755
 11
378.051829304
 21
366.3436903471
  0
LINE
  5
40A
100
AcDbEntity
  8
0
100
AcDbLine
 62
7
  6
CONTINUOUS
 10
378.0473643287
 20
366.3489415682
 11
378.0472109271
 21
366.3446537938
  0
LINE
  5
40B
100
AcDbEntity
  8
0
100
AcDbLine
 62
7
  6
CONTINUOUS
 10
373.987829304
 20
348.5935818823
 11
374.949636915
 21
347.3676663924
  0
LINE
  5
40C
100
AcDbEntity
  8
0
100
AcDbLine
 62
7
  6
CONTINUOUS
 10
373.987829304
 20
334.9490737368
 11
372.7178593171
 21
340.4772887714
  0
LINE
  5
40D
100
AcDbEntity
  8
0
100
AcDbLine
 62
7
  6
CONTINUOUS
 10
372.4651650358
 20
362.2624209551
 11
372.3758312773
 21
362.5015957247
  0
LINE
  5
40E
100
AcDbEntity
  8
0
100
AcDbLine
 62
7
  6
CONTINUOUS
 10
373.5656404975
 20
362.9454580561
 11
373.654974256
 21
362.7062832865
  0
ARC
  5
40F
100
AcDbEntity
  8
0
100
AcDbCircle
 62
7
  6
CONTINUOUS
 10
136.6191660316
 20
-12.6458352963
 40
435.6282360634
100
AcDbArc
 50
57.4952471869
 51
57.7166897174
  0
ARC
  5
410
100
AcDbEntity
  8
0
100
AcDbCircle
 62
7
  6
CONTINUOUS
 10
187.348007114
 20
67.5674383822
 40
340.7199533005
100
AcDbArc
 50
57.7270181916
 51
57.9819745864
  0
ARC
  5
411
100
AcDbEntity
  8
0
100
AcDbCircle
 62
7
  6
CONTINUOUS
 10
1.8642390114
 20
337.2951559587
 40
142.5905752206
100
AcDbArc
 50
359.6228912906
 51
359.9959633312
  0
ARC
  5
412
100
AcDbEntity
  8
0
100
AcDbCircle
 62
7
  6
CONTINUOUS
 10
165.7337087793
 20
349.9418665768
 40
18.6167402455
100
AcDbArc
 50
269.9985243437
 51
272.9442497841
  0
ARC
  5
413
100
AcDbEntity
  8
0
100
AcDbCircle
 62
7
  6
CONTINUOUS
 10
250.9362685952
 20
313.7826415321
 40
6.5048494999
100
AcDbArc
 50
56.7622059533
 51
65.9179214385
  0
ARC
  5
414
100
AcDbEntity
  8
0
100
AcDbCircle
 62
7
  6
CONTINUOUS
 10
66.520829304
 20
199.57202407
 40
5.334
100
AcDbArc
 50
180.0
 51
270.0
  0
ARC
  5
415
100
AcDbEntity
  8
0
100
AcDbCircle
 62
7
  6
CONTINUOUS
 10
245.336829304
 20
199.57202407
 40
5.334
100
AcDbArc
 50
270.0
 51
360.0
  0
ARC
  5
416
100
AcDbEntity
  8
0
100
AcDbCircle
 62
7
  6
CONTINUOUS
 10
66.520829304
 20
199.57202407
 40
2.667
100
AcDbArc
 50
180.0
 51
270.0
  0
ARC
  5
417
100
AcDbEntity
  8
0
100
AcDbCircle
 62
7
  6
CONTINUOUS
 10
245.336829304
 20
199.57202407
 40
2.667
100
AcDbArc
 50
270.0
 51
360.0
  0
ARC
  5
418
100
AcDbEntity
  8
0
100
AcDbCircle
 62
7
  6
CONTINUOUS
 10
213.9917112058
 20
332.9840154119
 40
1.2881003104
100
AcDbArc
 50
223.8110838913
 51
225.9219167364
  0
ARC
  5
419
100
AcDbEntity
  8
0
100
AcDbCircle
 62
7
  6
CONTINUOUS
 10
118.7417112059
 20
332.984015412
 40
1.2881003105
100
AcDbArc
 50
223.8110838914
 51
225.9219167363
  0
ARC
  5
41A
100
AcDbEntity
  8
0
100
AcDbCircle
 62
7
  6
CONTINUOUS
 10
188.5028112058
 20
334.2237487
 40
1.2881003104
100
AcDbArc
 50
223.8110838913
 51
225.9219167364
  0
ARC
  5
41B
100
AcDbEntity
  8
0
100
AcDbCircle
 62
7
  6
CONTINUOUS
 10
93.2528112058
 20
334.2237487
 40
1.2881003104
100
AcDbArc
 50
223.8110838913
 51
225.9219167364
  0
ARC
  5
41C
100
AcDbEntity
  8
0
100
AcDbCircle
 62
7
  6
CONTINUOUS
 10
145.7380627455
 20
343.3161048618
 40
1.2833312444
100
AcDbArc
 50
166.6129931165
 51
175.7735052776
  0
ARC
  5
41D
100
AcDbEntity
  8
0
100
AcDbCircle
 62
7
  6
CONTINUOUS
 10
254.6638109219
 20
383.6575889462
 40
32.5400854256
100
AcDbArc
 50
267.5702309471
 51
270.3486680331
  0
ARC
  5
41E
100
AcDbEntity
  8
0
100
AcDbCircle
 62
7
  6
CONTINUOUS
 10
266.7983619167
 20
333.0500928928
 40
7.7922445289
100
AcDbArc
 50
107.6802556811
 51
117.0186825847
  0
ARC
  5
41F
100
AcDbEntity
  8
0
100
AcDbCircle
 62
7
  6
CONTINUOUS
 10
266.7218089189
 20
333.1642887449
 40
7.6708681103
100
AcDbArc
 50
197.9330436006
 51
207.3696084205
  0
ARC
  5
420
100
AcDbEntity
  8
0
100
AcDbCircle
 62
7
  6
CONTINUOUS
 10
266.7218089189
 20
333.141348719
 40
7.6708681102
100
AcDbArc
 50
152.6303915795
 51
162.0669563994
  0
ARC
  5
421
100
AcDbEntity
  8
0
100
AcDbCircle
 62
7
  6
CONTINUOUS
 10
266.742855264
 20
333.1769478573
 40
7.5685793658
100
AcDbArc
 50
207.4657937223
 51
226.8990022761
  0
ARC
  5
422
100
AcDbEntity
  8
0
100
AcDbCircle
 62
7
  6
CONTINUOUS
 10
266.799224146
 20
338.6453644906
 40
13.5282275121
100
AcDbArc
 50
89.997436989
 51
107.392121958
  0
ARC
  5
423
100
AcDbEntity
  8
0
100
AcDbCircle
 62
7
  6
CONTINUOUS
 10
266.7989891584
 20
338.7896914316
 40
13.5259983955
100
AcDbArc
 50
89.9964411649
 51
109.6649277285
  0
ARC
  5
424
100
AcDbEntity
  8
0
100
AcDbCircle
 62
7
  6
CONTINUOUS
 10
266.774259595
 20
338.1950917868
 40
13.4606614764
100
AcDbArc
 50
117.9488922371
 51
122.0825943122
  0
ARC
  5
425
100
AcDbEntity
  8
0
100
AcDbCircle
 62
7
  6
CONTINUOUS
 10
266.7698800189
 20
338.3445461079
 40
13.4521045871
100
AcDbArc
 50
119.1496394745
 51
121.4261853197
  0
ARC
  5
426
100
AcDbEntity
  8
0
100
AcDbCircle
 62
7
  6
CONTINUOUS
 10
266.6097461342
 20
338.3239582311
 40
13.24649819
100
AcDbArc
 50
178.6523083784
 51
179.385965292
  0
ARC
  5
427
100
AcDbEntity
  8
0
100
AcDbCircle
 62
7
  6
CONTINUOUS
 10
266.7114446895
 20
336.2449727342
 40
7.8490797294
100
AcDbArc
 50
180.0224184169
 51
192.84287145
  0
ARC
  5
428
100
AcDbEntity
  8
0
100
AcDbCircle
 62
7
  6
CONTINUOUS
 10
266.6935911171
 20
336.2418952583
 40
7.8312255562
100
AcDbArc
 50
179.3230462263
 51
179.9999537182
  0
ARC
  5
429
100
AcDbEntity
  8
0
100
AcDbCircle
 62
7
  6
CONTINUOUS
 10
266.7983619167
 20
336.1391757585
 40
7.7922445289
100
AcDbArc
 50
107.6802556811
 51
117.0186825847
  0
ARC
  5
42A
100
AcDbEntity
  8
0
100
AcDbCircle
 62
7
  6
CONTINUOUS
 10
266.7218089189
 20
336.2304315847
 40
7.6708681102
100
AcDbArc
 50
152.6303915795
 51
162.0669563994
  0
ARC
  5
42B
100
AcDbEntity
  8
0
100
AcDbCircle
 62
7
  6
CONTINUOUS
 10
266.7091063279
 20
336.2396171677
 40
7.5292733877
100
AcDbArc
 50
167.9563303271
 51
179.9826160918
  0
ARC
  5
42C
100
AcDbEntity
  8
0
100
AcDbCircle
 62
7
  6
CONTINUOUS
 10
266.8012966912
 20
333.0500928928
 40
7.7922445289
100
AcDbArc
 50
62.9813174153
 51
72.3197443189
  0
ARC
  5
42D
100
AcDbEntity
  8
0
100
AcDbCircle
 62
7
  6
CONTINUOUS
 10
266.8778496891
 20
333.1642887449
 40
7.6708681102
100
AcDbArc
 50
332.6303915795
 51
342.0669563994
  0
ARC
  5
42E
100
AcDbEntity
  8
0
100
AcDbCircle
 62
7
  6
CONTINUOUS
 10
266.877849689
 20
333.141348719
 40
7.6708681103
100
AcDbArc
 50
17.9330436006
 51
27.3696084205
  0
ARC
  5
42F
100
AcDbEntity
  8
0
100
AcDbCircle
 62
7
  6
CONTINUOUS
 10
266.8568033439
 20
333.1769478573
 40
7.5685793658
100
AcDbArc
 50
313.1009977239
 51
332.5342062777
  0
ARC
  5
430
100
AcDbEntity
  8
0
100
AcDbCircle
 62
7
  6
CONTINUOUS
 10
266.8004363865
 20
338.645382001
 40
13.5282100018
100
AcDbArc
 50
72.5964446114
 51
90.0025711656
  0
ARC
  5
431
100
AcDbEntity
  8
0
100
AcDbCircle
 62
7
  6
CONTINUOUS
 10
266.8006688064
 20
338.7896892961
 40
13.526000531
100
AcDbArc
 50
70.3507323246
 51
90.0035561099
  0
ARC
  5
432
100
AcDbEntity
  8
0
100
AcDbCircle
 62
7
  6
CONTINUOUS
 10
266.8007165648
 20
338.1352128122
 40
13.5255914504
100
AcDbArc
 50
69.8457867433
 51
90.0037585269
  0
ARC
  5
433
100
AcDbEntity
  8
0
100
AcDbCircle
 62
7
  6
CONTINUOUS
 10
266.8007196377
 20
338.2773409029
 40
13.5255611717
100
AcDbArc
 50
69.824795096
 51
90.0037715526
  0
ARC
  5
434
100
AcDbEntity
  8
0
100
AcDbCircle
 62
7
  6
CONTINUOUS
 10
266.8046762233
 20
338.1488230325
 40
13.5114503442
100
AcDbArc
 50
69.5498216678
 51
69.8416642122
  0
ARC
  5
435
100
AcDbEntity
  8
0
100
AcDbCircle
 62
7
  6
CONTINUOUS
 10
266.8083005248
 20
338.1606871258
 40
13.4990676853
100
AcDbArc
 50
62.0600065794
 51
69.5466411353
  0
ARC
  5
436
100
AcDbEntity
  8
0
100
AcDbCircle
 62
7
  6
CONTINUOUS
 10
266.8254841987
 20
338.1952495888
 40
13.4604825512
100
AcDbArc
 50
57.9190877278
 51
62.0556929501
  0
ARC
  5
437
100
AcDbEntity
  8
0
100
AcDbCircle
 62
7
  6
CONTINUOUS
 10
266.8770541537
 20
338.3860930279
 40
13.3762010304
100
AcDbArc
 50
307.4032495778
 51
326.2671571922
  0
ARC
  5
438
100
AcDbEntity
  8
0
100
AcDbCircle
 62
7
  6
CONTINUOUS
 10
266.9126331218
 20
338.8017889905
 40
13.3315037511
100
AcDbArc
 50
32.2600338056
 51
33.497440801
  0
ARC
  5
439
100
AcDbEntity
  8
0
100
AcDbCircle
 62
7
  6
CONTINUOUS
 10
266.9128070528
 20
338.9440030242
 40
13.3312946551
100
AcDbArc
 50
31.7161610478
 51
32.9555930584
  0
ARC
  5
43A
100
AcDbEntity
  8
0
100
AcDbCircle
 62
7
  6
CONTINUOUS
 10
266.9129381334
 20
338.3586879979
 40
13.3311403543
100
AcDbArc
 50
326.4141154485
 51
327.516055789
  0
ARC
  5
43B
100
AcDbEntity
  8
0
100
AcDbCircle
 62
7
  6
CONTINUOUS
 10
266.913400829
 20
338.9443872358
 40
13.3305874151
100
AcDbArc
 50
32.9555957174
 51
33.5859006
  0
ARC
  5
43C
100
AcDbEntity
  8
0
100
AcDbCircle
 62
7
  6
CONTINUOUS
 10
266.915531111
 20
338.2909217689
 40
13.3280271257
100
AcDbArc
 50
33.743775118
 51
34.2141279345
  0
ARC
  5
43D
100
AcDbEntity
  8
0
100
AcDbCircle
 62
7
  6
CONTINUOUS
 10
266.9171456365
 20
338.4341021977
 40
13.3260832863
100
AcDbArc
 50
33.6735120219
 51
34.9052859501
  0
ARC
  5
43E
100
AcDbEntity
  8
0
100
AcDbCircle
 62
7
  6
CONTINUOUS
 10
266.9202009696
 20
338.2941118922
 40
13.322371658
100
AcDbArc
 50
34.2140752741
 51
35.4212660503
  0
ARC
  5
43F
100
AcDbEntity
  8
0
100
AcDbCircle
 62
7
  6
CONTINUOUS
 10
266.9263684409
 20
338.9522354632
 40
13.3154305978
100
AcDbArc
 50
27.6478842879
 51
31.716704723
  0
ARC
  5
440
100
AcDbEntity
  8
0
100
AcDbCircle
 62
7
  6
CONTINUOUS
 10
266.988353402
 20
338.4660380862
 40
13.2480573631
100
AcDbArc
 50
0.0000137169
 51
0.6931171035
  0
ARC
  5
441
100
AcDbEntity
  8
0
100
AcDbCircle
 62
7
  6
CONTINUOUS
 10
266.9884121289
 20
338.8367342906
 40
13.2479986362
100
AcDbArc
 50
359.1980597503
 51
0.6140228752
  0
ARC
  5
442
100
AcDbEntity
  8
0
100
AcDbCircle
 62
7
  6
CONTINUOUS
 10
266.9900615434
 20
338.3239660711
 40
13.2463491141
100
AcDbArc
 50
0.6140188513
 51
1.3468766998
  0
ARC
  5
443
100
AcDbEntity
  8
0
100
AcDbCircle
 62
7
  6
CONTINUOUS
 10
266.8880490268
 20
336.2449974892
 40
7.8492446307
100
AcDbArc
 50
347.1262968337
 51
359.9774015516
  0
ARC
  5
444
100
AcDbEntity
  8
0
100
AcDbCircle
 62
7
  6
CONTINUOUS
 10
266.9061231547
 20
336.24190816
 40
7.8311698923
100
AcDbArc
 50
359.9999520857
 51
0.6768949322
  0
ARC
  5
445
100
AcDbEntity
  8
0
100
AcDbCircle
 62
7
  6
CONTINUOUS
 10
266.912611414
 20
337.1922754034
 40
7.8247074781
100
AcDbArc
 50
356.5428255069
 51
0.0001040773
  0
ARC
  5
446
100
AcDbEntity
  8
0
100
AcDbCircle
 62
7
  6
CONTINUOUS
 10
266.8012966912
 20
336.1391757585
 40
7.7922445289
100
AcDbArc
 50
62.9813174153
 51
72.3197443189
  0
ARC
  5
447
100
AcDbEntity
  8
0
100
AcDbCircle
 62
7
  6
CONTINUOUS
 10
266.877849689
 20
336.2304315847
 40
7.6708681103
100
AcDbArc
 50
17.9330436006
 51
27.3696084205
  0
ARC
  5
448
100
AcDbEntity
  8
0
100
AcDbCircle
 62
7
  6
CONTINUOUS
 10
266.8905522801
 20
336.2396171677
 40
7.5292733877
100
AcDbArc
 50
0.0173839082
 51
12.0436696729
  0
ARC
  5
449
100
AcDbEntity
  8
0
100
AcDbCircle
 62
7
  6
CONTINUOUS
 10
266.8951849371
 20
353.1084891808
 40
6.5721406591
100
AcDbArc
 50
344.0330126335
 51
359.9982988055
  0
ARC
  5
44A
100
AcDbEntity
  8
0
100
AcDbCircle
 62
7
  6
CONTINUOUS
 10
266.7039734327
 20
353.108453626
 40
6.5716404201
100
AcDbArc
 50
180.0013913325
 51
194.8337040207
  0
ARC
  5
44B
100
AcDbEntity
  8
0
100
AcDbCircle
 62
7
  6
CONTINUOUS
 10
266.7225365687
 20
360.6210934193
 40
5.4788977343
100
AcDbArc
 50
149.7839753465
 51
204.6247079549
  0
ARC
  5
44C
100
AcDbEntity
  8
0
100
AcDbCircle
 62
7
  6
CONTINUOUS
 10
266.8771214601
 20
360.6210933908
 40
5.4788977343
100
AcDbArc
 50
335.3752948395
 51
30.2160218623
  0
ARC
  5
44D
100
AcDbEntity
  8
0
100
AcDbCircle
 62
7
  6
CONTINUOUS
 10
266.8629730493
 20
353.2009359718
 40
4.2548562548
100
AcDbArc
 50
0.0004115028
 51
11.3377599883
  0
ARC
  5
44E
100
AcDbEntity
  8
0
100
AcDbCircle
 62
7
  6
CONTINUOUS
 10
266.7366855587
 20
353.2009359718
 40
4.2548562548
100
AcDbArc
 50
168.6622400117
 51
179.9995884972
  0
ARC
  5
44F
100
AcDbEntity
  8
0
100
AcDbCircle
 62
7
  6
CONTINUOUS
 10
266.8495524268
 20
360.621022259
 40
3.5062341136
100
AcDbArc
 50
344.0534537609
 51
28.4679651879
  0
ARC
  5
450
100
AcDbEntity
  8
0
100
AcDbCircle
 62
7
  6
CONTINUOUS
 10
266.7500969378
 20
360.6210230375
 40
3.506225223
100
AcDbArc
 50
151.5271799631
 51
195.9421973252
  0
ARC
  5
451
100
AcDbEntity
  8
0
100
AcDbCircle
 62
7
  6
CONTINUOUS
 10
276.4908845799
 20
345.8009872878
 40
1.4849447241
100
AcDbArc
 50
359.2902734435
 51
359.9998177637
  0
ARC
  5
452
100
AcDbEntity
  8
0
100
AcDbCircle
 62
7
  6
CONTINUOUS
 10
373.479829304
 20
326.95302407
 40
4.191
100
AcDbArc
 50
270.0
 51
360.0
  0
ARC
  5
453
100
AcDbEntity
  8
0
100
AcDbCircle
 62
7
  6
CONTINUOUS
 10
376.273829304
 20
294.18702407
 40
2.794
100
AcDbArc
 50
180.0
 51
240.0
  0
ARC
  5
454
100
AcDbEntity
  8
0
100
AcDbCircle
 62
7
  6
CONTINUOUS
 10
376.273829304
 20
319.58702407
 40
2.794
100
AcDbArc
 50
142.5011181191
 51
180.0
  0
ARC
  5
455
100
AcDbEntity
  8
0
100
AcDbCircle
 62
7
  6
CONTINUOUS
 10
373.479829304
 20
326.95302407
 40
1.524
100
AcDbArc
 50
270.0
 51
360.0
  0
ARC
  5
456
100
AcDbEntity
  8
0
100
AcDbCircle
 62
7
  6
CONTINUOUS
 10
374.749829304
 20
291.5473786393
 40
0.254
100
AcDbArc
 50
30.0000000001
 51
59.9999999999
  0
ARC
  5
457
100
AcDbEntity
  8
0
100
AcDbCircle
 62
7
  6
CONTINUOUS
 10
385.3121579987
 20
340.2750204824
 40
12.5858543634
100
AcDbArc
 50
205.1518713177
 51
205.8726233158
  0
ARC
  5
458
100
AcDbEntity
  8
0
100
AcDbCircle
 62
7
  6
CONTINUOUS
 10
370.9263981013
 20
363.3209616512
 40
6.6540701419
100
AcDbArc
 50
175.3104168171
 51
177.9672609736
  0
ARC
  5
459
100
AcDbEntity
  8
0
100
AcDbCircle
 62
7
  6
CONTINUOUS
 10
370.9393719923
 20
361.1701789861
 40
5.5579099205
100
AcDbArc
 50
237.9859003184
 51
252.5705840508
  0
ARC
  5
45A
100
AcDbEntity
  8
0
100
AcDbCircle
 62
7
  6
CONTINUOUS
 10
370.9397198209
 20
361.168557864
 40
5.5563534292
100
AcDbArc
 50
266.3344065419
 51
268.7086190963
  0
ARC
  5
45B
100
AcDbEntity
  8
0
100
AcDbCircle
 62
7
  6
CONTINUOUS
 10
370.93848875
 20
363.3320059631
 40
5.0881690515
100
AcDbArc
 50
281.3695159045
 51
287.5214327578
  0
ARC
  5
45C
100
AcDbEntity
  8
0
100
AcDbCircle
 62
7
  6
CONTINUOUS
 10
370.9383847623
 20
363.3236875067
 40
5.0793790191
100
AcDbArc
 50
210.5384160801
 51
251.7984264796
  0
ARC
  5
45D
100
AcDbEntity
  8
0
100
AcDbCircle
 62
7
  6
CONTINUOUS
 10
370.9395301159
 20
363.2984341018
 40
4.319442861
100
AcDbArc
 50
238.8006752315
 51
254.4063171576
  0
ARC
  5
45E
100
AcDbEntity
  8
0
100
AcDbCircle
 62
7
  6
CONTINUOUS
 10
354.366329304
 20
357.35682407
 40
3.81
100
AcDbArc
 50
90.0
 51
270.0
  0
ARC
  5
45F
100
AcDbEntity
  8
0
100
AcDbCircle
 62
7
  6
CONTINUOUS
 10
364.081829304
 20
347.3497221571
 40
2.667
100
AcDbArc
 50
0.0
 51
76.225853002
  0
ARC
  5
460
100
AcDbEntity
  8
0
100
AcDbCircle
 62
7
  6
CONTINUOUS
 10
364.081829304
 20
329.9243259829
 40
2.667
100
AcDbArc
 50
283.774146998
 51
360.0
  0
ARC
  5
461
100
AcDbEntity
  8
0
100
AcDbCircle
 62
7
  6
CONTINUOUS
 10
364.081829304
 20
360.7599259829
 40
2.667
100
AcDbArc
 50
283.7741469981
 51
312.8840872352
  0
ARC
  5
462
100
AcDbEntity
  8
0
100
AcDbCircle
 62
7
  6
CONTINUOUS
 10
364.716829304
 20
358.2463221571
 40
2.667
100
AcDbArc
 50
103.774146998
 51
180.0
  0
ARC
  5
463
100
AcDbEntity
  8
0
100
AcDbCircle
 62
7
  6
CONTINUOUS
 10
371.7045811539
 20
360.7497940202
 40
2.2832481501
100
AcDbArc
 50
359.9998897757
 51
28.8021135331
  0
CIRCLE
  5
464
100
AcDbEntity
  8
0
100
AcDbCircle
 62
7
  6
CONTINUOUS
 10
354.366329304
 20
357.35682407
 40
1.7272
  0
ARC
  5
465
100
AcDbEntity
  8
0
100
AcDbCircle
 62
7
  6
CONTINUOUS
 10
370.825529304
 20
351.8574818823
 40
1.5494
100
AcDbArc
 50
180.0
 51
270.0
  0
ARC
  5
466
100
AcDbEntity
  8
0
100
AcDbCircle
 62
7
  6
CONTINUOUS
 10
370.825529304
 20
358.0296818823
 40
1.5494
100
AcDbArc
 50
90.0
 51
180.0
  0
ARC
  5
467
100
AcDbEntity
  8
0
100
AcDbCircle
 62
7
  6
CONTINUOUS
 10
371.7020682772
 20
360.7495321704
 40
0.761777188
100
AcDbArc
 50
0.019364625
 51
90.0179735884
  0
ARC
  5
468
100
AcDbEntity
  8
0
100
AcDbCircle
 62
7
  6
CONTINUOUS
 10
371.7026579489
 20
360.3065499597
 40
0.7611713553
100
AcDbArc
 50
0.0012088828
 51
30.051855859
  0
ARC
  5
469
100
AcDbEntity
  8
0
100
AcDbCircle
 62
7
  6
CONTINUOUS
 10
526.4359357798
 20
-114.9410225832
 40
535.6820912588
100
AcDbArc
 50
118.9917181697
 51
119.3907949888
  0
ARC
  5
46A
100
AcDbEntity
  8
0
100
AcDbCircle
 62
7
  6
CONTINUOUS
 10
265.1457248825
 20
844.8395666078
 40
519.4069313056
100
AcDbArc
 50
270.7570560399
 51
270.9347188941
  0
ARC
  5
46B
100
AcDbEntity
  8
0
100
AcDbCircle
 62
7
  6
CONTINUOUS
 10
268.2451456137
 20
830.6965303245
 40
505.2623714983
100
AcDbArc
 50
269.06279113
 51
269.245427312
  0
ARC
  5
46C
100
AcDbEntity
  8
0
100
AcDbCircle
 62
7
  6
CONTINUOUS
 10
354.366329304
 20
370.05682407
 40
3.81
100
AcDbArc
 50
90.0
 51
270.0
  0
CIRCLE
  5
46D
100
AcDbEntity
  8
0
100
AcDbCircle
 62
7
  6
CONTINUOUS
 10
354.366329304
 20
370.05682407
 40
1.7272
  0
ARC
  5
46E
100
AcDbEntity
  8
0
100
AcDbCircle
 62
7
  6
CONTINUOUS
 10
370.939784189
 20
366.3524327895
 40
7.1168616702
100
AcDbArc
 50
278.0803715718
 51
281.3894720014
  0
ARC
  5
46F
100
AcDbEntity
  8
0
100
AcDbCircle
 62
7
  6
CONTINUOUS
 10
370.9410484649
 20
366.5940755804
 40
7.1154291002
100
AcDbArc
 50
138.41401394
 51
139.0694399219
  0
ARC
  5
470
100
AcDbEntity
  8
0
100
AcDbCircle
 62
7
  6
CONTINUOUS
 10
370.9400084114
 20
366.5949992783
 40
7.114038083
100
AcDbArc
 50
137.6871285052
 51
138.4140184576
  0
ARC
  5
471
100
AcDbEntity
  8
0
100
AcDbCircle
 62
7
  6
CONTINUOUS
 10
370.9403744086
 20
366.3487551495
 40
7.1126929698
100
AcDbArc
 50
281.3320811274
 51
282.4627553468
  0
ARC
  5
472
100
AcDbEntity
  8
0
100
AcDbCircle
 62
7
  6
CONTINUOUS
 10
370.9405995687
 20
366.3483082644
 40
7.1122105552
100
AcDbArc
 50
278.0747394889
 51
281.3310100073
  0
ARC
  5
473
100
AcDbEntity
  8
0
100
AcDbCircle
 62
7
  6
CONTINUOUS
 10
370.9386086656
 20
366.5962710748
 40
7.1121468529
100
AcDbArc
 50
137.3061304116
 51
137.6871139153
  0
ARC
  5
474
100
AcDbEntity
  8
0
100
AcDbCircle
 62
7
  6
CONTINUOUS
 10
370.9409564099
 20
366.603377074
 40
7.1101735201
100
AcDbArc
 50
279.4291312951
 51
282.5039457759
  0
ARC
  5
475
100
AcDbEntity
  8
0
100
AcDbCircle
 62
7
  6
CONTINUOUS
 10
370.933128267
 20
366.6003555636
 40
7.1053233322
100
AcDbArc
 50
139.0658570594
 51
177.9656984837
  0
ARC
  5
476
100
AcDbEntity
  8
0
100
AcDbCircle
 62
7
  6
CONTINUOUS
 10
370.94193863
 20
366.3410651297
 40
7.1052924165
100
AcDbArc
 50
281.3905431918
 51
282.4599472705
  0
ARC
  5
477
100
AcDbEntity
  8
0
100
AcDbCircle
 62
7
  6
CONTINUOUS
 10
370.9471612485
 20
366.3437231335
 40
7.1046686075
100
AcDbArc
 50
341.253561476
 51
357.6098496513
  0
ARC
  5
478
100
AcDbEntity
  8
0
100
AcDbCircle
 62
7
  6
CONTINUOUS
 10
370.9476498091
 20
366.3437994985
 40
7.1041833182
100
AcDbArc
 50
341.621278004
 51
357.609348498
  0
ARC
  5
479
100
AcDbEntity
  8
0
100
AcDbCircle
 62
7
  6
CONTINUOUS
 10
370.9478565021
 20
366.6008327193
 40
7.1039750066
100
AcDbArc
 50
341.4136204107
 51
357.9333887942
  0
ARC
  5
47A
100
AcDbEntity
  8
0
100
AcDbCircle
 62
7
  6
CONTINUOUS
 10
370.9484548217
 20
366.3436915144
 40
7.1033745023
100
AcDbArc
 50
357.6099478895
 51
357.968398494
  0
ARC
  5
47B
100
AcDbEntity
  8
0
100
AcDbCircle
 62
7
  6
CONTINUOUS
 10
370.9491786967
 20
366.6008949441
 40
7.1026404124
100
AcDbArc
 50
359.9989117499
 51
17.8331992564
  0
ARC
  5
47C
100
AcDbEntity
  8
0
100
AcDbCircle
 62
7
  6
CONTINUOUS
 10
370.9499783637
 20
367.8487836545
 40
6.3620813343
100
AcDbArc
 50
147.1393061674
 51
158.6628269172
  0
ARC
  5
47D
100
AcDbEntity
  8
0
100
AcDbCircle
 62
7
  6
CONTINUOUS
 10
370.9395536663
 20
367.2794714938
 40
6.359992953
100
AcDbArc
 50
269.9643012495
 51
277.1285862837
  0
ARC
  5
47E
100
AcDbEntity
  8
0
100
AcDbCircle
 62
7
  6
CONTINUOUS
 10
370.9378077842
 20
366.6110483535
 40
6.3570096016
100
AcDbArc
 50
298.3345541519
 51
298.9838030552
  0
ARC
  5
47F
100
AcDbEntity
  8
0
100
AcDbCircle
 62
7
  6
CONTINUOUS
 10
370.9435878809
 20
367.4151212599
 40
6.353758639
100
AcDbArc
 50
180.0080047473
 51
188.7003839255
  0
ARC
  5
480
100
AcDbEntity
  8
0
100
AcDbCircle
 62
7
  6
CONTINUOUS
 10
370.9397238306
 20
367.4209916533
 40
6.3528898243
100
AcDbArc
 50
240.1894288643
 51
270.0009512487
  0
ARC
  5
481
100
AcDbEntity
  8
0
100
AcDbCircle
 62
7
  6
CONTINUOUS
 10
370.9386299367
 20
367.8611996582
 40
6.3497853458
100
AcDbArc
 50
199.750665199
 51
270.0108220539
  0
ARC
  5
482
100
AcDbEntity
  8
0
100
AcDbCircle
 62
7
  6
CONTINUOUS
 10
370.9379179569
 20
367.4177655322
 40
6.3491928426
100
AcDbArc
 50
219.0928409326
 51
240.1890958255
  0
ARC
  5
483
100
AcDbEntity
  8
0
100
AcDbCircle
 62
7
  6
CONTINUOUS
 10
370.9402239517
 20
367.2685091684
 40
6.3490322227
100
AcDbArc
 50
277.1348607453
 51
278.4208953887
  0
ARC
  5
484
100
AcDbEntity
  8
0
100
AcDbCircle
 62
7
  6
CONTINUOUS
 10
370.9369517958
 20
367.8552674582
 40
6.3476212238
100
AcDbArc
 50
145.3632466231
 51
147.1246668106
  0
ARC
  5
485
100
AcDbEntity
  8
0
100
AcDbCircle
 62
7
  6
CONTINUOUS
 10
370.9354335719
 20
367.415643699
 40
6.3459266662
100
AcDbArc
 50
214.0004711323
 51
219.0921167582
  0
ARC
  5
486
100
AcDbEntity
  8
0
100
AcDbCircle
 62
7
  6
CONTINUOUS
 10
370.9345318203
 20
367.4149822257
 40
6.3448091888
100
AcDbArc
 50
192.6169499272
 51
214.0000726783
  0
ARC
  5
487
100
AcDbEntity
  8
0
100
AcDbCircle
 62
7
  6
CONTINUOUS
 10
370.9434989217
 20
367.2650534871
 40
6.3447801547
100
AcDbArc
 50
296.937091034
 51
298.8607769148
  0
ARC
  5
488
100
AcDbEntity
  8
0
100
AcDbCircle
 62
7
  6
CONTINUOUS
 10
370.9328384067
 20
367.2656629361
 40
6.3430059976
100
AcDbArc
 50
180.0006095772
 51
194.7385187528
  0
ARC
  5
489
100
AcDbEntity
  8
0
100
AcDbCircle
 62
7
  6
CONTINUOUS
 10
370.9319772959
 20
367.8574858482
 40
6.342147992
100
AcDbArc
 50
158.6768832541
 51
199.7387560455
  0
ARC
  5
48A
100
AcDbEntity
  8
0
100
AcDbCircle
 62
7
  6
CONTINUOUS
 10
370.9465548239
 20
367.0022494055
 40
6.3386704653
100
AcDbArc
 50
297.4225164065
 51
298.7477374041
  0
ARC
  5
48B
100
AcDbEntity
  8
0
100
AcDbCircle
 62
7
  6
CONTINUOUS
 10
370.9282366388
 20
367.4134490672
 40
6.3383311325
100
AcDbArc
 50
188.7064331381
 51
192.6158555305
  0
ARC
  5
48C
100
AcDbEntity
  8
0
100
AcDbCircle
 62
7
  6
CONTINUOUS
 10
370.9343368195
 20
368.1825525261
 40
6.11485019
100
AcDbArc
 50
284.49798695
 51
296.4184118628
  0
ARC
  5
48D
100
AcDbEntity
  8
0
100
AcDbCircle
 62
7
  6
CONTINUOUS
 10
370.9461968647
 20
368.1815903554
 40
6.1142967552
100
AcDbArc
 50
239.5222484164
 51
251.4433913056
  0
ARC
  5
48E
100
AcDbEntity
  8
0
100
AcDbCircle
 62
7
  6
CONTINUOUS
 10
370.9493921631
 20
368.1534726292
 40
6.1070560719
100
AcDbArc
 50
149.4911727944
 51
161.4217190301
  0
ARC
  5
48F
100
AcDbEntity
  8
0
100
AcDbCircle
 62
7
  6
CONTINUOUS
 10
370.9493317431
 20
368.1670403537
 40
6.1065028842
100
AcDbArc
 50
194.5154441923
 51
206.446709603
  0
ARC
  5
490
100
AcDbEntity
  8
0
100
AcDbCircle
 62
7
  6
CONTINUOUS
 10
370.9392420626
 20
367.2901206093
 40
5.8454984611
100
AcDbArc
 50
297.7576419797
 51
299.9751113422
  0
ARC
  5
491
100
AcDbEntity
  8
0
100
AcDbCircle
 62
7
  6
CONTINUOUS
 10
370.9404581526
 20
368.1600808909
 40
5.8426532993
100
AcDbArc
 50
169.6771858374
 51
177.9629921717
  0
ARC
  5
492
100
AcDbEntity
  8
0
100
AcDbCircle
 62
7
  6
CONTINUOUS
 10
370.9402244176
 20
368.1590450349
 40
5.8426090631
100
AcDbArc
 50
161.7040435285
 51
169.6667813612
  0
ARC
  5
493
100
AcDbEntity
  8
0
100
AcDbCircle
 62
7
  6
CONTINUOUS
 10
370.9412478768
 20
368.1646277
 40
5.8418463177
100
AcDbArc
 50
296.6949509439
 51
314.2237610429
  0
ARC
  5
494
100
AcDbEntity
  8
0
100
AcDbCircle
 62
7
  6
CONTINUOUS
 10
370.9325272623
 20
368.1608593277
 40
5.8346952848
100
AcDbArc
 50
179.9995304919
 51
194.2383482626
  0
ARC
  5
495
100
AcDbEntity
  8
0
100
AcDbCircle
 62
7
  6
CONTINUOUS
 10
370.9475136453
 20
368.1621203519
 40
5.2146719407
100
AcDbArc
 50
180.0133298186
 51
190.6369396187
  0
ARC
  5
496
100
AcDbEntity
  8
0
100
AcDbCircle
 62
7
  6
CONTINUOUS
 10
370.9471148722
 20
367.1728533813
 40
3.1883766575
100
AcDbArc
 50
118.8717372645
 51
133.7483790348
  0
ARC
  5
497
100
AcDbEntity
  8
0
100
AcDbCircle
 62
7
  6
CONTINUOUS
 10
370.9353013937
 20
367.1769227136
 40
3.1835413053
100
AcDbArc
 50
46.3002836912
 51
58.1502967767
  0
ARC
  5
498
100
AcDbEntity
  8
0
100
AcDbCircle
 62
7
  6
CONTINUOUS
 10
370.9396151271
 20
367.1760378448
 40
3.1828234528
100
AcDbArc
 50
87.0018378903
 51
89.3442756032
  0
ARC
  5
499
100
AcDbEntity
  8
0
100
AcDbCircle
 62
7
  6
CONTINUOUS
 10
370.9370214591
 20
366.6295952956
 40
3.1807224352
100
AcDbArc
 50
48.3121303253
 51
53.710259517
  0
ARC
  5
49A
100
AcDbEntity
  8
0
100
AcDbCircle
 62
7
  6
CONTINUOUS
 10
370.9398267607
 20
366.6327343108
 40
3.1765395097
100
AcDbArc
 50
53.7175336343
 51
126.8627118538
  0
ARC
  5
49B
100
AcDbEntity
  8
0
100
AcDbCircle
 62
7
  6
CONTINUOUS
 10
370.9398228388
 20
367.1824611087
 40
3.176394358
100
AcDbArc
 50
46.33261115
 51
133.7857320348
  0
ARC
  5
49C
100
AcDbEntity
  8
0
100
AcDbCircle
 62
7
  6
CONTINUOUS
 10
370.943635222
 20
367.1885336079
 40
3.1692810437
100
AcDbArc
 50
58.1675085994
 51
59.8311329225
  0
ARC
  5
49D
100
AcDbEntity
  8
0
100
AcDbCircle
 62
7
  6
CONTINUOUS
 10
370.9448571417
 20
367.1876806177
 40
3.1691427336
100
AcDbArc
 50
45.2289740096
 51
46.3332926666
  0
ARC
  5
49E
100
AcDbEntity
  8
0
100
AcDbCircle
 62
7
  6
CONTINUOUS
 10
370.9354408479
 20
367.1907520401
 40
3.1670663379
100
AcDbArc
 50
117.9406778117
 51
118.8431424387
  0
ARC
  5
49F
100
AcDbEntity
  8
0
100
AcDbCircle
 62
7
  6
CONTINUOUS
 10
370.9483123796
 20
367.1917389839
 40
3.163840672
100
AcDbArc
 50
45.6615711177
 51
46.2852584083
  0
ARC
  5
4A0
100
AcDbEntity
  8
0
100
AcDbCircle
 62
7
  6
CONTINUOUS
 10
370.825529304
 20
377.2420088886
 40
1.5494
100
AcDbArc
 50
180.0
 51
205.4161592444
  0
ARC
  5
4A1
100
AcDbEntity
  8
0
100
AcDbCircle
 62
7
  6
CONTINUOUS
 10
385.3216329437
 20
367.5405542794
 40
12.5945668541
100
AcDbArc
 50
205.3757522567
 51
205.8555652471
  0
ARC
  5
4A2
100
AcDbEntity
  8
0
100
AcDbCircle
 62
7
  6
CONTINUOUS
 10
373.479829304
 20
393.24702407
 40
4.191
100
AcDbArc
 50
0.0
 51
90.0
  0
ARC
  5
4A3
100
AcDbEntity
  8
0
100
AcDbCircle
 62
7
  6
CONTINUOUS
 10
370.825529304
 20
383.4142088886
 40
1.5494
100
AcDbArc
 50
90.0
 51
180.0
  0
ARC
  5
4A4
100
AcDbEntity
  8
0
100
AcDbCircle
 62
7
  6
CONTINUOUS
 10
373.479829304
 20
393.24702407
 40
1.524
100
AcDbArc
 50
0.0
 51
90.0
  0
SPLINE
  5
4A5
100
AcDbEntity
  8
0
100
AcDbSpline
 62
7
  6
CONTINUOUS
 70
0
 71
3
 72
9
 73
5
 74
0
 42
0.0000001
 43
0.0000001
 44
0.0000000001
 40
0.0
 40
0.0
 40
0.0
 40
0.0
 40
0.2540706175
 40
1.0
 40
1.0
 40
1.0
 40
1.0
 10
367.9929686508
 20
356.3192432191
 30
0.0
 10
368.2226317897
 20
356.1756519952
 30
0.0
 10
369.1272720615
 20
355.6116183028
 30
0.0
 10
370.0346556091
 20
355.051992504
 30
0.0
 10
370.7125229251
 20
354.6362282289
 30
0.0
  0
LINE
  5
4A6
100
AcDbEntity
  8
0
100
AcDbLine
 62
7
  6
CONTINUOUS
 10
370.7125229251
 20
354.6362282289
 11
370.8116567526
 21
354.6877233071
  0
SPLINE
  5
4A7
100
AcDbEntity
  8
0
100
AcDbSpline
 62
7
  6
CONTINUOUS
 70
0
 71
3
 72
9
 73
5
 74
0
 42
0.0000001
 43
0.0000001
 44
0.0000000001
 40
0.0
 40
0.0
 40
0.0
 40
0.0
 40
0.2460786821
 40
1.0
 40
1.0
 40
1.0
 40
1.0
 10
365.2734143764
 20
358.0368969535
 30
0.0
 10
365.4959336894
 20
357.8951278764
 30
0.0
 10
366.4006351572
 20
357.3197078365
 30
0.0
 10
367.3075606341
 20
356.7477777088
 30
0.0
 10
367.9929686508
 20
356.3192432191
 30
0.0
  0
SPLINE
  5
4A8
100
AcDbEntity
  8
0
100
AcDbSpline
 62
7
  6
CONTINUOUS
 70
0
 71
3
 72
9
 73
5
 74
0
 42
0.0000001
 43
0.0000001
 44
0.0000000001
 40
0.0
 40
0.0
 40
0.0
 40
0.0
 40
0.5000404058
 40
1.0
 40
1.0
 40
1.0
 40
1.0
 10
367.9929686508
 20
356.4575289849
 30
0.0
 10
367.561618072
 20
356.7272203157
 30
0.0
 10
366.7696125616
 20
357.3887814107
 30
0.0
 10
366.1886003522
 20
358.2416542771
 30
0.0
 10
365.9624470162
 20
358.6972503292
 30
0.0
  0
LINE
  5
4A9
100
AcDbEntity
  8
0
100
AcDbLine
 62
7
  6
CONTINUOUS
 10
370.8116576584
 20
354.7936025659
 11
370.7125229251
 21
354.7398752507
  0
SPLINE
  5
4AA
100
AcDbEntity
  8
0
100
AcDbSpline
 62
7
  6
CONTINUOUS
 70
0
 71
3
 72
9
 73
5
 74
0
 42
0.0000001
 43
0.0000001
 44
0.0000000001
 40
0.0
 40
0.0
 40
0.0
 40
0.0
 40
0.2540706207
 40
1.0
 40
1.0
 40
1.0
 40
1.0
 10
367.9929686508
 20
356.4575289849
 30
0.0
 10
367.763305509
 20
356.6011202106
 30
0.0
 10
366.8586652374
 20
357.1651539035
 30
0.0
 10
365.9512816895
 20
357.7247797019
 30
0.0
 10
365.2734143764
 20
358.1405439752
 30
0.0
  0
SPLINE
  5
4AB
100
AcDbEntity
  8
0
100
AcDbSpline
 62
7
  6
CONTINUOUS
 70
0
 71
3
 72
15
 73
11
 74
0
 42
0.0000001
 43
0.0000001
 44
0.0000000001
 40
0.0
 40
0.0
 40
0.0
 40
0.0
 40
0.1245428759
 40
0.2491555175
 40
0.3738969665
 40
0.498806503
 40
0.6238976124
 40
0.7491576589
 40
0.874539492
 40
1.0
 40
1.0
 40
1.0
 40
1.0
 10
269.974829304
 20
360.6476958163
 30
0.0
 10
269.974829304
 20
360.8536400713
 30
0.0
 10
269.9338655253
 20
361.2668014773
 30
0.0
 10
269.7519297532
 20
361.8617288702
 30
0.0
 10
269.4565265624
 20
362.4101869186
 30
0.0
 10
269.0590381542
 20
362.8907797181
 30
0.0
 10
268.5747904264
 20
363.2851393017
 30
0.0
 10
268.0223399102
 20
363.5781116098
 30
0.0
 10
267.423219182
 20
363.7585294949
 30
0.0
 10
267.0072909565
 20
363.7991279487
 30
0.0
 10
266.799829304
 20
363.7991279487
 30
0.0
  0
SPLINE
  5
4AC
100
AcDbEntity
  8
0
100
AcDbSpline
 62
7
  6
CONTINUOUS
 70
0
 71
3
 72
9
 73
5
 74
0
 42
0.0000001
 43
0.0000001
 44
0.0000000001
 40
0.0
 40
0.0
 40
0.0
 40
0.0
 40
0.2505602367
 40
1.0
 40
1.0
 40
1.0
 40
1.0
 10
261.9879756542
 20
363.8603436168
 30
0.0
 10
261.8518156779
 20
363.6262582189
 30
0.0
 10
261.3108361027
 20
362.6905887046
 30
0.0
 10
260.7791675206
 20
361.7495589988
 30
0.0
 10
260.3840244376
 20
361.0424861176
 30
0.0
  0
SPLINE
  5
4AD
100
AcDbEntity
  8
0
100
AcDbSpline
 62
7
  6
CONTINUOUS
 70
0
 71
3
 72
9
 73
5
 74
0
 42
0.0000001
 43
0.0000001
 44
0.0000000001
 40
0.0
 40
0.0
 40
0.0
 40
0.0
 40
0.5053239415
 40
1.0
 40
1.0
 40
1.0
 40
1.0
 10
266.799829304
 20
366.6178467327
 30
0.0
 10
266.2593691115
 20
366.6178467327
 30
0.0
 10
265.1898122047
 20
366.6066479928
 30
0.0
 10
264.1206730532
 20
366.576055533
 30
0.0
 10
263.5919268708
 20
366.5574923493
 30
0.0
  0
SPLINE
  5
4AE
100
AcDbEntity
  8
0
100
AcDbSpline
 62
7
  6
CONTINUOUS
 70
0
 71
3
 72
9
 73
5
 74
0
 42
0.0000001
 43
0.0000001
 44
0.0000000001
 40
0.0
 40
0.0
 40
0.0
 40
0.0
 40
0.2428239206
 40
1.0
 40
1.0
 40
1.0
 40
1.0
 10
263.5919268708
 20
366.5574923493
 30
0.0
 10
263.4602192889
 20
366.3403094415
 30
0.0
 10
262.9193544562
 20
365.4449765161
 30
0.0
 10
262.3862011745
 20
364.5449704944
 30
0.0
 10
261.9879756542
 20
363.8603436168
 30
0.0
  0
SPLINE
  5
4AF
100
AcDbEntity
  8
0
100
AcDbSpline
 62
7
  6
CONTINUOUS
 70
0
 71
3
 72
9
 73
5
 74
0
 42
0.0000001
 43
0.0000001
 44
0.0000000001
 40
0.0
 40
0.0
 40
0.0
 40
0.0
 40
0.2566000914
 40
1.0
 40
1.0
 40
1.0
 40
1.0
 10
271.6116829538
 20
363.8603436169
 30
0.0
 10
271.4767277783
 20
364.0923577286
 30
0.0
 10
270.9484582609
 20
364.995186358
 30
0.0
 10
270.4109519988
 20
365.8925910002
 30
0.0
 10
270.0077317372
 20
366.5574923493
 30
0.0
  0
SPLINE
  5
4B0
100
AcDbEntity
  8
0
100
AcDbSpline
 62
7
  6
CONTINUOUS
 70
0
 71
3
 72
9
 73
5
 74
0
 42
0.0000001
 43
0.0000001
 44
0.0000000001
 40
0.0
 40
0.0
 40
0.0
 40
0.0
 40
0.4946761349
 40
1.0
 40
1.0
 40
1.0
 40
1.0
 10
270.0077317372
 20
366.5574923493
 30
0.0
 10
269.4789854732
 20
366.5760555359
 30
0.0
 10
268.4098463206
 20
366.6066479492
 30
0.0
 10
267.3402894146
 20
366.6178467327
 30
0.0
 10
266.799829304
 20
366.6178467327
 30
0.0
  0
SPLINE
  5
4B1
100
AcDbEntity
  8
0
100
AcDbSpline
 62
7
  6
CONTINUOUS
 70
0
 71
3
 72
9
 73
5
 74
0
 42
0.0000001
 43
0.0000001
 44
0.0000000001
 40
0.0
 40
0.0
 40
0.0
 40
0.0
 40
0.2511042414
 40
1.0
 40
1.0
 40
1.0
 40
1.0
 10
261.735803733
 20
358.2985771477
 30
0.0
 10
261.621146198
 20
358.4971503558
 30
0.0
 10
261.1662358984
 20
359.2889338395
 30
0.0
 10
260.7176356391
 20
360.0843308243
 30
0.0
 10
260.3840244376
 20
360.6812979575
 30
0.0
  0
SPLINE
  5
4B2
100
AcDbEntity
  8
0
100
AcDbSpline
 62
7
  6
CONTINUOUS
 70
0
 71
3
 72
9
 73
5
 74
0
 42
0.0000001
 43
0.0000001
 44
0.0000000001
 40
0.0
 40
0.0
 40
0.0
 40
0.0
 40
0.2483141183
 40
1.0
 40
1.0
 40
1.0
 40
1.0
 10
273.2156341704
 20
361.0424861176
 30
0.0
 10
273.0847104006
 20
361.2767623863
 30
0.0
 10
272.556034436
 20
362.2194299868
 30
0.0
 10
272.0201651632
 20
363.1580835022
 30
0.0
 10
271.6116829538
 20
363.8603436169
 30
0.0
  0
SPLINE
  5
4B3
100
AcDbEntity
  8
0
100
AcDbSpline
 62
7
  6
CONTINUOUS
 70
0
 71
3
 72
9
 73
5
 74
0
 42
0.0000001
 43
0.0000001
 44
0.0000000001
 40
0.0
 40
0.0
 40
0.0
 40
0.0
 40
0.2482164559
 40
1.0
 40
1.0
 40
1.0
 40
1.0
 10
273.2156341704
 20
360.6812979575
 30
0.0
 10
273.1050610944
 20
360.4834374185
 30
0.0
 10
272.6585664615
 20
359.6868826079
 30
0.0
 10
272.207129143
 20
358.8930873467
 30
0.0
 10
271.8638551298
 20
358.2985775871
 30
0.0
  0
SPLINE
  5
4B4
100
AcDbEntity
  8
0
100
AcDbSpline
 62
7
  6
CONTINUOUS
 70
0
 71
3
 72
15
 73
11
 74
0
 42
0.0000001
 43
0.0000001
 44
0.0000000001
 40
0.0
 40
0.0
 40
0.0
 40
0.0
 40
0.125460508
 40
0.2508423411
 40
0.3761023876
 40
0.501193497
 40
0.6261030335
 40
0.7508444825
 40
0.8754571241
 40
1.0
 40
1.0
 40
1.0
 40
1.0
 10
266.799829304
 20
363.7991279487
 30
0.0
 10
266.5923676515
 20
363.7991279487
 30
0.0
 10
266.1764394259
 20
363.7585294949
 30
0.0
 10
265.5773186978
 20
363.5781116098
 30
0.0
 10
265.0248681815
 20
363.2851393017
 30
0.0
 10
264.5406204538
 20
362.8907797181
 30
0.0
 10
264.1431320455
 20
362.4101869186
 30
0.0
 10
263.8477288547
 20
361.8617288702
 30
0.0
 10
263.6657930827
 20
361.2668014773
 30
0.0
 10
263.624829304
 20
360.8536400713
 30
0.0
 10
263.624829304
 20
360.6476958163
 30
0.0
  0
SPLINE
  5
4B5
100
AcDbEntity
  8
0
100
AcDbSpline
 62
7
  6
CONTINUOUS
 70
0
 71
3
 72
11
 73
7
 74
0
 42
0.0000001
 43
0.0000001
 44
0.0000000001
 40
0.0
 40
0.0
 40
0.0
 40
0.0
 40
0.2493476449
 40
0.4991891776
 40
0.7494623273
 40
1.0
 40
1.0
 40
1.0
 40
1.0
 10
269.9318553784
 20
362.2923454893
 30
0.0
 10
269.7809692504
 20
362.5708896553
 30
0.0
 10
269.4012112403
 20
363.0901648938
 30
0.0
 10
268.6456688244
 20
363.687754706
 30
0.0
 10
267.757636574
 20
364.0647938216
 30
0.0
 10
267.1181273542
 20
364.1505475623
 30
0.0
 10
266.799829304
 20
364.1505475623
 30
0.0
  0
SPLINE
  5
4B6
100
AcDbEntity
  8
0
100
AcDbSpline
 62
7
  6
CONTINUOUS
 70
0
 71
3
 72
13
 73
9
 74
0
 42
0.0000001
 43
0.0000001
 44
0.0000000001
 40
0.0
 40
0.0
 40
0.0
 40
0.0
 40
0.1247621193
 40
0.2496417163
 40
0.4992277346
 40
0.7492294075
 40
0.874599037
 40
1.0
 40
1.0
 40
1.0
 40
1.0
 10
261.9879756542
 20
363.3784466898
 30
0.0
 10
262.1091607998
 20
363.5867874506
 30
0.0
 10
262.379471229
 20
363.9882472087
 30
0.0
 10
263.0194421383
 20
364.7126764633
 30
0.0
 10
263.9907445282
 20
365.4527893434
 30
0.0
 10
265.121228375
 20
365.9167174095
 30
0.0
 10
266.0724626958
 20
366.1043752976
 30
0.0
 10
266.5575729277
 20
366.1359498057
 30
0.0
 10
266.799829304
 20
366.1359498057
 30
0.0
  0
SPLINE
  5
4B7
100
AcDbEntity
  8
0
100
AcDbSpline
 62
7
  6
CONTINUOUS
 70
0
 71
3
 72
13
 73
9
 74
0
 42
0.0000001
 43
0.0000001
 44
0.0000000001
 40
0.0
 40
0.0
 40
0.0
 40
0.0
 40
0.125400963
 40
0.2507705925
 40
0.5007722654
 40
0.7503582837
 40
0.8752378807
 40
1.0
 40
1.0
 40
1.0
 40
1.0
 10
266.799829304
 20
366.1359498057
 30
0.0
 10
267.0420856802
 20
366.1359498057
 30
0.0
 10
267.5271959122
 20
366.1043752976
 30
0.0
 10
268.4784302329
 20
365.9167174095
 30
0.0
 10
269.6089140798
 20
365.4527893434
 30
0.0
 10
270.5802164696
 20
364.7126764633
 30
0.0
 10
271.2201873789
 20
363.9882472087
 30
0.0
 10
271.4904978081
 20
363.5867874506
 30
0.0
 10
271.6116829538
 20
363.3784466898
 30
0.0
  0
SPLINE
  5
4B8
100
AcDbEntity
  8
0
100
AcDbSpline
 62
7
  6
CONTINUOUS
 70
0
 71
3
 72
9
 73
5
 74
0
 42
0.0000001
 43
0.0000001
 44
0.0000000001
 40
0.0
 40
0.0
 40
0.0
 40
0.0
 40
0.4946761264
 40
1.0
 40
1.0
 40
1.0
 40
1.0
 10
263.5919268708
 20
366.1963041892
 30
0.0
 10
264.1206731257
 20
366.1777410029
 30
0.0
 10
265.1898122772
 20
366.1471485435
 30
0.0
 10
266.2593691841
 20
366.1359498057
 30
0.0
 10
266.799829304
 20
366.1359498057
 30
0.0
  0
SPLINE
  5
4B9
100
AcDbEntity
  8
0
100
AcDbSpline
 62
7
  6
CONTINUOUS
 70
0
 71
3
 72
9
 73
5
 74
0
 42
0.0000001
 43
0.0000001
 44
0.0000000001
 40
0.0
 40
0.0
 40
0.0
 40
0.0
 40
0.2505602397
 40
1.0
 40
1.0
 40
1.0
 40
1.0
 10
261.9879756542
 20
363.3784466898
 30
0.0
 10
262.1241356321
 20
363.6125320905
 30
0.0
 10
262.6651152079
 20
364.5482016045
 30
0.0
 10
263.1967837893
 20
365.4892313107
 30
0.0
 10
263.5919268708
 20
366.1963041892
 30
0.0
  0
SPLINE
  5
4BA
100
AcDbEntity
  8
0
100
AcDbSpline
 62
7
  6
CONTINUOUS
 70
0
 71
3
 72
9
 73
5
 74
0
 42
0.0000001
 43
0.0000001
 44
0.0000000001
 40
0.0
 40
0.0
 40
0.0
 40
0.0
 40
0.2483141178
 40
1.0
 40
1.0
 40
1.0
 40
1.0
 10
270.0077317372
 20
366.1963041892
 30
0.0
 10
270.1386555066
 20
365.9620279209
 30
0.0
 10
270.6673314855
 20
365.0193603286
 30
0.0
 10
271.203200744
 20
364.080706805
 30
0.0
 10
271.6116829537
 20
363.3784466899
 30
0.0
  0
SPLINE
  5
4BB
100
AcDbEntity
  8
0
100
AcDbSpline
 62
7
  6
CONTINUOUS
 70
0
 71
3
 72
9
 73
5
 74
0
 42
0.0000001
 43
0.0000001
 44
0.0000000001
 40
0.0
 40
0.0
 40
0.0
 40
0.0
 40
0.5053239244
 40
1.0
 40
1.0
 40
1.0
 40
1.0
 10
266.799829304
 20
366.1359498057
 30
0.0
 10
267.3402894781
 20
366.1359498057
 30
0.0
 10
268.4098463841
 20
366.1471485926
 30
0.0
 10
269.4789855366
 20
366.1777410048
 30
0.0
 10
270.0077317372
 20
366.1963041892
 30
0.0
  0
SPLINE
  5
4BC
100
AcDbEntity
  8
0
100
AcDbSpline
 62
7
  6
CONTINUOUS
 70
0
 71
3
 72
9
 73
5
 74
0
 42
0.0000001
 43
0.0000001
 44
0.0000000001
 40
0.0
 40
0.0
 40
0.0
 40
0.0
 40
0.2566000947
 40
1.0
 40
1.0
 40
1.0
 40
1.0
 10
271.6116829537
 20
363.3784466899
 30
0.0
 10
271.7466381309
 20
363.1464325751
 30
0.0
 10
272.2749076477
 20
362.2436039453
 30
0.0
 10
272.8124139105
 20
361.3461993036
 30
0.0
 10
273.2156341704
 20
360.6812979575
 30
0.0
  0
SPLINE
  5
4BD
100
AcDbEntity
  8
0
100
AcDbSpline
 62
7
  6
CONTINUOUS
 70
0
 71
3
 72
9
 73
5
 74
0
 42
0.0000001
 43
0.0000001
 44
0.0000000001
 40
0.0
 40
0.0
 40
0.0
 40
0.0
 40
0.2428239267
 40
1.0
 40
1.0
 40
1.0
 40
1.0
 10
260.3840244376
 20
360.6812979575
 30
0.0
 10
260.5157320228
 20
360.8984808707
 30
0.0
 10
261.0565968405
 20
361.7938138052
 30
0.0
 10
261.5897501371
 20
362.6938198178
 30
0.0
 10
261.9879756542
 20
363.3784466898
 30
0.0
  0
SPLINE
  5
4BE
100
AcDbEntity
  8
0
100
AcDbSpline
 62
7
  6
CONTINUOUS
 70
0
 71
3
 72
11
 73
7
 74
0
 42
0.0000001
 43
0.0000001
 44
0.0000000001
 40
0.0
 40
0.0
 40
0.0
 40
0.0
 40
0.2505335026
 40
0.5008063551
 40
0.7506497536
 40
1.0
 40
1.0
 40
1.0
 40
1.0
 10
266.799829304
 20
364.1505475623
 30
0.0
 10
266.481560837
 20
364.1505475623
 30
0.0
 10
265.8421066723
 20
364.0648094811
 30
0.0
 10
264.9541336976
 20
363.6878323541
 30
0.0
 10
264.198612166
 20
363.0903281502
 30
0.0
 10
263.8188435599
 20
362.5711160454
 30
0.0
 10
263.6679435064
 20
362.2926031543
 30
0.0
  0
SPLINE
  5
4BF
100
AcDbEntity
  8
0
100
AcDbSpline
 62
7
  6
CONTINUOUS
 70
0
 71
3
 72
11
 73
7
 74
0
 42
0.0000001
 43
0.0000001
 44
0.0000000001
 40
0.0
 40
0.0
 40
0.0
 40
0.0
 40
0.2898731626
 40
0.5477930395
 40
0.7808326306
 40
1.0
 40
1.0
 40
1.0
 40
1.0
 10
118.2116844647
 20
327.5995680601
 30
0.0
 10
118.1604514699
 20
327.6414733998
 30
0.0
 10
118.0686158588
 20
327.7272603014
 30
0.0
 10
117.9612013043
 20
327.871027776
 30
0.0
 10
117.8948488977
 20
328.0207254723
 30
0.0
 10
117.8796355251
 20
328.12448706
 30
0.0
 10
117.8796355251
 20
328.1745306466
 30
0.0
  0
SPLINE
  5
4C0
100
AcDbEntity
  8
0
100
AcDbSpline
 62
7
  6
CONTINUOUS
 70
0
 71
3
 72
13
 73
9
 74
0
 42
0.0000001
 43
0.0000001
 44
0.0000000001
 40
0.0
 40
0.0
 40
0.0
 40
0.0
 40
0.0909900199
 40
0.1940742232
 40
0.3086757105
 40
0.4336111231
 40
0.7075637916
 40
1.0
 40
1.0
 40
1.0
 40
1.0
 10
123.4426988497
 20
327.2274818098
 30
0.0
 10
123.3839830847
 20
327.1794484259
 30
0.0
 10
123.2494987097
 20
327.0881871512
 30
0.0
 10
123.0194139053
 20
326.9718537613
 30
0.0
 10
122.752317878
 20
326.8693796152
 30
0.0
 10
122.3407032291
 20
326.7502605353
 30
0.0
 10
121.7710186836
 20
326.6516988355
 30
0.0
 10
121.2984387359
 20
326.6256829271
 30
0.0
 10
121.054629304
 20
326.6256829271
 30
0.0
  0
SPLINE
  5
4C1
100
AcDbEntity
  8
0
100
AcDbSpline
 62
7
  6
CONTINUOUS
 70
0
 71
3
 72
11
 73
7
 74
0
 42
0.0000001
 43
0.0000001
 44
0.0000000001
 40
0.0
 40
0.0
 40
0.0
 40
0.0
 40
0.2191673694
 40
0.4522069605
 40
0.7101268374
 40
1.0
 40
1.0
 40
1.0
 40
1.0
 10
124.2296230829
 20
328.1745306466
 30
0.0
 10
124.2296230829
 20
328.12448706
 30
0.0
 10
124.2144097102
 20
328.0207254723
 30
0.0
 10
124.1480573037
 20
327.871027776
 30
0.0
 10
124.0406427492
 20
327.7272603014
 30
0.0
 10
123.948807138
 20
327.6414733998
 30
0.0
 10
123.8975741433
 20
327.5995680601
 30
0.0
  0
SPLINE
  5
4C2
100
AcDbEntity
  8
0
100
AcDbSpline
 62
7
  6
CONTINUOUS
 70
0
 71
3
 72
13
 73
9
 74
0
 42
0.0000001
 43
0.0000001
 44
0.0000000001
 40
0.0
 40
0.0
 40
0.0
 40
0.0
 40
0.2924318529
 40
0.5663839464
 40
0.6913201281
 40
0.8059229769
 40
0.909008643
 40
1.0
 40
1.0
 40
1.0
 40
1.0
 10
121.054629304
 20
326.6256829271
 30
0.0
 10
120.8108235091
 20
326.6256829271
 30
0.0
 10
120.3382476938
 20
326.6516981437
 30
0.0
 10
119.768566434
 20
326.7502581925
 30
0.0
 10
119.3569501789
 20
326.8693763043
 30
0.0
 10
119.0898510115
 20
326.9718506892
 30
0.0
 10
118.8597630094
 20
327.0881854092
 30
0.0
 10
118.7252764298
 20
327.1794476524
 30
0.0
 10
118.6665598772
 20
327.227481831
 30
0.0
  0
SPLINE
  5
4C3
100
AcDbEntity
  8
0
100
AcDbSpline
 62
7
  6
CONTINUOUS
 70
0
 71
3
 72
20
 73
16
 74
0
 42
0.0000001
 43
0.0000001
 44
0.0000000001
 40
0.0
 40
0.0
 40
0.0
 40
0.0
 40
0.0499916578
 40
0.0939873561
 40
0.1336030318
 40
0.1713384319
 40
0.2101785861
 40
0.252814948
 40
0.301104401
 40
0.3560371376
 40
0.4179346465
 40
0.4866416238
 40
0.6421539752
 40
0.8161877595
 40
1.0
 40
1.0
 40
1.0
 40
1.0
 10
118.6665598772
 20
327.227481831
 30
0.0
 10
118.6194650456
 20
327.2660086425
 30
0.0
 10
118.5358397024
 20
327.3450445225
 30
0.0
 10
118.4414484687
 20
327.4791272479
 30
0.0
 10
118.389450394
 20
327.6195502057
 30
0.0
 10
118.3832218009
 20
327.7632720747
 30
0.0
 10
118.4233353477
 20
327.9049969339
 30
0.0
 10
118.5068106544
 20
328.040910153
 30
0.0
 10
118.6305203918
 20
328.1696624643
 30
0.0
 10
118.7921555185
 20
328.2902471047
 30
0.0
 10
118.9893165561
 20
328.401350011
 30
0.0
 10
119.309067693
 20
328.5404873565
 30
0.0
 10
119.7767210472
 20
328.6753248156
 30
0.0
 10
120.3949631044
 20
328.7731901301
 30
0.0
 10
120.8309071057
 20
328.7952161812
 30
0.0
 10
121.054629304
 20
328.7952161812
 30
0.0
  0
SPLINE
  5
4C4
100
AcDbEntity
  8
0
100
AcDbSpline
 62
7
  6
CONTINUOUS
 70
0
 71
3
 72
17
 73
13
 74
0
 42
0.0000001
 43
0.0000001
 44
0.0000000001
 40
0.0
 40
0.0
 40
0.0
 40
0.0
 40
0.1692593176
 40
0.333103422
 40
0.4864770345
 40
0.6249644975
 40
0.7452854044
 40
0.845948323
 40
0.889338468
 40
0.9287570352
 40
0.9651893477
 40
1.0
 40
1.0
 40
1.0
 40
1.0
 10
121.054629304
 20
329.4659194884
 30
0.0
 10
121.2612722507
 20
329.4659194884
 30
0.0
 10
121.6681411294
 20
329.4498864973
 30
0.0
 10
122.2584212535
 20
329.3782739153
 30
0.0
 10
122.8033600396
 20
329.2621008396
 30
0.0
 10
123.2829673516
 20
329.1057459857
 30
0.0
 10
123.6798257994
 20
328.9151753213
 30
0.0
 10
123.9435155283
 20
328.7235022217
 30
0.0
 10
124.0934018026
 20
328.5559103549
 30
0.0
 10
124.1712247652
 20
328.4318742012
 30
0.0
 10
124.2188380908
 20
328.3043379488
 30
0.0
 10
124.2296230829
 20
328.2170297886
 30
0.0
 10
124.2296230829
 20
328.1745306466
 30
0.0
  0
SPLINE
  5
4C5
100
AcDbEntity
  8
0
100
AcDbSpline
 62
7
  6
CONTINUOUS
 70
0
 71
3
 72
20
 73
16
 74
0
 42
0.0000001
 43
0.0000001
 44
0.0000000001
 40
0.0
 40
0.0
 40
0.0
 40
0.0
 40
0.1838095414
 40
0.3578428504
 40
0.5133561723
 40
0.5820640929
 40
0.6439625492
 40
0.6988960267
 40
0.7471860062
 40
0.7898225917
 40
0.8286627814
 40
0.8663981384
 40
0.906013658
 40
0.9500090342
 40
1.0
 40
1.0
 40
1.0
 40
1.0
 10
121.054629304
 20
328.7952161812
 30
0.0
 10
121.2783482134
 20
328.7952161812
 30
0.0
 10
121.7142883031
 20
328.7731905374
 30
0.0
 10
122.33252796
 20
328.6753272838
 30
0.0
 10
122.8001831997
 20
328.5404900491
 30
0.0
 10
123.1199378967
 20
328.4013521829
 30
0.0
 10
123.3171019412
 20
328.2902480203
 30
0.0
 10
123.4787390621
 20
328.1696615323
 30
0.0
 10
123.6024500193
 20
328.0409078479
 30
0.0
 10
123.6859250662
 20
327.9049932018
 30
0.0
 10
123.7260369214
 20
327.7632676067
 30
0.0
 10
123.7198074626
 20
327.6195460554
 30
0.0
 10
123.6678087264
 20
327.4791239756
 30
0.0
 10
123.5734172767
 20
327.3450432447
 30
0.0
 10
123.4897930877
 20
327.266008015
 30
0.0
 10
123.4426988497
 20
327.2274818098
 30
0.0
  0
SPLINE
  5
4C6
100
AcDbEntity
  8
0
100
AcDbSpline
 62
7
  6
CONTINUOUS
 70
0
 71
3
 72
17
 73
13
 74
0
 42
0.0000001
 43
0.0000001
 44
0.0000000001
 40
0.0
 40
0.0
 40
0.0
 40
0.0
 40
0.0348106523
 40
0.0712429648
 40
0.110661532
 40
0.154051677
 40
0.2547145956
 40
0.3750355025
 40
0.5135229655
 40
0.666896578
 40
0.8307406824
 40
1.0
 40
1.0
 40
1.0
 40
1.0
 10
117.8796355251
 20
328.1745306466
 30
0.0
 10
117.8796355251
 20
328.2170297886
 30
0.0
 10
117.8904205171
 20
328.3043379488
 30
0.0
 10
117.9380338428
 20
328.4318742012
 30
0.0
 10
118.0158568053
 20
328.5559103549
 30
0.0
 10
118.1657430796
 20
328.7235022217
 30
0.0
 10
118.4294328086
 20
328.9151753213
 30
0.0
 10
118.8262912564
 20
329.1057459857
 30
0.0
 10
119.3058985684
 20
329.2621008396
 30
0.0
 10
119.8508373545
 20
329.3782739153
 30
0.0
 10
120.4411174785
 20
329.4498864973
 30
0.0
 10
120.8479863572
 20
329.4659194884
 30
0.0
 10
121.054629304
 20
329.4659194884
 30
0.0
  0
SPLINE
  5
4C7
100
AcDbEntity
  8
0
100
AcDbSpline
 62
7
  6
CONTINUOUS
 70
0
 71
3
 72
11
 73
7
 74
0
 42
0.0000001
 43
0.0000001
 44
0.0000000001
 40
0.0
 40
0.0
 40
0.0
 40
0.0
 40
0.2898731626
 40
0.5477930395
 40
0.7808326306
 40
1.0
 40
1.0
 40
1.0
 40
1.0
 10
213.4616844647
 20
327.5995680601
 30
0.0
 10
213.4104514699
 20
327.6414733998
 30
0.0
 10
213.3186158588
 20
327.7272603014
 30
0.0
 10
213.2112013043
 20
327.871027776
 30
0.0
 10
213.1448488977
 20
328.0207254723
 30
0.0
 10
213.1296355251
 20
328.12448706
 30
0.0
 10
213.1296355251
 20
328.1745306466
 30
0.0
  0
SPLINE
  5
4C8
100
AcDbEntity
  8
0
100
AcDbSpline
 62
7
  6
CONTINUOUS
 70
0
 71
3
 72
13
 73
9
 74
0
 42
0.0000001
 43
0.0000001
 44
0.0000000001
 40
0.0
 40
0.0
 40
0.0
 40
0.0
 40
0.0909900199
 40
0.1940742232
 40
0.3086757105
 40
0.4336111231
 40
0.7075637916
 40
1.0
 40
1.0
 40
1.0
 40
1.0
 10
218.6926988497
 20
327.2274818098
 30
0.0
 10
218.6339830847
 20
327.1794484259
 30
0.0
 10
218.4994987097
 20
327.0881871512
 30
0.0
 10
218.2694139053
 20
326.9718537613
 30
0.0
 10
218.002317878
 20
326.8693796152
 30
0.0
 10
217.5907032291
 20
326.7502605353
 30
0.0
 10
217.0210186836
 20
326.6516988355
 30
0.0
 10
216.5484387359
 20
326.6256829271
 30
0.0
 10
216.304629304
 20
326.6256829271
 30
0.0
  0
SPLINE
  5
4C9
100
AcDbEntity
  8
0
100
AcDbSpline
 62
7
  6
CONTINUOUS
 70
0
 71
3
 72
11
 73
7
 74
0
 42
0.0000001
 43
0.0000001
 44
0.0000000001
 40
0.0
 40
0.0
 40
0.0
 40
0.0
 40
0.2191673694
 40
0.4522069605
 40
0.7101268374
 40
1.0
 40
1.0
 40
1.0
 40
1.0
 10
219.4796230829
 20
328.1745306466
 30
0.0
 10
219.4796230829
 20
328.12448706
 30
0.0
 10
219.4644097102
 20
328.0207254723
 30
0.0
 10
219.3980573037
 20
327.871027776
 30
0.0
 10
219.2906427492
 20
327.7272603014
 30
0.0
 10
219.198807138
 20
327.6414733998
 30
0.0
 10
219.1475741433
 20
327.5995680601
 30
0.0
  0
SPLINE
  5
4CA
100
AcDbEntity
  8
0
100
AcDbSpline
 62
7
  6
CONTINUOUS
 70
0
 71
3
 72
13
 73
9
 74
0
 42
0.0000001
 43
0.0000001
 44
0.0000000001
 40
0.0
 40
0.0
 40
0.0
 40
0.0
 40
0.2924318529
 40
0.5663839464
 40
0.6913201281
 40
0.8059229769
 40
0.909008643
 40
1.0
 40
1.0
 40
1.0
 40
1.0
 10
216.304629304
 20
326.6256829271
 30
0.0
 10
216.0608235091
 20
326.6256829271
 30
0.0
 10
215.5882476938
 20
326.6516981437
 30
0.0
 10
215.018566434
 20
326.7502581925
 30
0.0
 10
214.6069501789
 20
326.8693763043
 30
0.0
 10
214.3398510115
 20
326.9718506892
 30
0.0
 10
214.1097630094
 20
327.0881854092
 30
0.0
 10
213.9752764298
 20
327.1794476524
 30
0.0
 10
213.9165598772
 20
327.227481831
 30
0.0
  0
SPLINE
  5
4CB
100
AcDbEntity
  8
0
100
AcDbSpline
 62
7
  6
CONTINUOUS
 70
0
 71
3
 72
20
 73
16
 74
0
 42
0.0000001
 43
0.0000001
 44
0.0000000001
 40
0.0
 40
0.0
 40
0.0
 40
0.0
 40
0.0499916578
 40
0.0939873561
 40
0.1336030318
 40
0.1713384319
 40
0.2101785861
 40
0.252814948
 40
0.301104401
 40
0.3560371376
 40
0.4179346465
 40
0.4866416238
 40
0.6421539752
 40
0.8161877595
 40
1.0
 40
1.0
 40
1.0
 40
1.0
 10
213.9165598772
 20
327.227481831
 30
0.0
 10
213.8694650456
 20
327.2660086425
 30
0.0
 10
213.7858397024
 20
327.3450445225
 30
0.0
 10
213.6914484687
 20
327.4791272479
 30
0.0
 10
213.639450394
 20
327.6195502057
 30
0.0
 10
213.6332218009
 20
327.7632720747
 30
0.0
 10
213.6733353477
 20
327.9049969339
 30
0.0
 10
213.7568106544
 20
328.040910153
 30
0.0
 10
213.8805203918
 20
328.1696624643
 30
0.0
 10
214.0421555185
 20
328.2902471047
 30
0.0
 10
214.2393165561
 20
328.401350011
 30
0.0
 10
214.559067693
 20
328.5404873565
 30
0.0
 10
215.0267210472
 20
328.6753248156
 30
0.0
 10
215.6449631044
 20
328.7731901301
 30
0.0
 10
216.0809071057
 20
328.7952161812
 30
0.0
 10
216.304629304
 20
328.7952161812
 30
0.0
  0
SPLINE
  5
4CC
100
AcDbEntity
  8
0
100
AcDbSpline
 62
7
  6
CONTINUOUS
 70
0
 71
3
 72
17
 73
13
 74
0
 42
0.0000001
 43
0.0000001
 44
0.0000000001
 40
0.0
 40
0.0
 40
0.0
 40
0.0
 40
0.1692593176
 40
0.333103422
 40
0.4864770345
 40
0.6249644975
 40
0.7452854044
 40
0.845948323
 40
0.889338468
 40
0.9287570352
 40
0.9651893477
 40
1.0
 40
1.0
 40
1.0
 40
1.0
 10
216.304629304
 20
329.4659194884
 30
0.0
 10
216.5112722507
 20
329.4659194884
 30
0.0
 10
216.9181411294
 20
329.4498864973
 30
0.0
 10
217.5084212535
 20
329.3782739153
 30
0.0
 10
218.0533600396
 20
329.2621008396
 30
0.0
 10
218.5329673516
 20
329.1057459857
 30
0.0
 10
218.9298257994
 20
328.9151753213
 30
0.0
 10
219.1935155283
 20
328.7235022217
 30
0.0
 10
219.3434018026
 20
328.5559103549
 30
0.0
 10
219.4212247652
 20
328.4318742012
 30
0.0
 10
219.4688380908
 20
328.3043379488
 30
0.0
 10
219.4796230829
 20
328.2170297886
 30
0.0
 10
219.4796230829
 20
328.1745306466
 30
0.0
  0
SPLINE
  5
4CD
100
AcDbEntity
  8
0
100
AcDbSpline
 62
7
  6
CONTINUOUS
 70
0
 71
3
 72
20
 73
16
 74
0
 42
0.0000001
 43
0.0000001
 44
0.0000000001
 40
0.0
 40
0.0
 40
0.0
 40
0.0
 40
0.1838095414
 40
0.3578428504
 40
0.5133561723
 40
0.5820640929
 40
0.6439625492
 40
0.6988960267
 40
0.7471860062
 40
0.7898225917
 40
0.8286627814
 40
0.8663981384
 40
0.906013658
 40
0.9500090342
 40
1.0
 40
1.0
 40
1.0
 40
1.0
 10
216.304629304
 20
328.7952161812
 30
0.0
 10
216.5283482134
 20
328.7952161812
 30
0.0
 10
216.9642883031
 20
328.7731905374
 30
0.0
 10
217.58252796
 20
328.6753272838
 30
0.0
 10
218.0501831997
 20
328.5404900491
 30
0.0
 10
218.3699378967
 20
328.4013521829
 30
0.0
 10
218.5671019412
 20
328.2902480203
 30
0.0
 10
218.7287390621
 20
328.1696615323
 30
0.0
 10
218.8524500193
 20
328.0409078479
 30
0.0
 10
218.9359250662
 20
327.9049932018
 30
0.0
 10
218.9760369214
 20
327.7632676067
 30
0.0
 10
218.9698074626
 20
327.6195460554
 30
0.0
 10
218.9178087264
 20
327.4791239756
 30
0.0
 10
218.8234172767
 20
327.3450432447
 30
0.0
 10
218.7397930877
 20
327.266008015
 30
0.0
 10
218.6926988497
 20
327.2274818098
 30
0.0
  0
SPLINE
  5
4CE
100
AcDbEntity
  8
0
100
AcDbSpline
 62
7
  6
CONTINUOUS
 70
0
 71
3
 72
17
 73
13
 74
0
 42
0.0000001
 43
0.0000001
 44
0.0000000001
 40
0.0
 40
0.0
 40
0.0
 40
0.0
 40
0.0348106523
 40
0.0712429648
 40
0.110661532
 40
0.154051677
 40
0.2547145956
 40
0.3750355025
 40
0.5135229655
 40
0.666896578
 40
0.8307406824
 40
1.0
 40
1.0
 40
1.0
 40
1.0
 10
213.1296355251
 20
328.1745306466
 30
0.0
 10
213.1296355251
 20
328.2170297886
 30
0.0
 10
213.1404205171
 20
328.3043379488
 30
0.0
 10
213.1880338428
 20
328.4318742012
 30
0.0
 10
213.2658568053
 20
328.5559103549
 30
0.0
 10
213.4157430796
 20
328.7235022217
 30
0.0
 10
213.6794328086
 20
328.9151753213
 30
0.0
 10
214.0762912564
 20
329.1057459857
 30
0.0
 10
214.5558985684
 20
329.2621008396
 30
0.0
 10
215.1008373545
 20
329.3782739153
 30
0.0
 10
215.6911174785
 20
329.4498864973
 30
0.0
 10
216.0979863572
 20
329.4659194884
 30
0.0
 10
216.304629304
 20
329.4659194884
 30
0.0
  0
SPLINE
  5
4CF
100
AcDbEntity
  8
0
100
AcDbSpline
 62
7
  6
CONTINUOUS
 70
0
 71
3
 72
11
 73
7
 74
0
 42
0.0000001
 43
0.0000001
 44
0.0000000001
 40
0.0
 40
0.0
 40
0.0
 40
0.0
 40
0.2898731626
 40
0.5477930395
 40
0.7808326306
 40
1.0
 40
1.0
 40
1.0
 40
1.0
 10
92.7227844647
 20
328.8393013482
 30
0.0
 10
92.6715514699
 20
328.8812066879
 30
0.0
 10
92.5797158588
 20
328.9669935895
 30
0.0
 10
92.4723013043
 20
329.1107610641
 30
0.0
 10
92.4059488977
 20
329.2604587604
 30
0.0
 10
92.3907355251
 20
329.3642203481
 30
0.0
 10
92.3907355251
 20
329.4142639347
 30
0.0
  0
SPLINE
  5
4D0
100
AcDbEntity
  8
0
100
AcDbSpline
 62
7
  6
CONTINUOUS
 70
0
 71
3
 72
13
 73
9
 74
0
 42
0.0000001
 43
0.0000001
 44
0.0000000001
 40
0.0
 40
0.0
 40
0.0
 40
0.0
 40
0.0909900199
 40
0.1940742232
 40
0.3086757105
 40
0.4336111231
 40
0.7075637916
 40
1.0
 40
1.0
 40
1.0
 40
1.0
 10
97.9537988497
 20
328.4672150979
 30
0.0
 10
97.8950830847
 20
328.419181714
 30
0.0
 10
97.7605987097
 20
328.3279204393
 30
0.0
 10
97.5305139053
 20
328.2115870494
 30
0.0
 10
97.263417878
 20
328.1091129032
 30
0.0
 10
96.8518032291
 20
327.9899938234
 30
0.0
 10
96.2821186836
 20
327.8914321236
 30
0.0
 10
95.8095387359
 20
327.8654162152
 30
0.0
 10
95.565729304
 20
327.8654162152
 30
0.0
  0
SPLINE
  5
4D1
100
AcDbEntity
  8
0
100
AcDbSpline
 62
7
  6
CONTINUOUS
 70
0
 71
3
 72
11
 73
7
 74
0
 42
0.0000001
 43
0.0000001
 44
0.0000000001
 40
0.0
 40
0.0
 40
0.0
 40
0.0
 40
0.2191673694
 40
0.4522069605
 40
0.7101268374
 40
1.0
 40
1.0
 40
1.0
 40
1.0
 10
98.7407230829
 20
329.4142639347
 30
0.0
 10
98.7407230829
 20
329.3642203481
 30
0.0
 10
98.7255097102
 20
329.2604587604
 30
0.0
 10
98.6591573037
 20
329.1107610641
 30
0.0
 10
98.5517427492
 20
328.9669935895
 30
0.0
 10
98.459907138
 20
328.8812066879
 30
0.0
 10
98.4086741433
 20
328.8393013482
 30
0.0
  0
SPLINE
  5
4D2
100
AcDbEntity
  8
0
100
AcDbSpline
 62
7
  6
CONTINUOUS
 70
0
 71
3
 72
13
 73
9
 74
0
 42
0.0000001
 43
0.0000001
 44
0.0000000001
 40
0.0
 40
0.0
 40
0.0
 40
0.0
 40
0.2924318529
 40
0.5663839464
 40
0.6913201281
 40
0.8059229769
 40
0.909008643
 40
1.0
 40
1.0
 40
1.0
 40
1.0
 10
95.565729304
 20
327.8654162152
 30
0.0
 10
95.3219235091
 20
327.8654162152
 30
0.0
 10
94.8493476938
 20
327.8914314318
 30
0.0
 10
94.279666434
 20
327.9899914806
 30
0.0
 10
93.8680501789
 20
328.1091095924
 30
0.0
 10
93.6009510115
 20
328.2115839773
 30
0.0
 10
93.3708630094
 20
328.3279186973
 30
0.0
 10
93.2363764298
 20
328.4191809405
 30
0.0
 10
93.1776598772
 20
328.4672151191
 30
0.0
  0
SPLINE
  5
4D3
100
AcDbEntity
  8
0
100
AcDbSpline
 62
7
  6
CONTINUOUS
 70
0
 71
3
 72
20
 73
16
 74
0
 42
0.0000001
 43
0.0000001
 44
0.0000000001
 40
0.0
 40
0.0
 40
0.0
 40
0.0
 40
0.0499916578
 40
0.0939873561
 40
0.1336030318
 40
0.1713384319
 40
0.2101785861
 40
0.252814948
 40
0.301104401
 40
0.3560371376
 40
0.4179346465
 40
0.4866416238
 40
0.6421539752
 40
0.8161877595
 40
1.0
 40
1.0
 40
1.0
 40
1.0
 10
93.1776598772
 20
328.4672151191
 30
0.0
 10
93.1305650456
 20
328.5057419306
 30
0.0
 10
93.0469397024
 20
328.5847778106
 30
0.0
 10
92.9525484687
 20
328.718860536
 30
0.0
 10
92.900550394
 20
328.8592834938
 30
0.0
 10
92.8943218009
 20
329.0030053628
 30
0.0
 10
92.9344353477
 20
329.144730222
 30
0.0
 10
93.0179106544
 20
329.2806434411
 30
0.0
 10
93.1416203918
 20
329.4093957524
 30
0.0
 10
93.3032555185
 20
329.5299803928
 30
0.0
 10
93.5004165561
 20
329.6410832991
 30
0.0
 10
93.820167693
 20
329.7802206446
 30
0.0
 10
94.2878210472
 20
329.9150581037
 30
0.0
 10
94.9060631044
 20
330.0129234181
 30
0.0
 10
95.3420071057
 20
330.0349494693
 30
0.0
 10
95.565729304
 20
330.0349494693
 30
0.0
  0
SPLINE
  5
4D4
100
AcDbEntity
  8
0
100
AcDbSpline
 62
7
  6
CONTINUOUS
 70
0
 71
3
 72
17
 73
13
 74
0
 42
0.0000001
 43
0.0000001
 44
0.0000000001
 40
0.0
 40
0.0
 40
0.0
 40
0.0
 40
0.1692593176
 40
0.333103422
 40
0.4864770345
 40
0.6249644975
 40
0.7452854044
 40
0.845948323
 40
0.889338468
 40
0.9287570352
 40
0.9651893477
 40
1.0
 40
1.0
 40
1.0
 40
1.0
 10
95.565729304
 20
330.7056527765
 30
0.0
 10
95.7723722507
 20
330.7056527765
 30
0.0
 10
96.1792411294
 20
330.6896197854
 30
0.0
 10
96.7695212535
 20
330.6180072034
 30
0.0
 10
97.3144600396
 20
330.5018341277
 30
0.0
 10
97.7940673516
 20
330.3454792738
 30
0.0
 10
98.1909257994
 20
330.1549086094
 30
0.0
 10
98.4546155283
 20
329.9632355098
 30
0.0
 10
98.6045018026
 20
329.795643643
 30
0.0
 10
98.6823247652
 20
329.6716074893
 30
0.0
 10
98.7299380908
 20
329.5440712369
 30
0.0
 10
98.7407230829
 20
329.4567630767
 30
0.0
 10
98.7407230829
 20
329.4142639347
 30
0.0
  0
SPLINE
  5
4D5
100
AcDbEntity
  8
0
100
AcDbSpline
 62
7
  6
CONTINUOUS
 70
0
 71
3
 72
20
 73
16
 74
0
 42
0.0000001
 43
0.0000001
 44
0.0000000001
 40
0.0
 40
0.0
 40
0.0
 40
0.0
 40
0.1838095414
 40
0.3578428504
 40
0.5133561723
 40
0.5820640929
 40
0.6439625492
 40
0.6988960267
 40
0.7471860062
 40
0.7898225917
 40
0.8286627814
 40
0.8663981384
 40
0.906013658
 40
0.9500090342
 40
1.0
 40
1.0
 40
1.0
 40
1.0
 10
95.565729304
 20
330.0349494693
 30
0.0
 10
95.7894482134
 20
330.0349494693
 30
0.0
 10
96.2253883031
 20
330.0129238255
 30
0.0
 10
96.84362796
 20
329.9150605719
 30
0.0
 10
97.3112831997
 20
329.7802233372
 30
0.0
 10
97.6310378967
 20
329.641085471
 30
0.0
 10
97.8282019412
 20
329.5299813083
 30
0.0
 10
97.9898390621
 20
329.4093948204
 30
0.0
 10
98.1135500193
 20
329.280641136
 30
0.0
 10
98.1970250662
 20
329.1447264899
 30
0.0
 10
98.2371369214
 20
329.0030008948
 30
0.0
 10
98.2309074626
 20
328.8592793435
 30
0.0
 10
98.1789087264
 20
328.7188572637
 30
0.0
 10
98.0845172767
 20
328.5847765328
 30
0.0
 10
98.0008930877
 20
328.5057413031
 30
0.0
 10
97.9537988497
 20
328.4672150979
 30
0.0
  0
SPLINE
  5
4D6
100
AcDbEntity
  8
0
100
AcDbSpline
 62
7
  6
CONTINUOUS
 70
0
 71
3
 72
17
 73
13
 74
0
 42
0.0000001
 43
0.0000001
 44
0.0000000001
 40
0.0
 40
0.0
 40
0.0
 40
0.0
 40
0.0348106523
 40
0.0712429648
 40
0.110661532
 40
0.154051677
 40
0.2547145956
 40
0.3750355025
 40
0.5135229655
 40
0.666896578
 40
0.8307406824
 40
1.0
 40
1.0
 40
1.0
 40
1.0
 10
92.3907355251
 20
329.4142639347
 30
0.0
 10
92.3907355251
 20
329.4567630767
 30
0.0
 10
92.4015205171
 20
329.5440712369
 30
0.0
 10
92.4491338428
 20
329.6716074893
 30
0.0
 10
92.5269568053
 20
329.795643643
 30
0.0
 10
92.6768430796
 20
329.9632355098
 30
0.0
 10
92.9405328086
 20
330.1549086094
 30
0.0
 10
93.3373912564
 20
330.3454792738
 30
0.0
 10
93.8169985684
 20
330.5018341277
 30
0.0
 10
94.3619373545
 20
330.6180072034
 30
0.0
 10
94.9522174785
 20
330.6896197854
 30
0.0
 10
95.3590863572
 20
330.7056527765
 30
0.0
 10
95.565729304
 20
330.7056527765
 30
0.0
  0
SPLINE
  5
4D7
100
AcDbEntity
  8
0
100
AcDbSpline
 62
7
  6
CONTINUOUS
 70
0
 71
3
 72
11
 73
7
 74
0
 42
0.0000001
 43
0.0000001
 44
0.0000000001
 40
0.0
 40
0.0
 40
0.0
 40
0.0
 40
0.2898731626
 40
0.5477930395
 40
0.7808326306
 40
1.0
 40
1.0
 40
1.0
 40
1.0
 10
187.9727844647
 20
328.8393013482
 30
0.0
 10
187.9215514699
 20
328.8812066879
 30
0.0
 10
187.8297158588
 20
328.9669935895
 30
0.0
 10
187.7223013043
 20
329.1107610641
 30
0.0
 10
187.6559488977
 20
329.2604587604
 30
0.0
 10
187.6407355251
 20
329.3642203481
 30
0.0
 10
187.6407355251
 20
329.4142639347
 30
0.0
  0
SPLINE
  5
4D8
100
AcDbEntity
  8
0
100
AcDbSpline
 62
7
  6
CONTINUOUS
 70
0
 71
3
 72
13
 73
9
 74
0
 42
0.0000001
 43
0.0000001
 44
0.0000000001
 40
0.0
 40
0.0
 40
0.0
 40
0.0
 40
0.0909900199
 40
0.1940742232
 40
0.3086757105
 40
0.4336111231
 40
0.7075637916
 40
1.0
 40
1.0
 40
1.0
 40
1.0
 10
193.2037988497
 20
328.4672150979
 30
0.0
 10
193.1450830847
 20
328.419181714
 30
0.0
 10
193.0105987097
 20
328.3279204393
 30
0.0
 10
192.7805139053
 20
328.2115870494
 30
0.0
 10
192.513417878
 20
328.1091129032
 30
0.0
 10
192.1018032291
 20
327.9899938234
 30
0.0
 10
191.5321186836
 20
327.8914321236
 30
0.0
 10
191.0595387359
 20
327.8654162152
 30
0.0
 10
190.815729304
 20
327.8654162152
 30
0.0
  0
SPLINE
  5
4D9
100
AcDbEntity
  8
0
100
AcDbSpline
 62
7
  6
CONTINUOUS
 70
0
 71
3
 72
11
 73
7
 74
0
 42
0.0000001
 43
0.0000001
 44
0.0000000001
 40
0.0
 40
0.0
 40
0.0
 40
0.0
 40
0.2191673694
 40
0.4522069605
 40
0.7101268374
 40
1.0
 40
1.0
 40
1.0
 40
1.0
 10
193.9907230829
 20
329.4142639347
 30
0.0
 10
193.9907230829
 20
329.3642203481
 30
0.0
 10
193.9755097102
 20
329.2604587604
 30
0.0
 10
193.9091573037
 20
329.1107610641
 30
0.0
 10
193.8017427492
 20
328.9669935895
 30
0.0
 10
193.709907138
 20
328.8812066879
 30
0.0
 10
193.6586741433
 20
328.8393013482
 30
0.0
  0
SPLINE
  5
4DA
100
AcDbEntity
  8
0
100
AcDbSpline
 62
7
  6
CONTINUOUS
 70
0
 71
3
 72
13
 73
9
 74
0
 42
0.0000001
 43
0.0000001
 44
0.0000000001
 40
0.0
 40
0.0
 40
0.0
 40
0.0
 40
0.2924318529
 40
0.5663839464
 40
0.6913201281
 40
0.8059229769
 40
0.909008643
 40
1.0
 40
1.0
 40
1.0
 40
1.0
 10
190.815729304
 20
327.8654162152
 30
0.0
 10
190.5719235091
 20
327.8654162152
 30
0.0
 10
190.0993476938
 20
327.8914314318
 30
0.0
 10
189.529666434
 20
327.9899914806
 30
0.0
 10
189.1180501789
 20
328.1091095924
 30
0.0
 10
188.8509510115
 20
328.2115839773
 30
0.0
 10
188.6208630094
 20
328.3279186973
 30
0.0
 10
188.4863764298
 20
328.4191809405
 30
0.0
 10
188.4276598772
 20
328.4672151191
 30
0.0
  0
SPLINE
  5
4DB
100
AcDbEntity
  8
0
100
AcDbSpline
 62
7
  6
CONTINUOUS
 70
0
 71
3
 72
20
 73
16
 74
0
 42
0.0000001
 43
0.0000001
 44
0.0000000001
 40
0.0
 40
0.0
 40
0.0
 40
0.0
 40
0.0499916578
 40
0.0939873561
 40
0.1336030318
 40
0.1713384319
 40
0.2101785861
 40
0.252814948
 40
0.301104401
 40
0.3560371376
 40
0.4179346465
 40
0.4866416238
 40
0.6421539752
 40
0.8161877595
 40
1.0
 40
1.0
 40
1.0
 40
1.0
 10
188.4276598772
 20
328.4672151191
 30
0.0
 10
188.3805650456
 20
328.5057419306
 30
0.0
 10
188.2969397024
 20
328.5847778106
 30
0.0
 10
188.2025484687
 20
328.718860536
 30
0.0
 10
188.150550394
 20
328.8592834938
 30
0.0
 10
188.1443218009
 20
329.0030053628
 30
0.0
 10
188.1844353477
 20
329.144730222
 30
0.0
 10
188.2679106544
 20
329.2806434411
 30
0.0
 10
188.3916203918
 20
329.4093957524
 30
0.0
 10
188.5532555185
 20
329.5299803928
 30
0.0
 10
188.7504165561
 20
329.6410832991
 30
0.0
 10
189.070167693
 20
329.7802206446
 30
0.0
 10
189.5378210472
 20
329.9150581037
 30
0.0
 10
190.1560631044
 20
330.0129234181
 30
0.0
 10
190.5920071057
 20
330.0349494693
 30
0.0
 10
190.815729304
 20
330.0349494693
 30
0.0
  0
SPLINE
  5
4DC
100
AcDbEntity
  8
0
100
AcDbSpline
 62
7
  6
CONTINUOUS
 70
0
 71
3
 72
17
 73
13
 74
0
 42
0.0000001
 43
0.0000001
 44
0.0000000001
 40
0.0
 40
0.0
 40
0.0
 40
0.0
 40
0.1692593176
 40
0.333103422
 40
0.4864770345
 40
0.6249644975
 40
0.7452854044
 40
0.845948323
 40
0.889338468
 40
0.9287570352
 40
0.9651893477
 40
1.0
 40
1.0
 40
1.0
 40
1.0
 10
190.815729304
 20
330.7056527765
 30
0.0
 10
191.0223722507
 20
330.7056527765
 30
0.0
 10
191.4292411294
 20
330.6896197854
 30
0.0
 10
192.0195212535
 20
330.6180072034
 30
0.0
 10
192.5644600396
 20
330.5018341277
 30
0.0
 10
193.0440673516
 20
330.3454792738
 30
0.0
 10
193.4409257994
 20
330.1549086094
 30
0.0
 10
193.7046155283
 20
329.9632355098
 30
0.0
 10
193.8545018026
 20
329.795643643
 30
0.0
 10
193.9323247652
 20
329.6716074893
 30
0.0
 10
193.9799380908
 20
329.5440712369
 30
0.0
 10
193.9907230829
 20
329.4567630767
 30
0.0
 10
193.9907230829
 20
329.4142639347
 30
0.0
  0
SPLINE
  5
4DD
100
AcDbEntity
  8
0
100
AcDbSpline
 62
7
  6
CONTINUOUS
 70
0
 71
3
 72
20
 73
16
 74
0
 42
0.0000001
 43
0.0000001
 44
0.0000000001
 40
0.0
 40
0.0
 40
0.0
 40
0.0
 40
0.1838095414
 40
0.3578428504
 40
0.5133561723
 40
0.5820640929
 40
0.6439625492
 40
0.6988960267
 40
0.7471860062
 40
0.7898225917
 40
0.8286627814
 40
0.8663981384
 40
0.906013658
 40
0.9500090342
 40
1.0
 40
1.0
 40
1.0
 40
1.0
 10
190.815729304
 20
330.0349494693
 30
0.0
 10
191.0394482134
 20
330.0349494693
 30
0.0
 10
191.4753883031
 20
330.0129238255
 30
0.0
 10
192.09362796
 20
329.9150605719
 30
0.0
 10
192.5612831997
 20
329.7802233372
 30
0.0
 10
192.8810378967
 20
329.641085471
 30
0.0
 10
193.0782019412
 20
329.5299813083
 30
0.0
 10
193.2398390621
 20
329.4093948204
 30
0.0
 10
193.3635500193
 20
329.280641136
 30
0.0
 10
193.4470250662
 20
329.1447264899
 30
0.0
 10
193.4871369214
 20
329.0030008948
 30
0.0
 10
193.4809074626
 20
328.8592793435
 30
0.0
 10
193.4289087264
 20
328.7188572637
 30
0.0
 10
193.3345172767
 20
328.5847765328
 30
0.0
 10
193.2508930877
 20
328.5057413031
 30
0.0
 10
193.2037988497
 20
328.4672150979
 30
0.0
  0
SPLINE
  5
4DE
100
AcDbEntity
  8
0
100
AcDbSpline
 62
7
  6
CONTINUOUS
 70
0
 71
3
 72
17
 73
13
 74
0
 42
0.0000001
 43
0.0000001
 44
0.0000000001
 40
0.0
 40
0.0
 40
0.0
 40
0.0
 40
0.0348106523
 40
0.0712429648
 40
0.110661532
 40
0.154051677
 40
0.2547145956
 40
0.3750355025
 40
0.5135229655
 40
0.666896578
 40
0.8307406824
 40
1.0
 40
1.0
 40
1.0
 40
1.0
 10
187.6407355251
 20
329.4142639347
 30
0.0
 10
187.6407355251
 20
329.4567630767
 30
0.0
 10
187.6515205171
 20
329.5440712369
 30
0.0
 10
187.6991338428
 20
329.6716074893
 30
0.0
 10
187.7769568053
 20
329.795643643
 30
0.0
 10
187.9268430796
 20
329.9632355098
 30
0.0
 10
188.1905328086
 20
330.1549086094
 30
0.0
 10
188.5873912564
 20
330.3454792738
 30
0.0
 10
189.0669985684
 20
330.5018341277
 30
0.0
 10
189.6119373545
 20
330.6180072034
 30
0.0
 10
190.2022174785
 20
330.6896197854
 30
0.0
 10
190.6090863572
 20
330.7056527765
 30
0.0
 10
190.815729304
 20
330.7056527765
 30
0.0
  0
SPLINE
  5
4DF
100
AcDbEntity
  8
0
100
AcDbSpline
 62
7
  6
CONTINUOUS
 70
0
 71
3
 72
15
 73
11
 74
0
 42
0.0000001
 43
0.0000001
 44
0.0000000001
 40
0.0
 40
0.0
 40
0.0
 40
0.0
 40
0.124985835
 40
0.2499526435
 40
0.3749330797
 40
0.4999227556
 40
0.6249247078
 40
0.7499390882
 40
0.8749649188
 40
1.0
 40
1.0
 40
1.0
 40
1.0
 10
364.272337712
 20
363.0638356474
 30
0.0
 10
364.2723558564
 20
362.6986711076
 30
0.0
 10
364.3326506876
 20
361.9669698469
 30
0.0
 10
364.6017443366
 20
360.9002360776
 30
0.0
 10
365.0420268862
 20
359.8917022489
 30
0.0
 10
365.6417042589
 20
358.968959717
 30
0.0
 10
366.3845091817
 20
358.15685198
 30
0.0
 10
367.250481462
 20
357.4773266847
 30
0.0
 10
368.2158402654
 20
356.9488299226
 30
0.0
 10
368.9091914982
 20
356.7064647913
 30
0.0
 10
369.2627692607
 20
356.6146333808
 30
0.0
  0
SPLINE
  5
4E0
100
AcDbEntity
  8
0
100
AcDbSpline
 62
7
  6
CONTINUOUS
 70
0
 71
3
 72
15
 73
11
 74
0
 42
0.0000001
 43
0.0000001
 44
0.0000000001
 40
0.0
 40
0.0
 40
0.0
 40
0.0
 40
0.1250348435
 40
0.2500602699
 40
0.3750743211
 40
0.5000760945
 40
0.6250656282
 40
0.7500459486
 40
0.8750133502
 40
1.0
 40
1.0
 40
1.0
 40
1.0
 10
369.2627748522
 20
356.8717052891
 30
0.0
 10
368.9091975703
 20
356.9635361791
 30
0.0
 10
368.2158477006
 20
357.2059000659
 30
0.0
 10
367.2504903317
 20
357.7343940502
 30
0.0
 10
366.3845186737
 20
358.4139163022
 30
0.0
 10
365.6417133768
 20
359.226021437
 30
0.0
 10
365.0420338278
 20
360.14876141
 30
0.0
 10
364.6017490222
 20
361.1572956252
 30
0.0
 10
364.3326514
 20
362.2240326679
 30
0.0
 10
364.2723561253
 20
362.9557383212
 30
0.0
 10
364.2723377847
 20
363.3209053403
 30
0.0
  0
SPLINE
  5
4E1
100
AcDbEntity
  8
0
100
AcDbSpline
 62
7
  6
CONTINUOUS
 70
0
 71
3
 72
15
 73
11
 74
0
 42
0.0000001
 43
0.0000001
 44
0.0000000001
 40
0.0
 40
0.0
 40
0.0
 40
0.0
 40
0.1254598023
 40
0.250843006
 40
0.3761022154
 40
0.5011935036
 40
0.6261030538
 40
0.7508444682
 40
0.8754571333
 40
1.0
 40
1.0
 40
1.0
 40
1.0
 10
266.799829304
 20
360.6221355536
 30
0.0
 10
266.3641621653
 20
360.6221355536
 30
0.0
 10
265.4907119419
 20
360.5368719635
 30
0.0
 10
264.2325525201
 20
360.1580152696
 30
0.0
 10
263.0724065187
 20
359.5427621264
 30
0.0
 10
262.0555009989
 20
358.7145949271
 30
0.0
 10
261.2207583148
 20
357.7053641872
 30
0.0
 10
260.6004102926
 20
356.5536002868
 30
0.0
 10
260.218356332
 20
355.3042496492
 30
0.0
 10
260.132329304
 20
354.4366110971
 30
0.0
 10
260.132329304
 20
354.0041280756
 30
0.0
  0
SPLINE
  5
4E2
100
AcDbEntity
  8
0
100
AcDbSpline
 62
7
  6
CONTINUOUS
 70
0
 71
3
 72
15
 73
11
 74
0
 42
0.0000001
 43
0.0000001
 44
0.0000000001
 40
0.0
 40
0.0
 40
0.0
 40
0.0
 40
0.1245414337
 40
0.2491900153
 40
0.3739791517
 40
0.4989258984
 40
0.6240281447
 40
0.7492683776
 40
0.8746044819
 40
1.0
 40
1.0
 40
1.0
 40
1.0
 10
271.0347971033
 20
354.0374082134
 30
0.0
 10
270.9865771474
 20
354.2779001903
 30
0.0
 10
270.8481202999
 20
354.7517492928
 30
0.0
 10
270.5214324907
 20
355.4157648264
 30
0.0
 10
270.0851408332
 20
356.0147415681
 30
0.0
 10
269.5521599704
 20
356.5307671152
 30
0.0
 10
268.9382097664
 20
356.9487566084
 30
0.0
 10
268.2612986682
 20
357.2563869434
 30
0.0
 10
267.5416289605
 20
357.4446708502
 30
0.0
 10
267.0467899088
 20
357.4869142306
 30
0.0
 10
266.799829304
 20
357.4869142306
 30
0.0
  0
SPLINE
  5
4E3
100
AcDbEntity
  8
0
100
AcDbSpline
 62
7
  6
CONTINUOUS
 70
0
 71
3
 72
15
 73
11
 74
0
 42
0.0000001
 43
0.0000001
 44
0.0000000001
 40
0.0
 40
0.0
 40
0.0
 40
0.0
 40
0.1253955181
 40
0.2507316224
 40
0.3759718553
 40
0.5010741016
 40
0.6260208483
 40
0.7508099847
 40
0.8754585663
 40
1.0
 40
1.0
 40
1.0
 40
1.0
 10
266.799829304
 20
357.4869142306
 30
0.0
 10
266.5528686992
 20
357.4869142306
 30
0.0
 10
266.0580296474
 20
357.4446708502
 30
0.0
 10
265.3383599398
 20
357.2563869434
 30
0.0
 10
264.6614488416
 20
356.9487566084
 30
0.0
 10
264.0474986376
 20
356.5307671152
 30
0.0
 10
263.5145177747
 20
356.0147415681
 30
0.0
 10
263.0782261173
 20
355.4157648264
 30
0.0
 10
262.7515383081
 20
354.7517492928
 30
0.0
 10
262.6130814606
 20
354.2779001903
 30
0.0
 10
262.5648615046
 20
354.0374082134
 30
0.0
  0
SPLINE
  5
4E4
100
AcDbEntity
  8
0
100
AcDbSpline
 62
7
  6
CONTINUOUS
 70
0
 71
3
 72
15
 73
11
 74
0
 42
0.0000001
 43
0.0000001
 44
0.0000000001
 40
0.0
 40
0.0
 40
0.0
 40
0.0
 40
0.1245428667
 40
0.2491555318
 40
0.3738969462
 40
0.4988064964
 40
0.6238977846
 40
0.749156994
 40
0.8745401977
 40
1.0
 40
1.0
 40
1.0
 40
1.0
 10
273.467329304
 20
354.0041280756
 30
0.0
 10
273.467329304
 20
354.4366110971
 30
0.0
 10
273.381302276
 20
355.3042496492
 30
0.0
 10
272.9992483153
 20
356.5536002868
 30
0.0
 10
272.3789002931
 20
357.7053641872
 30
0.0
 10
271.5441576091
 20
358.7145949271
 30
0.0
 10
270.5272520892
 20
359.5427621264
 30
0.0
 10
269.3671060878
 20
360.1580152696
 30
0.0
 10
268.1089466661
 20
360.5368719635
 30
0.0
 10
267.2354964427
 20
360.6221355536
 30
0.0
 10
266.799829304
 20
360.6221355536
 30
0.0
  0
SPLINE
  5
4E5
100
AcDbEntity
  8
0
100
AcDbSpline
 62
7
  6
CONTINUOUS
 70
0
 71
3
 72
15
 73
11
 74
0
 42
0.0000001
 43
0.0000001
 44
0.0000000001
 40
0.0
 40
0.0
 40
0.0
 40
0.0
 40
0.1254600281
 40
0.2508433572
 40
0.3761021323
 40
0.5011936277
 40
0.6261032019
 40
0.7508444176
 40
0.8754571143
 40
1.0
 40
1.0
 40
1.0
 40
1.0
 10
266.799829304
 20
359.7263015226
 30
0.0
 10
267.2354970945
 20
359.7263015226
 30
0.0
 10
268.1089483127
 20
359.6410376393
 30
0.0
 10
269.3671066992
 20
359.2621798113
 30
0.0
 10
270.5272516954
 20
358.6469265798
 30
0.0
 10
271.5441560557
 20
357.8187596159
 30
0.0
 10
272.3788978872
 20
356.8095285523
 30
0.0
 10
272.999245089
 20
355.6577652771
 30
0.0
 10
273.3812985977
 20
354.4084154591
 30
0.0
 10
273.4673256067
 20
353.5407770004
 30
0.0
 10
273.4673255934
 20
353.1082940444
 30
0.0
  0
SPLINE
  5
4E6
100
AcDbEntity
  8
0
100
AcDbSpline
 62
7
  6
CONTINUOUS
 70
0
 71
3
 72
15
 73
11
 74
0
 42
0.0000001
 43
0.0000001
 44
0.0000000001
 40
0.0
 40
0.0
 40
0.0
 40
0.0
 40
0.1245427339
 40
0.2491551835
 40
0.3738962107
 40
0.498805491
 40
0.6238967287
 40
0.749155709
 40
0.8745394917
 40
1.0
 40
1.0
 40
1.0
 40
1.0
 10
260.1323330146
 20
353.1082940447
 30
0.0
 10
260.132333028
 20
353.5407764691
 30
0.0
 10
260.2183597793
 20
354.4084135113
 30
0.0
 10
260.6004119893
 20
355.6577615527
 30
0.0
 10
261.2207573806
 20
356.8095228707
 30
0.0
 10
262.0554962056
 20
357.8187529335
 30
0.0
 10
263.07239816
 20
358.6469209535
 30
0.0
 10
264.2325437433
 20
359.2621760435
 30
0.0
 10
265.4907053215
 20
359.6410371072
 30
0.0
 10
266.3641598507
 20
359.7263015226
 30
0.0
 10
266.799829304
 20
359.7263015226
 30
0.0
  0
SPLINE
  5
4E7
100
AcDbEntity
  8
0
100
AcDbSpline
 62
7
  6
CONTINUOUS
 70
0
 71
3
 72
15
 73
11
 74
0
 42
0.0000001
 43
0.0000001
 44
0.0000000001
 40
0.0
 40
0.0
 40
0.0
 40
0.0
 40
0.1255325006
 40
0.250958913
 40
0.3762079065
 40
0.5012393102
 40
0.6260623498
 40
0.7507340141
 40
0.8753450803
 40
1.0
 40
1.0
 40
1.0
 40
1.0
 10
266.799829304
 20
358.1505854564
 30
0.0
 10
266.3967233371
 20
358.1505854564
 30
0.0
 10
265.5876030613
 20
358.0545033956
 30
0.0
 10
264.4449039583
 20
357.6301909003
 30
0.0
 10
263.434753376
 20
356.9496281636
 30
0.0
 10
262.6153197631
 20
356.0511914434
 30
0.0
 10
262.0329058037
 20
354.9857780555
 30
0.0
 10
261.7208858116
 20
353.8135412517
 30
0.0
 10
261.6966876287
 20
352.6018987814
 30
0.0
 10
261.8740794676
 20
351.8120100883
 30
0.0
 10
262.007810801
 20
351.4347219503
 30
0.0
  0
SPLINE
  5
4E8
100
AcDbEntity
  8
0
100
AcDbSpline
 62
7
  6
CONTINUOUS
 70
0
 71
3
 72
15
 73
11
 74
0
 42
0.0000001
 43
0.0000001
 44
0.0000000001
 40
0.0
 40
0.0
 40
0.0
 40
0.0
 40
0.1246564421
 40
0.2492677747
 40
0.3739388392
 40
0.4987608434
 40
0.6237909981
 40
0.7490395718
 40
0.8744665906
 40
1.0
 40
1.0
 40
1.0
 40
1.0
 10
271.5864998328
 20
351.4197099583
 30
0.0
 10
271.7216519957
 20
351.7971950221
 30
0.0
 10
271.9017016803
 20
352.587882449
 30
0.0
 10
271.8806019779
 20
353.8016145157
 30
0.0
 10
271.5706283464
 20
354.9764909093
 30
0.0
 10
270.9891483477
 20
356.0447191143
 30
0.0
 10
270.169594437
 20
356.9457880456
 30
0.0
 10
269.158427383
 20
357.6284843812
 30
0.0
 10
268.0140650148
 20
358.0541832151
 30
0.0
 10
267.2036002404
 20
358.1505854564
 30
0.0
 10
266.799829304
 20
358.1505854564
 30
0.0
  0
SPLINE
  5
4E9
100
AcDbEntity
  8
0
100
AcDbSpline
 62
7
  6
CONTINUOUS
 70
0
 71
3
 72
15
 73
11
 74
0
 42
0.0000001
 43
0.0000001
 44
0.0000000001
 40
0.0
 40
0.0
 40
0.0
 40
0.0
 40
0.1249785132
 40
0.249936697
 40
0.3749125314
 40
0.4999065539
 40
0.6249170134
 40
0.7499400447
 40
0.8749699226
 40
1.0
 40
1.0
 40
1.0
 40
1.0
 10
364.589842589
 20
367.0080825422
 30
0.0
 10
364.5898849026
 20
366.5401916486
 30
0.0
 10
364.6941969954
 20
365.6011769445
 30
0.0
 10
365.15634269
 20
364.2641880195
 30
0.0
 10
365.9011974833
 20
363.0607399996
 30
0.0
 10
366.8925444652
 20
362.0505554668
 30
0.0
 10
368.0817464664
 20
361.2827639195
 30
0.0
 10
369.4108799628
 20
360.7950021035
 30
0.0
 10
370.814081192
 20
360.6109486046
 30
0.0
 10
371.7553799284
 20
360.6971528534
 30
0.0
 10
372.213953025
 20
360.7910319773
 30
0.0
  0
SPLINE
  5
4EA
100
AcDbEntity
  8
0
100
AcDbSpline
 62
7
  6
CONTINUOUS
 70
0
 71
3
 72
15
 73
11
 74
0
 42
0.0000001
 43
0.0000001
 44
0.0000000001
 40
0.0
 40
0.0
 40
0.0
 40
0.0
 40
0.1249553027
 40
0.2499311102
 40
0.374931232
 40
0.4999491397
 40
0.6249759515
 40
0.7499999719
 40
0.8750106273
 40
1.0
 40
1.0
 40
1.0
 40
1.0
 10
365.822447769
 20
367.1995699835
 30
0.0
 10
365.9143005688
 20
366.7112398927
 30
0.0
 10
366.2410378911
 20
365.7554216439
 30
0.0
 10
367.1157862052
 20
364.5237329496
 30
0.0
 10
368.3045186793
 20
363.5892513325
 30
0.0
 10
369.7094227937
 20
363.0302923332
 30
0.0
 10
371.2152005021
 20
362.8920619145
 30
0.0
 10
372.6985767677
 20
363.1864852682
 30
0.0
 10
374.0369465494
 20
363.8879739051
 30
0.0
 10
374.7617139426
 20
364.5919538543
 30
0.0
 10
375.0651216462
 20
364.9856309274
 30
0.0
  0
SPLINE
  5
4EB
100
AcDbEntity
  8
0
100
AcDbSpline
 62
7
  6
CONTINUOUS
 70
0
 71
3
 72
15
 73
11
 74
0
 42
0.0000001
 43
0.0000001
 44
0.0000000001
 40
0.0
 40
0.0
 40
0.0
 40
0.0
 40
0.1250303072
 40
0.2500600311
 40
0.3750823497
 40
0.5000917784
 40
0.6250851613
 40
0.7500609074
 40
0.8750199509
 40
1.0
 40
1.0
 40
1.0
 40
1.0
 10
372.3645654728
 20
360.6296400522
 30
0.0
 10
371.9021793149
 20
360.523246655
 30
0.0
 10
370.9500290972
 20
360.4141456961
 30
0.0
 10
369.5239822502
 20
360.5726719418
 30
0.0
 10
368.1683617782
 20
361.0446527686
 30
0.0
 10
366.952167635
 20
361.8065596354
 30
0.0
 10
365.9362523372
 20
362.820007858
 30
0.0
 10
365.1718226479
 20
364.0343771175
 30
0.0
 10
364.6970910195
 20
365.3877506371
 30
0.0
 10
364.589886518
 20
366.339672697
 30
0.0
 10
364.5898428103
 20
366.8139506387
 30
0.0
  0
SPLINE
  5
4EC
100
AcDbEntity
  8
0
100
AcDbSpline
 62
7
  6
CONTINUOUS
 70
0
 71
3
 72
9
 73
5
 74
0
 42
0.0000001
 43
0.0000001
 44
0.0000000001
 40
0.0
 40
0.0
 40
0.0
 40
0.0
 40
0.5000030187
 40
1.0
 40
1.0
 40
1.0
 40
1.0
 10
372.3758312773
 20
362.5015957247
 30
0.0
 10
371.8419361248
 20
362.3662893869
 30
0.0
 10
370.7300480526
 20
362.2467832553
 30
0.0
 10
369.62940412
 20
362.4446772171
 30
0.0
 10
369.1064308647
 20
362.617429894
 30
0.0
  0
SPLINE
  5
4ED
100
AcDbEntity
  8
0
100
AcDbSpline
 62
7
  6
CONTINUOUS
 70
0
 71
3
 72
9
 73
5
 74
0
 42
0.0000001
 43
0.0000001
 44
0.0000000001
 40
0.0
 40
0.0
 40
0.0
 40
0.0
 40
0.5000425485
 40
1.0
 40
1.0
 40
1.0
 40
1.0
 10
367.951059322
 20
363.1443814867
 30
0.0
 10
367.4778564836
 20
363.4259651885
 30
0.0
 10
366.6071141988
 20
364.1271335552
 30
0.0
 10
365.9687786647
 20
365.044951175
 30
0.0
 10
365.7212011724
 20
365.5366955202
 30
0.0
  0
SPLINE
  5
4EE
100
AcDbEntity
  8
0
100
AcDbSpline
 62
7
  6
CONTINUOUS
 70
0
 71
3
 72
13
 73
9
 74
0
 42
0.0000001
 43
0.0000001
 44
0.0000000001
 40
0.0
 40
0.0
 40
0.0
 40
0.0
 40
0.1252409409
 40
0.2504777946
 40
0.5000834965
 40
0.7496405135
 40
0.8748301759
 40
1.0
 40
1.0
 40
1.0
 40
1.0
 10
370.9355910046
 20
360.9194797752
 30
0.0
 10
370.5885764157
 20
360.9197015223
 30
0.0
 10
369.8931075963
 20
360.9774061852
 30
0.0
 10
368.5445790966
 20
361.3166319951
 30
0.0
 10
366.990093217
 20
362.1494876862
 30
0.0
 10
365.7894550342
 20
363.4410768479
 30
0.0
 10
365.1190311675
 20
364.6588133943
 30
0.0
 10
364.8867730871
 20
365.3165450182
 30
0.0
 10
364.7985367284
 20
365.6519504448
 30
0.0
  0
SPLINE
  5
4EF
100
AcDbEntity
  8
0
100
AcDbSpline
 62
7
  6
CONTINUOUS
 70
0
 71
3
 72
15
 73
11
 74
0
 42
0.0000001
 43
0.0000001
 44
0.0000000001
 40
0.0
 40
0.0
 40
0.0
 40
0.0
 40
0.1250302009
 40
0.2500540761
 40
0.3750689262
 40
0.5000731893
 40
0.625066452
 40
0.7500514841
 40
0.8750236062
 40
1.0
 40
1.0
 40
1.0
 40
1.0
 10
370.020960258
 20
359.295140038
 30
0.0
 10
369.5980475397
 20
359.3502230131
 30
0.0
 10
368.760223044
 20
359.5370644608
 30
0.0
 10
367.5755767052
 20
360.0374461607
 30
0.0
 10
366.4993749298
 20
360.741986813
 30
0.0
 10
365.567002024
 20
361.6278543062
 30
0.0
 10
364.8084891272
 20
362.6663553137
 30
0.0
 10
364.2484639714
 20
363.8240088885
 30
0.0
 10
363.904977986
 20
365.062806407
 30
0.0
 10
363.827829304
 20
365.9173890663
 30
0.0
 10
363.827829304
 20
366.3436903471
 30
0.0
  0
SPLINE
  5
4F0
100
AcDbEntity
  8
0
100
AcDbSpline
 62
7
  6
CONTINUOUS
 70
0
 71
3
 72
15
 73
11
 74
0
 42
0.0000001
 43
0.0000001
 44
0.0000000001
 40
0.0
 40
0.0
 40
0.0
 40
0.0
 40
0.1249723978
 40
0.2499342924
 40
0.3749115498
 40
0.4999073649
 40
0.6249185747
 40
0.7499418824
 40
0.8749713127
 40
1.0
 40
1.0
 40
1.0
 40
1.0
 10
364.5908849092
 20
366.4860086067
 30
0.0
 10
364.5994552457
 20
366.0138362689
 30
0.0
 10
364.7229007905
 20
365.0680548464
 30
0.0
 10
365.2179340441
 20
363.7285334836
 30
0.0
 10
365.9980305232
 20
362.5314732848
 30
0.0
 10
367.024336939
 20
361.5373397562
 30
0.0
 10
368.2457022969
 20
360.7954826466
 30
0.0
 10
369.6014426079
 20
360.3428969543
 30
0.0
 10
371.023156802
 20
360.2019399832
 30
0.0
 10
371.9699601978
 20
360.3209363585
 30
0.0
 10
372.4292612442
 20
360.4316777893
 30
0.0
  0
SPLINE
  5
4F1
100
AcDbEntity
  8
0
100
AcDbSpline
 62
7
  6
CONTINUOUS
 70
0
 71
3
 72
15
 73
11
 74
0
 42
0.0000001
 43
0.0000001
 44
0.0000000001
 40
0.0
 40
0.0
 40
0.0
 40
0.0
 40
0.1250358383
 40
0.250064762
 40
0.3750826794
 40
0.5000870461
 40
0.6250773742
 40
0.7500550535
 40
0.8750191916
 40
1.0
 40
1.0
 40
1.0
 40
1.0
 10
370.5098558317
 20
359.5061060288
 30
0.0
 10
370.0637971945
 20
359.5330971519
 30
0.0
 10
369.1745380403
 20
359.6717672142
 30
0.0
 10
367.9051779977
 20
360.1258672191
 30
0.0
 10
366.7431552514
 20
360.810076369
 30
0.0
 10
365.7303708335
 20
361.7000446365
 30
0.0
 10
364.902645226
 20
362.764129811
 30
0.0
 10
364.2894930459
 20
363.9646924355
 30
0.0
 10
363.9125724648
 20
365.2584908572
 30
0.0
 10
363.82786542
 20
366.1540822048
 30
0.0
 10
363.8278395002
 20
366.6007600399
 30
0.0
  0
SPLINE
  5
4F2
100
AcDbEntity
  8
0
100
AcDbSpline
 62
7
  6
CONTINUOUS
 70
0
 71
3
 72
15
 73
11
 74
0
 42
0.0000001
 43
0.0000001
 44
0.0000000001
 40
0.0
 40
0.0
 40
0.0
 40
0.0
 40
0.1249827484
 40
0.2499468454
 40
0.3749256436
 40
0.4999155817
 40
0.6249190774
 40
0.7499358378
 40
0.8749639302
 40
1.0
 40
1.0
 40
1.0
 40
1.0
 10
363.8278393688
 20
366.3436903477
 30
0.0
 10
363.8278636699
 20
365.9182084153
 30
0.0
 10
363.9046742646
 20
365.0653235178
 30
0.0
 10
364.2468679376
 20
363.8288497188
 30
0.0
 10
364.8047670435
 20
362.6730853316
 30
0.0
 10
365.5605136295
 20
361.6357819393
 30
0.0
 10
366.4896622676
 20
360.7502575057
 30
0.0
 10
367.5623949541
 20
360.0450725512
 30
0.0
 10
368.7435888046
 20
359.5430071773
 30
0.0
 10
369.5792833325
 20
359.3543474889
 30
0.0
 10
370.0012267324
 20
359.2981946139
 30
0.0
  0
SPLINE
  5
4F3
100
AcDbEntity
  8
0
100
AcDbSpline
 62
7
  6
CONTINUOUS
 70
0
 71
3
 72
15
 73
11
 74
0
 42
0.0000001
 43
0.0000001
 44
0.0000000001
 40
0.0
 40
0.0
 40
0.0
 40
0.0
 40
0.1249676492
 40
0.2499473133
 40
0.3749580256
 40
0.4999918674
 40
0.6250235311
 40
0.7500325085
 40
0.8750149522
 40
1.0
 40
1.0
 40
1.0
 40
1.0
 10
365.7360983037
 20
371.8024183791
 30
0.0
 10
365.7598255879
 20
372.4713014047
 30
0.0
 10
366.0726341453
 20
373.8140753296
 30
0.0
 10
367.2660589428
 20
375.4898249435
 30
0.0
 10
369.0062740497
 20
376.5922032334
 30
0.0
 10
371.0342128525
 20
376.9533410475
 30
0.0
 10
373.0481161332
 20
376.5207646308
 30
0.0
 10
374.7482727512
 20
375.3575931135
 30
0.0
 10
375.8818236653
 20
373.6405881894
 30
0.0
 10
376.1466866629
 20
372.2874479629
 30
0.0
 10
376.146808959
 20
371.6180510579
 30
0.0
  0
SPLINE
  5
4F4
100
AcDbEntity
  8
0
100
AcDbSpline
 62
7
  6
CONTINUOUS
 70
0
 71
3
 72
15
 73
11
 74
0
 42
0.0000001
 43
0.0000001
 44
0.0000000001
 40
0.0
 40
0.0
 40
0.0
 40
0.0
 40
0.1249959068
 40
0.2499690808
 40
0.3749742251
 40
0.5000012385
 40
0.6250296488
 40
0.7500406754
 40
0.8750221738
 40
1.0
 40
1.0
 40
1.0
 40
1.0
 10
367.7648469241
 20
371.6180519379
 30
0.0
 10
367.7649562988
 20
371.2098488973
 30
0.0
 10
367.9264307083
 20
370.3847659785
 30
0.0
 10
368.6176179586
 20
369.3378062724
 30
0.0
 10
369.6542801645
 20
368.6286588642
 30
0.0
 10
370.8822033088
 20
368.3648201744
 30
0.0
 10
372.1187030306
 20
368.5850616015
 30
0.0
 10
373.1798679197
 20
369.2571143512
 30
0.0
 10
373.9075945976
 20
370.2789510616
 30
0.0
 10
374.0983670216
 20
371.0977448629
 30
0.0
 10
374.1128360115
 20
371.5056323232
 30
0.0
  0
SPLINE
  5
4F5
100
AcDbEntity
  8
0
100
AcDbSpline
 62
7
  6
CONTINUOUS
 70
0
 71
3
 72
15
 73
11
 74
0
 42
0.0000001
 43
0.0000001
 44
0.0000000001
 40
0.0
 40
0.0
 40
0.0
 40
0.0
 40
0.1249959068
 40
0.2499690808
 40
0.3749742251
 40
0.5000012385
 40
0.6250296488
 40
0.7500406754
 40
0.8750221738
 40
1.0
 40
1.0
 40
1.0
 40
1.0
 10
374.1148116839
 20
371.6180506296
 30
0.0
 10
374.1147023091
 20
372.0262536702
 30
0.0
 10
373.9532278996
 20
372.851336589
 30
0.0
 10
373.2620406494
 20
373.8982962951
 30
0.0
 10
372.2253784434
 20
374.6074437033
 30
0.0
 10
370.9974552991
 20
374.8712823932
 30
0.0
 10
369.7609555774
 20
374.651040966
 30
0.0
 10
368.6997906882
 20
373.9789882163
 30
0.0
 10
367.9720640103
 20
372.9571515059
 30
0.0
 10
367.7812915863
 20
372.1383577046
 30
0.0
 10
367.7668225965
 20
371.7304702443
 30
0.0
  0
SPLINE
  5
4F6
100
AcDbEntity
  8
0
100
AcDbSpline
 62
7
  6
CONTINUOUS
 70
0
 71
3
 72
15
 73
11
 74
0
 42
0.0000001
 43
0.0000001
 44
0.0000000001
 40
0.0
 40
0.0
 40
0.0
 40
0.0
 40
0.1249676492
 40
0.2499473133
 40
0.3749580256
 40
0.4999918674
 40
0.6250235311
 40
0.7500325085
 40
0.8750149522
 40
1.0
 40
1.0
 40
1.0
 40
1.0
 10
376.1435603043
 20
371.4336841884
 30
0.0
 10
376.11983302
 20
370.7648011628
 30
0.0
 10
375.8070244627
 20
369.4220272379
 30
0.0
 10
374.6135996652
 20
367.746277624
 30
0.0
 10
372.8733845583
 20
366.6438993341
 30
0.0
 10
370.8454457555
 20
366.28276152
 30
0.0
 10
368.8315424747
 20
366.7153379368
 30
0.0
 10
367.1313858567
 20
367.8785094541
 30
0.0
 10
365.9978349427
 20
369.5955143782
 30
0.0
 10
365.732971945
 20
370.9486546046
 30
0.0
 10
365.732849649
 20
371.6180515096
 30
0.0
  0
SPLINE
  5
4F7
100
AcDbEntity
  8
0
100
AcDbSpline
 62
7
  6
CONTINUOUS
 70
0
 71
3
 72
9
 73
5
 74
0
 42
0.0000001
 43
0.0000001
 44
0.0000000001
 40
0.0
 40
0.0
 40
0.0
 40
0.0
 40
0.5000705971
 40
1.0
 40
1.0
 40
1.0
 40
1.0
 10
371.701829304
 20
361.0681018298
 30
0.0
 10
371.8332305131
 20
361.0681018298
 30
0.0
 10
372.100723504
 20
360.9976430398
 30
0.0
 10
372.2957149512
 20
360.8014331909
 30
0.0
 10
372.3615069581
 20
360.6877320883
 30
0.0
  0
SPLINE
  5
4F8
100
AcDbEntity
  8
0
100
AcDbSpline
 62
7
  6
CONTINUOUS
 70
0
 71
3
 72
18
 73
14
 74
0
 42
0.0000001
 43
0.0000001
 44
0.0000000001
 40
0.0
 40
0.0
 40
0.0
 40
0.0
 40
0.0085879897
 40
0.0283029726
 40
0.0585994184
 40
0.098691966
 40
0.1474811224
 40
0.2038284313
 40
0.3351436041
 40
0.4852365939
 40
0.6486179316
 40
0.821168177
 40
1.0
 40
1.0
 40
1.0
 40
1.0
 10
366.1138375057
 20
363.5113377068
 30
0.0
 10
366.1138498688
 20
363.51285016
 30
0.0
 10
366.1104076193
 20
363.5170995474
 30
0.0
 10
366.1051869128
 20
363.525576436
 30
0.0
 10
366.0953425863
 20
363.5382873181
 30
0.0
 10
366.082708215
 20
363.5549423202
 30
0.0
 10
366.0669505637
 20
363.5751286546
 30
0.0
 10
366.0413163779
 20
363.6079306144
 30
0.0
 10
366.0046443199
 20
363.6547767348
 30
0.0
 10
365.9567340233
 20
363.7167503623
 30
0.0
 10
365.9049595622
 20
363.784917849
 30
0.0
 10
365.8509205436
 20
363.8577134688
 30
0.0
 10
365.8146310078
 20
363.9078438728
 30
0.0
 10
365.796329304
 20
363.9334762716
 30
0.0
  0
SPLINE
  5
4F9
100
AcDbEntity
  8
0
100
AcDbSpline
 62
7
  6
CONTINUOUS
 70
0
 71
3
 72
16
 73
12
 74
0
 42
0.0000001
 43
0.0000001
 44
0.0000000001
 40
0.0
 40
0.0
 40
0.0
 40
0.0
 40
0.3631068345
 40
0.5303022121
 40
0.682319515
 40
0.8133591862
 40
0.9155995833
 40
0.9532049244
 40
0.9802447154
 40
0.9958408969
 40
1.0
 40
1.0
 40
1.0
 40
1.0
 10
365.796329304
 20
363.8950919812
 30
0.0
 10
365.8320929266
 20
363.8464445613
 30
0.0
 10
365.8854930983
 20
363.7762231446
 30
0.0
 10
365.9564516842
 20
363.6877374076
 30
0.0
 10
366.004379453
 20
363.6300836829
 30
0.0
 10
366.0459113178
 20
363.5816858498
 30
0.0
 10
366.0766216602
 20
363.5477896544
 30
0.0
 10
366.0946968004
 20
363.5280566315
 30
0.0
 10
366.1056562341
 20
363.5177558242
 30
0.0
 10
366.1087090757
 20
363.5138197438
 30
0.0
 10
366.1138318527
 20
363.5106461374
 30
0.0
 10
366.1138375057
 20
363.5113377068
 30
0.0
  0
SPLINE
  5
4FA
100
AcDbEntity
  8
0
100
AcDbSpline
 62
7
  6
CONTINUOUS
 70
0
 71
3
 72
11
 73
7
 74
0
 42
0.0000001
 43
0.0000001
 44
0.0000000001
 40
0.0
 40
0.0
 40
0.0
 40
0.0
 40
0.2508696315
 40
0.5012182216
 40
0.7508583033
 40
1.0
 40
1.0
 40
1.0
 40
1.0
 10
266.799829304
 20
315.3192302853
 30
0.0
 10
266.1227725153
 20
315.3192302853
 30
0.0
 10
264.7554006193
 20
315.5874932471
 30
0.0
 10
263.0248152723
 20
316.7362757353
 30
0.0
 10
261.8645478516
 20
318.4541735144
 30
0.0
 10
261.5928392806
 20
319.8151856124
 30
0.0
 10
261.5928460944
 20
320.4875789829
 30
0.0
  0
SPLINE
  5
4FB
100
AcDbEntity
  8
0
100
AcDbSpline
 62
7
  6
CONTINUOUS
 70
0
 71
3
 72
11
 73
7
 74
0
 42
0.0000001
 43
0.0000001
 44
0.0000000001
 40
0.0
 40
0.0
 40
0.0
 40
0.0
 40
0.2508861401
 40
0.5012279559
 40
0.7508649332
 40
1.0
 40
1.0
 40
1.0
 40
1.0
 10
266.799829304
 20
323.6390111148
 30
0.0
 10
266.3869637471
 20
323.6390111148
 30
0.0
 10
265.5531946479
 20
323.4754080991
 30
0.0
 10
264.4979303884
 20
322.7749452415
 30
0.0
 10
263.7905698048
 20
321.7274099317
 30
0.0
 10
263.6248389155
 20
320.8975629233
 30
0.0
 10
263.6248478304
 20
320.4875789837
 30
0.0
  0
SPLINE
  5
4FC
100
AcDbEntity
  8
0
100
AcDbSpline
 62
7
  6
CONTINUOUS
 70
0
 71
3
 72
11
 73
7
 74
0
 42
0.0000001
 43
0.0000001
 44
0.0000000001
 40
0.0
 40
0.0
 40
0.0
 40
0.0
 40
0.2491272626
 40
0.4987642496
 40
0.7491131641
 40
1.0
 40
1.0
 40
1.0
 40
1.0
 10
269.9748107776
 20
320.4875789812
 30
0.0
 10
269.974801863
 20
320.8975498478
 30
0.0
 10
269.8091042295
 20
321.7273829297
 30
0.0
 10
269.1017446128
 20
322.7749233407
 30
0.0
 10
268.046477944
 20
323.4754033382
 30
0.0
 10
267.2126957743
 20
323.6390111148
 30
0.0
 10
266.799829304
 20
323.6390111148
 30
0.0
  0
SPLINE
  5
4FD
100
AcDbEntity
  8
0
100
AcDbSpline
 62
7
  6
CONTINUOUS
 70
0
 71
3
 72
11
 73
7
 74
0
 42
0.0000001
 43
0.0000001
 44
0.0000000001
 40
0.0
 40
0.0
 40
0.0
 40
0.0
 40
0.2491369087
 40
0.49877502
 40
0.7491275777
 40
1.0
 40
1.0
 40
1.0
 40
1.0
 10
272.0068125135
 20
320.487578982
 30
0.0
 10
272.0068056998
 20
319.8151986278
 30
0.0
 10
271.7351296794
 20
318.4542044628
 30
0.0
 10
270.5748684884
 20
316.7363074964
 30
0.0
 10
268.8442847498
 20
315.5875011951
 30
0.0
 10
267.4768935295
 20
315.3192302853
 30
0.0
 10
266.799829304
 20
315.3192302853
 30
0.0
  0
SPLINE
  5
4FE
100
AcDbEntity
  8
0
100
AcDbSpline
 62
7
  6
CONTINUOUS
 70
0
 71
3
 72
11
 73
7
 74
0
 42
0.0000001
 43
0.0000001
 44
0.0000000001
 40
0.0
 40
0.0
 40
0.0
 40
0.0
 40
0.2491369087
 40
0.49877502
 40
0.7491275777
 40
1.0
 40
1.0
 40
1.0
 40
1.0
 10
261.5928460944
 20
320.4875789829
 30
0.0
 10
261.5928529082
 20
321.159959337
 30
0.0
 10
261.8645289286
 20
322.5209535021
 30
0.0
 10
263.0247901195
 20
324.2388504685
 30
0.0
 10
264.7553738582
 20
325.3876567698
 30
0.0
 10
266.1227650785
 20
325.6559276796
 30
0.0
 10
266.799829304
 20
325.6559276796
 30
0.0
  0
SPLINE
  5
4FF
100
AcDbEntity
  8
0
100
AcDbSpline
 62
7
  6
CONTINUOUS
 70
0
 71
3
 72
11
 73
7
 74
0
 42
0.0000001
 43
0.0000001
 44
0.0000000001
 40
0.0
 40
0.0
 40
0.0
 40
0.0
 40
0.2508861401
 40
0.5012279559
 40
0.7508649332
 40
1.0
 40
1.0
 40
1.0
 40
1.0
 10
266.799829304
 20
317.33614685
 30
0.0
 10
267.2126948609
 20
317.33614685
 30
0.0
 10
268.0464639601
 20
317.4997498658
 30
0.0
 10
269.1017282196
 20
318.2002127234
 30
0.0
 10
269.8090888032
 20
319.2477480332
 30
0.0
 10
269.9748196924
 20
320.0775950416
 30
0.0
 10
269.9748107776
 20
320.4875789812
 30
0.0
  0
SPLINE
  5
500
100
AcDbEntity
  8
0
100
AcDbSpline
 62
7
  6
CONTINUOUS
 70
0
 71
3
 72
11
 73
7
 74
0
 42
0.0000001
 43
0.0000001
 44
0.0000000001
 40
0.0
 40
0.0
 40
0.0
 40
0.0
 40
0.2491272626
 40
0.4987642496
 40
0.7491131641
 40
1.0
 40
1.0
 40
1.0
 40
1.0
 10
263.6248478304
 20
320.4875789837
 30
0.0
 10
263.6248567449
 20
320.0776081171
 30
0.0
 10
263.7905543785
 20
319.2477750352
 30
0.0
 10
264.4979139951
 20
318.2002346241
 30
0.0
 10
265.5531806639
 20
317.4997546267
 30
0.0
 10
266.3869628337
 20
317.33614685
 30
0.0
 10
266.799829304
 20
317.33614685
 30
0.0
  0
SPLINE
  5
501
100
AcDbEntity
  8
0
100
AcDbSpline
 62
7
  6
CONTINUOUS
 70
0
 71
3
 72
11
 73
7
 74
0
 42
0.0000001
 43
0.0000001
 44
0.0000000001
 40
0.0
 40
0.0
 40
0.0
 40
0.0
 40
0.2508696315
 40
0.5012182216
 40
0.7508583033
 40
1.0
 40
1.0
 40
1.0
 40
1.0
 10
266.799829304
 20
325.6559276796
 30
0.0
 10
267.4768860927
 20
325.6559276796
 30
0.0
 10
268.8442579887
 20
325.3876647178
 30
0.0
 10
270.5748433357
 20
324.2388822296
 30
0.0
 10
271.7351107564
 20
322.5209844505
 30
0.0
 10
272.0068193274
 20
321.1599723525
 30
0.0
 10
272.0068125135
 20
320.487578982
 30
0.0
  0
SPLINE
  5
502
100
AcDbEntity
  8
0
100
AcDbSpline
 62
7
  6
CONTINUOUS
 70
0
 71
3
 72
9
 73
5
 74
0
 42
0.0000001
 43
0.0000001
 44
0.0000000001
 40
0.0
 40
0.0
 40
0.0
 40
0.0
 40
0.2503033023
 40
1.0
 40
1.0
 40
1.0
 40
1.0
 10
274.737293047
 20
336.3345740701
 30
0.0
 10
274.7372928871
 20
336.5307898018
 30
0.0
 10
274.7079841156
 20
337.3144457496
 30
0.0
 10
274.559590225
 20
338.0935027329
 30
0.0
 10
274.3853129323
 20
338.6547639776
 30
0.0
  0
SPLINE
  5
503
100
AcDbEntity
  8
0
100
AcDbSpline
 62
7
  6
CONTINUOUS
 70
0
 71
3
 72
11
 73
7
 74
0
 42
0.0000001
 43
0.0000001
 44
0.0000000001
 40
0.0
 40
0.0
 40
0.0
 40
0.0
 40
0.2492226196
 40
0.4989936553
 40
0.7493178201
 40
1.0
 40
1.0
 40
1.0
 40
1.0
 10
274.3853129323
 20
338.6547639776
 30
0.0
 10
274.1383681217
 20
339.4500514746
 30
0.0
 10
273.3823215165
 20
340.973730858
 30
0.0
 10
271.5915964702
 20
342.7819400512
 30
0.0
 10
269.3234076311
 20
343.9459651783
 30
0.0
 10
267.6374510583
 20
344.2131544146
 30
0.0
 10
266.799829304
 20
344.2131544146
 30
0.0
  0
SPLINE
  5
504
100
AcDbEntity
  8
0
100
AcDbSpline
 62
7
  6
CONTINUOUS
 70
0
 71
3
 72
11
 73
7
 74
0
 42
0.0000001
 43
0.0000001
 44
0.0000000001
 40
0.0
 40
0.0
 40
0.0
 40
0.0
 40
0.2506781281
 40
0.5010011234
 40
0.7507740656
 40
1.0
 40
1.0
 40
1.0
 40
1.0
 10
266.799829304
 20
344.2131544146
 30
0.0
 10
265.9622193381
 20
344.2131544146
 30
0.0
 10
264.2762770653
 20
343.9459721874
 30
0.0
 10
262.0080879819
 20
342.7819607751
 30
0.0
 10
260.2173420396
 20
340.9737439341
 30
0.0
 10
259.4612873436
 20
339.4500438713
 30
0.0
 10
259.2143398314
 20
338.6547437937
 30
0.0
  0
SPLINE
  5
505
100
AcDbEntity
  8
0
100
AcDbSpline
 62
7
  6
CONTINUOUS
 70
0
 71
3
 72
9
 73
5
 74
0
 42
0.0000001
 43
0.0000001
 44
0.0000000001
 40
0.0
 40
0.0
 40
0.0
 40
0.0
 40
0.2504261302
 40
1.0
 40
1.0
 40
1.0
 40
1.0
 10
259.2143398314
 20
338.6547437937
 30
0.0
 10
259.1561257426
 20
338.467263997
 30
0.0
 10
258.9518174881
 20
337.7101530678
 30
0.0
 10
258.8623650821
 20
336.9221674454
 30
0.0
 10
258.862365561
 20
336.3345740971
 30
0.0
  0
SPLINE
  5
506
100
AcDbEntity
  8
0
100
AcDbSpline
 62
7
  6
CONTINUOUS
 70
0
 71
3
 72
15
 73
11
 74
0
 42
0.0000001
 43
0.0000001
 44
0.0000000001
 40
0.0
 40
0.0
 40
0.0
 40
0.0
 40
0.1245403698
 40
0.2491506845
 40
0.3738910165
 40
0.4987990762
 40
0.6238901019
 40
0.7491479177
 40
0.8745459301
 40
1.0
 40
1.0
 40
1.0
 40
1.0
 10
272.006790696
 20
333.1528187207
 30
0.0
 10
272.0067911157
 20
333.4905592989
 30
0.0
 10
271.9396170984
 20
334.1681280702
 30
0.0
 10
271.6412636066
 20
335.143795694
 30
0.0
 10
271.1568099678
 20
336.0432504611
 30
0.0
 10
270.5049549033
 20
336.8314316626
 30
0.0
 10
269.7107969232
 20
337.4781640658
 30
0.0
 10
268.8047829716
 20
337.9587253917
 30
0.0
 10
267.8221876654
 20
338.2545575085
 30
0.0
 10
267.140047742
 20
338.3211674291
 30
0.0
 10
266.799829304
 20
338.3211674291
 30
0.0
  0
SPLINE
  5
507
100
AcDbEntity
  8
0
100
AcDbSpline
 62
7
  6
CONTINUOUS
 70
0
 71
3
 72
15
 73
11
 74
0
 42
0.0000001
 43
0.0000001
 44
0.0000000001
 40
0.0
 40
0.0
 40
0.0
 40
0.0
 40
0.1254526542
 40
0.2508479586
 40
0.3761045154
 40
0.5011949017
 40
0.6261040514
 40
0.7508464366
 40
0.8754586605
 40
1.0
 40
1.0
 40
1.0
 40
1.0
 10
266.799829304
 20
338.3211674291
 30
0.0
 10
266.4596146289
 20
338.3211674291
 30
0.0
 10
265.777485484
 20
338.254561274
 30
0.0
 10
264.7949037939
 20
337.9587354292
 30
0.0
 10
263.8888953762
 20
337.4781904051
 30
0.0
 10
263.0947341123
 20
336.83146493
 30
0.0
 10
262.4428676728
 20
336.0432838832
 30
0.0
 10
261.9584032401
 20
335.1438187717
 30
0.0
 10
261.6600423563
 20
334.1681388227
 30
0.0
 10
261.5928683317
 20
333.4905620266
 30
0.0
 10
261.592867912
 20
333.1528187431
 30
0.0
  0
SPLINE
  5
508
100
AcDbEntity
  8
0
100
AcDbSpline
 62
7
  6
CONTINUOUS
 70
0
 71
3
 72
9
 73
5
 74
0
 42
0.0000001
 43
0.0000001
 44
0.0000000001
 40
0.0
 40
0.0
 40
0.0
 40
0.0
 40
0.4994351191
 40
1.0
 40
1.0
 40
1.0
 40
1.0
 10
273.5723004635
 20
339.7085448874
 30
0.0
 10
273.2178394003
 20
340.3907814689
 30
0.0
 10
272.2924904565
 20
341.6550284545
 30
0.0
 10
271.0285368227
 20
342.5802490343
 30
0.0
 10
270.3453840837
 20
342.9367163404
 30
0.0
  0
SPLINE
  5
509
100
AcDbEntity
  8
0
100
AcDbSpline
 62
7
  6
CONTINUOUS
 70
0
 71
3
 72
9
 73
5
 74
0
 42
0.0000001
 43
0.0000001
 44
0.0000000001
 40
0.0
 40
0.0
 40
0.0
 40
0.0
 40
0.2502823339
 40
1.0
 40
1.0
 40
1.0
 40
1.0
 10
269.1190707499
 20
343.4465013856
 30
0.0
 10
268.9320277712
 20
343.5058220452
 30
0.0
 10
268.1758918024
 20
343.7141777244
 30
0.0
 10
267.3876171018
 20
343.8053387154
 30
0.0
 10
266.799829304
 20
343.8053387154
 30
0.0
  0
SPLINE
  5
50A
100
AcDbEntity
  8
0
100
AcDbSpline
 62
7
  6
CONTINUOUS
 70
0
 71
3
 72
9
 73
5
 74
0
 42
0.0000001
 43
0.0000001
 44
0.0000000001
 40
0.0
 40
0.0
 40
0.0
 40
0.0
 40
0.2504121257
 40
1.0
 40
1.0
 40
1.0
 40
1.0
 10
266.799829304
 20
343.8053387154
 30
0.0
 10
266.6035032928
 20
343.8053387154
 30
0.0
 10
265.8197624508
 20
343.7754047346
 30
0.0
 10
265.040775383
 20
343.6241647958
 30
0.0
 10
264.480587858
 20
343.4465013856
 30
0.0
  0
SPLINE
  5
50B
100
AcDbEntity
  8
0
100
AcDbSpline
 62
7
  6
CONTINUOUS
 70
0
 71
3
 72
9
 73
5
 74
0
 42
0.0000001
 43
0.0000001
 44
0.0000000001
 40
0.0
 40
0.0
 40
0.0
 40
0.0
 40
0.5005648809
 40
1.0
 40
1.0
 40
1.0
 40
1.0
 10
263.2542745243
 20
342.9367163404
 30
0.0
 10
262.5711217852
 20
342.5802490343
 30
0.0
 10
261.3071681515
 20
341.6550284545
 30
0.0
 10
260.3818192077
 20
340.3907814689
 30
0.0
 10
260.0273581445
 20
339.7085448874
 30
0.0
  0
SPLINE
  5
50C
100
AcDbEntity
  8
0
100
AcDbSpline
 62
7
  6
CONTINUOUS
 70
0
 71
3
 72
9
 73
5
 74
0
 42
0.0000001
 43
0.0000001
 44
0.0000000001
 40
0.0
 40
0.0
 40
0.0
 40
0.0
 40
0.2502976767
 40
1.0
 40
1.0
 40
1.0
 40
1.0
 10
258.8629121582
 20
336.3344196013
 30
0.0
 10
258.8652284568
 20
336.5304547296
 30
0.0
 10
258.9037528159
 20
337.3130612982
 30
0.0
 10
259.0610926292
 20
338.0896737758
 30
0.0
 10
259.2417009125
 20
338.6484230001
 30
0.0
  0
SPLINE
  5
50D
100
AcDbEntity
  8
0
100
AcDbSpline
 62
7
  6
CONTINUOUS
 70
0
 71
3
 72
11
 73
7
 74
0
 42
0.0000001
 43
0.0000001
 44
0.0000000001
 40
0.0
 40
0.0
 40
0.0
 40
0.0
 40
0.2495000779
 40
0.4993102249
 40
0.7494765764
 40
1.0
 40
1.0
 40
1.0
 40
1.0
 10
259.2417009125
 20
338.6484230001
 30
0.0
 10
259.4001219057
 20
339.1385312362
 30
0.0
 10
259.8152773067
 20
340.090640826
 30
0.0
 10
260.7052723405
 20
341.3680868806
 30
0.0
 10
261.8286816872
 20
342.4489963303
 30
0.0
 10
262.7054728468
 20
343.0109612395
 30
0.0
 10
263.1660001927
 20
343.2463304155
 30
0.0
  0
SPLINE
  5
50E
100
AcDbEntity
  8
0
100
AcDbSpline
 62
7
  6
CONTINUOUS
 70
0
 71
3
 72
9
 73
5
 74
0
 42
0.0000001
 43
0.0000001
 44
0.0000000001
 40
0.0
 40
0.0
 40
0.0
 40
0.0
 40
0.4997742187
 40
1.0
 40
1.0
 40
1.0
 40
1.0
 10
263.1660001927
 20
343.2463304155
 30
0.0
 10
263.7243109695
 20
343.5316753546
 30
0.0
 10
264.9132515416
 20
343.971819014
 30
0.0
 10
266.1722598693
 20
344.1204819287
 30
0.0
 10
266.799829304
 20
344.1204819287
 30
0.0
  0
SPLINE
  5
50F
100
AcDbEntity
  8
0
100
AcDbSpline
 62
7
  6
CONTINUOUS
 70
0
 71
3
 72
9
 73
5
 74
0
 42
0.0000001
 43
0.0000001
 44
0.0000000001
 40
0.0
 40
0.0
 40
0.0
 40
0.0
 40
0.4994330922
 40
1.0
 40
1.0
 40
1.0
 40
1.0
 10
260.0273581445
 20
336.6194620217
 30
0.0
 10
260.3863420127
 20
337.3104037145
 30
0.0
 10
261.3264201617
 20
338.5895354035
 30
0.0
 10
262.6125792944
 20
339.5194296297
 30
0.0
 10
263.3072608517
 20
339.8750181738
 30
0.0
  0
SPLINE
  5
510
100
AcDbEntity
  8
0
100
AcDbSpline
 62
7
  6
CONTINUOUS
 70
0
 71
3
 72
9
 73
5
 74
0
 42
0.0000001
 43
0.0000001
 44
0.0000000001
 40
0.0
 40
0.0
 40
0.0
 40
0.0
 40
0.2502823339
 40
1.0
 40
1.0
 40
1.0
 40
1.0
 10
264.480587858
 20
340.3574185199
 30
0.0
 10
264.6676308368
 20
340.4167391795
 30
0.0
 10
265.4237668056
 20
340.6250948586
 30
0.0
 10
266.2120415062
 20
340.7162558497
 30
0.0
 10
266.799829304
 20
340.7162558497
 30
0.0
  0
SPLINE
  5
511
100
AcDbEntity
  8
0
100
AcDbSpline
 62
7
  6
CONTINUOUS
 70
0
 71
3
 72
9
 73
5
 74
0
 42
0.0000001
 43
0.0000001
 44
0.0000000001
 40
0.0
 40
0.0
 40
0.0
 40
0.0
 40
0.2504121257
 40
1.0
 40
1.0
 40
1.0
 40
1.0
 10
266.799829304
 20
340.7162558497
 30
0.0
 10
266.9961553151
 20
340.7162558497
 30
0.0
 10
267.7798961571
 20
340.6863218689
 30
0.0
 10
268.5588832249
 20
340.5350819301
 30
0.0
 10
269.1190707499
 20
340.3574185199
 30
0.0
  0
SPLINE
  5
512
100
AcDbEntity
  8
0
100
AcDbSpline
 62
7
  6
CONTINUOUS
 70
0
 71
3
 72
9
 73
5
 74
0
 42
0.0000001
 43
0.0000001
 44
0.0000000001
 40
0.0
 40
0.0
 40
0.0
 40
0.0
 40
0.5005669078
 40
1.0
 40
1.0
 40
1.0
 40
1.0
 10
270.2923977562
 20
339.8750181738
 30
0.0
 10
270.9870793136
 20
339.5194296297
 30
0.0
 10
272.2732384463
 20
338.5895354035
 30
0.0
 10
273.2133165953
 20
337.3104037145
 30
0.0
 10
273.5723004635
 20
336.6194620217
 30
0.0
  0
SPLINE
  5
513
100
AcDbEntity
  8
0
100
AcDbSpline
 62
7
  6
CONTINUOUS
 70
0
 71
3
 72
9
 73
5
 74
0
 42
0.0000001
 43
0.0000001
 44
0.0000000001
 40
0.0
 40
0.0
 40
0.0
 40
0.0
 40
0.5002238858
 40
1.0
 40
1.0
 40
1.0
 40
1.0
 10
266.799829304
 20
344.1204819287
 30
0.0
 10
267.4273594353
 20
344.1204819287
 30
0.0
 10
268.6862932768
 20
343.9718373463
 30
0.0
 10
269.8751714124
 20
343.5317451061
 30
0.0
 10
270.4334603642
 20
343.2464333048
 30
0.0
  0
SPLINE
  5
514
100
AcDbEntity
  8
0
100
AcDbSpline
 62
7
  6
CONTINUOUS
 70
0
 71
3
 72
11
 73
7
 74
0
 42
0.0000001
 43
0.0000001
 44
0.0000000001
 40
0.0
 40
0.0
 40
0.0
 40
0.0
 40
0.2505209
 40
0.5006871058
 40
0.7504985861
 40
1.0
 40
1.0
 40
1.0
 40
1.0
 10
270.4334603642
 20
343.2464333048
 30
0.0
 10
270.8940069847
 20
343.0110724124
 30
0.0
 10
271.7708384353
 20
342.4491100656
 30
0.0
 10
272.8943082103
 20
341.3681859958
 30
0.0
 10
273.7843537155
 20
340.0906991785
 30
0.0
 10
274.1995292816
 20
339.1385510226
 30
0.0
 10
274.3579572689
 20
338.6484226772
 30
0.0
  0
SPLINE
  5
515
100
AcDbEntity
  8
0
100
AcDbSpline
 62
7
  6
CONTINUOUS
 70
0
 71
3
 72
9
 73
5
 74
0
 42
0.0000001
 43
0.0000001
 44
0.0000000001
 40
0.0
 40
0.0
 40
0.0
 40
0.0
 40
0.2504298815
 40
1.0
 40
1.0
 40
1.0
 40
1.0
 10
274.3579572689
 20
338.6484226772
 30
0.0
 10
274.4182874368
 20
338.4617793585
 30
0.0
 10
274.6312022845
 20
337.7077134438
 30
0.0
 10
274.7298105163
 20
336.9214908523
 30
0.0
 10
274.7367465486
 20
336.3344238034
 30
0.0
  0
SPLINE
  5
516
100
AcDbEntity
  8
0
100
AcDbSpline
 62
7
  6
CONTINUOUS
 70
0
 71
3
 72
9
 73
5
 74
0
 42
0.0000001
 43
0.0000001
 44
0.0000000001
 40
0.0
 40
0.0
 40
0.0
 40
0.0
 40
0.2510035523
 40
1.0
 40
1.0
 40
1.0
 40
1.0
 10
270.0582500406
 20
351.794202204
 30
0.0
 10
269.7862003953
 20
351.947539306
 30
0.0
 10
268.7017217496
 20
352.5573161097
 30
0.0
 10
267.6148790215
 20
353.1628836563
 30
0.0
 10
266.799829304
 20
353.6146252426
 30
0.0
  0
SPLINE
  5
517
100
AcDbEntity
  8
0
100
AcDbSpline
 62
7
  6
CONTINUOUS
 70
0
 71
3
 72
8
 73
4
 74
0
 42
0.0000001
 43
0.0000001
 44
0.0000000001
 40
0.0
 40
0.0
 40
0.0
 40
0.0
 40
1.0
 40
1.0
 40
1.0
 40
1.0
 10
278.610829304
 20
346.8461589359
 30
0.0
 10
278.3996653525
 20
346.9711424253
 30
0.0
 10
278.1884313755
 20
347.0960076928
 30
0.0
 10
277.9771216586
 20
347.220744578
 30
0.0
  0
LINE
  5
518
100
AcDbEntity
  8
0
100
AcDbLine
 62
7
  6
CONTINUOUS
 10
266.799829304
 20
352.5753040922
 11
267.2973391226
 21
352.2811403594
  0
LINE
  5
519
100
AcDbEntity
  8
0
100
AcDbLine
 62
7
  6
CONTINUOUS
 10
266.3024529963
 20
352.2812192142
 11
266.799829304
 21
352.5753040922
  0
LINE
  5
51A
100
AcDbEntity
  8
0
100
AcDbLine
 62
7
  6
CONTINUOUS
 10
278.0726498739
 20
346.1054777275
 11
278.610829304
 21
345.8068377855
  0
SPLINE
  5
51B
100
AcDbEntity
  8
0
100
AcDbSpline
 62
7
  6
CONTINUOUS
 70
0
 71
3
 72
15
 73
11
 74
0
 42
0.0000001
 43
0.0000001
 44
0.0000000001
 40
0.0
 40
0.0
 40
0.0
 40
0.0
 40
0.1245428852
 40
0.2491555004
 40
0.3738969618
 40
0.4988065027
 40
0.6238977062
 40
0.7491573166
 40
0.8745397759
 40
1.0
 40
1.0
 40
1.0
 40
1.0
 10
274.7373188921
 20
337.1922896169
 30
0.0
 10
274.7373188921
 20
337.7071503709
 30
0.0
 10
274.6349252561
 20
338.7400545339
 30
0.0
 10
274.180095238
 20
340.2273787073
 30
0.0
 10
273.4415673037
 20
341.5985139769
 30
0.0
 10
272.4478449015
 20
342.7999929385
 30
0.0
 10
271.2372377827
 20
343.7859052874
 30
0.0
 10
269.8561078959
 20
344.5183353565
 30
0.0
 10
268.3583037681
 20
344.9693699726
 30
0.0
 10
267.3184823406
 20
345.0708699479
 30
0.0
 10
266.799829304
 20
345.0708699479
 30
0.0
  0
SPLINE
  5
51C
100
AcDbEntity
  8
0
100
AcDbSpline
 62
7
  6
CONTINUOUS
 70
0
 71
3
 72
9
 73
5
 74
0
 42
0.0000001
 43
0.0000001
 44
0.0000000001
 40
0.0
 40
0.0
 40
0.0
 40
0.0
 40
0.2493844133
 40
1.0
 40
1.0
 40
1.0
 40
1.0
 10
256.5712032608
 20
344.185607217
 30
0.0
 10
256.2971169753
 20
343.7143997523
 30
0.0
 10
255.2002326499
 20
341.823656601
 30
0.0
 10
254.1118244825
 20
339.9280045774
 30
0.0
 10
253.2980595907
 20
338.5032737364
 30
0.0
  0
LINE
  5
51D
100
AcDbEntity
  8
0
100
AcDbLine
 62
7
  6
CONTINUOUS
 10
253.2980595907
 20
338.5032737364
 11
253.1616612452
 21
338.264400987
  0
LINE
  5
51E
100
AcDbEntity
  8
0
100
AcDbLine
 62
7
  6
CONTINUOUS
 10
280.4379973628
 20
338.264400987
 11
280.3015990212
 21
338.5032737285
  0
SPLINE
  5
51F
100
AcDbEntity
  8
0
100
AcDbSpline
 62
7
  6
CONTINUOUS
 70
0
 71
3
 72
9
 73
5
 74
0
 42
0.0000001
 43
0.0000001
 44
0.0000000001
 40
0.0
 40
0.0
 40
0.0
 40
0.0
 40
0.2503209343
 40
1.0
 40
1.0
 40
1.0
 40
1.0
 10
280.3015990212
 20
338.5032737285
 30
0.0
 10
280.0302186391
 20
338.9784035858
 30
0.0
 10
278.9447048213
 20
340.8756946493
 30
0.0
 10
277.852390987
 20
342.7691021072
 30
0.0
 10
277.0284553496
 20
344.1856072128
 30
0.0
  0
SPLINE
  5
520
100
AcDbEntity
  8
0
100
AcDbSpline
 62
7
  6
CONTINUOUS
 70
0
 71
3
 72
9
 73
5
 74
0
 42
0.0000001
 43
0.0000001
 44
0.0000000001
 40
0.0
 40
0.0
 40
0.0
 40
0.0
 40
0.2490325739
 40
1.0
 40
1.0
 40
1.0
 40
1.0
 10
273.6189133334
 20
349.9877285196
 30
0.0
 10
273.0529055506
 20
349.9969508505
 30
0.0
 10
270.7800283642
 20
350.0305804933
 30
0.0
 10
268.5068743689
 20
350.0472709817
 30
0.0
 10
266.7998293039
 20
350.0472709817
 30
0.0
  0
SPLINE
  5
521
100
AcDbEntity
  8
0
100
AcDbSpline
 62
7
  6
CONTINUOUS
 70
0
 71
3
 72
9
 73
5
 74
0
 42
0.0000001
 43
0.0000001
 44
0.0000000001
 40
0.0
 40
0.0
 40
0.0
 40
0.0
 40
0.2521731379
 40
1.0
 40
1.0
 40
1.0
 40
1.0
 10
277.0284553496
 20
344.1856072128
 30
0.0
 10
276.7440289959
 20
344.6745912595
 30
0.0
 10
275.6138232337
 20
346.6123315613
 30
0.0
 10
274.4744760106
 20
348.544730873
 30
0.0
 10
273.6189133334
 20
349.9877285196
 30
0.0
  0
SPLINE
  5
522
100
AcDbEntity
  8
0
100
AcDbSpline
 62
7
  6
CONTINUOUS
 70
0
 71
3
 72
9
 73
5
 74
0
 42
0.0000001
 43
0.0000001
 44
0.0000000001
 40
0.0
 40
0.0
 40
0.0
 40
0.0
 40
0.2507629234
 40
1.0
 40
1.0
 40
1.0
 40
1.0
 10
266.7998293039
 20
350.0472709817
 30
0.0
 10
266.2298125381
 20
350.0472709817
 30
0.0
 10
263.9566814435
 20
350.0419115932
 30
0.0
 10
261.683632646
 20
350.015474765
 30
0.0
 10
259.9807452746
 20
349.9877285196
 30
0.0
  0
SPLINE
  5
523
100
AcDbEntity
  8
0
100
AcDbSpline
 62
7
  6
CONTINUOUS
 70
0
 71
3
 72
9
 73
5
 74
0
 42
0.0000001
 43
0.0000001
 44
0.0000000001
 40
0.0
 40
0.0
 40
0.0
 40
0.0
 40
0.2477242592
 40
1.0
 40
1.0
 40
1.0
 40
1.0
 10
259.9807452746
 20
349.9877285196
 30
0.0
 10
259.6973326429
 20
349.5097229083
 30
0.0
 10
258.5547730074
 20
347.5792442956
 30
0.0
 10
257.4196956727
 20
345.6443301791
 30
0.0
 10
256.5712032608
 20
344.185607217
 30
0.0
  0
SPLINE
  5
524
100
AcDbEntity
  8
0
100
AcDbSpline
 62
7
  6
CONTINUOUS
 70
0
 71
3
 72
9
 73
5
 74
0
 42
0.0000001
 43
0.0000001
 44
0.0000000001
 40
0.0
 40
0.0
 40
0.0
 40
0.0
 40
0.2493895517
 40
1.0
 40
1.0
 40
1.0
 40
1.0
 10
256.5712032584
 20
331.3038736108
 30
0.0
 10
256.2856140522
 20
331.7948568263
 30
0.0
 10
255.1428149545
 20
333.7649664677
 30
0.0
 10
254.0091930702
 20
335.7403895412
 30
0.0
 10
253.1616612452
 20
337.2250798366
 30
0.0
  0
SPLINE
  5
525
100
AcDbEntity
  8
0
100
AcDbSpline
 62
7
  6
CONTINUOUS
 70
0
 71
3
 72
9
 73
5
 74
0
 42
0.0000001
 43
0.0000001
 44
0.0000000001
 40
0.0
 40
0.0
 40
0.0
 40
0.0
 40
0.2477242568
 40
1.0
 40
1.0
 40
1.0
 40
1.0
 10
259.9807452746
 20
325.5017523041
 30
0.0
 10
259.6973326455
 20
325.9797579111
 30
0.0
 10
258.5547729965
 20
327.9102365177
 30
0.0
 10
257.4196956736
 20
329.845150643
 30
0.0
 10
256.5712032584
 20
331.3038736108
 30
0.0
  0
SPLINE
  5
526
100
AcDbEntity
  8
0
100
AcDbSpline
 62
7
  6
CONTINUOUS
 70
0
 71
3
 72
9
 73
5
 74
0
 42
0.0000001
 43
0.0000001
 44
0.0000000001
 40
0.0
 40
0.0
 40
0.0
 40
0.0
 40
0.2521731379
 40
1.0
 40
1.0
 40
1.0
 40
1.0
 10
277.0284553472
 20
331.3038736067
 30
0.0
 10
276.7440289937
 20
330.8148895605
 30
0.0
 10
275.613823232
 20
328.8771492602
 30
0.0
 10
274.47447601
 20
326.9447499498
 30
0.0
 10
273.6189133334
 20
325.5017523041
 30
0.0
  0
SPLINE
  5
527
100
AcDbEntity
  8
0
100
AcDbSpline
 62
7
  6
CONTINUOUS
 70
0
 71
3
 72
9
 73
5
 74
0
 42
0.0000001
 43
0.0000001
 44
0.0000000001
 40
0.0
 40
0.0
 40
0.0
 40
0.0
 40
0.2502977468
 40
1.0
 40
1.0
 40
1.0
 40
1.0
 10
280.4379973628
 20
337.2250798366
 30
0.0
 10
280.1553803892
 20
336.7299967429
 30
0.0
 10
279.0248029377
 20
334.7528517085
 30
0.0
 10
277.8869789561
 20
332.7798421412
 30
0.0
 10
277.0284553472
 20
331.3038736067
 30
0.0
  0
SPLINE
  5
528
100
AcDbEntity
  8
0
100
AcDbSpline
 62
7
  6
CONTINUOUS
 70
0
 71
3
 72
15
 73
11
 74
0
 42
0.0000001
 43
0.0000001
 44
0.0000000001
 40
0.0
 40
0.0
 40
0.0
 40
0.0
 40
0.1254602241
 40
0.2508426834
 40
0.3761022938
 40
0.5011934973
 40
0.6261030382
 40
0.7508444996
 40
0.8754571148
 40
1.0
 40
1.0
 40
1.0
 40
1.0
 10
266.799829304
 20
345.0708699479
 30
0.0
 10
266.2811762673
 20
345.0708699479
 30
0.0
 10
265.2413548399
 20
344.9693699726
 30
0.0
 10
263.7435507121
 20
344.5183353565
 30
0.0
 10
262.3624208252
 20
343.7859052874
 30
0.0
 10
261.1518137065
 20
342.7999929385
 30
0.0
 10
260.1580913043
 20
341.5985139769
 30
0.0
 10
259.41956337
 20
340.2273787073
 30
0.0
 10
258.9647333519
 20
338.7400545339
 30
0.0
 10
258.8623397159
 20
337.7071503709
 30
0.0
 10
258.8623397159
 20
337.1922896169
 30
0.0
  0
SPLINE
  5
529
100
AcDbEntity
  8
0
100
AcDbSpline
 62
7
  6
CONTINUOUS
 70
0
 71
3
 72
9
 73
5
 74
0
 42
0.0000001
 43
0.0000001
 44
0.0000000001
 40
0.0
 40
0.0
 40
0.0
 40
0.0
 40
0.2493895517
 40
1.0
 40
1.0
 40
1.0
 40
1.0
 10
256.5712032608
 20
343.0272011423
 30
0.0
 10
256.856792467
 20
343.5181843579
 30
0.0
 10
257.9995915649
 20
345.4882939996
 30
0.0
 10
259.1332134494
 20
347.4637170735
 30
0.0
 10
259.9807452746
 20
348.9484073692
 30
0.0
  0
SPLINE
  5
52A
100
AcDbEntity
  8
0
100
AcDbSpline
 62
7
  6
CONTINUOUS
 70
0
 71
3
 72
9
 73
5
 74
0
 42
0.0000001
 43
0.0000001
 44
0.0000000001
 40
0.0
 40
0.0
 40
0.0
 40
0.0
 40
0.249032566
 40
1.0
 40
1.0
 40
1.0
 40
1.0
 10
259.9807452746
 20
348.9484073692
 30
0.0
 10
260.5467530395
 20
348.9391850385
 30
0.0
 10
262.8196302288
 20
348.9055556306
 30
0.0
 10
265.0927842211
 20
348.888864907
 30
0.0
 10
266.7998293036
 20
348.888864907
 30
0.0
  0
SPLINE
  5
52B
100
AcDbEntity
  8
0
100
AcDbSpline
 62
7
  6
CONTINUOUS
 70
0
 71
3
 72
9
 73
5
 74
0
 42
0.0000001
 43
0.0000001
 44
0.0000000001
 40
0.0
 40
0.0
 40
0.0
 40
0.0
 40
0.2477242568
 40
1.0
 40
1.0
 40
1.0
 40
1.0
 10
253.1616612452
 20
337.2250798366
 30
0.0
 10
253.4450738742
 20
337.7030854435
 30
0.0
 10
254.587633523
 20
339.6335640498
 30
0.0
 10
255.7227108457
 20
341.5684781748
 30
0.0
 10
256.5712032608
 20
343.0272011423
 30
0.0
  0
SPLINE
  5
52C
100
AcDbEntity
  8
0
100
AcDbSpline
 62
7
  6
CONTINUOUS
 70
0
 71
3
 72
9
 73
5
 74
0
 42
0.0000001
 43
0.0000001
 44
0.0000000001
 40
0.0
 40
0.0
 40
0.0
 40
0.0
 40
0.2521731379
 40
1.0
 40
1.0
 40
1.0
 40
1.0
 10
277.0284553496
 20
343.0272011382
 30
0.0
 10
277.312881703
 20
342.5382170921
 30
0.0
 10
278.4430874645
 20
340.6004767922
 30
0.0
 10
279.5824346863
 20
338.6680774821
 30
0.0
 10
280.4379973628
 20
337.2250798366
 30
0.0
  0
SPLINE
  5
52D
100
AcDbEntity
  8
0
100
AcDbSpline
 62
7
  6
CONTINUOUS
 70
0
 71
3
 72
9
 73
5
 74
0
 42
0.0000001
 43
0.0000001
 44
0.0000000001
 40
0.0
 40
0.0
 40
0.0
 40
0.0
 40
0.2507629186
 40
1.0
 40
1.0
 40
1.0
 40
1.0
 10
266.7998293036
 20
348.888864907
 30
0.0
 10
267.3698460584
 20
348.888864907
 30
0.0
 10
269.6429771528
 20
348.8942243842
 30
0.0
 10
271.9160259509
 20
348.9206611236
 30
0.0
 10
273.6189133334
 20
348.9484073692
 30
0.0
  0
SPLINE
  5
52E
100
AcDbEntity
  8
0
100
AcDbSpline
 62
7
  6
CONTINUOUS
 70
0
 71
3
 72
9
 73
5
 74
0
 42
0.0000001
 43
0.0000001
 44
0.0000000001
 40
0.0
 40
0.0
 40
0.0
 40
0.0
 40
0.2502977468
 40
1.0
 40
1.0
 40
1.0
 40
1.0
 10
273.6189133334
 20
348.9484073692
 30
0.0
 10
273.901530307
 20
348.4533242753
 30
0.0
 10
275.0321077587
 20
346.4761792406
 30
0.0
 10
276.1699317405
 20
344.503169673
 30
0.0
 10
277.0284553496
 20
343.0272011382
 30
0.0
  0
SPLINE
  5
52F
100
AcDbEntity
  8
0
100
AcDbSpline
 62
7
  6
CONTINUOUS
 70
0
 71
3
 72
13
 73
9
 74
0
 42
0.0000001
 43
0.0000001
 44
0.0000000001
 40
0.0
 40
0.0
 40
0.0
 40
0.0
 40
0.1247621193
 40
0.2496417163
 40
0.4992277346
 40
0.7492294075
 40
0.874599037
 40
1.0
 40
1.0
 40
1.0
 40
1.0
 10
256.5712032587
 20
343.0272011387
 30
0.0
 10
256.828808254
 20
343.4700740701
 30
0.0
 10
257.4034109947
 20
344.3234628136
 30
0.0
 10
258.7638062991
 20
345.8633924294
 30
0.0
 10
260.8285176652
 20
347.4366609523
 30
0.0
 10
263.2316033286
 20
348.4228394704
 30
0.0
 10
265.2536557136
 20
348.8217465241
 30
0.0
 10
266.2848614641
 20
348.888864907
 30
0.0
 10
266.799829304
 20
348.888864907
 30
0.0
  0
SPLINE
  5
530
100
AcDbEntity
  8
0
100
AcDbSpline
 62
7
  6
CONTINUOUS
 70
0
 71
3
 72
13
 73
9
 74
0
 42
0.0000001
 43
0.0000001
 44
0.0000000001
 40
0.0
 40
0.0
 40
0.0
 40
0.0
 40
0.125400963
 40
0.2507705925
 40
0.5007722654
 40
0.7503582837
 40
0.8752378807
 40
1.0
 40
1.0
 40
1.0
 40
1.0
 10
266.799829304
 20
348.888864907
 30
0.0
 10
267.3147971439
 20
348.888864907
 30
0.0
 10
268.3460028943
 20
348.8217465241
 30
0.0
 10
270.3680552794
 20
348.4228394704
 30
0.0
 10
272.7711409428
 20
347.4366609523
 30
0.0
 10
274.8358523089
 20
345.8633924294
 30
0.0
 10
276.1962476132
 20
344.3234628135
 30
0.0
 10
276.7708503541
 20
343.4700740702
 30
0.0
 10
277.0284553493
 20
343.0272011387
 30
0.0
  0
SPLINE
  5
531
100
AcDbEntity
  8
0
100
AcDbSpline
 62
7
  6
CONTINUOUS
 70
0
 71
3
 72
13
 73
9
 74
0
 42
0.0000001
 43
0.0000001
 44
0.0000000001
 40
0.0
 40
0.0
 40
0.0
 40
0.0
 40
0.1252392778
 40
0.2503920147
 40
0.5
 40
0.7496079853
 40
0.8747607222
 40
1.0
 40
1.0
 40
1.0
 40
1.0
 10
277.0284553493
 20
343.0272011387
 30
0.0
 10
277.2858426763
 20
342.584702421
 30
0.0
 10
277.7428576772
 20
341.6648665865
 30
0.0
 10
278.4060526307
 20
339.7267991183
 30
0.0
 10
278.7472134072
 20
337.1655373745
 30
0.0
 10
278.4060526307
 20
334.6042756307
 30
0.0
 10
277.7428576771
 20
332.6662081625
 30
0.0
 10
277.2858426765
 20
331.7463723279
 30
0.0
 10
277.0284553493
 20
331.3038736103
 30
0.0
  0
SPLINE
  5
532
100
AcDbEntity
  8
0
100
AcDbSpline
 62
7
  6
CONTINUOUS
 70
0
 71
3
 72
11
 73
7
 74
0
 42
0.0000001
 43
0.0000001
 44
0.0000000001
 40
0.0
 40
0.0
 40
0.0
 40
0.0
 40
0.2496054007
 40
0.4994665006
 40
0.7496074101
 40
1.0
 40
1.0
 40
1.0
 40
1.0
 10
277.0284553493
 20
331.3038736103
 30
0.0
 10
276.7394388524
 20
330.8069982178
 30
0.0
 10
276.0867046607
 20
329.8539644005
 30
0.0
 10
274.9087329108
 20
328.5838570635
 30
0.0
 10
273.5563852648
 20
327.4984187686
 30
0.0
 10
272.5575035268
 20
326.9135043848
 30
0.0
 10
272.0399780583
 20
326.6592005236
 30
0.0
  0
SPLINE
  5
533
100
AcDbEntity
  8
0
100
AcDbSpline
 62
7
  6
CONTINUOUS
 70
0
 71
3
 72
11
 73
7
 74
0
 42
0.0000001
 43
0.0000001
 44
0.0000000001
 40
0.0
 40
0.0
 40
0.0
 40
0.0
 40
0.2503925899
 40
0.5005334994
 40
0.7503945993
 40
1.0
 40
1.0
 40
1.0
 40
1.0
 10
261.5596805497
 20
326.6592005236
 30
0.0
 10
261.0421550812
 20
326.9135043848
 30
0.0
 10
260.0432733432
 20
327.4984187687
 30
0.0
 10
258.6909256971
 20
328.5838570634
 30
0.0
 10
257.5129539474
 20
329.8539644006
 30
0.0
 10
256.8602197553
 20
330.8069982177
 30
0.0
 10
256.5712032587
 20
331.3038736103
 30
0.0
  0
SPLINE
  5
534
100
AcDbEntity
  8
0
100
AcDbSpline
 62
7
  6
CONTINUOUS
 70
0
 71
3
 72
13
 73
9
 74
0
 42
0.0000001
 43
0.0000001
 44
0.0000000001
 40
0.0
 40
0.0
 40
0.0
 40
0.0
 40
0.1252392778
 40
0.2503920147
 40
0.5
 40
0.7496079853
 40
0.8747607222
 40
1.0
 40
1.0
 40
1.0
 40
1.0
 10
256.5712032587
 20
331.3038736103
 30
0.0
 10
256.3138159317
 20
331.746372328
 30
0.0
 10
255.8568009308
 20
332.6662081625
 30
0.0
 10
255.1936059773
 20
334.6042756307
 30
0.0
 10
254.8524452007
 20
337.1655373745
 30
0.0
 10
255.1936059772
 20
339.7267991183
 30
0.0
 10
255.8568009309
 20
341.6648665865
 30
0.0
 10
256.3138159315
 20
342.5847024211
 30
0.0
 10
256.5712032587
 20
343.0272011387
 30
0.0
  0
SPLINE
  5
535
100
AcDbEntity
  8
0
100
AcDbSpline
 62
7
  6
CONTINUOUS
 70
0
 71
3
 72
15
 73
11
 74
0
 42
0.0000001
 43
0.0000001
 44
0.0000000001
 40
0.0
 40
0.0
 40
0.0
 40
0.0
 40
0.1255401732
 40
0.2509683845
 40
0.3762086497
 40
0.5012227049
 40
0.6260266067
 40
0.7506883385
 40
0.8753090737
 40
1.0
 40
1.0
 40
1.0
 40
1.0
 10
266.799829304
 20
345.4222895614
 30
0.0
 10
266.1173903983
 20
345.4222895614
 30
0.0
 10
264.7472409405
 20
345.254018716
 30
0.0
 10
262.8204695841
 20
344.5118556098
 30
0.0
 10
261.1330756467
 20
343.3247069423
 30
0.0
 10
259.7889954082
 20
341.7640856605
 30
0.0
 10
258.8694289832
 20
339.9245217715
 30
0.0
 10
258.4307111327
 20
337.9170968682
 30
0.0
 10
258.4990074045
 20
335.8651928535
 30
0.0
 10
258.8810640263
 20
334.5476906183
 30
0.0
 10
259.1487882841
 20
333.9249812929
 30
0.0
  0
SPLINE
  5
536
100
AcDbEntity
  8
0
100
AcDbSpline
 62
7
  6
CONTINUOUS
 70
0
 71
3
 72
15
 73
11
 74
0
 42
0.0000001
 43
0.0000001
 44
0.0000000001
 40
0.0
 40
0.0
 40
0.0
 40
0.0
 40
0.1246908985
 40
0.2493115531
 40
0.3739731538
 40
0.4987768979
 40
0.6237904648
 40
0.7490306163
 40
0.8744593075
 40
1.0
 40
1.0
 40
1.0
 40
1.0
 10
274.450149423
 20
333.9233040901
 30
0.0
 10
274.7180415045
 20
334.54602303
 30
0.0
 10
275.1004161809
 20
335.8635947938
 30
0.0
 10
275.16909174
 20
337.9157174384
 30
0.0
 10
274.7306335322
 20
339.923435505
 30
0.0
 10
273.8111953262
 20
341.7633194869
 30
0.0
 10
272.4671184074
 20
343.3242459514
 30
0.0
 10
270.7796179432
 20
344.5116485195
 30
0.0
 10
268.8526552288
 20
345.2539793037
 30
0.0
 10
267.4823468332
 20
345.4222895614
 30
0.0
 10
266.799829304
 20
345.4222895614
 30
0.0
  0
SPLINE
  5
537
100
AcDbEntity
  8
0
100
AcDbSpline
 62
7
  6
CONTINUOUS
 70
0
 71
3
 72
9
 73
5
 74
0
 42
0.0000001
 43
0.0000001
 44
0.0000000001
 40
0.0
 40
0.0
 40
0.0
 40
0.0
 40
0.4997947852
 40
1.0
 40
1.0
 40
1.0
 40
1.0
 10
280.236410765
 20
338.9788290136
 30
0.0
 10
280.2364104991
 20
340.0421330876
 30
0.0
 10
279.978114035
 20
342.1774632743
 30
0.0
 10
279.2151774656
 20
344.1884000543
 30
0.0
 10
278.7213909161
 20
345.131081376
 30
0.0
  0
SPLINE
  5
538
100
AcDbEntity
  8
0
100
AcDbSpline
 62
7
  6
CONTINUOUS
 70
0
 71
3
 72
11
 73
7
 74
0
 42
0.0000001
 43
0.0000001
 44
0.0000000001
 40
0.0
 40
0.0
 40
0.0
 40
0.0
 40
0.2502311889
 40
0.5002713916
 40
0.750173266
 40
1.0
 40
1.0
 40
1.0
 40
1.0
 10
278.1862107721
 20
345.9176472823
 30
0.0
 10
278.5122082222
 20
345.4011728398
 30
0.0
 10
279.0936324946
 20
344.3222640897
 30
0.0
 10
279.7341387283
 20
342.6009562111
 30
0.0
 10
280.1314732763
 20
340.8088433909
 30
0.0
 10
280.2291153872
 20
339.588439199
 30
0.0
 10
280.2356500158
 20
338.9787076051
 30
0.0
  0
SPLINE
  5
539
100
AcDbEntity
  8
0
100
AcDbSpline
 62
7
  6
CONTINUOUS
 70
0
 71
3
 72
9
 73
5
 74
0
 42
0.0000001
 43
0.0000001
 44
0.0000000001
 40
0.0
 40
0.0
 40
0.0
 40
0.0
 40
0.5002322836
 40
1.0
 40
1.0
 40
1.0
 40
1.0
 10
266.799829304
 20
351.8029020453
 30
0.0
 10
265.6565971045
 20
351.8029020453
 30
0.0
 10
263.3618285189
 20
351.5110995223
 30
0.0
 10
261.2149762622
 20
350.6492978443
 30
0.0
 10
260.2174646687
 20
350.0929490164
 30
0.0
  0
SPLINE
  5
53A
100
AcDbEntity
  8
0
100
AcDbSpline
 62
7
  6
CONTINUOUS
 70
0
 71
3
 72
13
 73
9
 74
0
 42
0.0000001
 43
0.0000001
 44
0.0000000001
 40
0.0
 40
0.0
 40
0.0
 40
0.0
 40
0.125483289
 40
0.2508521624
 40
0.5007447874
 40
0.750238777
 40
0.8751354862
 40
1.0
 40
1.0
 40
1.0
 40
1.0
 10
259.7559571635
 20
349.8233963987
 30
0.0
 10
259.2763951575
 20
349.5303627207
 30
0.0
 10
258.3533187513
 20
348.8835375214
 30
0.0
 10
256.6887784185
 20
347.3736026794
 30
0.0
 10
254.9860518907
 20
345.1132080426
 30
0.0
 10
253.905642786
 20
342.499627257
 30
0.0
 10
253.4556946047
 20
340.3045055463
 30
0.0
 10
253.3709768096
 20
339.1853961091
 30
0.0
 10
253.3642159889
 20
338.6262043336
 30
0.0
  0
SPLINE
  5
53B
100
AcDbEntity
  8
0
100
AcDbSpline
 62
7
  6
CONTINUOUS
 70
0
 71
3
 72
9
 73
5
 74
0
 42
0.0000001
 43
0.0000001
 44
0.0000000001
 40
0.0
 40
0.0
 40
0.0
 40
0.0
 40
0.4997457204
 40
1.0
 40
1.0
 40
1.0
 40
1.0
 10
280.1049339823
 20
336.4627841004
 30
0.0
 10
279.972767425
 20
335.5319061007
 30
0.0
 10
279.5080184886
 20
333.692193114
 30
0.0
 10
278.663782724
 20
331.9929393268
 30
0.0
 10
278.1583146398
 20
331.1990224767
 30
0.0
  0
SPLINE
  5
53C
100
AcDbEntity
  8
0
100
AcDbSpline
 62
7
  6
CONTINUOUS
 70
0
 71
3
 72
11
 73
7
 74
0
 42
0.0000001
 43
0.0000001
 44
0.0000000001
 40
0.0
 40
0.0
 40
0.0
 40
0.0
 40
0.2498131959
 40
0.4997076138
 40
0.7497513042
 40
1.0
 40
1.0
 40
1.0
 40
1.0
 10
280.2354414055
 20
338.6262982531
 30
0.0
 10
280.2277685565
 20
339.260528758
 30
0.0
 10
280.1208880451
 20
340.5299616496
 30
0.0
 10
279.6893342604
 20
342.390524869
 30
0.0
 10
278.9955999525
 20
344.1712187098
 30
0.0
 10
278.367329664
 20
345.2811096266
 30
0.0
 10
278.0156356664
 20
345.8102810985
 30
0.0
  0
SPLINE
  5
53D
100
AcDbEntity
  8
0
100
AcDbSpline
 62
7
  6
CONTINUOUS
 70
0
 71
3
 72
11
 73
7
 74
0
 42
0.0000001
 43
0.0000001
 44
0.0000000001
 40
0.0
 40
0.0
 40
0.0
 40
0.0
 40
0.2504790136
 40
0.5006016891
 40
0.750411964
 40
1.0
 40
1.0
 40
1.0
 40
1.0
 10
258.5996208559
 20
327.7587736428
 30
0.0
 10
257.9144548068
 20
328.2826801555
 30
0.0
 10
256.642968223
 20
329.4653667773
 30
0.0
 10
255.1164151625
 20
331.5696771242
 30
0.0
 10
254.0254803854
 20
333.9260930473
 30
0.0
 10
253.6160269886
 20
335.6095272231
 30
0.0
 10
253.4950609227
 20
336.4604177623
 30
0.0
  0
SPLINE
  5
53E
100
AcDbEntity
  8
0
100
AcDbSpline
 62
7
  6
CONTINUOUS
 70
0
 71
3
 72
9
 73
5
 74
0
 42
0.0000001
 43
0.0000001
 44
0.0000000001
 40
0.0
 40
0.0
 40
0.0
 40
0.0
 40
0.5003632204
 40
1.0
 40
1.0
 40
1.0
 40
1.0
 10
273.9745663816
 20
349.6003017348
 30
0.0
 10
274.7166051332
 20
349.1351324707
 30
0.0
 10
276.1120144657
 20
348.0577135952
 30
0.0
 10
277.2699148087
 20
346.7281945402
 30
0.0
 10
277.7767712552
 20
346.0155410492
 30
0.0
  0
SPLINE
  5
53F
100
AcDbEntity
  8
0
100
AcDbSpline
 62
7
  6
CONTINUOUS
 70
0
 71
3
 72
11
 73
7
 74
0
 42
0.0000001
 43
0.0000001
 44
0.0000000001
 40
0.0
 40
0.0
 40
0.0
 40
0.0
 40
0.2502485428
 40
0.5002939296
 40
0.7501894166
 40
1.0
 40
1.0
 40
1.0
 40
1.0
 10
277.998185069
 20
345.6943728771
 30
0.0
 10
278.3455959227
 20
345.1743136091
 30
0.0
 10
278.967748591
 20
344.084113607
 30
0.0
 10
279.6606165178
 20
342.3354605682
 30
0.0
 10
280.1000273623
 20
340.5077101254
 30
0.0
 10
280.2180756366
 20
339.2594826156
 30
0.0
 10
280.2327508638
 20
338.6353250578
 30
0.0
  0
SPLINE
  5
540
100
AcDbEntity
  8
0
100
AcDbSpline
 62
7
  6
CONTINUOUS
 70
0
 71
3
 72
13
 73
9
 74
0
 42
0.0000001
 43
0.0000001
 44
0.0000000001
 40
0.0
 40
0.0
 40
0.0
 40
0.0
 40
0.1248622049
 40
0.2497575391
 40
0.4992693215
 40
0.7491710787
 40
0.8745293107
 40
1.0
 40
1.0
 40
1.0
 40
1.0
 10
253.3669122091
 20
338.6355090756
 30
0.0
 10
253.3797671548
 20
339.1819170378
 30
0.0
 10
253.4734880017
 20
340.2746247695
 30
0.0
 10
253.928487664
 20
342.4167079346
 30
0.0
 10
254.991120681
 20
344.9669181846
 30
0.0
 10
256.6479020189
 20
347.1800121965
 30
0.0
 10
258.2638443021
 20
348.6672987301
 30
0.0
 10
259.1594099524
 20
349.3083555451
 30
0.0
 10
259.624747561
 20
349.6000856516
 30
0.0
  0
SPLINE
  5
541
100
AcDbEntity
  8
0
100
AcDbSpline
 62
7
  6
CONTINUOUS
 70
0
 71
3
 72
9
 73
5
 74
0
 42
0.0000001
 43
0.0000001
 44
0.0000000001
 40
0.0
 40
0.0
 40
0.0
 40
0.0
 40
0.4997834549
 40
1.0
 40
1.0
 40
1.0
 40
1.0
 10
260.4654657855
 20
350.0857826015
 30
0.0
 10
261.4332201481
 20
350.5992516405
 30
0.0
 10
263.503074495
 20
351.3925398051
 30
0.0
 10
265.7033440375
 20
351.6608042335
 30
0.0
 10
266.799829304
 20
351.6608042335
 30
0.0
  0
SPLINE
  5
542
100
AcDbEntity
  8
0
100
AcDbSpline
 62
7
  6
CONTINUOUS
 70
0
 71
3
 72
9
 73
5
 74
0
 42
0.0000001
 43
0.0000001
 44
0.0000000001
 40
0.0
 40
0.0
 40
0.0
 40
0.0
 40
0.2789127563
 40
1.0
 40
1.0
 40
1.0
 40
1.0
 10
166.8985075329
 20
331.3736666513
 30
0.0
 10
166.8651190659
 20
331.4023602824
 30
0.0
 10
166.7503170344
 20
331.5101800024
 30
0.0
 10
166.6559019292
 20
331.6441161106
 30
0.0
 10
166.6169289909
 20
331.7510531845
 30
0.0
  0
SPLINE
  5
543
100
AcDbEntity
  8
0
100
AcDbSpline
 62
7
  6
CONTINUOUS
 70
0
 71
3
 72
13
 73
9
 74
0
 42
0.0000001
 43
0.0000001
 44
0.0000000001
 40
0.0
 40
0.0
 40
0.0
 40
0.0
 40
0.0747098363
 40
0.1600272624
 40
0.2609804814
 40
0.3794344392
 40
0.66522616
 40
1.0
 40
1.0
 40
1.0
 40
1.0
 10
144.2965679219
 20
333.0281668047
 30
0.0
 10
144.2913995467
 20
332.9573401858
 30
0.0
 10
144.2465444747
 20
332.8072664522
 30
0.0
 10
144.0962757681
 20
332.6057208137
 30
0.0
 10
143.8706642994
 20
332.4208642145
 30
0.0
 10
143.4504306977
 20
332.184959483
 30
0.0
 10
142.7763582625
 20
331.967273998
 30
0.0
 10
142.1913005174
 20
331.8784562317
 30
0.0
 10
141.8742264915
 20
331.8515088098
 30
0.0
  0
SPLINE
  5
544
100
AcDbEntity
  8
0
100
AcDbSpline
 62
7
  6
CONTINUOUS
 70
0
 71
3
 72
10
 73
6
 74
0
 42
0.0000001
 43
0.0000001
 44
0.0000000001
 40
0.0
 40
0.0
 40
0.0
 40
0.0
 40
0.170709248
 40
0.4206330046
 40
1.0
 40
1.0
 40
1.0
 40
1.0
 10
144.319174487
 20
333.337963702
 30
0.0
 10
144.3316765203
 20
333.5092896456
 30
0.0
 10
144.3494394421
 20
333.9323060083
 30
0.0
 10
144.3777489638
 20
334.9381376215
 30
0.0
 10
144.3869941826
 20
335.7727132572
 30
0.0
 10
144.3869941826
 20
336.35571931
 30
0.0
  0
SPLINE
  5
545
100
AcDbEntity
  8
0
100
AcDbSpline
 62
7
  6
CONTINUOUS
 70
0
 71
3
 72
10
 73
6
 74
0
 42
0.0000001
 43
0.0000001
 44
0.0000000001
 40
0.0
 40
0.0
 40
0.0
 40
0.0
 40
0.1945461572
 40
0.4470632687
 40
1.0
 40
1.0
 40
1.0
 40
1.0
 10
166.684075119
 20
331.3506584906
 30
0.0
 10
166.7034541506
 20
331.7175967983
 30
0.0
 10
166.7346485027
 20
332.5614893056
 30
0.0
 10
166.781001739
 20
334.449666585
 30
0.0
 10
166.7969750991
 20
335.9710313609
 30
0.0
 10
166.7969750991
 20
337.0153923946
 30
0.0
  0
LINE
  5
546
100
AcDbEntity
  8
0
100
AcDbLine
 62
7
  6
CONTINUOUS
 10
144.4517257355
 20
336.3566617097
 11
144.4513796275
 21
336.3041455178
  0
SPLINE
  5
547
100
AcDbEntity
  8
0
100
AcDbSpline
 62
7
  6
CONTINUOUS
 70
0
 71
3
 72
10
 73
6
 74
0
 42
0.0000001
 43
0.0000001
 44
0.0000000001
 40
0.0
 40
0.0
 40
0.0
 40
0.0
 40
0.5787725153
 40
0.821843413
 40
1.0
 40
1.0
 40
1.0
 40
1.0
 10
144.4513796275
 20
336.3041455178
 30
0.0
 10
144.4449656183
 20
335.3548136255
 30
0.0
 10
144.4253806286
 20
334.006775651
 30
0.0
 10
144.3766655543
 20
332.3672249883
 30
0.0
 10
144.3468232012
 20
331.676844167
 30
0.0
 10
144.3283658708
 20
331.3851995427
 30
0.0
  0
SPLINE
  5
548
100
AcDbEntity
  8
0
100
AcDbSpline
 62
7
  6
CONTINUOUS
 70
0
 71
3
 72
14
 73
10
 74
0
 42
0.0000001
 43
0.0000001
 44
0.0000000001
 40
0.0
 40
0.0
 40
0.0
 40
0.0
 40
0.0712969187
 40
0.1540468889
 40
0.2545828984
 40
0.3745823072
 40
0.512743555
 40
0.6659451704
 40
1.0
 40
1.0
 40
1.0
 40
1.0
 10
145.2892843894
 20
342.811551662
 30
0.0
 10
145.2892316933
 20
342.8996606097
 30
0.0
 10
145.239437835
 20
343.0914203546
 30
0.0
 10
145.041567098
 20
343.3431392976
 30
0.0
 10
144.7387318069
 20
343.5686546869
 30
0.0
 10
144.3396563531
 20
343.7655722283
 30
0.0
 10
143.8568375088
 20
343.9284290672
 30
0.0
 10
143.1016732839
 20
344.0973599074
 30
0.0
 10
142.4980556593
 20
344.149021963
 30
0.0
 10
142.0852596956
 20
344.154005292
 30
0.0
  0
SPLINE
  5
549
100
AcDbEntity
  8
0
100
AcDbSpline
 62
7
  6
CONTINUOUS
 70
0
 71
3
 72
9
 73
5
 74
0
 42
0.0000001
 43
0.0000001
 44
0.0000000001
 40
0.0
 40
0.0
 40
0.0
 40
0.0
 40
0.5114597968
 40
1.0
 40
1.0
 40
1.0
 40
1.0
 10
112.3965096512
 20
350.3048573039
 30
0.0
 10
110.5788051125
 20
350.3268008802
 30
0.0
 10
107.0206224178
 20
350.1930944981
 30
0.0
 10
103.4929329146
 20
349.6952080086
 30
0.0
 10
101.7919648527
 20
349.3463400915
 30
0.0
  0
SPLINE
  5
54A
100
AcDbEntity
  8
0
100
AcDbSpline
 62
7
  6
CONTINUOUS
 70
0
 71
3
 72
11
 73
7
 74
0
 42
0.0000001
 43
0.0000001
 44
0.0000000001
 40
0.0
 40
0.0
 40
0.0
 40
0.0
 40
0.2399645217
 40
0.48562868
 40
0.7396315491
 40
1.0
 40
1.0
 40
1.0
 40
1.0
 10
145.1446108419
 20
351.06446361
 30
0.0
 10
145.1573876837
 20
351.2381049582
 30
0.0
 10
145.2579281763
 20
351.5880770086
 30
0.0
 10
145.6067380921
 20
352.0133452787
 30
0.0
 10
146.0982876866
 20
352.2884049475
 30
0.0
 10
146.4756309021
 20
352.3480761362
 30
0.0
 10
146.6645323786
 20
352.3457956918
 30
0.0
  0
SPLINE
  5
54B
100
AcDbEntity
  8
0
100
AcDbSpline
 62
7
  6
CONTINUOUS
 70
0
 71
3
 72
17
 73
13
 74
0
 42
0.0000001
 43
0.0000001
 44
0.0000000001
 40
0.0
 40
0.0
 40
0.0
 40
0.0
 40
0.0057177476
 40
0.0188605803
 40
0.0400709462
 40
0.0694094293
 40
0.1522717005
 40
0.2664356106
 40
0.410448706
 40
0.582287864
 40
0.7796675347
 40
1.0
 40
1.0
 40
1.0
 40
1.0
 10
145.1538331689
 20
341.2966164052
 30
0.0
 10
145.1502871924
 20
341.2966593627
 30
0.0
 10
145.1437398885
 20
341.3100809172
 30
0.0
 10
145.1386450513
 20
341.3319214524
 30
0.0
 10
145.1318817362
 20
341.3721838501
 30
0.0
 10
145.1228679506
 20
341.4536824973
 30
0.0
 10
145.1127397071
 20
341.5943077067
 30
0.0
 10
145.1026199716
 20
341.8053232707
 30
0.0
 10
145.0936944293
 20
342.0719854882
 30
0.0
 10
145.0862174322
 20
342.390179935
 30
0.0
 10
145.0803323333
 20
342.7557961222
 30
0.0
 10
145.0776709722
 20
343.014852391
 30
0.0
 10
145.0765834094
 20
343.1515017124
 30
0.0
  0
SPLINE
  5
54C
100
AcDbEntity
  8
0
100
AcDbSpline
 62
7
  6
CONTINUOUS
 70
0
 71
3
 72
13
 73
9
 74
0
 42
0.0000001
 43
0.0000001
 44
0.0000000001
 40
0.0
 40
0.0
 40
0.0
 40
0.0
 40
0.022465032
 40
0.0719382079
 40
0.15141054
 40
0.261366477
 40
0.5719868984
 40
1.0
 40
1.0
 40
1.0
 40
1.0
 10
167.4959943899
 20
341.0268987979
 30
0.0
 10
167.4990013524
 20
341.0268623702
 30
0.0
 10
167.5053042918
 20
341.0371014086
 30
0.0
 10
167.5103232964
 20
341.0550492817
 30
0.0
 10
167.5172645785
 20
341.0871756422
 30
0.0
 10
167.5270555505
 20
341.1528998257
 30
0.0
 10
167.539159801
 20
341.2662586622
 30
0.0
 10
167.5470143309
 20
341.3646891391
 30
0.0
 10
167.5511841209
 20
341.4218313012
 30
0.0
  0
SPLINE
  5
54D
100
AcDbEntity
  8
0
100
AcDbSpline
 62
7
  6
CONTINUOUS
 70
0
 71
3
 72
9
 73
5
 74
0
 42
0.0000001
 43
0.0000001
 44
0.0000000001
 40
0.0
 40
0.0
 40
0.0
 40
0.0
 40
0.486421378
 40
1.0
 40
1.0
 40
1.0
 40
1.0
 10
190.9657451695
 20
349.3327078543
 30
0.0
 10
189.5812247175
 20
349.6456585388
 30
0.0
 10
186.6938079988
 20
350.1127700494
 30
0.0
 10
183.7758578376
 20
350.2867661403
 30
0.0
 10
182.2772693754
 20
350.3048573039
 30
0.0
  0
SPLINE
  5
54E
100
AcDbEntity
  8
0
100
AcDbSpline
 62
7
  6
CONTINUOUS
 70
0
 71
3
 72
11
 73
7
 74
0
 42
0.0000001
 43
0.0000001
 44
0.0000000001
 40
0.0
 40
0.0
 40
0.0
 40
0.0
 40
0.259867179
 40
0.5145776535
 40
0.7607791882
 40
1.0
 40
1.0
 40
1.0
 40
1.0
 10
165.9600352512
 20
352.1128577583
 30
0.0
 10
166.1579826979
 20
352.1104681098
 30
0.0
 10
166.552773818
 20
352.0349520228
 30
0.0
 10
167.0572268579
 20
351.7240066138
 30
0.0
 10
167.4009143911
 20
351.2585917741
 30
0.0
 10
167.4833644254
 20
350.8844585046
 30
0.0
 10
167.4833644254
 20
350.702224644
 30
0.0
  0
SPLINE
  5
54F
100
AcDbEntity
  8
0
100
AcDbSpline
 62
7
  6
CONTINUOUS
 70
0
 71
3
 72
14
 73
10
 74
0
 42
0.0000001
 43
0.0000001
 44
0.0000000001
 40
0.0
 40
0.0
 40
0.0
 40
0.0
 40
0.3296438713
 40
0.4826787956
 40
0.6216808626
 40
0.7431580689
 40
0.8453131841
 40
0.9291339987
 40
1.0
 40
1.0
 40
1.0
 40
1.0
 10
170.7108752951
 20
342.934036114
 30
0.0
 10
170.3190295039
 20
342.9387665297
 30
0.0
 10
169.7429014842
 20
342.9021676823
 30
0.0
 10
169.0171408517
 20
342.7583463554
 30
0.0
 10
168.5461768929
 20
342.6137879586
 30
0.0
 10
168.1520841811
 20
342.4353307625
 30
0.0
 10
167.8478887952
 20
342.2283340736
 30
0.0
 10
167.6423391757
 20
341.9963226181
 30
0.0
 10
167.5799218657
 20
341.8156489426
 30
0.0
 10
167.5737906861
 20
341.7316281985
 30
0.0
  0
SPLINE
  5
550
100
AcDbEntity
  8
0
100
AcDbSpline
 62
7
  6
CONTINUOUS
 70
0
 71
3
 72
13
 73
9
 74
0
 42
0.0000001
 43
0.0000001
 44
0.0000000001
 40
0.0
 40
0.0
 40
0.0
 40
0.0
 40
0.4280131016
 40
0.738633523
 40
0.84858946
 40
0.9280617921
 40
0.977534968
 40
1.0
 40
1.0
 40
1.0
 40
1.0
 10
145.2090228999
 20
341.6915489085
 30
0.0
 10
145.2048531099
 20
341.6344067464
 30
0.0
 10
145.19699858
 20
341.5359762695
 30
0.0
 10
145.1848943295
 20
341.422617433
 30
0.0
 10
145.1751033575
 20
341.3568932496
 30
0.0
 10
145.1681620754
 20
341.324766889
 30
0.0
 10
145.1631430708
 20
341.306819016
 30
0.0
 10
145.1568401314
 20
341.2965799775
 30
0.0
 10
145.1538331689
 20
341.2966164052
 30
0.0
  0
SPLINE
  5
551
100
AcDbEntity
  8
0
100
AcDbSpline
 62
7
  6
CONTINUOUS
 70
0
 71
3
 72
9
 73
5
 74
0
 42
0.0000001
 43
0.0000001
 44
0.0000000001
 40
0.0
 40
0.0
 40
0.0
 40
0.0
 40
0.4994934655
 40
1.0
 40
1.0
 40
1.0
 40
1.0
 10
277.975829304
 20
321.1164721331
 30
0.0
 10
277.975829304
 20
320.919674755
 30
0.0
 10
277.8967307818
 20
320.5217142507
 30
0.0
 10
277.6694175169
 20
320.1857591791
 30
0.0
 10
277.5294600385
 20
320.0468405981
 30
0.0
  0
SPLINE
  5
552
100
AcDbEntity
  8
0
100
AcDbSpline
 62
7
  6
CONTINUOUS
 70
0
 71
3
 72
9
 73
5
 74
0
 42
0.0000001
 43
0.0000001
 44
0.0000000001
 40
0.0
 40
0.0
 40
0.0
 40
0.0
 40
0.4994983725
 40
1.0
 40
1.0
 40
1.0
 40
1.0
 10
277.5294600385
 20
320.0468405981
 30
0.0
 10
277.3891029817
 20
319.9075254047
 30
0.0
 10
277.0498004576
 20
319.6818815533
 30
0.0
 10
276.6499860259
 20
319.6037847096
 30
0.0
 10
276.4518293041
 20
319.6037847096
 30
0.0
  0
SPLINE
  5
553
100
AcDbEntity
  8
0
100
AcDbSpline
 62
7
  6
CONTINUOUS
 70
0
 71
3
 72
16
 73
12
 74
0
 42
0.0000001
 43
0.0000001
 44
0.0000000001
 40
0.0
 40
0.0
 40
0.0
 40
0.0
 40
0.0299088642
 40
0.0558808236
 40
0.0900869001
 40
0.1325251092
 40
0.1829582921
 40
0.3061119312
 40
0.4552971608
 40
0.6249967435
 40
1.0
 40
1.0
 40
1.0
 40
1.0
 10
250.670829304
 20
320.1134833824
 30
0.0
 10
250.670829304
 20
320.0708309901
 30
0.0
 10
250.7482154614
 20
320.0096971965
 30
0.0
 10
250.8600434801
 20
319.9598982351
 30
0.0
 10
251.0011477117
 20
319.9129121059
 30
0.0
 10
251.1763155311
 20
319.8692245347
 30
0.0
 10
251.4788433599
 20
319.8087901112
 30
0.0
 10
251.9347164727
 20
319.7444649614
 30
0.0
 10
252.5623419917
 20
319.6835316767
 30
0.0
 10
253.5500013015
 20
319.6209843977
 30
0.0
 10
254.3270451721
 20
319.6037847095
 30
0.0
 10
254.8618293039
 20
319.6037847095
 30
0.0
  0
SPLINE
  5
554
100
AcDbEntity
  8
0
100
AcDbSpline
 62
7
  6
CONTINUOUS
 70
0
 71
3
 72
9
 73
5
 74
0
 42
0.0000001
 43
0.0000001
 44
0.0000000001
 40
0.0
 40
0.0
 40
0.0
 40
0.0
 40
0.4994934655
 40
1.0
 40
1.0
 40
1.0
 40
1.0
 10
277.975829304
 20
349.8062089963
 30
0.0
 10
277.975829304
 20
350.0030063743
 30
0.0
 10
277.8967307818
 20
350.4009668787
 30
0.0
 10
277.6694175169
 20
350.7369219503
 30
0.0
 10
277.5294600385
 20
350.8758405313
 30
0.0
  0
SPLINE
  5
555
100
AcDbEntity
  8
0
100
AcDbSpline
 62
7
  6
CONTINUOUS
 70
0
 71
3
 72
9
 73
5
 74
0
 42
0.0000001
 43
0.0000001
 44
0.0000000001
 40
0.0
 40
0.0
 40
0.0
 40
0.0
 40
0.4994983725
 40
1.0
 40
1.0
 40
1.0
 40
1.0
 10
277.5294600385
 20
350.8758405313
 30
0.0
 10
277.3891029817
 20
351.0151557247
 30
0.0
 10
277.0498004575
 20
351.2407995761
 30
0.0
 10
276.6499860258
 20
351.3188964198
 30
0.0
 10
276.451829304
 20
351.3188964198
 30
0.0
  0
SPLINE
  5
556
100
AcDbEntity
  8
0
100
AcDbSpline
 62
7
  6
CONTINUOUS
 70
0
 71
3
 72
12
 73
8
 74
0
 42
0.0000001
 43
0.0000001
 44
0.0000000001
 40
0.0
 40
0.0
 40
0.0
 40
0.0
 40
0.3499448155
 40
0.6568799823
 40
0.8829731117
 40
0.9563721776
 40
1.0
 40
1.0
 40
1.0
 40
1.0
 10
254.861829304
 20
351.4424597345
 30
0.0
 10
254.6861960867
 20
351.4395700091
 30
0.0
 10
254.3563519183
 20
351.4424434487
 30
0.0
 10
253.9135196436
 20
351.4617660879
 30
0.0
 10
253.6098299636
 20
351.4837422377
 30
0.0
 10
253.438135916
 20
351.4961561302
 30
0.0
 10
253.3794244303
 20
351.50004144
 30
0.0
 10
253.3575293077
 20
351.4996158611
 30
0.0
  0
SPLINE
  5
557
100
AcDbEntity
  8
0
100
AcDbSpline
 62
7
  6
CONTINUOUS
 70
0
 71
3
 72
9
 73
5
 74
0
 42
0.0000001
 43
0.0000001
 44
0.0000000001
 40
0.0
 40
0.0
 40
0.0
 40
0.0
 40
0.5005016275
 40
1.0
 40
1.0
 40
1.0
 40
1.0
 10
276.451829304
 20
350.9945427189
 30
0.0
 10
276.6499860258
 20
350.9945427189
 30
0.0
 10
277.0498004575
 20
350.9164458752
 30
0.0
 10
277.3891029817
 20
350.6908020238
 30
0.0
 10
277.5294600385
 20
350.5514868304
 30
0.0
  0
SPLINE
  5
558
100
AcDbEntity
  8
0
100
AcDbSpline
 62
7
  6
CONTINUOUS
 70
0
 71
3
 72
9
 73
5
 74
0
 42
0.0000001
 43
0.0000001
 44
0.0000000001
 40
0.0
 40
0.0
 40
0.0
 40
0.0
 40
0.5005065345
 40
1.0
 40
1.0
 40
1.0
 40
1.0
 10
277.5294600385
 20
350.5514868304
 30
0.0
 10
277.6694175169
 20
350.4125682494
 30
0.0
 10
277.8967307818
 20
350.0766131778
 30
0.0
 10
277.975829304
 20
349.6786526734
 30
0.0
 10
277.975829304
 20
349.4818552954
 30
0.0
  0
SPLINE
  5
559
100
AcDbEntity
  8
0
100
AcDbSpline
 62
7
  6
CONTINUOUS
 70
0
 71
3
 72
16
 73
12
 74
0
 42
0.0000001
 43
0.0000001
 44
0.0000000001
 40
0.0
 40
0.0
 40
0.0
 40
0.0
 40
0.0090552809
 40
0.0245175116
 40
0.0789746796
 40
0.1654416421
 40
0.2825570948
 40
0.4279238879
 40
0.5984778944
 40
0.7905731975
 40
1.0
 40
1.0
 40
1.0
 40
1.0
 10
250.670829304
 20
351.4954617054
 30
0.0
 10
250.670829304
 20
351.4874396178
 30
0.0
 10
250.6856342394
 20
351.4679717875
 30
0.0
 10
250.7463089135
 20
351.4348770653
 30
0.0
 10
250.8804796855
 20
351.3933614932
 30
0.0
 10
251.1034331232
 20
351.3461863208
 30
0.0
 10
251.4092340757
 20
351.2979195173
 30
0.0
 10
251.7899786585
 20
351.2516039617
 30
0.0
 10
252.2381304584
 20
351.2093121779
 30
0.0
 10
252.7436562972
 20
351.1730631024
 30
0.0
 10
253.0989190441
 20
351.1546709919
 30
0.0
 10
253.2842818004
 20
351.1467590752
 30
0.0
  0
SPLINE
  5
55A
100
AcDbEntity
  8
0
100
AcDbSpline
 62
7
  6
CONTINUOUS
 70
0
 71
3
 72
9
 73
5
 74
0
 42
0.0000001
 43
0.0000001
 44
0.0000000001
 40
0.0
 40
0.0
 40
0.0
 40
0.0
 40
0.4999335575
 40
1.0
 40
1.0
 40
1.0
 40
1.0
 10
372.7178593171
 20
340.3111221103
 30
0.0
 10
372.7178593171
 20
339.386043732
 30
0.0
 10
372.9217777035
 20
337.5299878316
 30
0.0
 10
373.5263565704
 20
335.7633803181
 30
0.0
 10
373.9196391005
 20
334.9257922006
 30
0.0
  0
SPLINE
  5
55B
100
AcDbEntity
  8
0
100
AcDbSpline
 62
7
  6
CONTINUOUS
 70
0
 71
3
 72
9
 73
5
 74
0
 42
0.0000001
 43
0.0000001
 44
0.0000000001
 40
0.0
 40
0.0
 40
0.0
 40
0.0
 40
0.1976658122
 40
1.0
 40
1.0
 40
1.0
 40
1.0
 10
373.987829304
 20
355.1651936864
 30
0.0
 10
374.0511036553
 20
355.1697405883
 30
0.0
 10
374.3714502143
 20
355.1893798446
 30
0.0
 10
374.6922490727
 20
355.2005275795
 30
0.0
 10
374.949636915
 20
355.20797752
 30
0.0
  0
SPLINE
  5
55C
100
AcDbEntity
  8
0
100
AcDbSpline
 62
7
  6
CONTINUOUS
 70
0
 71
3
 72
9
 73
5
 74
0
 42
0.0000001
 43
0.0000001
 44
0.0000000001
 40
0.0
 40
0.0
 40
0.0
 40
0.0
 40
0.2994788151
 40
1.0
 40
1.0
 40
1.0
 40
1.0
 10
374.949636915
 20
380.5925045263
 30
0.0
 10
374.8535654634
 20
380.5897237943
 30
0.0
 10
374.5328187514
 20
380.579318995
 30
0.0
 10
374.2120692238
 20
380.5658345982
 30
0.0
 10
373.987829304
 20
380.5497206927
 30
0.0
  0
SPLINE
  5
55D
100
AcDbEntity
  8
0
100
AcDbSpline
 62
7
  6
CONTINUOUS
 70
0
 71
3
 72
9
 73
5
 74
0
 42
0.0000001
 43
0.0000001
 44
0.0000000001
 40
0.0
 40
0.0
 40
0.0
 40
0.0
 40
0.1978999884
 40
1.0
 40
1.0
 40
1.0
 40
1.0
 10
373.987829304
 20
328.0439436716
 30
0.0
 10
374.0510574969
 20
328.050757319
 30
0.0
 10
374.3710859423
 20
328.0801846941
 30
0.0
 10
374.6921281856
 20
328.0969258098
 30
0.0
 10
374.949636915
 20
328.108103131
 30
0.0
  0
SPLINE
  5
55E
100
AcDbEntity
  8
0
100
AcDbSpline
 62
7
  6
CONTINUOUS
 70
0
 71
3
 72
13
 73
9
 74
0
 42
0.0000001
 43
0.0000001
 44
0.0000000001
 40
0.0
 40
0.0
 40
0.0
 40
0.0
 40
0.1196591773
 40
0.2402257575
 40
0.3623753542
 40
0.4866060744
 40
0.7403345081
 40
1.0
 40
1.0
 40
1.0
 40
1.0
 10
51.306229304
 20
340.3392464855
 30
0.0
 10
51.306229304
 20
340.9220011574
 30
0.0
 10
51.433212491
 20
342.0957471776
 30
0.0
 10
51.9952463461
 20
343.7819282766
 30
0.0
 10
52.9072049664
 20
345.3340681801
 30
0.0
 10
54.5470245418
 20
347.154268363
 30
0.0
 10
57.2722345392
 20
348.8008054073
 30
0.0
 10
59.7952269393
 20
349.2496034612
 30
0.0
 10
61.059829304
 20
349.2496034612
 30
0.0
  0
SPLINE
  5
55F
100
AcDbEntity
  8
0
100
AcDbSpline
 62
7
  6
CONTINUOUS
 70
0
 71
3
 72
13
 73
9
 74
0
 42
0.0000001
 43
0.0000001
 44
0.0000000001
 40
0.0
 40
0.0
 40
0.0
 40
0.0
 40
0.1196321182
 40
0.2402353655
 40
0.3623701962
 40
0.4866045876
 40
0.7403223615
 40
1.0
 40
1.0
 40
1.0
 40
1.0
 10
54.709829304
 20
314.5114696502
 30
0.0
 10
54.709829304
 20
314.8907802886
 30
0.0
 10
54.7926494857
 20
315.6549391969
 30
0.0
 10
55.1583481019
 20
316.7527595301
 30
0.0
 10
55.752188987
 20
317.7632968257
 30
0.0
 10
56.8196455168
 20
318.9483368544
 30
0.0
 10
58.5939301076
 20
320.0202436566
 30
0.0
 10
60.2364844337
 20
320.3124833062
 30
0.0
 10
61.059829304
 20
320.3124833062
 30
0.0
  0
SPLINE
  5
560
100
AcDbEntity
  8
0
100
AcDbSpline
 62
7
  6
CONTINUOUS
 70
0
 71
3
 72
16
 73
12
 74
0
 42
0.0000001
 43
0.0000001
 44
0.0000000001
 40
0.0
 40
0.0
 40
0.0
 40
0.0
 40
0.072838687
 40
0.1561597002
 40
0.2561221815
 40
0.3747598244
 40
0.440966618
 40
0.5114152686
 40
0.6635704629
 40
0.827777245
 40
1.0
 40
1.0
 40
1.0
 40
1.0
 10
173.353229304
 20
334.4244595577
 30
0.0
 10
173.353229304
 20
334.234369514
 30
0.0
 10
173.2541619962
 20
333.8237867441
 30
0.0
 10
172.8538192395
 20
333.2746126554
 30
0.0
 10
172.2352979136
 20
332.7769241665
 30
0.0
 10
171.5784157825
 20
332.4225227983
 30
0.0
 10
170.9637373944
 20
332.1648496806
 30
0.0
 10
170.2518656737
 20
331.9158774414
 30
0.0
 10
169.2731806017
 20
331.6612723848
 30
0.0
 10
168.0144299636
 20
331.4498549656
 30
0.0
 10
167.1388060521
 20
331.3728020582
 30
0.0
 10
166.6899434987
 20
331.3497006855
 30
0.0
  0
SPLINE
  5
561
100
AcDbEntity
  8
0
100
AcDbSpline
 62
7
  6
CONTINUOUS
 70
0
 71
3
 72
14
 73
10
 74
0
 42
0.0000001
 43
0.0000001
 44
0.0000000001
 40
0.0
 40
0.0
 40
0.0
 40
0.0
 40
0.3331838794
 40
0.4867003469
 40
0.6253345939
 40
0.7457790053
 40
0.8465455058
 40
0.9291555812
 40
1.0
 40
1.0
 40
1.0
 40
1.0
 10
146.048229304
 20
331.3251263375
 30
0.0
 10
145.0730024402
 20
331.3251263375
 30
0.0
 10
143.6436179899
 20
331.4324831751
 30
0.0
 10
141.8512841141
 20
331.8143036262
 30
0.0
 10
140.7004333421
 20
332.1894722789
 30
0.0
 10
139.7472564858
 20
332.6471797631
 30
0.0
 10
139.0229425183
 20
333.1743396539
 30
0.0
 10
138.5484722938
 20
333.7647027654
 30
0.0
 10
138.428229304
 20
334.2170984439
 30
0.0
 10
138.428229304
 20
334.4244595577
 30
0.0
  0
SPLINE
  5
562
100
AcDbEntity
  8
0
100
AcDbSpline
 62
7
  6
CONTINUOUS
 70
0
 71
3
 72
21
 73
17
 74
0
 42
0.0000001
 43
0.0000001
 44
0.0000000001
 40
0.0
 40
0.0
 40
0.0
 40
0.0
 40
0.0354090804
 40
0.0767304795
 40
0.1271061293
 40
0.1873296258
 40
0.2566430566
 40
0.3334035338
 40
0.499988167
 40
0.6665734278
 40
0.7433371843
 40
0.81265565
 40
0.872885546
 40
0.9232659459
 40
0.9645903666
 40
1.0
 40
1.0
 40
1.0
 40
1.0
 10
99.0459249631
 20
333.8462383679
 30
0.0
 10
99.0459249631
 20
333.9409079191
 30
0.0
 10
98.9908687425
 20
334.1474828059
 30
0.0
 10
98.7743641034
 20
334.4172152695
 30
0.0
 10
98.443486387
 20
334.6579697013
 30
0.0
 10
98.0081704521
 20
334.8669617187
 30
0.0
 10
97.4826006331
 20
335.038330042
 30
0.0
 10
96.6638395239
 20
335.2127050337
 30
0.0
 10
95.5658241134
 20
335.2952758953
 30
0.0
 10
94.4677985347
 20
335.2127304076
 30
0.0
 10
93.6490090359
 20
335.0383709629
 30
0.0
 10
93.1234003115
 20
334.8669972464
 30
0.0
 10
92.6880332912
 20
334.6580109291
 30
0.0
 10
92.3571202669
 20
334.4172389527
 30
0.0
 10
92.1405961905
 20
334.1474933488
 30
0.0
 10
92.0855336448
 20
333.9409093975
 30
0.0
 10
92.0855336448
 20
333.8462383679
 30
0.0
  0
SPLINE
  5
563
100
AcDbEntity
  8
0
100
AcDbSpline
 62
7
  6
CONTINUOUS
 70
0
 71
3
 72
21
 73
17
 74
0
 42
0.0000001
 43
0.0000001
 44
0.0000000001
 40
0.0
 40
0.0
 40
0.0
 40
0.0
 40
0.0354090804
 40
0.0767304795
 40
0.1271061293
 40
0.1873296258
 40
0.2566430566
 40
0.3334035338
 40
0.499988167
 40
0.6665734278
 40
0.7433371843
 40
0.81265565
 40
0.872885546
 40
0.9232659459
 40
0.9645903666
 40
1.0
 40
1.0
 40
1.0
 40
1.0
 10
194.2959249631
 20
333.8462383679
 30
0.0
 10
194.2959249631
 20
333.9409079191
 30
0.0
 10
194.2408687425
 20
334.1474828059
 30
0.0
 10
194.0243641034
 20
334.4172152695
 30
0.0
 10
193.693486387
 20
334.6579697013
 30
0.0
 10
193.2581704521
 20
334.8669617187
 30
0.0
 10
192.7326006331
 20
335.038330042
 30
0.0
 10
191.9138395239
 20
335.2127050337
 30
0.0
 10
190.8158241134
 20
335.2952758953
 30
0.0
 10
189.7177985347
 20
335.2127304076
 30
0.0
 10
188.8990090359
 20
335.0383709629
 30
0.0
 10
188.3734003115
 20
334.8669972464
 30
0.0
 10
187.9380332912
 20
334.6580109291
 30
0.0
 10
187.6071202669
 20
334.4172389527
 30
0.0
 10
187.3905961905
 20
334.1474933488
 30
0.0
 10
187.3355336448
 20
333.9409093975
 30
0.0
 10
187.3355336448
 20
333.8462383679
 30
0.0
  0
SPLINE
  5
564
100
AcDbEntity
  8
0
100
AcDbSpline
 62
7
  6
CONTINUOUS
 70
0
 71
3
 72
21
 73
17
 74
0
 42
0.0000001
 43
0.0000001
 44
0.0000000001
 40
0.0
 40
0.0
 40
0.0
 40
0.0
 40
0.0354090804
 40
0.0767304795
 40
0.1271061293
 40
0.1873296258
 40
0.2566430566
 40
0.3334035338
 40
0.499988167
 40
0.6665734278
 40
0.7433371843
 40
0.81265565
 40
0.872885546
 40
0.9232659459
 40
0.9645903666
 40
1.0
 40
1.0
 40
1.0
 40
1.0
 10
219.7848249631
 20
332.6065050798
 30
0.0
 10
219.7848249631
 20
332.701174631
 30
0.0
 10
219.7297687425
 20
332.9077495178
 30
0.0
 10
219.5132641034
 20
333.1774819814
 30
0.0
 10
219.182386387
 20
333.4182364132
 30
0.0
 10
218.7470704521
 20
333.6272284306
 30
0.0
 10
218.2215006331
 20
333.7985967539
 30
0.0
 10
217.4027395239
 20
333.9729717456
 30
0.0
 10
216.3047241134
 20
334.0555426072
 30
0.0
 10
215.2066985347
 20
333.9729971195
 30
0.0
 10
214.3879090359
 20
333.7986376748
 30
0.0
 10
213.8623003115
 20
333.6272639584
 30
0.0
 10
213.4269332912
 20
333.418277641
 30
0.0
 10
213.0960202669
 20
333.1775056647
 30
0.0
 10
212.8794961905
 20
332.9077600607
 30
0.0
 10
212.8244336448
 20
332.7011761094
 30
0.0
 10
212.8244336448
 20
332.6065050798
 30
0.0
  0
SPLINE
  5
565
100
AcDbEntity
  8
0
100
AcDbSpline
 62
7
  6
CONTINUOUS
 70
0
 71
3
 72
21
 73
17
 74
0
 42
0.0000001
 43
0.0000001
 44
0.0000000001
 40
0.0
 40
0.0
 40
0.0
 40
0.0
 40
0.0354090804
 40
0.0767304795
 40
0.1271061293
 40
0.1873296258
 40
0.2566430566
 40
0.3334035338
 40
0.499988167
 40
0.6665734278
 40
0.7433371843
 40
0.81265565
 40
0.872885546
 40
0.9232659459
 40
0.9645903666
 40
1.0
 40
1.0
 40
1.0
 40
1.0
 10
124.5348249631
 20
332.6065050798
 30
0.0
 10
124.5348249631
 20
332.701174631
 30
0.0
 10
124.4797687425
 20
332.9077495178
 30
0.0
 10
124.2632641034
 20
333.1774819814
 30
0.0
 10
123.932386387
 20
333.4182364132
 30
0.0
 10
123.4970704521
 20
333.6272284306
 30
0.0
 10
122.9715006331
 20
333.7985967539
 30
0.0
 10
122.1527395239
 20
333.9729717456
 30
0.0
 10
121.0547241134
 20
334.0555426072
 30
0.0
 10
119.9566985347
 20
333.9729971195
 30
0.0
 10
119.1379090359
 20
333.7986376748
 30
0.0
 10
118.6123003115
 20
333.6272639584
 30
0.0
 10
118.1769332912
 20
333.418277641
 30
0.0
 10
117.8460202669
 20
333.1775056647
 30
0.0
 10
117.6294961905
 20
332.9077600607
 30
0.0
 10
117.5744336448
 20
332.7011761094
 30
0.0
 10
117.5744336448
 20
332.6065050798
 30
0.0
  0
SPLINE
  5
566
100
AcDbEntity
  8
0
100
AcDbSpline
 62
7
  6
CONTINUOUS
 70
0
 71
3
 72
9
 73
5
 74
0
 42
0.0000001
 43
0.0000001
 44
0.0000000001
 40
0.0
 40
0.0
 40
0.0
 40
0.0
 40
0.2530517836
 40
1.0
 40
1.0
 40
1.0
 40
1.0
 10
254.5016745668
 20
319.2233167911
 30
0.0
 10
254.637777126
 20
319.1340133238
 30
0.0
 10
255.162028298
 20
318.7608935414
 30
0.0
 10
255.628122354
 20
318.3054433529
 30
0.0
 10
255.9279593026
 20
317.9299692661
 30
0.0
  0
SPLINE
  5
567
100
AcDbEntity
  8
0
100
AcDbSpline
 62
7
  6
CONTINUOUS
 70
0
 71
3
 72
9
 73
5
 74
0
 42
0.0000001
 43
0.0000001
 44
0.0000000001
 40
0.0
 40
0.0
 40
0.0
 40
0.0
 40
0.5022662075
 40
1.0
 40
1.0
 40
1.0
 40
1.0
 10
256.580869248
 20
316.907435153
 30
0.0
 10
256.7653882517
 20
316.5357426938
 30
0.0
 10
257.0505677255
 20
315.7516806931
 30
0.0
 10
257.147829304
 20
314.9226979107
 30
0.0
 10
257.147829304
 20
314.5114696502
 30
0.0
  0
SPLINE
  5
568
100
AcDbEntity
  8
0
100
AcDbSpline
 62
7
  6
CONTINUOUS
 70
0
 71
3
 72
14
 73
10
 74
0
 42
0.0000001
 43
0.0000001
 44
0.0000000001
 40
0.0
 40
0.0
 40
0.0
 40
0.0
 40
0.0708444188
 40
0.1534544942
 40
0.2542209947
 40
0.3746654061
 40
0.5132996531
 40
0.6668161206
 40
1.0
 40
1.0
 40
1.0
 40
1.0
 10
138.428229304
 20
331.3151162381
 30
0.0
 10
138.428229304
 20
331.1077551243
 30
0.0
 10
138.5484722938
 20
330.6553594457
 30
0.0
 10
139.0229425183
 20
330.0649963343
 30
0.0
 10
139.7472564858
 20
329.5378364434
 30
0.0
 10
140.7004333421
 20
329.0801289592
 30
0.0
 10
141.8512841141
 20
328.7049603066
 30
0.0
 10
143.6436179899
 20
328.3231398555
 30
0.0
 10
145.0730024402
 20
328.2157830178
 30
0.0
 10
146.048229304
 20
328.2157830178
 30
0.0
  0
SPLINE
  5
569
100
AcDbEntity
  8
0
100
AcDbSpline
 62
7
  6
CONTINUOUS
 70
0
 71
3
 72
14
 73
10
 74
0
 42
0.0000001
 43
0.0000001
 44
0.0000000001
 40
0.0
 40
0.0
 40
0.0
 40
0.0
 40
0.3331838794
 40
0.4867003469
 40
0.6253345939
 40
0.7457790053
 40
0.8465455058
 40
0.9291555812
 40
1.0
 40
1.0
 40
1.0
 40
1.0
 10
165.733229304
 20
328.2157830178
 30
0.0
 10
166.7084561678
 20
328.2157830178
 30
0.0
 10
168.1378406181
 20
328.3231398555
 30
0.0
 10
169.9301744939
 20
328.7049603066
 30
0.0
 10
171.0810252659
 20
329.0801289592
 30
0.0
 10
172.0342021221
 20
329.5378364434
 30
0.0
 10
172.7585160896
 20
330.0649963343
 30
0.0
 10
173.2329863142
 20
330.6553594457
 30
0.0
 10
173.353229304
 20
331.1077551243
 30
0.0
 10
173.353229304
 20
331.3151162381
 30
0.0
  0
SPLINE
  5
56A
100
AcDbEntity
  8
0
100
AcDbSpline
 62
7
  6
CONTINUOUS
 70
0
 71
3
 72
13
 73
9
 74
0
 42
0.0000001
 43
0.0000001
 44
0.0000000001
 40
0.0
 40
0.0
 40
0.0
 40
0.0
 40
0.2596775338
 40
0.5133952848
 40
0.6376296853
 40
0.7597645368
 40
0.8803678464
 40
1.0
 40
1.0
 40
1.0
 40
1.0
 10
61.059829304
 20
346.1402601415
 30
0.0
 10
60.2364847657
 20
346.1402601415
 30
0.0
 10
58.5939308589
 20
345.8480207017
 30
0.0
 10
56.8196464314
 20
344.7761143938
 30
0.0
 10
55.7521896373
 20
343.5910745793
 30
0.0
 10
55.1583483983
 20
342.5805371327
 30
0.0
 10
54.7926496804
 20
341.4827164369
 30
0.0
 10
54.709829304
 20
340.7185572362
 30
0.0
 10
54.709829304
 20
340.3392464855
 30
0.0
  0
ELLIPSE
  5
56B
100
AcDbEntity
  8
0
100
AcDbEllipse
 62
7
  6
CONTINUOUS
 10
370.939829304
 20
367.5513999465
 30
0.0
 11
4.5796891383
 21
-4.4883414744
 31
0.0
 40
0.9800376973
 41
-2.3763450893
 42
-1.7497008777
  0
ELLIPSE
  5
56C
100
AcDbEntity
  8
0
100
AcDbEllipse
 62
7
  6
CONTINUOUS
 10
370.939829304
 20
367.7202908244
 30
0.0
 11
4.5796891383
 21
4.4883414744
 31
0.0
 40
0.9800376973
 41
8.6526850232
 42
9.2861746081
  0
ENDSEC
  0
SECTION
  2
OBJECTS
  0
DICTIONARY
  5
C
100
AcDbDictionary
280
0
281
1
  3
ACAD_GROUP
350
D
  3
ACAD_MLINESTYLE
350
17
  3
ACAD_LAYOUT
350
1A
  3
ACAD_PLOTSETTINGS
350
19
  3
ACAD_PLOTSTYLENAME
350
E
  0
DICTIONARY
  5
D
102
{ACAD_REACTORS
330
C
102
}
100
AcDbDictionary
280
0
281
1
  0
ACDBDICTIONARYWDFLT
  5
E
102
{ACAD_REACTORS
330
C
102
}
100
AcDbDictionary
281
1
  3
Normal
350
F
100
AcDbDictionaryWithDefault
340
F
  0
DICTIONARY
  5
17
102
{ACAD_REACTORS
330
C
102
}
100
AcDbDictionary
280
0
281
1
  3
Standard
350
18
  0
DICTIONARY
  5
19
102
{ACAD_REACTORS
330
C
102
}
100
AcDbDictionary
281
1
  0
DICTIONARY
  5
1A
102
{ACAD_REACTORS
330
C
102
}
100
AcDbDictionary
281
1
  3
Model
350
56D
  3
Layout1
350
56E
  0
ACDBPLACEHOLDER
  5
F
102
{ACAD_REACTORS
330
E
102
}
  0
MLINESTYLE
  5
18
102
{ACAD_REACTORS
330
17
102
}
100
AcDbMlineStyle
  2
STANDARD
 70
0
  3

 62
256
 51
90.0
 52
90.0
 71
2
 49
0.5
 62
256
  6
BYLAYER
 49
-0.5
 62
256
  6
BYLAYER
  0
LAYOUT
  5
56D
102
{ACAD_REACTORS
330
1A
102
}
100
AcDbPlotSettings
  1

  2
none_device
  4

  6

 40
0.0
 41
0.0
 42
0.0
 43
0.0
 44
210.0
 45
297.0
 46
0.0
 47
0.0
 48
0.0
 49
0.0
140
0.0
141
0.0
142
1.0
143
1.0
 70
1024
 72
1
 73
0
 74
0
  7

 75
0
147
1.0
148
0.0
149
0.0
100
AcDbLayout
  1
Model
 70
0
 71
0
 10
0.0
 20
0.0
 11
210.0
 21
297.0
 12
0.0
 22
0.0
 32
0.0
 14
0.0
 24
0.0
 34
0.0
 15
0.0
 25
0.0
 35
0.0
146
0.0
 13
0.0
 23
0.0
 33
0.0
 16
1.0
 26
0.0
 36
0.0
 17
0.0
 27
1.0
 37
0.0
 76
0
330
210
345
0
346
0
  0
LAYOUT
  5
56E
102
{ACAD_REACTORS
330
1A
102
}
100
AcDbPlotSettings
  1

  2
none_device
  4

  6

 40
0.0
 41
0.0
 42
0.0
 43
0.0
 44
210.0
 45
297.0
 46
0.0
 47
0.0
 48
0.0
 49
0.0
140
0.0
141
0.0
142
1.0
143
1.0
 70
0
 72
1
 73
0
 74
0
  7

 75
0
147
1.0
148
0.0
149
0.0
100
AcDbLayout
  1
Layout1
 70
0
 71
1
 10
0.0
 20
0.0
 11
210.0
 21
297.0
 12
0.0
 22
0.0
 32
0.0
 14
0.0
 24
0.0
 34
0.0
 15
0.0
 25
0.0
 35
0.0
146
0.0
 13
0.0
 23
0.0
 33
0.0
 16
1.0
 26
0.0
 36
0.0
 17
0.0
 27
1.0
 37
0.0
 76
0
330
211
345
0
346
0
  0
ENDSEC
  0
EOF
