999
DXF file: C:\Users\sesa63760\Dev\_Creo\CAD\MCADID0001738_3D-CAD\drw0001_2.dxf
999
Pro/ENGINEER 2019471 by Parametric Technology Corporation
  0
SECTION
  2
HEADER
  9
$ACADVER
  1
AC1024
  9
$DWGCODEPAGE
  3
ANSI_1252
  9
$EXTMAX
 10
90.5991812877
 20
128.1331278212
 30
0.0
  9
$EXTMIN
 10
0.0
 20
0.0
 30
0.0
  9
$LIMMIN
 10
0.0
 20
0.0
  9
$LIMMAX
 10
90.5991812877
 20
128.1331278212
  9
$VIEWCTR
 10
45.2995906439
 20
64.0665639106
  9
$VIEWSIZE
 40
128.1331278212
  9
$CLAYER
  8
0
  9
$LTSCALE
 40
8.3523816654
  9
$CELTYPE
  6
BYLAYER
  9
$DIMSCALE
 40
1.0
  9
$DIMASZ
 40
1.078561682
  9
$DIMEXO
 40
1.0
  9
$DIMDLI
 40
5.7707364234
  9
$DIMEXE
 40
1.0
  9
$DIMCEN
 40
1.3667533634
  9
$DIMLFAC
 40
1.0
  9
$DIMBLK
  1
_FILLED
  9
$DIMALT
 70
0
  9
$DIMALTF
 40
0.0393700787
  9
$DIMTXT
 40
1.5099863548
  9
$DIMTOL
 70
1
  9
$DIMLIM
 70
0
  9
$DIMTFAC
 40
1.0
  9
$DIMTP
 40
0.01
  9
$DIMTM
 40
0.01
  9
$DIMGAP
 40
0.625
  9
$DIMDSEP
 70
46
  9
$AUNITS
 70
0
  9
$PDMODE
 70
3
  9
$PDSIZE
 40
0.3125
  9
$HANDSEED
  5
331
  9
$TILEMODE
 70
1
  9
$MEASUREMENT
 70
1
  9
$INSUNITS
 70
4
  0
ENDSEC
  0
SECTION
  2
CLASSES
  0
CLASS
  1
ACDBDICTIONARYWDFLT
  2
AcDbDictionaryWithDefault
  3
AutoCAD 2000
 90
0
 91
1
280
0
281
0
  0
CLASS
  1
ACDBPLACEHOLDER
  2
AcDbPlaceHolder
  3
AutoCAD 2000
 90
0
 91
1
280
0
281
0
  0
CLASS
  1
LAYOUT
  2
AcDbLayout
  3
AutoCAD 2000
 90
0
 91
0
280
0
281
0
  0
ENDSEC
  0
SECTION
  2
TABLES
  0
TABLE
  2
VPORT
  5
8
100
AcDbSymbolTable
 70
2
  0
VPORT
  5
1F4
100
AcDbSymbolTableRecord
100
AcDbViewportTableRecord
  2
*ACTIVE
 70
0
 10
0.0
 20
0.0
 11
1.0
 21
1.0
 12
45.2995906439
 22
64.0665639106
 13
0.0
 23
0.0
 14
1.0
 24
1.0
 15
0.0
 25
0.0
 16
0.0
 26
0.0
 36
1.0
 17
0.0
 27
0.0
 37
0.0
 40
128.1331278212
 41
0.7070707071
 42
50.0
 43
0.0
 44
0.0
 50
0.0
 51
0.0
 71
0
 72
100
 73
1
 74
1
 75
0
 76
0
 77
0
 78
0
  0
ENDTAB
  0
TABLE
  2
LTYPE
  5
5
100
AcDbSymbolTable
 70
6
  0
LTYPE
  5
14
100
AcDbSymbolTableRecord
100
AcDbLinetypeTableRecord
  2
BYBLOCK
 70
0
  3

 72
65
 73
0
 40
0.0
  0
LTYPE
  5
15
100
AcDbSymbolTableRecord
100
AcDbLinetypeTableRecord
  2
BYLAYER
 70
0
  3

 72
65
 73
0
 40
0.0
  0
LTYPE
  5
16
100
AcDbSymbolTableRecord
100
AcDbLinetypeTableRecord
  2
CONTINUOUS
 70
64
  3
Solid line
 72
65
 73
0
 40
0.0
  0
LTYPE
  5
1F5
100
AcDbSymbolTableRecord
100
AcDbLinetypeTableRecord
  2
CENTER
 70
64
  3
____ _ ____ _ ____ _ ____ _ ____ _ ____ _ ____
 72
65
 73
4
 40
0.6
 49
0.375
 74
0
 49
-0.075
 74
0
 49
0.075
 74
0
 49
-0.075
 74
0
  0
LTYPE
  5
1F6
100
AcDbSymbolTableRecord
100
AcDbLinetypeTableRecord
  2
HIDDEN
 70
64
  3
- - - - - - - - - - - - - - - - - - - -
 72
65
 73
2
 40
0.2
 49
0.1
 74
0
 49
-0.1
 74
0
  0
LTYPE
  5
1F7
100
AcDbSymbolTableRecord
100
AcDbLinetypeTableRecord
  2
PHANTOM
 70
64
  3
_____ _ _ _____ _ _ _____ _ _ _____
 72
65
 73
6
 40
0.8
 49
0.45
 74
0
 49
-0.05
 74
0
 49
0.1
 74
0
 49
-0.05
 74
0
 49
0.1
 74
0
 49
-0.05
 74
0
  0
LTYPE
  5
1F8
100
AcDbSymbolTableRecord
100
AcDbLinetypeTableRecord
  2
DOT
 70
64
  3
. . . . . . . . . . . . . . . . . . . .
 72
65
 73
2
 40
0.2
 49
0.1
 74
0
 49
-0.1
 74
0
  0
LTYPE
  5
1F9
100
AcDbSymbolTableRecord
100
AcDbLinetypeTableRecord
  2
DASHED
 70
64
  3
- - - - - - - - - - - - - - - - - - - -
 72
65
 73
2
 40
0.2
 49
0.1
 74
0
 49
-0.1
 74
0
  0
ENDTAB
  0
TABLE
  2
LAYER
  5
2
100
AcDbSymbolTable
 70
36
  0
LAYER
  5
10
100
AcDbSymbolTableRecord
100
AcDbLayerTableRecord
  2
0
 70
0
 62
7
  6
CONTINUOUS
370
-3
390
F
  0
LAYER
  5
1FA
100
AcDbSymbolTableRecord
100
AcDbLayerTableRecord
  2
DEFAULT_1
 70
0
 62
7
  6
CENTER
370
-3
390
F
  0
LAYER
  5
1FB
100
AcDbSymbolTableRecord
100
AcDbLayerTableRecord
  2
DEFAULT_2
 70
0
 62
8
  6
HIDDEN
370
-3
390
F
  0
LAYER
  5
1FC
100
AcDbSymbolTableRecord
100
AcDbLayerTableRecord
  2
DEFAULT_3
 70
0
 62
7
  6
PHANTOM
370
-3
390
F
  0
LAYER
  5
1FD
100
AcDbSymbolTableRecord
100
AcDbLayerTableRecord
  2
00_COMPONENTS
 70
0
 62
7
  6
CONTINUOUS
370
-3
390
F
  0
LAYER
  5
1FE
100
AcDbSymbolTableRecord
100
AcDbLayerTableRecord
  2
01_1_DEFAULT_DATUMS
 70
0
 62
7
  6
CONTINUOUS
370
-3
390
F
  0
LAYER
  5
1FF
100
AcDbSymbolTableRecord
100
AcDbLayerTableRecord
  2
01_PLANES
 70
0
 62
7
  6
CONTINUOUS
370
-3
390
F
  0
LAYER
  5
200
100
AcDbSymbolTableRecord
100
AcDbLayerTableRecord
  2
02_COORD_SYS
 70
0
 62
7
  6
CONTINUOUS
370
-3
390
F
  0
LAYER
  5
201
100
AcDbSymbolTableRecord
100
AcDbLayerTableRecord
  2
03_AXES
 70
0
 62
7
  6
CONTINUOUS
370
-3
390
F
  0
LAYER
  5
202
100
AcDbSymbolTableRecord
100
AcDbLayerTableRecord
  2
04_POINTS
 70
0
 62
7
  6
CONTINUOUS
370
-3
390
F
  0
LAYER
  5
203
100
AcDbSymbolTableRecord
100
AcDbLayerTableRecord
  2
05_CURVES
 70
0
 62
7
  6
CONTINUOUS
370
-3
390
F
  0
LAYER
  5
204
100
AcDbSymbolTableRecord
100
AcDbLayerTableRecord
  2
06_SURFS
 70
0
 62
7
  6
CONTINUOUS
370
-3
390
F
  0
LAYER
  5
205
100
AcDbSymbolTableRecord
100
AcDbLayerTableRecord
  2
07_COSMETICS
 70
0
 62
7
  6
CONTINUOUS
370
-3
390
F
  0
LAYER
  5
206
100
AcDbSymbolTableRecord
100
AcDbLayerTableRecord
  2
10_NOTES
 70
0
 62
7
  6
CONTINUOUS
370
-3
390
F
  0
LAYER
  5
207
100
AcDbSymbolTableRecord
100
AcDbLayerTableRecord
  2
11_NOTES_PUB
 70
0
 62
7
  6
CONTINUOUS
370
-3
390
F
  0
LAYER
  5
208
100
AcDbSymbolTableRecord
100
AcDbLayerTableRecord
  2
13_REF_GTOL
 70
0
 62
7
  6
CONTINUOUS
370
-3
390
F
  0
LAYER
  5
209
100
AcDbSymbolTableRecord
100
AcDbLayerTableRecord
  2
16_MISC
 70
0
 62
7
  6
CONTINUOUS
370
-3
390
F
  0
LAYER
  5
20A
100
AcDbSymbolTableRecord
100
AcDbLayerTableRecord
  2
17_NO_PRINT
 70
0
 62
7
  6
CONTINUOUS
370
-3
390
F
  0
LAYER
  5
20B
100
AcDbSymbolTableRecord
100
AcDbLayerTableRecord
  2
18_DATUM_CAMS_JOINTS
 70
0
 62
7
  6
CONTINUOUS
370
-3
390
F
  0
LAYER
  5
20C
100
AcDbSymbolTableRecord
100
AcDbLayerTableRecord
  2
19_DATUM_FUNCTIONAL
 70
0
 62
7
  6
CONTINUOUS
370
-3
390
F
  0
LAYER
  5
20D
100
AcDbSymbolTableRecord
100
AcDbLayerTableRecord
  2
20_DATUM_KINEMATIC_SCHEME
 70
0
 62
7
  6
CONTINUOUS
370
-3
390
F
  0
ENDTAB
  0
TABLE
  2
STYLE
  5
3
100
AcDbSymbolTable
 70
1
  0
STYLE
  5
11
100
AcDbSymbolTableRecord
100
AcDbTextStyleTableRecord
  2
STANDARD
 70
0
 40
0.0
 41
0.8
 50
0.0
 71
0
 42
0.2
  3
txt
  4

  0
STYLE
  5
20E
100
AcDbSymbolTableRecord
100
AcDbTextStyleTableRecord
  2
TEXTSTYLE_1
 70
0
 40
0.0
 41
0.8
 50
0.0
 71
0
 42
0.2
  3
gdt
  4

  0
ENDTAB
  0
TABLE
  2
VIEW
  5
6
100
AcDbSymbolTable
 70
0
  0
ENDTAB
  0
TABLE
  2
UCS
  5
7
100
AcDbSymbolTable
 70
0
  0
ENDTAB
  0
TABLE
  2
APPID
  5
9
100
AcDbSymbolTable
 70
1
  0
APPID
  5
20F
100
AcDbSymbolTableRecord
100
AcDbRegAppTableRecord
  2
ACAD
 70
0
  0
ENDTAB
  0
TABLE
  2
BLOCK_RECORD
  5
1
100
AcDbSymbolTable
 70
0
  0
BLOCK_RECORD
  5
210
100
AcDbSymbolTableRecord
100
AcDbBlockTableRecord
  2
*Model_Space
  0
BLOCK_RECORD
  5
211
100
AcDbSymbolTableRecord
100
AcDbBlockTableRecord
  2
*Paper_Space
  0
BLOCK_RECORD
  5
212
100
AcDbSymbolTableRecord
100
AcDbBlockTableRecord
  2
_FILLED
  0
ENDTAB
  0
TABLE
  2
DIMSTYLE
  5
A
100
AcDbSymbolTable
 70
1
100
AcDbDimStyleTable
 71
0
  0
DIMSTYLE
105
213
100
AcDbSymbolTableRecord
100
AcDbDimStyleTableRecord
  2
STANDARD
 70
0
  3

  4

 40
1.0
 41
1.078561682
 42
1.0
 43
0.38
 44
1.0
 45
0.0
 46
0.0
 47
0.01
 48
0.01
140
1.5099863548
141
0.09
142
0.0
143
25.4
144
1.0
145
0.0
146
1.0
147
0.625
 71
1
 72
0
 73
0
 74
0
 75
0
 76
0
 77
1
 78
8
 79
2
170
0
171
1
172
0
173
0
174
0
175
0
176
0
177
0
178
0
270
2
179
2
271
2
272
2
273
2
274
2
275
0
280
0
281
0
282
0
283
1
284
8
285
0
286
0
287
3
288
0
340
11
278
46
341
212
342
212
343
212
344
212
  0
ENDTAB
  0
ENDSEC
  0
SECTION
  2
BLOCKS
  0
BLOCK
  5
20
100
AcDbEntity
  8
0
100
AcDbBlockBegin
  2
*Model_Space
 70
0
 10
0.0
 20
0.0
 30
0.0
  3
*Model_Space
  1

  0
ENDBLK
  5
21
100
AcDbEntity
  8
0
100
AcDbBlockEnd
  0
BLOCK
  5
1C
100
AcDbEntity
  8
0
100
AcDbBlockBegin
  2
*Paper_Space
 70
0
 10
0.0
 20
0.0
 30
0.0
  3
*Paper_Space
  1

  0
ENDBLK
  5
1D
100
AcDbEntity
  8
0
100
AcDbBlockEnd
  0
BLOCK
  5
214
100
AcDbEntity
  8
0
100
AcDbBlockBegin
  2
_FILLED
 70
64
 10
0.0
 20
0.0
  3
_FILLED
  1

  0
SOLID
  5
215
100
AcDbEntity
  8
0
  6
BYBLOCK
 62
0
100
AcDbTrace
 10
0.0
 20
0.0
 11
-1.0
 21
0.25
 12
-1.0
 22
-0.25
 13
-1.0
 23
-0.25
  0
ENDBLK
  5
216
100
AcDbEntity
  8
0
  6
BYBLOCK
 62
0
100
AcDbBlockEnd
  0
ENDSEC
  0
SECTION
  2
ENTITIES
  0
LINE
  5
217
100
AcDbEntity
  8
0
100
AcDbLine
 62
7
  6
CONTINUOUS
 10
31.925226564
 20
109.9880876457
 11
31.5220929513
 21
109.7112585439
  0
LINE
  5
218
100
AcDbEntity
  8
0
100
AcDbLine
 62
7
  6
CONTINUOUS
 10
31.9335825881
 20
109.9937487742
 11
31.925226564
 21
109.9880876457
  0
LINE
  5
219
100
AcDbEntity
  8
0
100
AcDbLine
 62
7
  6
CONTINUOUS
 10
34.0195768083
 20
106.538038898
 11
34.0196296065
 21
106.5380608386
  0
LINE
  5
21A
100
AcDbEntity
  8
0
100
AcDbLine
 62
7
  6
CONTINUOUS
 10
33.6273247949
 20
20.23137403
 11
33.6196100443
 21
20.2313155096
  0
LINE
  5
21B
100
AcDbEntity
  8
0
100
AcDbLine
 62
7
  6
CONTINUOUS
 10
12.7935926957
 20
17.4313133699
 11
15.1935926957
 21
17.4313133699
  0
LINE
  5
21C
100
AcDbEntity
  8
0
100
AcDbLine
 62
7
  6
CONTINUOUS
 10
15.1935926957
 20
18.418283155
 11
12.6195632934
 21
18.418283155
  0
LINE
  5
21D
100
AcDbEntity
  8
0
100
AcDbLine
 62
7
  6
CONTINUOUS
 10
9.9335926957
 20
20.2313133699
 11
33.9280690568
 21
20.2313113797
  0
LINE
  5
21E
100
AcDbEntity
  8
0
100
AcDbLine
 62
7
  6
CONTINUOUS
 10
33.6198150625
 20
20.73126433
 11
19.4335926957
 21
20.7312863638
  0
LINE
  5
21F
100
AcDbEntity
  8
0
100
AcDbLine
 62
7
  6
CONTINUOUS
 10
19.3335926957
 20
20.7313133699
 11
9.9335926957
 21
20.7313133699
  0
LINE
  5
220
100
AcDbEntity
  8
0
100
AcDbLine
 62
7
  6
CONTINUOUS
 10
34.0315270799
 20
20.4493876517
 11
34.3216681022
 21
20.4229561175
  0
LINE
  5
221
100
AcDbEntity
  8
0
100
AcDbLine
 62
7
  6
CONTINUOUS
 10
11.6758215392
 20
110.2313133699
 11
9.9335926957
 21
99.2313133699
  0
LINE
  5
222
100
AcDbEntity
  8
0
100
AcDbLine
 62
7
  6
CONTINUOUS
 10
35.5720136198
 20
102.1985179694
 11
35.5981538688
 21
102.206915405
  0
LINE
  5
223
100
AcDbEntity
  8
0
100
AcDbLine
 62
7
  6
CONTINUOUS
 10
35.5420773918
 20
102.2033906683
 11
35.3012290012
 21
102.1280833982
  0
LINE
  5
224
100
AcDbEntity
  8
0
100
AcDbLine
 62
7
  6
CONTINUOUS
 10
19.3335926957
 20
21.5813133699
 11
19.4335926957
 21
21.5813133699
  0
LINE
  5
225
100
AcDbEntity
  8
0
100
AcDbLine
 62
7
  6
CONTINUOUS
 10
19.3335926957
 20
21.9813133699
 11
19.4335926957
 21
21.9813133699
  0
LINE
  5
226
100
AcDbEntity
  8
0
100
AcDbLine
 62
7
  6
CONTINUOUS
 10
19.3335926957
 20
23.3313133699
 11
17.1335926957
 21
23.3313133699
  0
LINE
  5
227
100
AcDbEntity
  8
0
100
AcDbLine
 62
7
  6
CONTINUOUS
 10
17.1335926957
 20
23.3813133699
 11
19.4335926957
 21
23.3813133699
  0
LINE
  5
228
100
AcDbEntity
  8
0
100
AcDbLine
 62
7
  6
CONTINUOUS
 10
34.0314433908
 20
20.4494149237
 11
33.6195923478
 21
20.7314166407
  0
LINE
  5
229
100
AcDbEntity
  8
0
100
AcDbLine
 62
7
  6
CONTINUOUS
 10
12.7935926957
 20
17.4313133699
 11
12.2998771497
 21
20.2313133699
  0
LINE
  5
22A
100
AcDbEntity
  8
0
100
AcDbLine
 62
7
  6
CONTINUOUS
 10
9.9335926957
 20
20.2313133699
 11
9.9335926957
 21
46.1075928116
  0
LINE
  5
22B
100
AcDbEntity
  8
0
100
AcDbLine
 62
7
  6
CONTINUOUS
 10
9.9335926957
 20
83.3614009217
 11
9.9335926957
 21
99.2313133699
  0
LINE
  5
22C
100
AcDbEntity
  8
0
100
AcDbLine
 62
7
  6
CONTINUOUS
 10
10.1935926957
 20
46.8896853412
 11
10.1935926957
 21
46.1772596016
  0
LINE
  5
22D
100
AcDbEntity
  8
0
100
AcDbLine
 62
7
  6
CONTINUOUS
 10
11.8935926957
 20
46.6300937368
 11
11.8935926957
 21
48.3161547142
  0
LINE
  5
22E
100
AcDbEntity
  8
0
100
AcDbLine
 62
7
  6
CONTINUOUS
 10
14.1935926957
 20
48.5313133699
 11
14.1935926957
 21
47.9313133699
  0
LINE
  5
22F
100
AcDbEntity
  8
0
100
AcDbLine
 62
7
  6
CONTINUOUS
 10
14.6335926957
 20
82.8813133699
 11
14.6335926957
 21
82.3813133699
  0
LINE
  5
230
100
AcDbEntity
  8
0
100
AcDbLine
 62
7
  6
CONTINUOUS
 10
16.1335926957
 20
81.3813133699
 11
15.4335926957
 21
80.1688778046
  0
LINE
  5
231
100
AcDbEntity
  8
0
100
AcDbLine
 62
7
  6
CONTINUOUS
 10
12.7136802474
 20
80.8813133699
 11
14.6335926957
 21
82.3813133699
  0
LINE
  5
232
100
AcDbEntity
  8
0
100
AcDbLine
 62
7
  6
CONTINUOUS
 10
17.1335926957
 20
31.4813133699
 11
40.1335926957
 21
31.4813133699
  0
LINE
  5
233
100
AcDbEntity
  8
0
100
AcDbLine
 62
7
  6
CONTINUOUS
 10
40.1335926957
 20
31.5013133699
 11
52.6287318894
 21
31.5013133699
  0
LINE
  5
234
100
AcDbEntity
  8
0
100
AcDbLine
 62
7
  6
CONTINUOUS
 10
52.3221151566
 20
32.0012751123
 11
40.1335926957
 21
32.0013133699
  0
LINE
  5
235
100
AcDbEntity
  8
0
100
AcDbLine
 62
7
  6
CONTINUOUS
 10
53.023889624
 20
31.6949119279
 11
52.7331789958
 21
31.7181877932
  0
LINE
  5
236
100
AcDbEntity
  8
0
100
AcDbLine
 62
7
  6
CONTINUOUS
 10
14.1935926957
 20
48.5313133699
 11
13.8184638263
 21
49.9313133699
  0
LINE
  5
237
100
AcDbEntity
  8
0
100
AcDbLine
 62
7
  6
CONTINUOUS
 10
19.3572452691
 20
21.9813133699
 11
19.3335926957
 21
22.4326313573
  0
LINE
  5
238
100
AcDbEntity
  8
0
100
AcDbLine
 62
7
  6
CONTINUOUS
 10
19.2866237708
 20
23.3288518329
 11
19.2838743781
 21
23.3813133699
  0
LINE
  5
239
100
AcDbEntity
  8
0
100
AcDbLine
 62
7
  6
CONTINUOUS
 10
15.1935926957
 20
20.2313133699
 11
15.1935926957
 21
17.4313133699
  0
LINE
  5
23A
100
AcDbEntity
  8
0
100
AcDbLine
 62
7
  6
CONTINUOUS
 10
15.1935926957
 20
47.5170055638
 11
15.1935926957
 21
47.9313133699
  0
LINE
  5
23B
100
AcDbEntity
  8
0
100
AcDbLine
 62
7
  6
CONTINUOUS
 10
15.4335926957
 20
47.5813133699
 11
15.4335926957
 21
80.1688778046
  0
LINE
  5
23C
100
AcDbEntity
  8
0
100
AcDbLine
 62
7
  6
CONTINUOUS
 10
16.1335926957
 20
81.3813133699
 11
16.1335926957
 21
82.8813133699
  0
LINE
  5
23D
100
AcDbEntity
  8
0
100
AcDbLine
 62
7
  6
CONTINUOUS
 10
17.1335926957
 20
107.1313133699
 11
17.1335926957
 21
98.9813133699
  0
LINE
  5
23E
100
AcDbEntity
  8
0
100
AcDbLine
 62
7
  6
CONTINUOUS
 10
17.1335926957
 20
31.4813133699
 11
17.1335926957
 21
23.3313133699
  0
LINE
  5
23F
100
AcDbEntity
  8
0
100
AcDbLine
 62
7
  6
CONTINUOUS
 10
40.1335926957
 20
34.5813133699
 11
37.9335926957
 21
34.5813133699
  0
LINE
  5
240
100
AcDbEntity
  8
0
100
AcDbLine
 62
7
  6
CONTINUOUS
 10
37.9335926957
 20
34.6513133699
 11
40.1335926957
 21
34.6513133699
  0
LINE
  5
241
100
AcDbEntity
  8
0
100
AcDbLine
 62
7
  6
CONTINUOUS
 10
55.1519091943
 20
36.6513133699
 11
54.9131521192
 21
36.6513133699
  0
LINE
  5
242
100
AcDbEntity
  8
0
100
AcDbLine
 62
7
  6
CONTINUOUS
 10
55.1559388237
 20
36.788640829
 11
55.0340844862
 21
36.7903275063
  0
LINE
  5
243
100
AcDbEntity
  8
0
100
AcDbLine
 62
7
  6
CONTINUOUS
 10
53.8331740854
 20
33.5711348756
 11
54.0298564805
 21
33.5657750517
  0
LINE
  5
244
100
AcDbEntity
  8
0
100
AcDbLine
 62
7
  6
CONTINUOUS
 10
19.3335926957
 20
20.2313133699
 11
19.3335926957
 21
23.3313133699
  0
LINE
  5
245
100
AcDbEntity
  8
0
100
AcDbLine
 62
7
  6
CONTINUOUS
 10
19.3335926957
 20
107.0613133699
 11
19.3335926957
 21
110.2313133699
  0
LINE
  5
246
100
AcDbEntity
  8
0
100
AcDbLine
 62
7
  6
CONTINUOUS
 10
19.4335926957
 20
20.2313133699
 11
19.4335926957
 21
23.3813133699
  0
LINE
  5
247
100
AcDbEntity
  8
0
100
AcDbLine
 62
7
  6
CONTINUOUS
 10
56.0828657981
 20
39.5260874997
 11
56.0817161792
 21
39.5259009979
  0
LINE
  5
248
100
AcDbEntity
  8
0
100
AcDbLine
 62
7
  6
CONTINUOUS
 10
55.3402221087
 20
36.78534282
 11
55.0342671163
 21
36.7908988014
  0
LINE
  5
249
100
AcDbEntity
  8
0
100
AcDbLine
 62
7
  6
CONTINUOUS
 10
55.3399455627
 20
36.7845608306
 11
55.2578273475
 21
36.7867190614
  0
LINE
  5
24A
100
AcDbEntity
  8
0
100
AcDbLine
 62
7
  6
CONTINUOUS
 10
56.0502807516
 20
39.5554071652
 11
55.7363888026
 21
39.5732494738
  0
LINE
  5
24B
100
AcDbEntity
  8
0
100
AcDbLine
 62
7
  6
CONTINUOUS
 10
56.0502807516
 20
39.5554071652
 11
55.5437015776
 21
39.5843705206
  0
LINE
  5
24C
100
AcDbEntity
  8
0
100
AcDbLine
 62
7
  6
CONTINUOUS
 10
56.3698541059
 20
39.5075080481
 11
56.3981489011
 21
39.5057129307
  0
LINE
  5
24D
100
AcDbEntity
  8
0
100
AcDbLine
 62
7
  6
CONTINUOUS
 10
56.3419495101
 20
39.5092805
 11
56.0817379205
 21
39.5258982309
  0
LINE
  5
24E
100
AcDbEntity
  8
0
100
AcDbLine
 62
7
  6
CONTINUOUS
 10
54.8195789316
 20
35.1745879876
 11
54.819631727
 21
35.1745660489
  0
LINE
  5
24F
100
AcDbEntity
  8
0
100
AcDbLine
 62
7
  6
CONTINUOUS
 10
57.1534795922
 20
42.2513133699
 11
57.1181578306
 21
42.2513133699
  0
LINE
  5
250
100
AcDbEntity
  8
0
100
AcDbLine
 62
7
  6
CONTINUOUS
 10
57.0831050609
 20
42.2513133699
 11
56.7607833835
 21
42.2513133699
  0
LINE
  5
251
100
AcDbEntity
  8
0
100
AcDbLine
 62
7
  6
CONTINUOUS
 10
56.7123237055
 20
42.2513133699
 11
56.0775248533
 21
42.2513133699
  0
LINE
  5
252
100
AcDbEntity
  8
0
100
AcDbLine
 62
7
  6
CONTINUOUS
 10
37.9335926957
 20
42.7313133699
 11
74.9335926957
 21
42.7313133699
  0
LINE
  5
253
100
AcDbEntity
  8
0
100
AcDbLine
 62
7
  6
CONTINUOUS
 10
75.4335926957
 20
42.9313133699
 11
81.4335279266
 21
42.9313133699
  0
LINE
  5
254
100
AcDbEntity
  8
0
100
AcDbLine
 62
7
  6
CONTINUOUS
 10
75.4335926957
 20
43.2313133699
 11
58.2335926957
 21
43.2313133699
  0
LINE
  5
255
100
AcDbEntity
  8
0
100
AcDbLine
 62
7
  6
CONTINUOUS
 10
81.9335926957
 20
43.4313133699
 11
81.6589606496
 21
43.4313133699
  0
LINE
  5
256
100
AcDbEntity
  8
0
100
AcDbLine
 62
7
  6
CONTINUOUS
 10
81.357689963
 20
43.4313133699
 11
75.4335926957
 21
43.4313133699
  0
LINE
  5
257
100
AcDbEntity
  8
0
100
AcDbLine
 62
7
  6
CONTINUOUS
 10
56.1012402054
 20
39.5845523783
 11
56.3420396185
 21
39.5092482563
  0
LINE
  5
258
100
AcDbEntity
  8
0
100
AcDbLine
 62
7
  6
CONTINUOUS
 10
56.3981538688
 20
39.5057113349
 11
56.3720138878
 21
39.5141086844
  0
LINE
  5
259
100
AcDbEntity
  8
0
100
AcDbLine
 62
7
  6
CONTINUOUS
 10
52.7331043041
 20
31.7182203717
 11
52.3220568829
 21
32.0013099659
  0
LINE
  5
25A
100
AcDbEntity
  8
0
100
AcDbLine
 62
7
  6
CONTINUOUS
 10
28.9335926957
 20
110.2113133699
 11
28.9335926957
 21
98.9813133699
  0
LINE
  5
25B
100
AcDbEntity
  8
0
100
AcDbLine
 62
7
  6
CONTINUOUS
 10
15.1935926957
 20
47.9313133699
 11
14.1935926957
 21
47.9313133699
  0
LINE
  5
25C
100
AcDbEntity
  8
0
100
AcDbLine
 62
7
  6
CONTINUOUS
 10
31.5220908793
 20
110.2113133678
 11
31.5220908793
 21
109.7113133699
  0
LINE
  5
25D
100
AcDbEntity
  8
0
100
AcDbLine
 62
7
  6
CONTINUOUS
 10
33.6195899499
 20
20.7312753469
 11
33.6195899499
 21
20.2313133699
  0
LINE
  5
25E
100
AcDbEntity
  8
0
100
AcDbLine
 62
7
  6
CONTINUOUS
 10
9.9335926957
 20
83.3614009217
 11
12.4136802474
 21
80.8813133699
  0
LINE
  5
25F
100
AcDbEntity
  8
0
100
AcDbLine
 62
7
  6
CONTINUOUS
 10
37.9335926957
 20
95.8813133699
 11
37.9335926957
 21
87.7313133699
  0
LINE
  5
260
100
AcDbEntity
  8
0
100
AcDbLine
 62
7
  6
CONTINUOUS
 10
37.9335926957
 20
42.7313133699
 11
37.9335926957
 21
34.5813133699
  0
LINE
  5
261
100
AcDbEntity
  8
0
100
AcDbLine
 62
7
  6
CONTINUOUS
 10
40.0838743781
 20
95.8313133699
 11
40.0866237708
 21
95.883774907
  0
LINE
  5
262
100
AcDbEntity
  8
0
100
AcDbLine
 62
7
  6
CONTINUOUS
 10
40.1335926957
 20
96.7799953826
 11
40.1572452691
 21
97.2313133699
  0
LINE
  5
263
100
AcDbEntity
  8
0
100
AcDbLine
 62
7
  6
CONTINUOUS
 10
13.8184638263
 20
49.9313133699
 11
10.1935926957
 21
46.8896853412
  0
LINE
  5
264
100
AcDbEntity
  8
0
100
AcDbLine
 62
7
  6
CONTINUOUS
 10
15.4335926957
 20
47.5813133699
 11
9.9335926957
 21
46.1075928116
  0
LINE
  5
265
100
AcDbEntity
  8
0
100
AcDbLine
 62
7
  6
CONTINUOUS
 10
40.1335926957
 20
31.4813133699
 11
40.1335926957
 21
34.6513133699
  0
LINE
  5
266
100
AcDbEntity
  8
0
100
AcDbLine
 62
7
  6
CONTINUOUS
 10
40.1335926957
 20
95.8813133699
 11
40.1335926957
 21
98.9813133699
  0
LINE
  5
267
100
AcDbEntity
  8
0
100
AcDbLine
 62
7
  6
CONTINUOUS
 10
40.2335926957
 20
95.8313133699
 11
40.2335926957
 21
98.9813133699
  0
LINE
  5
268
100
AcDbEntity
  8
0
100
AcDbLine
 62
7
  6
CONTINUOUS
 10
36.4640901925
 20
98.9813133699
 11
36.3534813506
 21
99.4613133699
  0
LWPOLYLINE
  5
269
100
AcDbEntity
  8
0
100
AcDbPolyline
 62
7
  6
CONTINUOUS
 90
4
 70
0
 10
35.9625035312
 20
99.4613133699
 10
35.7741484634
 20
100.2973608713
 10
35.5418684864
 20
101.2316315421
 10
35.2829448067
 20
102.186560074
  0
LINE
  5
26A
100
AcDbEntity
  8
0
100
AcDbLine
 62
7
  6
CONTINUOUS
 10
49.7335926957
 20
42.7313135283
 11
49.7335926957
 21
31.5013133699
  0
LWPOLYLINE
  5
26B
100
AcDbEntity
  8
0
100
AcDbPolyline
 62
7
  6
CONTINUOUS
 90
3
 70
0
 10
35.5981538688
 20
102.206915405
 10
35.1051579834
 20
103.7217287309
 10
34.6729250492
 20
104.9319087418
  0
LINE
  5
26C
100
AcDbEntity
  8
0
100
AcDbLine
 62
7
  6
CONTINUOUS
 10
52.3220581642
 20
32.0012894328
 11
52.3220581646
 21
31.5013133699
  0
LINE
  5
26D
100
AcDbEntity
  8
0
100
AcDbLine
 62
7
  6
CONTINUOUS
 10
33.3918541133
 20
107.9847917352
 11
33.3696046085
 21
108.0338144891
  0
LWPOLYLINE
  5
26E
100
AcDbEntity
  8
0
100
AcDbPolyline
 62
7
  6
CONTINUOUS
 90
5
 70
0
 10
34.0196296065
 20
106.5380608386
 10
33.7605122748
 20
107.1523155356
 10
33.5238479731
 20
107.6939360835
 10
33.3697016962
 20
108.0336057916
 10
33.317332302
 20
108.1461779412
  0
LINE
  5
26F
100
AcDbEntity
  8
0
100
AcDbLine
 62
7
  6
CONTINUOUS
 10
34.2721677165
 20
105.92356242
 11
34.0196291222
 21
106.5380606701
  0
LINE
  5
270
100
AcDbEntity
  8
0
100
AcDbLine
 62
7
  6
CONTINUOUS
 10
34.6728949227
 20
104.9319704366
 11
34.6729466027
 21
104.9318444211
  0
LINE
  5
271
100
AcDbEntity
  8
0
100
AcDbLine
 62
7
  6
CONTINUOUS
 10
34.4881585455
 20
105.3904239147
 11
34.2718076507
 21
105.9244385624
  0
LINE
  5
272
100
AcDbEntity
  8
0
100
AcDbLine
 62
7
  6
CONTINUOUS
 10
34.6729469487
 20
104.9318439078
 11
34.5958174564
 21
105.1233708677
  0
LINE
  5
273
100
AcDbEntity
  8
0
100
AcDbLine
 62
7
  6
CONTINUOUS
 10
34.6249597908
 20
105.0510819218
 11
34.4881585455
 21
105.3904239147
  0
LINE
  5
274
100
AcDbEntity
  8
0
100
AcDbLine
 62
7
  6
CONTINUOUS
 10
54.4195907658
 20
98.9813133699
 11
54.4195907658
 21
98.4813527006
  0
LWPOLYLINE
  5
275
100
AcDbEntity
  8
0
100
AcDbPolyline
 62
7
  6
CONTINUOUS
 90
14
 70
0
 10
53.8366322108
 20
33.6849686521
 10
53.8404357322
 20
33.7144229172
 10
53.8569777025
 20
33.7947458393
 10
53.8884154075
 20
33.9191273456
 10
53.9365450453
 20
34.0910596609
 10
54.0036001695
 20
34.3163770704
 10
54.0921883333
 20
34.6008587857
 10
54.2064228248
 20
34.9523561538
 10
54.3490628747
 20
35.3687258311
 10
54.5293092648
 20
35.8537166019
 10
54.6729645805
 20
36.1994380674
 10
54.7864481012
 20
36.4392903168
 10
54.8714421442
 20
36.5919839658
 10
54.9269297302
 20
36.670911019
  0
LINE
  5
276
100
AcDbEntity
  8
0
100
AcDbLine
 62
7
  6
CONTINUOUS
 10
75.4335926957
 20
82.5843877308
 11
80.8335926957
 21
84.0313133699
  0
LINE
  5
277
100
AcDbEntity
  8
0
100
AcDbLine
 62
7
  6
CONTINUOUS
 10
75.5447687173
 20
82.9588217026
 11
80.1494669763
 21
84.1926468825
  0
LINE
  5
278
100
AcDbEntity
  8
0
100
AcDbLine
 62
7
  6
CONTINUOUS
 10
74.9335926957
 20
83.3126956714
 11
80.0200629132
 21
84.6756120602
  0
LWPOLYLINE
  5
279
100
AcDbEntity
  8
0
100
AcDbPolyline
 62
7
  6
CONTINUOUS
 90
3
 70
0
 10
33.3164435102
 20
108.1480517427
 10
32.9928951525
 20
108.781234304
 10
32.2238252335
 20
110.017572661
  0
LINE
  5
27A
100
AcDbEntity
  8
0
100
AcDbLine
 62
7
  6
CONTINUOUS
 10
58.2335926957
 20
43.2313133699
 11
58.2335926957
 21
42.7313133699
  0
LINE
  5
27B
100
AcDbEntity
  8
0
100
AcDbLine
 62
7
  6
CONTINUOUS
 10
58.2335926957
 20
87.2313133699
 11
58.2335926957
 21
87.7313133699
  0
LINE
  5
27C
100
AcDbEntity
  8
0
100
AcDbLine
 62
7
  6
CONTINUOUS
 10
57.1534813506
 20
42.2513133699
 11
57.2640901925
 21
42.7313133699
  0
LWPOLYLINE
  5
27D
100
AcDbEntity
  8
0
100
AcDbPolyline
 62
7
  6
CONTINUOUS
 90
4
 70
0
 10
56.0829491468
 20
39.5260632007
 10
56.3416547501
 20
40.4801679451
 10
56.5739546684
 20
41.4144310548
 10
56.7625350285
 20
42.2513133699
  0
LWPOLYLINE
  5
27E
100
AcDbEntity
  8
0
100
AcDbPolyline
 62
7
  6
CONTINUOUS
 90
7
 70
0
 10
34.3217052458
 20
20.4231964753
 10
35.0544617747
 20
21.5827299108
 10
35.7504830486
 20
22.9993045
 10
36.4399315534
 20
24.6345186863
 10
37.1432402484
 20
26.535891355
 10
37.8658001292
 20
28.7868054056
 10
38.5685517035
 20
31.4813133699
  0
LINE
  5
27F
100
AcDbEntity
  8
0
100
AcDbLine
 62
7
  6
CONTINUOUS
 10
55.9051579834
 20
37.990898009
 11
56.3981538688
 21
39.5057113349
  0
LINE
  5
280
100
AcDbEntity
  8
0
100
AcDbLine
 62
7
  6
CONTINUOUS
 10
55.4729250492
 20
36.7807179981
 11
55.9051579834
 21
37.990898009
  0
LINE
  5
281
100
AcDbEntity
  8
0
100
AcDbLine
 62
7
  6
CONTINUOUS
 10
55.4729462948
 20
36.7807814102
 11
55.2874725829
 21
36.3205026911
  0
LWPOLYLINE
  5
282
100
AcDbEntity
  8
0
100
AcDbPolyline
 62
7
  6
CONTINUOUS
 90
3
 70
0
 10
54.819631728
 20
35.1745660485
 10
55.070973174
 20
35.7861284819
 10
55.2874725829
 20
36.3205026911
  0
LINE
  5
283
100
AcDbEntity
  8
0
100
AcDbLine
 62
7
  6
CONTINUOUS
 10
12.7136802474
 20
80.8813133699
 11
12.4136802474
 21
80.8813133699
  0
LINE
  5
284
100
AcDbEntity
  8
0
100
AcDbLine
 62
7
  6
CONTINUOUS
 10
16.1335926957
 20
82.8813133699
 11
14.6335926957
 21
82.8813133699
  0
LWPOLYLINE
  5
285
100
AcDbEntity
  8
0
100
AcDbPolyline
 62
7
  6
CONTINUOUS
 90
15
 70
0
 10
34.1344517297
 20
105.0336610551
 10
34.1251049723
 20
105.0438475355
 10
34.070922796
 20
105.1214797029
 10
33.9854276108
 20
105.2753299045
 10
33.8713099854
 20
105.5169208437
 10
33.7265222873
 20
105.8659952412
 10
33.546649952
 20
106.3506983436
 10
33.4046393887
 20
106.7656020095
 10
33.2909716964
 20
107.1155575965
 10
33.2027826698
 20
107.3988885026
 10
33.1360337659
 20
107.6232936276
 10
33.0881247668
 20
107.7945408218
 10
33.0568360772
 20
107.9184455429
 10
33.040391942
 20
107.998411279
 10
33.0369907082
 20
108.0231240793
  0
LWPOLYLINE
  5
286
100
AcDbEntity
  8
0
100
AcDbPolyline
 62
7
  6
CONTINUOUS
 90
7
 70
0
 10
59.3685517035
 20
87.7313133699
 10
58.6658001292
 20
90.4258213342
 10
57.9432402484
 20
92.6767353849
 10
57.2399315534
 20
94.5781080536
 10
56.5504830486
 20
96.2133222398
 10
55.8544617747
 20
97.6298968291
 10
55.1217052458
 20
98.7894302646
  0
LWPOLYLINE
  5
287
100
AcDbEntity
  8
0
100
AcDbPolyline
 62
7
  6
CONTINUOUS
 90
5
 70
0
 10
54.117332302
 20
33.5664487987
 10
54.1695458987
 20
33.6786828986
 10
54.3232084182
 20
34.0172504195
 10
54.55930551
 20
34.5574906704
 10
54.8196309601
 20
35.1745662809
  0
LWPOLYLINE
  5
288
100
AcDbEntity
  8
0
100
AcDbPolyline
 62
7
  6
CONTINUOUS
 90
3
 70
0
 10
53.0238252335
 20
31.6950540789
 10
53.7928951525
 20
32.9313924359
 10
54.1164435102
 20
33.5645749972
  0
LINE
  5
289
100
AcDbEntity
  8
0
100
AcDbLine
 62
7
  6
CONTINUOUS
 10
80.8335926957
 20
84.0313133699
 11
81.1387360783
 21
84.0313133699
  0
LINE
  5
28A
100
AcDbEntity
  8
0
100
AcDbLine
 62
7
  6
CONTINUOUS
 10
81.4614232294
 20
85.8313133699
 11
81.9335926957
 21
85.8313133699
  0
LINE
  5
28B
100
AcDbEntity
  8
0
100
AcDbLine
 62
7
  6
CONTINUOUS
 10
58.2335926957
 20
87.2313133699
 11
79.6835633998
 21
87.2313125955
  0
LINE
  5
28C
100
AcDbEntity
  8
0
100
AcDbLine
 62
7
  6
CONTINUOUS
 10
37.9335926957
 20
87.7313133699
 11
79.6835926956
 21
87.7313133699
  0
LINE
  5
28D
100
AcDbEntity
  8
0
100
AcDbLine
 62
7
  6
CONTINUOUS
 10
73.4335926957
 20
87.7313133699
 11
73.4335926957
 21
42.7313133699
  0
LINE
  5
28E
100
AcDbEntity
  8
0
100
AcDbLine
 62
7
  6
CONTINUOUS
 10
74.9335926957
 20
83.3126956714
 11
74.9335926957
 21
42.7313133699
  0
LINE
  5
28F
100
AcDbEntity
  8
0
100
AcDbLine
 62
7
  6
CONTINUOUS
 10
75.4335926957
 20
42.9313133699
 11
75.4335926957
 21
82.8139330819
  0
LINE
  5
290
100
AcDbEntity
  8
0
100
AcDbLine
 62
7
  6
CONTINUOUS
 10
81.6589606496
 20
50.0727544843
 11
81.357689963
 21
49.8988157722
  0
LINE
  5
291
100
AcDbEntity
  8
0
100
AcDbLine
 62
7
  6
CONTINUOUS
 10
79.6835926957
 20
87.7313133699
 11
79.6835926957
 21
87.2313133699
  0
LINE
  5
292
100
AcDbEntity
  8
0
100
AcDbLine
 62
7
  6
CONTINUOUS
 10
80.2271873771
 20
83.8688275546
 11
80.2271873771
 21
42.9313133699
  0
LINE
  5
293
100
AcDbEntity
  8
0
100
AcDbLine
 62
7
  6
CONTINUOUS
 10
80.7067398294
 20
43.4313133699
 11
80.7067398294
 21
83.9973232469
  0
LINE
  5
294
100
AcDbEntity
  8
0
100
AcDbLine
 62
7
  6
CONTINUOUS
 10
81.1387360783
 20
84.9409583296
 11
81.1387360783
 21
84.0313133699
  0
LINE
  5
295
100
AcDbEntity
  8
0
100
AcDbLine
 62
7
  6
CONTINUOUS
 10
81.357689963
 20
43.4313133699
 11
81.357689963
 21
49.8988157722
  0
LINE
  5
296
100
AcDbEntity
  8
0
100
AcDbLine
 62
7
  6
CONTINUOUS
 10
81.6589606496
 20
50.0727544843
 11
81.6589606496
 21
43.4313133699
  0
LINE
  5
297
100
AcDbEntity
  8
0
100
AcDbLine
 62
7
  6
CONTINUOUS
 10
55.1216681022
 20
98.7896706224
 11
54.831531741
 21
98.7632352059
  0
LINE
  5
298
100
AcDbEntity
  8
0
100
AcDbLine
 62
7
  6
CONTINUOUS
 10
37.9335926957
 20
95.8313133699
 11
40.2335926957
 21
95.8313133699
  0
LINE
  5
299
100
AcDbEntity
  8
0
100
AcDbLine
 62
7
  6
CONTINUOUS
 10
37.9335926957
 20
95.8813133699
 11
40.1335926957
 21
95.8813133699
  0
LINE
  5
29A
100
AcDbEntity
  8
0
100
AcDbLine
 62
7
  6
CONTINUOUS
 10
40.1335926957
 20
97.2313133699
 11
40.2335926957
 21
97.2313133699
  0
LINE
  5
29B
100
AcDbEntity
  8
0
100
AcDbLine
 62
7
  6
CONTINUOUS
 10
40.1335926957
 20
97.6313133699
 11
40.2335926957
 21
97.6313133699
  0
LINE
  5
29C
100
AcDbEntity
  8
0
100
AcDbLine
 62
7
  6
CONTINUOUS
 10
40.2335926957
 20
98.4813395506
 11
54.4197920491
 21
98.4813658506
  0
LINE
  5
29D
100
AcDbEntity
  8
0
100
AcDbLine
 62
7
  6
CONTINUOUS
 10
17.1335926957
 20
98.9813133699
 11
54.7280690568
 21
98.9813153602
  0
LINE
  5
29E
100
AcDbEntity
  8
0
100
AcDbLine
 62
7
  6
CONTINUOUS
 10
35.2775107257
 20
99.4613133699
 11
35.9123501914
 21
99.4613133699
  0
LINE
  5
29F
100
AcDbEntity
  8
0
100
AcDbLine
 62
7
  6
CONTINUOUS
 10
35.9607688063
 20
99.4613133699
 11
36.2831775426
 21
99.4613133699
  0
LINE
  5
2A0
100
AcDbEntity
  8
0
100
AcDbLine
 62
7
  6
CONTINUOUS
 10
36.3180649631
 20
99.4613133699
 11
36.3534795922
 21
99.4613133699
  0
LINE
  5
2A1
100
AcDbEntity
  8
0
100
AcDbLine
 62
7
  6
CONTINUOUS
 10
81.9335926957
 20
85.8313133699
 11
81.9335926957
 21
43.4313133699
  0
LINE
  5
2A2
100
AcDbEntity
  8
0
100
AcDbLine
 62
7
  6
CONTINUOUS
 10
35.2817336319
 20
102.1867325286
 11
35.5419468713
 21
102.2033535028
  0
LINE
  5
2A3
100
AcDbEntity
  8
0
100
AcDbLine
 62
7
  6
CONTINUOUS
 10
35.598148901
 20
102.2069138091
 11
35.569868073
 21
102.2051226023
  0
LINE
  5
2A4
100
AcDbEntity
  8
0
100
AcDbLine
 62
7
  6
CONTINUOUS
 10
34.7436933846
 20
102.1282583425
 11
35.2502762156
 21
102.1572236861
  0
LINE
  5
2A5
100
AcDbEntity
  8
0
100
AcDbLine
 62
7
  6
CONTINUOUS
 10
35.1053201648
 20
102.1490197885
 11
35.2502762156
 21
102.1572236861
  0
LINE
  5
2A6
100
AcDbEntity
  8
0
100
AcDbLine
 62
7
  6
CONTINUOUS
 10
35.2817305317
 20
102.1867277882
 11
35.2828726146
 21
102.1865390288
  0
LINE
  5
2A7
100
AcDbEntity
  8
0
100
AcDbLine
 62
7
  6
CONTINUOUS
 10
80.0200574535
 20
84.6756097956
 11
80.149466976
 21
84.1926468826
  0
LINE
  5
2A8
100
AcDbEntity
  8
0
100
AcDbLine
 62
7
  6
CONTINUOUS
 10
34.4578296458
 20
104.9259061912
 11
34.5399465578
 21
104.9280643464
  0
LINE
  5
2A9
100
AcDbEntity
  8
0
100
AcDbLine
 62
7
  6
CONTINUOUS
 10
34.234267482
 20
104.9217282632
 11
34.5402229877
 21
104.92728273
  0
LINE
  5
2AA
100
AcDbEntity
  8
0
100
AcDbLine
 62
7
  6
CONTINUOUS
 10
34.234083302
 20
104.9223041313
 11
34.3559420179
 21
104.9239865863
  0
LINE
  5
2AB
100
AcDbEntity
  8
0
100
AcDbLine
 62
7
  6
CONTINUOUS
 10
34.112914962
 20
105.0613133699
 11
34.3519128742
 21
105.0613133699
  0
LINE
  5
2AC
100
AcDbEntity
  8
0
100
AcDbLine
 62
7
  6
CONTINUOUS
 10
17.1335926957
 20
107.0613133699
 11
19.3335926957
 21
107.0613133699
  0
LINE
  5
2AD
100
AcDbEntity
  8
0
100
AcDbLine
 62
7
  6
CONTINUOUS
 10
17.1335926957
 20
107.1313133699
 11
19.3335926957
 21
107.1313133699
  0
LINE
  5
2AE
100
AcDbEntity
  8
0
100
AcDbLine
 62
7
  6
CONTINUOUS
 10
31.9336805104
 20
109.993763006
 11
32.2238896343
 21
110.0177147979
  0
LINE
  5
2AF
100
AcDbEntity
  8
0
100
AcDbLine
 62
7
  6
CONTINUOUS
 10
33.2298471715
 20
108.1468462185
 11
33.0331578159
 21
108.1414846505
  0
LINE
  5
2B0
100
AcDbEntity
  8
0
100
AcDbLine
 62
7
  6
CONTINUOUS
 10
19.3335926957
 20
109.7113133699
 11
31.5221492385
 21
109.7113326726
  0
LINE
  5
2B1
100
AcDbEntity
  8
0
100
AcDbLine
 62
7
  6
CONTINUOUS
 10
11.5966293191
 20
109.7313133699
 11
19.3335926957
 21
109.7313133699
  0
LINE
  5
2B2
100
AcDbEntity
  8
0
100
AcDbLine
 62
7
  6
CONTINUOUS
 10
19.3335926957
 20
110.2113133699
 11
31.8287668276
 21
110.2113150856
  0
LINE
  5
2B3
100
AcDbEntity
  8
0
100
AcDbLine
 62
7
  6
CONTINUOUS
 10
19.3335926957
 20
110.2313133699
 11
11.6758215392
 21
110.2313133699
  0
ARC
  5
2B4
100
AcDbEntity
  8
0
100
AcDbCircle
 62
7
  6
CONTINUOUS
 10
-0.7398833257
 20
58.2502564632
 40
60.1609525925
100
AcDbArc
 50
336.7790041749
 51
337.445283994
  0
ARC
  5
2B5
100
AcDbEntity
  8
0
100
AcDbCircle
 62
7
  6
CONTINUOUS
 10
13.3897915839
 20
52.2146462951
 40
44.7962037732
100
AcDbArc
 50
336.3219377155
 51
336.7478483916
  0
ARC
  5
2B6
100
AcDbEntity
  8
0
100
AcDbCircle
 62
7
  6
CONTINUOUS
 10
20.4215787479
 20
49.1379680182
 40
37.1207928755
100
AcDbArc
 50
335.9342320426
 51
336.3122550522
  0
ARC
  5
2B7
100
AcDbEntity
  8
0
100
AcDbCircle
 62
7
  6
CONTINUOUS
 10
26.8172402379
 20
46.2856858733
 40
30.1179375674
100
AcDbArc
 50
335.5896966517
 51
335.9271954458
  0
CIRCLE
  5
2B8
100
AcDbEntity
  8
0
100
AcDbCircle
 62
7
  6
CONTINUOUS
 10
19.4335926957
 20
43.2313133699
 40
0.825
  0
CIRCLE
  5
2B9
100
AcDbEntity
  8
0
100
AcDbCircle
 62
7
  6
CONTINUOUS
 10
19.4335926957
 20
43.2313133699
 40
0.6
  0
ARC
  5
2BA
100
AcDbEntity
  8
0
100
AcDbCircle
 62
7
  6
CONTINUOUS
 10
33.9280730572
 20
20.7313114507
 40
0.5000000711
100
AcDbArc
 50
270.0
 51
321.9479928598
  0
ARC
  5
2BB
100
AcDbEntity
  8
0
100
AcDbCircle
 62
7
  6
CONTINUOUS
 10
33.6190429594
 20
20.7301234436
 40
0.4989546418
100
AcDbArc
 50
297.8590992261
 51
325.7608823469
  0
ARC
  5
2BC
100
AcDbEntity
  8
0
100
AcDbCircle
 62
7
  6
CONTINUOUS
 10
33.6197042155
 20
20.7287338787
 40
0.4974171282
100
AcDbArc
 50
270.8776822062
 51
297.8665547809
  0
ARC
  5
2BD
100
AcDbEntity
  8
0
100
AcDbCircle
 62
7
  6
CONTINUOUS
 10
-12.8240726284
 20
88.6363065374
 40
49.9778215259
100
AcDbArc
 50
15.2239558561
 51
15.5558587153
  0
ARC
  5
2BE
100
AcDbEntity
  8
0
100
AcDbCircle
 62
7
  6
CONTINUOUS
 10
-12.5530019701
 20
88.7122000857
 40
49.6963273761
100
AcDbArc
 50
15.5553763136
 51
15.7319593238
  0
ARC
  5
2BF
100
AcDbEntity
  8
0
100
AcDbCircle
 62
7
  6
CONTINUOUS
 10
-10.36228651
 20
89.3000884848
 40
47.4281235153
100
AcDbArc
 50
14.3195740987
 51
15.2311549016
  0
ARC
  5
2C0
100
AcDbEntity
  8
0
100
AcDbCircle
 62
7
  6
CONTINUOUS
 10
-6.9701720622
 20
90.1701169421
 40
43.9262136874
100
AcDbArc
 50
13.7915130551
 51
14.3143227595
  0
ARC
  5
2C1
100
AcDbEntity
  8
0
100
AcDbCircle
 62
7
  6
CONTINUOUS
 10
-4.4154855354
 20
90.7955763452
 40
41.2960767997
100
AcDbArc
 50
12.9314197806
 51
13.7937101393
  0
ARC
  5
2C2
100
AcDbEntity
  8
0
100
AcDbCircle
 62
7
  6
CONTINUOUS
 10
-2.5311610995
 20
91.2305905801
 40
39.3621919997
100
AcDbArc
 50
12.6494886783
 51
12.9280735709
  0
ARC
  5
2C3
100
AcDbEntity
  8
0
100
AcDbCircle
 62
7
  6
CONTINUOUS
 10
0.4943254616
 20
91.906682578
 40
36.2620854762
100
AcDbArc
 50
12.0244817243
 51
12.6540038505
  0
ARC
  5
2C4
100
AcDbEntity
  8
0
100
AcDbCircle
 62
7
  6
CONTINUOUS
 10
33.8412892629
 20
108.1814228115
 40
0.8263415235
100
AcDbArc
 50
189.0894617091
 51
189.496394667
  0
CIRCLE
  5
2C5
100
AcDbEntity
  8
0
100
AcDbCircle
 62
7
  6
CONTINUOUS
 10
14.4335926957
 20
87.2313133699
 40
0.825
  0
CIRCLE
  5
2C6
100
AcDbEntity
  8
0
100
AcDbCircle
 62
7
  6
CONTINUOUS
 10
13.7335926957
 20
107.6313133699
 40
0.8249977244
  0
CIRCLE
  5
2C7
100
AcDbEntity
  8
0
100
AcDbCircle
 62
7
  6
CONTINUOUS
 10
14.4335926957
 20
87.2313133699
 40
0.6
  0
CIRCLE
  5
2C8
100
AcDbEntity
  8
0
100
AcDbCircle
 62
7
  6
CONTINUOUS
 10
13.7335926957
 20
107.6313133699
 40
0.525
  0
ARC
  5
2C9
100
AcDbEntity
  8
0
100
AcDbCircle
 62
7
  6
CONTINUOUS
 10
31.828770387
 20
109.7113150759
 40
0.5000000097
100
AcDbArc
 50
37.7838472476
 51
90.0
  0
CIRCLE
  5
2CA
100
AcDbEntity
  8
0
100
AcDbCircle
 62
7
  6
CONTINUOUS
 10
13.7335926957
 20
107.6313133699
 40
0.5
  0
ARC
  5
2CB
100
AcDbEntity
  8
0
100
AcDbCircle
 62
7
  6
CONTINUOUS
 10
31.5215230243
 20
109.7125897574
 40
0.4988421362
100
AcDbArc
 50
34.3067405607
 51
61.0180630075
  0
ARC
  5
2CC
100
AcDbEntity
  8
0
100
AcDbCircle
 62
7
  6
CONTINUOUS
 10
31.5220649489
 20
109.7137400292
 40
0.4975733363
100
AcDbArc
 50
61.0084727198
 51
89.9972625527
  0
ARC
  5
2CD
100
AcDbEntity
  8
0
100
AcDbCircle
 62
7
  6
CONTINUOUS
 10
33.0478560702
 20
108.061083988
 40
0.2011888498
100
AcDbArc
 50
0.0652320379
 51
25.2318832265
  0
ARC
  5
2CE
100
AcDbEntity
  8
0
100
AcDbCircle
 62
7
  6
CONTINUOUS
 10
32.8487396265
 20
108.0613885488
 40
0.2011381487
100
AcDbArc
 50
348.3941212278
 51
23.5125219516
  0
ARC
  5
2CF
100
AcDbEntity
  8
0
100
AcDbCircle
 62
7
  6
CONTINUOUS
 10
32.8491960555
 20
108.0613238339
 40
0.2006872221
100
AcDbArc
 50
339.1841832409
 51
342.1577665078
  0
ARC
  5
2D0
100
AcDbEntity
  8
0
100
AcDbCircle
 62
7
  6
CONTINUOUS
 10
32.8496186164
 20
108.0611865722
 40
0.2002429282
100
AcDbArc
 50
342.1581065875
 51
343.0893808164
  0
ARC
  5
2D1
100
AcDbEntity
  8
0
100
AcDbCircle
 62
7
  6
CONTINUOUS
 10
33.0491081649
 20
108.0612223068
 40
0.1999257816
100
AcDbArc
 50
276.0486043439
 51
0.0260033609
  0
ARC
  5
2D2
100
AcDbEntity
  8
0
100
AcDbCircle
 62
7
  6
CONTINUOUS
 10
32.8501057527
 20
108.060996869
 40
0.1997211856
100
AcDbArc
 50
343.1007561948
 51
348.4253441759
  0
ARC
  5
2D3
100
AcDbEntity
  8
0
100
AcDbCircle
 62
7
  6
CONTINUOUS
 10
75.0318797549
 20
28.0628423845
 40
21.9368890305
100
AcDbArc
 50
160.3808214976
 51
160.7686872892
  0
ARC
  5
2D4
100
AcDbEntity
  8
0
100
AcDbCircle
 62
7
  6
CONTINUOUS
 10
64.5549658985
 20
31.9268584142
 40
10.7695708974
100
AcDbArc
 50
157.7073698209
 51
158.8152863059
  0
ARC
  5
2D5
100
AcDbEntity
  8
0
100
AcDbCircle
 62
7
  6
CONTINUOUS
 10
58.4318451557
 20
32.6654173474
 40
4.7154952398
100
AcDbArc
 50
165.316401109
 51
165.8021444488
  0
ARC
  5
2D6
100
AcDbEntity
  8
0
100
AcDbCircle
 62
7
  6
CONTINUOUS
 10
57.0281873275
 20
33.0172144824
 40
3.2684287196
100
AcDbArc
 50
165.7456033879
 51
166.8371915734
  0
ARC
  5
2D7
100
AcDbEntity
  8
0
100
AcDbCircle
 62
7
  6
CONTINUOUS
 10
56.2584878124
 20
35.7865535012
 40
1.6110930913
100
AcDbArc
 50
148.1897305445
 51
148.3499008455
  0
ARC
  5
2D8
100
AcDbEntity
  8
0
100
AcDbCircle
 62
7
  6
CONTINUOUS
 10
54.772757953
 20
33.5090839926
 40
0.959684137
100
AcDbArc
 50
169.6232494615
 51
170.1993352614
  0
ARC
  5
2D9
100
AcDbEntity
  8
0
100
AcDbCircle
 62
7
  6
CONTINUOUS
 10
81.1536833362
 20
43.4425329441
 40
0.5112199013
100
AcDbArc
 50
270.0648259573
 51
296.097081989
  0
ARC
  5
2DA
100
AcDbEntity
  8
0
100
AcDbCircle
 62
7
  6
CONTINUOUS
 10
81.1553209557
 20
43.4387514209
 40
0.5071035632
100
AcDbArc
 50
296.1188661017
 51
300.6002299846
  0
ARC
  5
2DB
100
AcDbEntity
  8
0
100
AcDbCircle
 62
7
  6
CONTINUOUS
 10
52.628770387
 20
32.001311664
 40
0.5000000097
100
AcDbArc
 50
270.0
 51
322.2161527524
  0
ARC
  5
2DC
100
AcDbEntity
  8
0
100
AcDbCircle
 62
7
  6
CONTINUOUS
 10
81.4335926957
 20
43.4313133699
 40
0.5
100
AcDbArc
 50
270.0
 51
360.0
  0
ARC
  5
2DD
100
AcDbEntity
  8
0
100
AcDbCircle
 62
7
  6
CONTINUOUS
 10
74.9335926957
 20
43.2313133699
 40
0.5
100
AcDbArc
 50
270.0
 51
360.0
  0
ARC
  5
2DE
100
AcDbEntity
  8
0
100
AcDbCircle
 62
7
  6
CONTINUOUS
 10
52.321837988
 20
31.9996169754
 40
0.4983124322
100
AcDbArc
 50
270.025124332
 51
325.6192888864
  0
ARC
  5
2DF
100
AcDbEntity
  8
0
100
AcDbCircle
 62
7
  6
CONTINUOUS
 10
53.6478281009
 20
33.6510836785
 40
0.2020713942
100
AcDbArc
 50
10.266873688
 51
11.6550628285
  0
ARC
  5
2E0
100
AcDbEntity
  8
0
100
AcDbCircle
 62
7
  6
CONTINUOUS
 10
53.6484136692
 20
33.6514895991
 40
0.2014724895
100
AcDbArc
 50
336.4951500073
 51
359.9499602831
  0
ARC
  5
2E1
100
AcDbEntity
  8
0
100
AcDbCircle
 62
7
  6
CONTINUOUS
 10
53.8481114327
 20
33.6514831709
 40
0.2009370784
100
AcDbArc
 50
334.7521679636
 51
359.9516561008
  0
ARC
  5
2E2
100
AcDbEntity
  8
0
100
AcDbCircle
 62
7
  6
CONTINUOUS
 10
53.6489800519
 20
33.6512503185
 40
0.2009081914
100
AcDbArc
 50
0.0180586743
 51
10.2786644148
  0
ARC
  5
2E3
100
AcDbEntity
  8
0
100
AcDbCircle
 62
7
  6
CONTINUOUS
 10
53.8491210349
 20
33.6514039509
 40
0.1999250413
100
AcDbArc
 50
359.9741152811
 51
83.9517396935
  0
ARC
  5
2E4
100
AcDbEntity
  8
0
100
AcDbCircle
 62
7
  6
CONTINUOUS
 10
55.1517432715
 20
36.8508072105
 40
0.1995103197
100
AcDbArc
 50
270.0470815058
 51
340.6081636313
  0
ARC
  5
2E5
100
AcDbEntity
  8
0
100
AcDbCircle
 62
7
  6
CONTINUOUS
 10
64.5771412612
 20
117.0370925977
 40
32.8231317575
100
AcDbArc
 50
197.4680211296
 51
197.6661970779
  0
ARC
  5
2E6
100
AcDbEntity
  8
0
100
AcDbCircle
 62
7
  6
CONTINUOUS
 10
45.8987477037
 20
111.3397229074
 40
13.2946689226
100
AcDbArc
 50
195.9925300754
 51
196.2670530815
  0
ARC
  5
2E7
100
AcDbEntity
  8
0
100
AcDbCircle
 62
7
  6
CONTINUOUS
 10
36.5140519908
 20
108.7634813028
 40
3.5623270205
100
AcDbArc
 50
193.3633850066
 51
194.5910589356
  0
ARC
  5
2E8
100
AcDbEntity
  8
0
100
AcDbCircle
 62
7
  6
CONTINUOUS
 10
80.1335926957
 20
85.8313133699
 40
1.8
100
AcDbArc
 50
0.0
 51
86.2174357242
  0
ARC
  5
2E9
100
AcDbEntity
  8
0
100
AcDbCircle
 62
7
  6
CONTINUOUS
 10
79.6835926957
 20
85.9313133699
 40
1.8
100
AcDbArc
 50
284.9999999892
 51
90.0000000019
  0
ARC
  5
2EA
100
AcDbEntity
  8
0
100
AcDbCircle
 62
7
  6
CONTINUOUS
 10
79.6835926957
 20
85.9313133699
 40
1.2999976766
100
AcDbArc
 50
285.0002582255
 51
90.0012911759
  0
ARC
  5
2EB
100
AcDbEntity
  8
0
100
AcDbCircle
 62
7
  6
CONTINUOUS
 10
35.1487439014
 20
105.7325308506
 40
1.2457664809
100
AcDbArc
 50
212.8478564803
 51
213.6937598043
  0
CIRCLE
  5
2EC
100
AcDbEntity
  8
0
100
AcDbCircle
 62
7
  6
CONTINUOUS
 10
79.6835926957
 20
85.9313133699
 40
0.9
  0
CIRCLE
  5
2ED
100
AcDbEntity
  8
0
100
AcDbCircle
 62
7
  6
CONTINUOUS
 10
79.6835926957
 20
85.9313133699
 40
0.86
  0
ARC
  5
2EE
100
AcDbEntity
  8
0
100
AcDbCircle
 62
7
  6
CONTINUOUS
 10
54.7280730572
 20
98.4813152892
 40
0.5000000711
100
AcDbArc
 50
38.0520071402
 51
90.0
  0
ARC
  5
2EF
100
AcDbEntity
  8
0
100
AcDbCircle
 62
7
  6
CONTINUOUS
 10
54.4188243372
 20
98.482393086
 40
0.4991113933
100
AcDbArc
 50
34.2371245035
 51
62.0816093956
  0
ARC
  5
2F0
100
AcDbEntity
  8
0
100
AcDbCircle
 62
7
  6
CONTINUOUS
 10
54.4195620881
 20
98.4837190056
 40
0.4975943663
100
AcDbArc
 50
62.085187512
 51
89.9942674921
  0
ARC
  5
2F1
100
AcDbEntity
  8
0
100
AcDbCircle
 62
7
  6
CONTINUOUS
 10
34.3517450262
 20
104.8618158967
 40
0.1995112026
100
AcDbArc
 50
19.3924704665
 51
89.9533067634
  0
ARC
  5
2F2
100
AcDbEntity
  8
0
100
AcDbCircle
 62
7
  6
CONTINUOUS
 10
75.5835926957
 20
82.8139331292
 40
0.15
100
AcDbArc
 50
105.0
 51
179.9999650815
  0
SPLINE
  5
2F3
100
AcDbEntity
  8
0
100
AcDbSpline
 62
7
  6
CONTINUOUS
 70
0
 71
3
 72
10
 73
6
 74
0
 42
0.0000001
 43
0.0000001
 44
0.0000000001
 40
0.0
 40
0.0
 40
0.0
 40
0.0
 40
0.5005667067
 40
0.750437142
 40
1.0
 40
1.0
 40
1.0
 40
1.0
 10
56.3697167999
 20
39.5069581144
 30
0.0
 10
56.5085003509
 20
39.9609229675
 30
0.0
 10
56.7073232917
 20
40.6443975419
 30
0.0
 10
56.9503033078
 20
41.5611078089
 30
0.0
 10
57.0637092727
 20
42.0209965384
 30
0.0
 10
57.1180441163
 20
42.2513442749
 30
0.0
  0
SPLINE
  5
2F4
100
AcDbEntity
  8
0
100
AcDbSpline
 62
7
  6
CONTINUOUS
 70
0
 71
3
 72
10
 73
6
 74
0
 42
0.0000001
 43
0.0000001
 44
0.0000000001
 40
0.0
 40
0.0
 40
0.0
 40
0.0
 40
0.4999928766
 40
0.7499970456
 40
1.0
 40
1.0
 40
1.0
 40
1.0
 10
55.5437015776
 20
39.5843705206
 30
0.0
 10
55.6462981985
 20
40.0260547278
 30
0.0
 10
55.7910613407
 20
40.6907816789
 30
0.0
 10
55.9627375587
 20
41.5813135779
 30
0.0
 10
56.0407885329
 20
42.0280362422
 30
0.0
 10
56.0775607121
 20
42.2517620518
 30
0.0
  0
SPLINE
  5
2F5
100
AcDbEntity
  8
0
100
AcDbSpline
 62
7
  6
CONTINUOUS
 70
0
 71
3
 72
9
 73
5
 74
0
 42
0.0000001
 43
0.0000001
 44
0.0000000001
 40
0.0
 40
0.0
 40
0.0
 40
0.0
 40
0.4913800182
 40
1.0
 40
1.0
 40
1.0
 40
1.0
 10
54.9282877559
 20
36.6697060915
 30
0.0
 10
54.9526373821
 20
36.6810262738
 30
0.0
 10
54.9978859541
 20
36.7146550912
 30
0.0
 10
55.0256764319
 20
36.7638353077
 30
0.0
 10
55.03408485
 20
36.7903274334
 30
0.0
  0
SPLINE
  5
2F6
100
AcDbEntity
  8
0
100
AcDbSpline
 62
7
  6
CONTINUOUS
 70
0
 71
3
 72
13
 73
9
 74
0
 42
0.0000001
 43
0.0000001
 44
0.0000000001
 40
0.0
 40
0.0
 40
0.0
 40
0.0
 40
0.0223815485
 40
0.0844228271
 40
0.1830449692
 40
0.3105290721
 40
0.6320712699
 40
1.0
 40
1.0
 40
1.0
 40
1.0
 10
55.4728860004
 20
36.7806305998
 30
0.0
 10
55.4680609026
 20
36.7686288538
 30
0.0
 10
55.449743654
 20
36.7234056374
 30
0.0
 10
55.410251305
 20
36.6252630849
 30
0.0
 10
55.3480635588
 20
36.4707758903
 30
0.0
 10
55.2295974688
 20
36.1772700977
 30
0.0
 10
55.0524750331
 20
35.7395943664
 30
0.0
 10
54.9011721267
 20
35.37095445
 30
0.0
 10
54.8195789316
 20
35.1745879876
 30
0.0
  0
SPLINE
  5
2F7
100
AcDbEntity
  8
0
100
AcDbSpline
 62
7
  6
CONTINUOUS
 70
0
 71
3
 72
25
 73
21
 74
0
 42
0.0000001
 43
0.0000001
 44
0.0000000001
 40
0.0
 40
0.0
 40
0.0
 40
0.0
 40
0.0312549725
 40
0.0468905158
 40
0.0625188245
 40
0.0937647552
 40
0.1250106067
 40
0.1562571246
 40
0.1875073299
 40
0.2500177011
 40
0.312521279
 40
0.3750195934
 40
0.437518875
 40
0.5000200414
 40
0.6250161553
 40
0.750010464
 40
0.8125093667
 40
0.8750065178
 40
0.9375037092
 40
1.0
 40
1.0
 40
1.0
 40
1.0
 10
52.733121486
 20
31.718195928
 30
0.0
 10
52.8014534843
 20
31.8175432661
 30
0.0
 10
52.8967034932
 20
31.9716077079
 30
0.0
 10
53.0149408557
 20
32.1818177143
 30
0.0
 10
53.1290109018
 20
32.3943126004
 30
0.0
 10
53.2640576339
 20
32.6638103828
 30
0.0
 10
53.416356475
 20
32.9918510065
 30
0.0
 10
53.561190774
 20
33.3232604166
 30
0.0
 10
53.7455026377
 20
33.7689441907
 30
0.0
 10
53.9614879114
 20
34.3318755742
 30
0.0
 10
54.204686376
 20
35.0132255713
 30
0.0
 10
54.4335166253
 20
35.6994886178
 30
0.0
 10
54.6496101955
 20
36.3898468047
 30
0.0
 10
54.9222366118
 20
37.3150087069
 30
0.0
 10
55.2368321324
 20
38.4789968085
 30
0.0
 10
55.5164061317
 20
39.6518780011
 30
0.0
 10
55.719019793
 20
40.5948243139
 30
0.0
 10
55.8593459956
 20
41.3044497979
 30
0.0
 10
55.9870305392
 20
42.0164480549
 30
0.0
 10
56.0626291796
 20
42.4927457373
 30
0.0
 10
56.0974852451
 20
42.7313170544
 30
0.0
  0
SPLINE
  5
2F8
100
AcDbEntity
  8
0
100
AcDbSpline
 62
7
  6
CONTINUOUS
 70
0
 71
3
 72
22
 73
18
 74
0
 42
0.0000001
 43
0.0000001
 44
0.0000000001
 40
0.0
 40
0.0
 40
0.0
 40
0.0
 40
0.0302401167
 40
0.0610588575
 40
0.0920194408
 40
0.1230955887
 40
0.1542414822
 40
0.1854357275
 40
0.247938162
 40
0.3105365528
 40
0.3731724008
 40
0.4358399449
 40
0.4985318675
 40
0.6239414335
 40
0.7493556149
 40
0.8747338166
 40
1.0
 40
1.0
 40
1.0
 40
1.0
 10
52.3222393326
 20
32.0011895688
 30
0.0
 10
52.3867242616
 20
32.0947966185
 30
0.0
 10
52.5068480801
 20
32.2907001892
 30
0.0
 10
52.6722656546
 20
32.5945170032
 30
0.0
 10
52.8281848162
 20
32.9068707259
 30
0.0
 10
52.9752043907
 20
33.2248221286
 30
0.0
 10
53.1154959368
 20
33.5467457897
 30
0.0
 10
53.2945496436
 20
33.9805376917
 30
0.0
 10
53.5049377763
 20
34.5291607242
 30
0.0
 10
53.7424401639
 20
35.1937206804
 30
0.0
 10
53.9663739639
 20
35.863628855
 30
0.0
 10
54.1782148569
 20
36.5378161927
 30
0.0
 10
54.4459491922
 20
37.4416355545
 30
0.0
 10
54.7555706346
 20
38.5788900675
 30
0.0
 10
55.0869522786
 20
39.9538156343
 30
0.0
 10
55.3776934319
 20
41.3373465139
 30
0.0
 10
55.539942484
 20
42.2657194445
 30
0.0
 10
55.6102548462
 20
42.7312997181
 30
0.0
  0
SPLINE
  5
2F9
100
AcDbEntity
  8
0
100
AcDbSpline
 62
7
  6
CONTINUOUS
 70
0
 71
3
 72
10
 73
6
 74
0
 42
0.0000001
 43
0.0000001
 44
0.0000000001
 40
0.0
 40
0.0
 40
0.0
 40
0.0
 40
0.2495767038
 40
0.4994511502
 40
1.0
 40
1.0
 40
1.0
 40
1.0
 10
57.083052403
 20
42.251199998
 30
0.0
 10
57.0293114354
 20
42.0210647706
 30
0.0
 10
56.9171011772
 20
41.5615982002
 30
0.0
 10
56.6765374073
 20
40.6457244698
 30
0.0
 10
56.4795432211
 20
39.9628475001
 30
0.0
 10
56.3419860128
 20
39.5092726911
 30
0.0
  0
SPLINE
  5
2FA
100
AcDbEntity
  8
0
100
AcDbSpline
 62
7
  6
CONTINUOUS
 70
0
 71
3
 72
10
 73
6
 74
0
 42
0.0000001
 43
0.0000001
 44
0.0000000001
 40
0.0
 40
0.0
 40
0.0
 40
0.0
 40
0.2500037544
 40
0.5000065209
 40
1.0
 40
1.0
 40
1.0
 40
1.0
 10
56.7123125157
 20
42.2510958541
 30
0.0
 10
56.6648237027
 20
42.0246690886
 30
0.0
 10
56.5653230143
 20
41.5727549006
 30
0.0
 10
56.3509098305
 20
40.6725092256
 30
0.0
 10
56.1741288153
 20
40.0012173409
 30
0.0
 10
56.0502807516
 20
39.5554071652
 30
0.0
  0
SPLINE
  5
2FB
100
AcDbEntity
  8
0
100
AcDbSpline
 62
7
  6
CONTINUOUS
 70
0
 71
3
 72
10
 73
6
 74
0
 42
0.0000001
 43
0.0000001
 44
0.0000000001
 40
0.0
 40
0.0
 40
0.0
 40
0.0
 40
0.4999930937
 40
0.7499972206
 40
1.0
 40
1.0
 40
1.0
 40
1.0
 10
56.0817379205
 20
39.5258982309
 30
0.0
 10
56.2086743452
 20
39.9765766999
 30
0.0
 10
56.3898998399
 20
40.6552610585
 30
0.0
 10
56.6099495279
 20
41.565510256
 30
0.0
 10
56.712028065
 20
42.0225093625
 30
0.0
 10
56.7607736664
 20
42.2514909854
 30
0.0
  0
LINE
  5
2FC
100
AcDbEntity
  8
0
100
AcDbLine
 62
7
  6
CONTINUOUS
 10
55.906358613
 20
39.5926111168
 11
55.5670372923
 21
39.68967187
  0
SPLINE
  5
2FD
100
AcDbEntity
  8
0
100
AcDbSpline
 62
7
  6
CONTINUOUS
 70
0
 71
3
 72
14
 73
10
 74
0
 42
0.0000001
 43
0.0000001
 44
0.0000000001
 40
0.0
 40
0.0
 40
0.0
 40
0.0
 40
0.0398827708
 40
0.1106175543
 40
0.2101204249
 40
0.3350070674
 40
0.4813838703
 40
0.6446647128
 40
1.0
 40
1.0
 40
1.0
 40
1.0
 10
56.0502696437
 20
39.5554066418
 30
0.0
 10
56.0482958992
 20
39.5555177361
 30
0.0
 10
56.0428892146
 20
39.5565577744
 30
0.0
 10
56.0327156153
 20
39.5587213869
 30
0.0
 10
56.0184921794
 20
39.5621737899
 30
0.0
 10
56.0006805163
 20
39.5666894251
 30
0.0
 10
55.9798525657
 20
39.5721831523
 30
0.0
 10
55.9480390713
 20
39.5808062467
 30
0.0
 10
55.9232896933
 20
39.5877580063
 30
0.0
 10
55.9063584913
 20
39.5926106921
 30
0.0
  0
SPLINE
  5
2FE
100
AcDbEntity
  8
0
100
AcDbSpline
 62
7
  6
CONTINUOUS
 70
0
 71
3
 72
9
 73
5
 74
0
 42
0.0000001
 43
0.0000001
 44
0.0000000001
 40
0.0
 40
0.0
 40
0.0
 40
0.0
 40
0.2500570584
 40
1.0
 40
1.0
 40
1.0
 40
1.0
 10
55.9065480182
 20
39.5925584446
 30
0.0
 10
55.9677026142
 20
39.8124656525
 30
0.0
 10
56.2065702065
 20
40.6934483415
 30
0.0
 10
56.4201138696
 20
41.5814506683
 30
0.0
 10
56.5613372729
 20
42.251273229
 30
0.0
  0
SPLINE
  5
2FF
100
AcDbEntity
  8
0
100
AcDbSpline
 62
7
  6
CONTINUOUS
 70
0
 71
3
 72
12
 73
8
 74
0
 42
0.0000001
 43
0.0000001
 44
0.0000000001
 40
0.0
 40
0.0
 40
0.0
 40
0.0
 40
0.4263410181
 40
0.7453429736
 40
0.8580144417
 40
0.9379660398
 40
1.0
 40
1.0
 40
1.0
 40
1.0
 10
54.2429160486
 20
33.8389003592
 30
0.0
 10
54.2251592246
 20
33.7997897503
 30
0.0
 10
54.1932630409
 20
33.730061987
 30
0.0
 10
54.1589285078
 20
33.6557195096
 30
0.0
 10
54.1345678258
 20
33.6034671101
 30
0.0
 10
54.1282573944
 20
33.5897870162
 30
0.0
 10
54.1136614058
 20
33.5587941907
 30
0.0
 10
54.1163702255
 20
33.5644264125
 30
0.0
  0
SPLINE
  5
300
100
AcDbEntity
  8
0
100
AcDbSpline
 62
7
  6
CONTINUOUS
 70
0
 71
3
 72
16
 73
12
 74
0
 42
0.0000001
 43
0.0000001
 44
0.0000000001
 40
0.0
 40
0.0
 40
0.0
 40
0.0
 40
0.0275835172
 40
0.0533418404
 40
0.1115824553
 40
0.1919145844
 40
0.298521966
 40
0.4318689446
 40
0.5928161003
 40
0.7820405681
 40
1.0
 40
1.0
 40
1.0
 40
1.0
 10
53.8331704079
 20
33.5711368073
 30
0.0
 10
53.8321824137
 20
33.5710121248
 30
0.0
 10
53.8302137362
 20
33.5710306872
 30
0.0
 10
53.8263923083
 20
33.572607043
 30
0.0
 10
53.8227888353
 20
33.5777509381
 30
0.0
 10
53.8205909095
 20
33.5863508739
 30
0.0
 10
53.8195052035
 20
33.5979039857
 30
0.0
 10
53.8196202699
 20
33.61238814
 30
0.0
 10
53.8209182521
 20
33.6298062674
 30
0.0
 10
53.8234253169
 20
33.6501685182
 30
0.0
 10
53.8257405847
 20
33.664688219
 30
0.0
 10
53.8270795196
 20
33.6724423206
 30
0.0
  0
SPLINE
  5
301
100
AcDbEntity
  8
0
100
AcDbSpline
 62
7
  6
CONTINUOUS
 70
0
 71
3
 72
9
 73
5
 74
0
 42
0.0000001
 43
0.0000001
 44
0.0000000001
 40
0.0
 40
0.0
 40
0.0
 40
0.0
 40
0.2252908254
 40
1.0
 40
1.0
 40
1.0
 40
1.0
 10
53.8287697948
 20
33.6819423158
 30
0.0
 10
53.8298687214
 20
33.6879500257
 30
0.0
 10
53.8349802094
 20
33.7145737827
 30
0.0
 10
53.8408561087
 20
33.7410456504
 30
0.0
 10
53.8456302847
 20
33.7614973345
 30
0.0
  0
SPLINE
  5
302
100
AcDbEntity
  8
0
100
AcDbSpline
 62
7
  6
CONTINUOUS
 70
0
 71
3
 72
12
 73
8
 74
0
 42
0.0000001
 43
0.0000001
 44
0.0000000001
 40
0.0
 40
0.0
 40
0.0
 40
0.0
 40
0.0914853003
 40
0.1969683561
 40
0.4408371399
 40
0.7139395473
 40
1.0
 40
1.0
 40
1.0
 40
1.0
 10
53.8703563296
 20
33.8607060346
 30
0.0
 10
53.8819170567
 20
33.9048661955
 30
0.0
 10
53.9079623626
 20
33.9996406686
 30
0.0
 10
53.9693142948
 20
34.2108792362
 30
0.0
 10
54.0604291505
 20
34.507814848
 30
0.0
 10
54.1826913524
 20
34.8894038944
 30
0.0
 10
54.2721284839
 20
35.1537051379
 30
0.0
 10
54.319145904
 20
35.2884743124
 30
0.0
  0
SPLINE
  5
303
100
AcDbEntity
  8
0
100
AcDbSpline
 62
7
  6
CONTINUOUS
 70
0
 71
3
 72
9
 73
5
 74
0
 42
0.0000001
 43
0.0000001
 44
0.0000000001
 40
0.0
 40
0.0
 40
0.0
 40
0.0
 40
0.2554305591
 40
1.0
 40
1.0
 40
1.0
 40
1.0
 10
54.3685342948
 20
35.4285232583
 30
0.0
 10
54.380434862
 20
35.4618982321
 30
0.0
 10
54.4273670418
 20
35.5924369059
 30
0.0
 10
54.4758547103
 20
35.722422393
 30
0.0
 10
54.5131999298
 20
35.8187208918
 30
0.0
  0
SPLINE
  5
304
100
AcDbEntity
  8
0
100
AcDbSpline
 62
7
  6
CONTINUOUS
 70
0
 71
3
 72
9
 73
5
 74
0
 42
0.0000001
 43
0.0000001
 44
0.0000000001
 40
0.0
 40
0.0
 40
0.0
 40
0.0
 40
0.5239292014
 40
1.0
 40
1.0
 40
1.0
 40
1.0
 10
54.5903286766
 20
36.0121567328
 30
0.0
 10
54.6161898424
 20
36.0751248844
 30
0.0
 10
54.6668538759
 20
36.1947777655
 30
0.0
 10
54.7205038308
 20
36.3131350645
 30
0.0
 10
54.7470820594
 20
36.3689875623
 30
0.0
  0
SPLINE
  5
305
100
AcDbEntity
  8
0
100
AcDbSpline
 62
7
  6
CONTINUOUS
 70
0
 71
3
 72
9
 73
5
 74
0
 42
0.0000001
 43
0.0000001
 44
0.0000000001
 40
0.0
 40
0.0
 40
0.0
 40
0.0
 40
0.2674896617
 40
1.0
 40
1.0
 40
1.0
 40
1.0
 10
54.7470820594
 20
36.3689875623
 30
0.0
 10
54.7539829444
 20
36.3834893437
 30
0.0
 10
54.7800519957
 20
36.4375732734
 30
0.0
 10
54.8073177587
 20
36.4910905771
 30
0.0
 10
54.8282491114
 20
36.529769963
 30
0.0
  0
SPLINE
  5
306
100
AcDbEntity
  8
0
100
AcDbSpline
 62
7
  6
CONTINUOUS
 70
0
 71
3
 72
9
 73
5
 74
0
 42
0.0000001
 43
0.0000001
 44
0.0000000001
 40
0.0
 40
0.0
 40
0.0
 40
0.0
 40
0.2676286646
 40
1.0
 40
1.0
 40
1.0
 40
1.0
 10
54.8282491114
 20
36.529769963
 30
0.0
 10
54.8332538551
 20
36.5390183102
 30
0.0
 10
54.8521615915
 20
36.5734614303
 30
0.0
 10
54.8719151502
 20
36.6074467849
 30
0.0
 10
54.8870151133
 20
36.6319431064
 30
0.0
  0
SPLINE
  5
307
100
AcDbEntity
  8
0
100
AcDbSpline
 62
7
  6
CONTINUOUS
 70
0
 71
3
 72
9
 73
5
 74
0
 42
0.0000001
 43
0.0000001
 44
0.0000000001
 40
0.0
 40
0.0
 40
0.0
 40
0.0
 40
0.2684938486
 40
1.0
 40
1.0
 40
1.0
 40
1.0
 10
54.8893837551
 20
36.6357737489
 30
0.0
 10
54.8930313631
 20
36.6416543134
 30
0.0
 10
54.9067609486
 20
36.6634652974
 30
0.0
 10
54.921090576
 20
36.6849084423
 30
0.0
 10
54.9320932773
 20
36.7002182106
 30
0.0
  0
SPLINE
  5
308
100
AcDbEntity
  8
0
100
AcDbSpline
 62
7
  6
CONTINUOUS
 70
0
 71
3
 72
11
 73
7
 74
0
 42
0.0000001
 43
0.0000001
 44
0.0000000001
 40
0.0
 40
0.0
 40
0.0
 40
0.0
 40
0.3589758541
 40
0.6374883054
 40
0.8448716307
 40
1.0
 40
1.0
 40
1.0
 40
1.0
 10
54.9320932773
 20
36.7002182106
 30
0.0
 10
54.9418050604
 20
36.7137317237
 30
0.0
 10
54.959734642
 20
36.7372691476
 30
0.0
 10
54.9868659853
 20
36.7657006601
 30
0.0
 10
55.0109724233
 20
36.7834096927
 30
0.0
 10
55.027101565
 20
36.7893769539
 30
0.0
 10
55.0342301382
 20
36.7903255305
 30
0.0
  0
SPLINE
  5
309
100
AcDbEntity
  8
0
100
AcDbSpline
 62
7
  6
CONTINUOUS
 70
0
 71
3
 72
11
 73
7
 74
0
 42
0.0000001
 43
0.0000001
 44
0.0000000001
 40
0.0
 40
0.0
 40
0.0
 40
0.0
 40
0.1228706514
 40
0.3265312919
 40
0.6184411404
 40
1.0
 40
1.0
 40
1.0
 40
1.0
 10
53.8492555435
 20
33.851318155
 30
0.0
 10
53.850898863
 20
33.8513282995
 30
0.0
 10
53.8550073827
 20
33.8534940582
 30
0.0
 10
53.861185491
 20
33.8588382514
 30
0.0
 10
53.8692317957
 20
33.8674730041
 30
0.0
 10
53.8749265501
 20
33.8744340999
 30
0.0
 10
53.8780894355
 20
33.8784389639
 30
0.0
  0
SPLINE
  5
30A
100
AcDbEntity
  8
0
100
AcDbSpline
 62
7
  6
CONTINUOUS
 70
0
 71
3
 72
35
 73
31
 74
0
 42
0.0000001
 43
0.0000001
 44
0.0000000001
 40
0.0
 40
0.0
 40
0.0
 40
0.0
 40
0.0130570738
 40
0.0303476226
 40
0.0516131395
 40
0.0765476163
 40
0.1361115626
 40
0.2064236602
 40
0.2849902875
 40
0.369386768
 40
0.5464445395
 40
0.6344721078
 40
0.7188590826
 40
0.758863921
 40
0.7969290674
 40
0.8326910198
 40
0.8657874775
 40
0.8958603155
 40
0.9225568691
 40
0.9455572083
 40
0.9555855604
 40
0.9645890145
 40
0.9725438551
 40
0.9794355297
 40
0.9852539162
 40
0.98999708
 40
0.9936868727
 40
0.9963993789
 40
0.9983341163
 40
1.0
 40
1.0
 40
1.0
 40
1.0
 10
53.8780894355
 20
33.8784389639
 30
0.0
 10
53.8863793531
 20
33.8889357059
 30
0.0
 10
53.9045817567
 20
33.9141640567
 30
0.0
 10
53.9339148743
 20
33.9581549928
 30
0.0
 10
53.9686258319
 20
34.0131651069
 30
0.0
 10
54.0247933405
 20
34.1058159141
 30
0.0
 10
54.1040527566
 20
34.2431959882
 30
0.0
 10
54.207012327
 20
34.4302706145
 30
0.0
 10
54.3187184081
 20
34.6415311826
 30
0.0
 10
54.4768558042
 20
34.9518873563
 30
0.0
 10
54.6325281652
 20
35.2743421263
 30
0.0
 10
54.7811157732
 20
35.6000553161
 30
0.0
 10
54.86833261
 20
35.7994247652
 30
0.0
 10
54.9329392236
 20
35.9527935123
 30
0.0
 10
54.9771527606
 20
36.0606967268
 30
0.0
 10
55.0175636289
 20
36.1625034956
 30
0.0
 10
55.0537338385
 20
36.2571764992
 30
0.0
 10
55.0852624241
 20
36.3436715722
 30
0.0
 10
55.1117837138
 20
36.4209687515
 30
0.0
 10
55.1302179621
 20
36.47931822
 30
0.0
 10
55.1420785023
 20
36.5207123766
 30
0.0
 10
55.149119357
 20
36.5474481902
 30
0.0
 10
55.154704089
 20
36.57123698
 30
0.0
 10
55.1588271815
 20
36.5920053451
 30
0.0
 10
55.161484425
 20
36.6096967621
 30
0.0
 10
55.1626930451
 20
36.6242548024
 30
0.0
 10
55.1624430626
 20
36.6357181029
 30
0.0
 10
55.1608248592
 20
36.6441244703
 30
0.0
 10
55.1574208392
 20
36.6500172345
 30
0.0
 10
55.1535845817
 20
36.6513018781
 30
0.0
 10
55.1518780747
 20
36.6513058572
 30
0.0
  0
SPLINE
  5
30B
100
AcDbEntity
  8
0
100
AcDbSpline
 62
7
  6
CONTINUOUS
 70
0
 71
3
 72
46
 73
42
 74
0
 42
0.0000001
 43
0.0000001
 44
0.0000000001
 40
0.0
 40
0.0
 40
0.0
 40
0.0
 40
0.0007957778
 40
0.0016226796
 40
0.0025757978
 40
0.0037234059
 40
0.0067552696
 40
0.0109228471
 40
0.0163052612
 40
0.0229052689
 40
0.0307067207
 40
0.0396868912
 40
0.049816715
 40
0.0610629679
 40
0.0867639942
 40
0.1164505294
 40
0.1497128652
 40
0.1861461118
 40
0.2253489156
 40
0.3103153701
 40
0.4011672843
 40
0.4947582805
 40
0.588196513
 40
0.6786731617
 40
0.7219561178
 40
0.7634566286
 40
0.8028051701
 40
0.8396417848
 40
0.8736084019
 40
0.9043197214
 40
0.9313759661
 40
0.9543830939
 40
0.9642470201
 40
0.9729641433
 40
0.980514118
 40
0.9868793748
 40
0.9920431156
 40
0.9959611577
 40
0.9985819
 40
0.9994188546
 40
1.0
 40
1.0
 40
1.0
 40
1.0
 10
55.3398579765
 20
36.7845638688
 30
0.0
 10
55.3407789488
 20
36.7844498449
 30
0.0
 10
55.3426390788
 20
36.7838873661
 30
0.0
 10
55.3450299095
 20
36.7819714783
 30
0.0
 10
55.346940971
 20
36.7790957873
 30
0.0
 10
55.3491108064
 20
36.7734847746
 30
0.0
 10
55.3504495385
 20
36.7637483829
 30
0.0
 10
55.3503824089
 20
36.7490683302
 30
0.0
 10
55.3486548948
 20
36.7302920656
 30
0.0
 10
55.3452817463
 20
36.7074640642
 30
0.0
 10
55.3402479938
 20
36.6806598846
 30
0.0
 10
55.3335660341
 20
36.6499934351
 30
0.0
 10
55.3252552517
 20
36.6155800335
 30
0.0
 10
55.3114064358
 20
36.5624536869
 30
0.0
 10
55.2900786502
 20
36.4877221887
 30
0.0
 10
55.2596257331
 20
36.3889241589
 30
0.0
 10
55.2236753001
 20
36.2787409594
 30
0.0
 10
55.1826704164
 20
36.1585469296
 30
0.0
 10
55.1201686626
 20
35.9819920475
 30
0.0
 10
55.0329140191
 20
35.7468978331
 30
0.0
 10
54.9188794703
 20
35.4541374909
 30
0.0
 10
54.7968641565
 20
35.1539200099
 30
0.0
 10
54.6707923068
 20
34.8558597234
 30
0.0
 10
54.5641754579
 20
34.6132983153
 30
0.0
 10
54.4798783624
 20
34.4271092785
 30
0.0
 10
54.4191821446
 20
34.2956893009
 30
0.0
 10
54.3606420828
 20
34.1715587901
 30
0.0
 10
54.3048453371
 20
34.0558532816
 30
0.0
 10
54.2523878673
 20
33.9497258137
 30
0.0
 10
54.2039277081
 20
33.8543517607
 30
0.0
 10
54.1601497492
 20
33.7709434063
 30
0.0
 10
54.12665414
 20
33.7096028497
 30
0.0
 10
54.1026317064
 20
33.6674699452
 30
0.0
 10
54.087145372
 20
33.6412245778
 30
0.0
 10
54.0733044194
 20
33.6187473294
 30
0.0
 10
54.0611575433
 20
33.6001093831
 30
0.0
 10
54.0507825392
 20
33.5853584606
 30
0.0
 10
54.0422991756
 20
33.5746986173
 30
0.0
 10
54.0362423761
 20
33.5684625213
 30
0.0
 10
54.0322389887
 20
33.5659621261
 30
0.0
 10
54.0305136692
 20
33.5656279547
 30
0.0
 10
54.0298524997
 20
33.5657767616
 30
0.0
  0
SPLINE
  5
30C
100
AcDbEntity
  8
0
100
AcDbSpline
 62
7
  6
CONTINUOUS
 70
0
 71
3
 72
10
 73
6
 74
0
 42
0.0000001
 43
0.0000001
 44
0.0000000001
 40
0.0
 40
0.0
 40
0.0
 40
0.0
 40
0.2495629265
 40
0.4994334163
 40
1.0
 40
1.0
 40
1.0
 40
1.0
 10
36.3180457221
 20
99.4612826882
 30
0.0
 10
36.2637112177
 20
99.6916266039
 30
0.0
 10
36.1503053267
 20
100.1515075084
 30
0.0
 10
35.9073293056
 20
101.0682028063
 30
0.0
 10
35.7085111402
 20
101.7516665968
 30
0.0
 10
35.5697307749
 20
102.2056242025
 30
0.0
  0
SPLINE
  5
30D
100
AcDbEntity
  8
0
100
AcDbSpline
 62
7
  6
CONTINUOUS
 70
0
 71
3
 72
9
 73
5
 74
0
 42
0.0000001
 43
0.0000001
 44
0.0000000001
 40
0.0
 40
0.0
 40
0.0
 40
0.0
 40
0.4999989509
 40
1.0
 40
1.0
 40
1.0
 40
1.0
 10
35.2775475763
 20
99.4608638823
 30
0.0
 10
35.2039939188
 20
99.9082989494
 30
0.0
 10
35.0392395174
 20
100.8003173454
 30
0.0
 10
34.8462902272
 20
101.6865753189
 30
0.0
 10
34.7436933846
 20
102.1282583425
 30
0.0
  0
SPLINE
  5
30E
100
AcDbEntity
  8
0
100
AcDbSpline
 62
7
  6
CONTINUOUS
 70
0
 71
3
 72
46
 73
42
 74
0
 42
0.0000001
 43
0.0000001
 44
0.0000000001
 40
0.0
 40
0.0
 40
0.0
 40
0.0
 40
0.0012426928
 40
0.0023861693
 40
0.0038967979
 40
0.0057567074
 40
0.0079410411
 40
0.0131881605
 40
0.0195759707
 40
0.0271150754
 40
0.0456714102
 40
0.0686765177
 40
0.0957173935
 40
0.1263969428
 40
0.1603489693
 40
0.1971948177
 40
0.2365439858
 40
0.2780231969
 40
0.3212736164
 40
0.4117190132
 40
0.5051613325
 40
0.5987590971
 40
0.6895747142
 40
0.7745536141
 40
0.8137939105
 40
0.8502748847
 40
0.8835500991
 40
0.9132206953
 40
0.9389193879
 40
0.9501735363
 40
0.9603115642
 40
0.969295842
 40
0.9770968554
 40
0.9836938924
 40
0.9890727849
 40
0.993239348
 40
0.9962739287
 40
0.9974230289
 40
0.998377106
 40
0.9992042491
 40
1.0
 40
1.0
 40
1.0
 40
1.0
 10
33.2298500781
 20
108.1468474343
 30
0.0
 10
33.2310269834
 20
108.1476931311
 30
0.0
 10
33.2343432987
 20
108.1460183212
 30
0.0
 10
33.2374653382
 20
108.1431799173
 30
0.0
 10
33.2411856325
 20
108.1392851565
 30
0.0
 10
33.2452872577
 20
108.1343211986
 30
0.0
 10
33.2518945332
 20
108.1257081028
 30
0.0
 10
33.2611335938
 20
108.1125088794
 30
0.0
 10
33.2733436381
 20
108.0937678813
 30
0.0
 10
33.2932099041
 20
108.0615109252
 30
0.0
 10
33.321795243
 20
108.0118816872
 30
0.0
 10
33.3601511737
 20
107.9416671531
 30
0.0
 10
33.4039055171
 20
107.8583050857
 30
0.0
 10
33.4523441061
 20
107.7629957618
 30
0.0
 10
33.504782408
 20
107.6569009413
 30
0.0
 10
33.56057906
 20
107.5411950701
 30
0.0
 10
33.6191141206
 20
107.4170700268
 30
0.0
 10
33.6797887181
 20
107.2857011733
 30
0.0
 10
33.7640572136
 20
107.0995979353
 30
0.0
 10
33.8706585349
 20
106.8570922975
 30
0.0
 10
33.9966912473
 20
106.5590256621
 30
0.0
 10
34.118778092
 20
106.258853308
 30
0.0
 10
34.2327681542
 20
105.9660812981
 30
0.0
 10
34.320035681
 20
105.7309630234
 30
0.0
 10
34.3825872909
 20
105.554295941
 30
0.0
 10
34.4236467574
 20
105.4339935411
 30
0.0
 10
34.4596175585
 20
105.3237565606
 30
0.0
 10
34.4900621126
 20
105.2249575503
 30
0.0
 10
34.5113822216
 20
105.1502328733
 30
0.0
 10
34.5252407867
 20
105.097089925
 30
0.0
 10
34.5335622465
 20
105.0626531969
 30
0.0
 10
34.5402501633
 20
105.0319723896
 30
0.0
 10
34.545284279
 20
105.0051661564
 30
0.0
 10
34.5486542664
 20
104.982344768
 30
0.0
 10
34.5503772456
 20
104.9635759644
 30
0.0
 10
34.5504403007
 20
104.9488973785
 30
0.0
 10
34.549104799
 20
104.9391570059
 30
0.0
 10
34.5469393418
 20
104.9335377113
 30
0.0
 10
34.5450310979
 20
104.9306562494
 30
0.0
 10
34.5426413553
 20
104.9287359956
 30
0.0
 10
34.5407801336
 20
104.9281740408
 30
0.0
 10
34.5398589907
 20
104.9280613126
 30
0.0
  0
SPLINE
  5
30F
100
AcDbEntity
  8
0
100
AcDbSpline
 62
7
  6
CONTINUOUS
 70
0
 71
3
 72
14
 73
10
 74
0
 42
0.0000001
 43
0.0000001
 44
0.0000000001
 40
0.0
 40
0.0
 40
0.0
 40
0.0
 40
0.3553430507
 40
0.5186232634
 40
0.6650006678
 40
0.7898917204
 40
0.8893953883
 40
0.9601223199
 40
1.0
 40
1.0
 40
1.0
 40
1.0
 10
35.1063709097
 20
102.1200181235
 30
0.0
 10
35.1233006798
 20
102.1248702692
 30
0.0
 10
35.1480477623
 20
102.1318211988
 30
0.0
 10
35.1798582311
 20
102.1404432584
 30
0.0
 10
35.2006841638
 20
102.145936325
 30
0.0
 10
35.2184941878
 20
102.1504514952
 30
0.0
 10
35.232715962
 20
102.1539034397
 30
0.0
 10
35.2428878947
 20
102.1560666336
 30
0.0
 10
35.2482933941
 20
102.1571061916
 30
0.0
 10
35.2502666722
 20
102.1572172668
 30
0.0
  0
LINE
  5
310
100
AcDbEntity
  8
0
100
AcDbLine
 62
7
  6
CONTINUOUS
 10
34.7671424756
 20
102.0229848803
 11
35.1063710796
 21
102.1200175308
  0
SPLINE
  5
311
100
AcDbEntity
  8
0
100
AcDbSpline
 62
7
  6
CONTINUOUS
 70
0
 71
3
 72
9
 73
5
 74
0
 42
0.0000001
 43
0.0000001
 44
0.0000000001
 40
0.0
 40
0.0
 40
0.0
 40
0.0
 40
0.4999480619
 40
1.0
 40
1.0
 40
1.0
 40
1.0
 10
35.7613212739
 20
99.4613389288
 30
0.0
 10
35.6671696367
 20
99.9078906785
 30
0.0
 10
35.4614488046
 20
100.7974589461
 30
0.0
 10
35.2287856298
 20
101.6802741478
 30
0.0
 10
35.1064791806
 20
102.120047595
 30
0.0
  0
SPLINE
  5
312
100
AcDbEntity
  8
0
100
AcDbSpline
 62
7
  6
CONTINUOUS
 70
0
 71
3
 72
22
 73
18
 74
0
 42
0.0000001
 43
0.0000001
 44
0.0000000001
 40
0.0
 40
0.0
 40
0.0
 40
0.0
 40
0.1252624209
 40
0.2506377657
 40
0.3760484889
 40
0.50145457
 40
0.5641448923
 40
0.6268108168
 40
0.6894450539
 40
0.7520421707
 40
0.8145428539
 40
0.8457361374
 40
0.8768811891
 40
0.9079564314
 40
0.9389141916
 40
0.9697312446
 40
1.0
 40
1.0
 40
1.0
 40
1.0
 10
34.8102645099
 20
98.9813271862
 30
0.0
 10
34.7399713721
 20
99.4468942749
 30
0.0
 10
34.5776568722
 20
100.3752275512
 30
0.0
 10
34.2869624219
 20
101.7587226856
 30
0.0
 10
33.955603616
 20
103.1336110032
 30
0.0
 10
33.6459992448
 20
104.2708322448
 30
0.0
 10
33.3782724863
 20
105.1746239176
 30
0.0
 10
33.1664359643
 20
105.8487908236
 30
0.0
 10
32.9425066921
 20
106.5186798401
 30
0.0
 10
32.7050147242
 20
107.183222179
 30
0.0
 10
32.4946390422
 20
107.7318314897
 30
0.0
 10
32.3156013608
 20
108.1656136441
 30
0.0
 10
32.1753243943
 20
108.4875310228
 30
0.0
 10
32.0283243513
 20
108.8054713397
 30
0.0
 10
31.8724137205
 20
109.1178045555
 30
0.0
 10
31.7068636135
 20
109.4216572799
 30
0.0
 10
31.5866710303
 20
109.6176206835
 30
0.0
 10
31.5222807751
 20
109.7114229654
 30
0.0
  0
SPLINE
  5
313
100
AcDbEntity
  8
0
100
AcDbSpline
 62
7
  6
CONTINUOUS
 70
0
 71
3
 72
10
 73
6
 74
0
 42
0.0000001
 43
0.0000001
 44
0.0000000001
 40
0.0
 40
0.0
 40
0.0
 40
0.0
 40
0.5005486885
 40
0.7504232094
 40
1.0
 40
1.0
 40
1.0
 40
1.0
 10
35.5419855558
 20
102.2033617775
 30
0.0
 10
35.6795419317
 20
101.7497877531
 30
0.0
 10
35.8765345031
 20
101.0669117222
 30
0.0
 10
36.1170986921
 20
100.1510398627
 30
0.0
 10
36.2293115517
 20
99.6915746361
 30
0.0
 10
36.2830533068
 20
99.4614399383
 30
0.0
  0
SPLINE
  5
314
100
AcDbEntity
  8
0
100
AcDbSpline
 62
7
  6
CONTINUOUS
 70
0
 71
3
 72
15
 73
11
 74
0
 42
0.0000001
 43
0.0000001
 44
0.0000000001
 40
0.0
 40
0.0
 40
0.0
 40
0.0
 40
0.0545887547
 40
0.1149075139
 40
0.1941586883
 40
0.2985442415
 40
0.4307279892
 40
0.591712494
 40
0.7815595511
 40
1.0
 40
1.0
 40
1.0
 40
1.0
 10
33.0331627276
 20
108.1414873343
 30
0.0
 10
33.0314019115
 20
108.1414491247
 30
0.0
 10
33.0276004816
 20
108.1403243235
 30
0.0
 10
33.0235514488
 20
108.1352128086
 30
0.0
 10
33.0210503412
 20
108.1276844284
 30
0.0
 10
33.0196739253
 20
108.1175505328
 30
0.0
 10
33.019438403
 20
108.1047095905
 30
0.0
 10
33.020319076
 20
108.0891408488
 30
0.0
 10
33.0223017308
 20
108.070875905
 30
0.0
 10
33.0242112536
 20
108.057839556
 30
0.0
 10
33.0253242093
 20
108.0508803097
 30
0.0
  0
SPLINE
  5
315
100
AcDbEntity
  8
0
100
AcDbSpline
 62
7
  6
CONTINUOUS
 70
0
 71
3
 72
9
 73
5
 74
0
 42
0.0000001
 43
0.0000001
 44
0.0000000001
 40
0.0
 40
0.0
 40
0.0
 40
0.0
 40
0.4560930367
 40
1.0
 40
1.0
 40
1.0
 40
1.0
 10
33.0262719359
 20
108.045088406
 30
0.0
 10
33.0289606344
 20
108.029009322
 30
0.0
 10
33.0357948764
 20
107.9939134551
 30
0.0
 10
33.0436951597
 20
107.9590510809
 30
0.0
 10
33.0481793255
 20
107.9401341895
 30
0.0
  0
LINE
  5
316
100
AcDbEntity
  8
0
100
AcDbLine
 62
7
  6
CONTINUOUS
 10
33.0666153802
 20
107.866065782
 11
33.0677794281
 21
107.8615793913
  0
SPLINE
  5
317
100
AcDbEntity
  8
0
100
AcDbSpline
 62
7
  6
CONTINUOUS
 70
0
 71
3
 72
9
 73
5
 74
0
 42
0.0000001
 43
0.0000001
 44
0.0000000001
 40
0.0
 40
0.0
 40
0.0
 40
0.0
 40
0.2293486524
 40
1.0
 40
1.0
 40
1.0
 40
1.0
 10
33.0677794281
 20
107.8615793913
 30
0.0
 10
33.0714643013
 20
107.8474052092
 30
0.0
 10
33.0878086719
 20
107.7856754688
 30
0.0
 10
33.1050576508
 20
107.7241884867
 30
0.0
 10
33.1186140576
 20
107.6768816951
 30
0.0
  0
SPLINE
  5
318
100
AcDbEntity
  8
0
100
AcDbSpline
 62
7
  6
CONTINUOUS
 70
0
 71
3
 72
9
 73
5
 74
0
 42
0.0000001
 43
0.0000001
 44
0.0000000001
 40
0.0
 40
0.0
 40
0.0
 40
0.0
 40
0.2305149824
 40
1.0
 40
1.0
 40
1.0
 40
1.0
 10
33.1363105681
 20
107.615690131
 30
0.0
 10
33.1460101458
 20
107.5824375341
 30
0.0
 10
33.1886007217
 20
107.4383335349
 30
0.0
 10
33.2329536906
 20
107.2947551018
 30
0.0
 10
33.2676601363
 20
107.1844599515
 30
0.0
  0
SPLINE
  5
319
100
AcDbEntity
  8
0
100
AcDbSpline
 62
7
  6
CONTINUOUS
 70
0
 71
3
 72
11
 73
7
 74
0
 42
0.0000001
 43
0.0000001
 44
0.0000000001
 40
0.0
 40
0.0
 40
0.0
 40
0.0
 40
0.2533279086
 40
0.5133334773
 40
0.7666737315
 40
1.0
 40
1.0
 40
1.0
 40
1.0
 10
33.3019258633
 20
107.0762251561
 30
0.0
 10
33.3417366873
 20
106.951230823
 30
0.0
 10
33.424117899
 20
106.6984854151
 30
0.0
 10
33.5535002063
 20
106.3231327317
 30
0.0
 10
33.6858279524
 20
105.9598039195
 30
0.0
 10
33.7790721951
 20
105.7256052935
 30
0.0
 10
33.8261967846
 20
105.6143505176
 30
0.0
  0
SPLINE
  5
31A
100
AcDbEntity
  8
0
100
AcDbSpline
 62
7
  6
CONTINUOUS
 70
0
 71
3
 72
9
 73
5
 74
0
 42
0.0000001
 43
0.0000001
 44
0.0000000001
 40
0.0
 40
0.0
 40
0.0
 40
0.0
 40
0.2609287322
 40
1.0
 40
1.0
 40
1.0
 40
1.0
 10
33.8261967846
 20
105.6143505176
 30
0.0
 10
33.8344917546
 20
105.5947672165
 30
0.0
 10
33.8665667013
 20
105.5198364095
 30
0.0
 10
33.8997142194
 20
105.445360502
 30
0.0
 10
33.925027608
 20
105.3906972905
 30
0.0
  0
SPLINE
  5
31B
100
AcDbEntity
  8
0
100
AcDbSpline
 62
7
  6
CONTINUOUS
 70
0
 71
3
 72
9
 73
5
 74
0
 42
0.0000001
 43
0.0000001
 44
0.0000000001
 40
0.0
 40
0.0
 40
0.0
 40
0.0
 40
0.2773407967
 40
1.0
 40
1.0
 40
1.0
 40
1.0
 10
33.925027608
 20
105.3906972905
 30
0.0
 10
33.9358970863
 20
105.3672251035
 30
0.0
 10
33.9756567313
 20
105.282865206
 30
0.0
 10
34.0180737362
 20
105.1996930556
 30
0.0
 10
34.0513518559
 20
105.1410810619
 30
0.0
  0
SPLINE
  5
31C
100
AcDbEntity
  8
0
100
AcDbSpline
 62
7
  6
CONTINUOUS
 70
0
 71
3
 72
9
 73
5
 74
0
 42
0.0000001
 43
0.0000001
 44
0.0000000001
 40
0.0
 40
0.0
 40
0.0
 40
0.0
 40
0.2671814247
 40
1.0
 40
1.0
 40
1.0
 40
1.0
 10
34.0513518559
 20
105.1410810619
 30
0.0
 10
34.0556789776
 20
105.1334598012
 30
0.0
 10
34.0720476843
 20
105.1050346396
 30
0.0
 10
34.0891182097
 20
105.0770077674
 30
0.0
 10
34.1021582309
 20
105.0568145202
 30
0.0
  0
SPLINE
  5
31D
100
AcDbEntity
  8
0
100
AcDbSpline
 62
7
  6
CONTINUOUS
 70
0
 71
3
 72
9
 73
5
 74
0
 42
0.0000001
 43
0.0000001
 44
0.0000000001
 40
0.0
 40
0.0
 40
0.0
 40
0.0
 40
0.2627749584
 40
1.0
 40
1.0
 40
1.0
 40
1.0
 10
34.1122480679
 20
105.0414371435
 30
0.0
 10
34.114445873
 20
105.0381428285
 30
0.0
 10
34.1228749025
 20
105.0256500564
 30
0.0
 10
34.1315743946
 20
105.0133378901
 30
0.0
 10
34.1381853831
 20
105.00440843
 30
0.0
  0
SPLINE
  5
31E
100
AcDbEntity
  8
0
100
AcDbSpline
 62
7
  6
CONTINUOUS
 70
0
 71
3
 72
12
 73
8
 74
0
 42
0.0000001
 43
0.0000001
 44
0.0000000001
 40
0.0
 40
0.0
 40
0.0
 40
0.0
 40
0.355176153
 40
0.6371050522
 40
0.7511790666
 40
0.8484569403
 40
1.0
 40
1.0
 40
1.0
 40
1.0
 10
34.1381853831
 20
105.00440843
 30
0.0
 10
34.147296533
 20
104.9921020025
 30
0.0
 10
34.1643041229
 20
104.9705021155
 30
0.0
 10
34.1868104722
 20
104.9470796922
 30
0.0
 10
34.2035754958
 20
104.9338786057
 30
0.0
 10
34.2168768001
 20
104.9257455692
 30
0.0
 10
34.2275526589
 20
104.9221764061
 30
0.0
 10
34.2340847391
 20
104.9222988158
 30
0.0
  0
SPLINE
  5
31F
100
AcDbEntity
  8
0
100
AcDbSpline
 62
7
  6
CONTINUOUS
 70
0
 71
3
 72
9
 73
5
 74
0
 42
0.0000001
 43
0.0000001
 44
0.0000000001
 40
0.0
 40
0.0
 40
0.0
 40
0.0
 40
0.5068325524
 40
1.0
 40
1.0
 40
1.0
 40
1.0
 10
34.2340830888
 20
104.9223040156
 30
0.0
 10
34.2262068526
 20
104.947118668
 30
0.0
 10
34.2008012081
 20
104.9934896984
 30
0.0
 10
34.1596860845
 20
105.0266362495
 30
0.0
 10
34.1372829017
 20
105.0384617599
 30
0.0
  0
SPLINE
  5
320
100
AcDbEntity
  8
0
100
AcDbSpline
 62
7
  6
CONTINUOUS
 70
0
 71
3
 72
35
 73
31
 74
0
 42
0.0000001
 43
0.0000001
 44
0.0000000001
 40
0.0
 40
0.0
 40
0.0
 40
0.0
 40
0.001665496
 40
0.0036005422
 40
0.0063136024
 40
0.0100039521
 40
0.0147475877
 40
0.0205663439
 40
0.0274583062
 40
0.0354133756
 40
0.0444170215
 40
0.0544455267
 40
0.0774460218
 40
0.104142479
 40
0.1342149642
 40
0.167310886
 40
0.2030721608
 40
0.2411364949
 40
0.2811403922
 40
0.365525156
 40
0.4535503583
 40
0.6306042766
 40
0.7149997383
 40
0.7935660954
 40
0.8638787908
 40
0.9234444004
 40
0.9483802542
 40
0.9696476011
 40
0.9869404334
 40
1.0
 40
1.0
 40
1.0
 40
1.0
 10
34.3518828774
 20
105.0613181524
 30
0.0
 10
34.3535889714
 20
105.0613228087
 30
0.0
 10
34.3574242365
 20
105.062610035
 30
0.0
 10
34.3608257486
 20
105.0685043245
 30
0.0
 10
34.362443245
 20
105.0769121243
 30
0.0
 10
34.3626924973
 20
105.0883769892
 30
0.0
 10
34.3614833101
 20
105.1029362793
 30
0.0
 10
34.3588254931
 20
105.1206286364
 30
0.0
 10
34.3547018949
 20
105.1413976463
 30
0.0
 10
34.3491167029
 20
105.1651868677
 30
0.0
 10
34.3420754478
 20
105.1919229483
 30
0.0
 10
34.33021449
 20
105.2333171511
 30
0.0
 10
34.3117799611
 20
105.2916662313
 30
0.0
 10
34.2852586462
 20
105.3689623753
 30
0.0
 10
34.2537303858
 20
105.4554556889
 30
0.0
 10
34.2175607789
 20
105.5501263154
 30
0.0
 10
34.1771507747
 20
105.6519302279
 30
0.0
 10
34.132938344
 20
105.759830171
 30
0.0
 10
34.0683336097
 20
105.9131938222
 30
0.0
 10
33.9811195826
 20
106.1125563812
 30
0.0
 10
33.8325366737
 20
106.4382589975
 30
0.0
 10
33.6768683693
 20
106.7607042306
 30
0.0
 10
33.5187346977
 20
107.0710531809
 30
0.0
 10
33.4070303626
 20
107.2823116515
 30
0.0
 10
33.3040714788
 20
107.4693869826
 30
0.0
 10
33.2248118965
 20
107.606769755
 30
0.0
 10
33.1686432855
 20
107.6994246893
 30
0.0
 10
33.1339303735
 20
107.7544395855
 30
0.0
 10
33.1045946203
 20
107.7984363806
 30
0.0
 10
33.086390362
 20
107.8236690889
 30
0.0
 10
33.0780995431
 20
107.8341682332
 30
0.0
  0
SPLINE
  5
321
100
AcDbEntity
  8
0
100
AcDbSpline
 62
7
  6
CONTINUOUS
 70
0
 71
3
 72
25
 73
21
 74
0
 42
0.0000001
 43
0.0000001
 44
0.0000000001
 40
0.0
 40
0.0
 40
0.0
 40
0.0
 40
0.062496499
 40
0.1249939689
 40
0.1874914001
 40
0.2499904916
 40
0.3749848045
 40
0.4999808193
 40
0.5624820454
 40
0.6249813946
 40
0.6874797241
 40
0.749983404
 40
0.8124940596
 40
0.8437443542
 40
0.874990821
 40
0.9062363719
 40
0.9374815731
 40
0.9531093705
 40
0.9687444262
 40
1.0
 40
1.0
 40
1.0
 40
1.0
 10
35.2974813793
 20
98.9813093568
 30
0.0
 10
35.2626332572
 20
99.2198650419
 30
0.0
 10
35.1870316859
 20
99.6961290488
 30
0.0
 10
35.0593464265
 20
100.4080769612
 30
0.0
 10
34.9190335791
 20
101.1176547075
 30
0.0
 10
34.7164447438
 20
102.0605369387
 30
0.0
 10
34.4369046614
 20
103.233337048
 30
0.0
 10
34.1223422804
 20
104.3972437854
 30
0.0
 10
33.8497405736
 20
105.322340443
 30
0.0
 10
33.6336664653
 20
106.0126505269
 30
0.0
 10
33.4048583819
 20
106.6988666016
 30
0.0
 10
33.1616858357
 20
107.3801719748
 30
0.0
 10
32.9457293715
 20
107.9430695766
 30
0.0
 10
32.7614502815
 20
108.3887305078
 30
0.0
 10
32.6166460408
 20
108.7201233704
 30
0.0
 10
32.4643863745
 20
109.0481487437
 30
0.0
 10
32.3293529518
 20
109.3176228891
 30
0.0
 10
32.2152710176
 20
109.5300838149
 30
0.0
 10
32.0969851544
 20
109.7402468816
 30
0.0
 10
32.0017731079
 20
109.8943070616
 30
0.0
 10
31.933610125
 20
109.9937626898
 30
0.0
  0
SPLINE
  5
322
100
AcDbEntity
  8
0
100
AcDbSpline
 62
7
  6
CONTINUOUS
 70
0
 71
3
 72
13
 73
9
 74
0
 42
0.0000001
 43
0.0000001
 44
0.0000000001
 40
0.0
 40
0.0
 40
0.0
 40
0.0
 40
0.3677459109
 40
0.6891543075
 40
0.8168116588
 40
0.9151566954
 40
0.9775831056
 40
1.0
 40
1.0
 40
1.0
 40
1.0
 10
34.0195762474
 20
106.5380386975
 30
0.0
 10
34.1011318917
 20
106.3417673156
 30
0.0
 10
34.252360617
 20
105.973287805
 30
0.0
 10
34.4294740892
 20
105.535689542
 30
0.0
 10
34.5478762573
 20
105.2423005828
 30
0.0
 10
34.6101146958
 20
105.0876555344
 30
0.0
 10
34.6497125063
 20
104.989464474
 30
0.0
 10
34.6680082296
 20
104.9439695224
 30
0.0
 10
34.6728949227
 20
104.9319704366
 30
0.0
  0
SPLINE
  5
323
100
AcDbEntity
  8
0
100
AcDbSpline
 62
7
  6
CONTINUOUS
 70
0
 71
3
 72
9
 73
5
 74
0
 42
0.0000001
 43
0.0000001
 44
0.0000000001
 40
0.0
 40
0.0
 40
0.0
 40
0.0
 40
0.5000023899
 40
1.0
 40
1.0
 40
1.0
 40
1.0
 10
35.2502762156
 20
102.1572236861
 30
0.0
 10
35.3741071705
 20
101.7114081733
 30
0.0
 10
35.6097035602
 20
100.8163815237
 30
0.0
 10
35.8173378939
 20
99.9143660782
 30
0.0
 10
35.9123148933
 20
99.461529625
 30
0.0
  0
SPLINE
  5
324
100
AcDbEntity
  8
0
100
AcDbSpline
 62
7
  6
CONTINUOUS
 70
0
 71
3
 72
16
 73
12
 74
0
 42
0.0000001
 43
0.0000001
 44
0.0000000001
 40
0.0
 40
0.0
 40
0.0
 40
0.0
 40
0.0052588717
 40
0.0207066171
 40
0.046469471
 40
0.0825121261
 40
0.1821359003
 40
0.3100517226
 40
0.4624457507
 40
0.6320515253
 40
1.0
 40
1.0
 40
1.0
 40
1.0
 10
33.3163704477
 20
108.148199865
 30
0.0
 10
33.3177033016
 20
108.1454229595
 30
0.0
 10
33.3227821968
 20
108.1344087908
 30
0.0
 10
33.3343450623
 20
108.1097694021
 30
0.0
 10
33.3533933256
 20
108.0687252287
 30
0.0
 10
33.3931165925
 20
107.9829225827
 30
0.0
 10
33.457347103
 20
107.8425319331
 30
0.0
 10
33.5483504832
 20
107.6394543168
 30
0.0
 10
33.6544934093
 20
107.3982504677
 30
0.0
 10
33.8147403103
 20
107.0272631755
 30
0.0
 10
33.9368724963
 20
106.7370518982
 30
0.0
 10
34.0195768083
 20
106.538038898
 30
0.0
  0
SPLINE
  5
325
100
AcDbEntity
  8
0
100
AcDbSpline
 62
7
  6
CONTINUOUS
 70
0
 71
3
 72
21
 73
17
 74
0
 42
0.0000001
 43
0.0000001
 44
0.0000000001
 40
0.0
 40
0.0
 40
0.0
 40
0.0
 40
0.0625008073
 40
0.1250038968
 40
0.2499999524
 40
0.3749963837
 40
0.4999925346
 40
0.5624922829
 40
0.6249922144
 40
0.687492474
 40
0.7499924808
 40
0.8124940512
 40
0.8749953607
 40
0.9062471522
 40
0.9375038357
 40
1.0
 40
1.0
 40
1.0
 40
1.0
 10
37.3934914555
 20
31.4813254346
 30
0.0
 10
37.3588413674
 20
31.2423413393
 30
0.0
 10
37.2835701243
 20
30.765216346
 30
0.0
 10
37.1136004317
 20
29.8143252787
 30
0.0
 10
36.8703124632
 20
28.6314635575
 30
0.0
 10
36.5348457401
 20
27.2218009126
 30
0.0
 10
36.2210786317
 20
26.0557075223
 30
0.0
 10
35.9484803564
 20
25.1290336647
 30
0.0
 10
35.7326875147
 20
24.437440655
 30
0.0
 10
35.5039788738
 20
23.7500011698
 30
0.0
 10
35.2610318643
 20
23.0674418355
 30
0.0
 10
35.0010517918
 20
22.3911457118
 30
0.0
 10
34.7662580394
 20
21.8348076926
 30
0.0
 10
34.5641101969
 20
21.3960469571
 30
0.0
 10
34.3484792994
 20
20.9639542298
 30
0.0
 10
34.1677310211
 20
20.6487714642
 30
0.0
 10
34.0314574042
 20
20.4494354061
 30
0.0
  0
SPLINE
  5
326
100
AcDbEntity
  8
0
100
AcDbSpline
 62
7
  6
CONTINUOUS
 70
0
 71
3
 72
22
 73
18
 74
0
 42
0.0000001
 43
0.0000001
 44
0.0000000001
 40
0.0
 40
0.0
 40
0.0
 40
0.0
 40
0.0304360215
 40
0.0611386006
 40
0.0920651535
 40
0.1231496974
 40
0.1543104205
 40
0.1855189587
 40
0.2480158406
 40
0.3106018115
 40
0.3732314259
 40
0.4358951007
 40
0.4985827524
 40
0.6239806878
 40
0.7493857038
 40
0.8747508876
 40
1.0
 40
1.0
 40
1.0
 40
1.0
 10
33.6201114454
 20
20.7310600882
 30
0.0
 10
33.685138225
 20
20.8254229143
 30
0.0
 10
33.8056800558
 20
21.0218571104
 30
0.0
 10
33.9726254655
 20
21.3257136683
 30
0.0
 10
34.1276712968
 20
21.6385866411
 30
0.0
 10
34.274128688
 20
21.9573966244
 30
0.0
 10
34.4140682068
 20
22.2802748168
 30
0.0
 10
34.5930040387
 20
22.715063735
 30
0.0
 10
34.8042235754
 20
23.2644149058
 30
0.0
 10
35.0415005324
 20
23.9302339001
 30
0.0
 10
35.2652540553
 20
24.6013686404
 30
0.0
 10
35.4769981519
 20
25.2767818551
 30
0.0
 10
35.7445462442
 20
26.182242052
 30
0.0
 10
36.0535264443
 20
27.3216347047
 30
0.0
 10
36.3847766217
 20
28.6989219548
 30
0.0
 10
36.6744257347
 20
30.0849744462
 30
0.0
 10
36.8362260375
 20
31.0149285764
 30
0.0
 10
36.9061102178
 20
31.4813132095
 30
0.0
  0
SPLINE
  5
327
100
AcDbEntity
  8
0
100
AcDbSpline
 62
7
  6
CONTINUOUS
 70
0
 71
3
 72
24
 73
20
 74
0
 42
0.0000001
 43
0.0000001
 44
0.0000000001
 40
0.0
 40
0.0
 40
0.0
 40
0.0
 40
0.1252533073
 40
0.2506216183
 40
0.3760290345
 40
0.5014299754
 40
0.5641185654
 40
0.6267834977
 40
0.6894146111
 40
0.752001147
 40
0.8145007285
 40
0.8457055463
 40
0.876868475
 40
0.9079622964
 40
0.938892409
 40
0.9542708917
 40
0.9695936116
 40
0.9848654758
 40
1.0
 40
1.0
 40
1.0
 40
1.0
 10
57.7061137775
 20
87.7313134592
 30
0.0
 10
57.6362471493
 20
88.1977205328
 30
0.0
 10
57.4743801728
 20
89.1276991928
 30
0.0
 10
57.1847763193
 20
90.5138095546
 30
0.0
 10
56.8534604031
 20
91.8911262127
 30
0.0
 10
56.544511634
 20
93.0305613001
 30
0.0
 10
56.2769653165
 20
93.9360506071
 30
0.0
 10
56.0652007212
 20
94.6114781209
 30
0.0
 10
55.8413967707
 20
95.2826153614
 30
0.0
 10
55.6041227837
 20
95.9484592026
 30
0.0
 10
55.3929724153
 20
96.4978416399
 30
0.0
 10
55.2139030131
 20
96.9325857333
 30
0.0
 10
55.0739143758
 20
97.2554742667
 30
0.0
 10
54.9276382218
 20
97.5744377459
 30
0.0
 10
54.7980568867
 20
97.8355658963
 30
0.0
 10
54.6885416973
 20
98.0401750964
 30
0.0
 10
54.6032663675
 20
98.1908372066
 30
0.0
 10
54.5144662228
 20
98.3383707721
 30
0.0
 10
54.4523537714
 20
98.4345983682
 30
0.0
 10
54.4200885539
 20
98.4815695243
 30
0.0
  0
SPLINE
  5
328
100
AcDbEntity
  8
0
100
AcDbSpline
 62
7
  6
CONTINUOUS
 70
0
 71
3
 72
18
 73
14
 74
0
 42
0.0000001
 43
0.0000001
 44
0.0000000001
 40
0.0
 40
0.0
 40
0.0
 40
0.0
 40
0.0101583307
 40
0.0291265588
 40
0.0567405702
 40
0.092761213
 40
0.136842475
 40
0.1886191737
 40
0.3133187701
 40
0.4624375201
 40
0.6306125094
 40
0.8120381688
 40
1.0
 40
1.0
 40
1.0
 40
1.0
 10
54.8314478124
 20
98.76320272
 30
0.0
 10
54.8301510648
 20
98.7621187706
 30
0.0
 10
54.8260984586
 20
98.7594382213
 30
0.0
 10
54.818281489
 20
98.7541612278
 30
0.0
 10
54.806865459
 20
98.7465016337
 30
0.0
 10
54.7920833101
 20
98.7363717048
 30
0.0
 10
54.7739916781
 20
98.7239559022
 30
0.0
 10
54.7437350345
 20
98.7031928998
 30
0.0
 10
54.699038256
 20
98.6725858421
 30
0.0
 10
54.6383193366
 20
98.6311009083
 30
0.0
 10
54.5699652504
 20
98.5840604579
 30
0.0
 10
54.4960116443
 20
98.5337633333
 30
0.0
 10
54.4451501163
 20
98.4992560808
 30
0.0
 10
54.4195940432
 20
98.4812320728
 30
0.0
  0
SPLINE
  5
329
100
AcDbEntity
  8
0
100
AcDbSpline
 62
7
  6
CONTINUOUS
 70
0
 71
3
 72
23
 73
19
 74
0
 42
0.0000001
 43
0.0000001
 44
0.0000000001
 40
0.0
 40
0.0
 40
0.0
 40
0.0
 40
0.1249911492
 40
0.2499858217
 40
0.3749809326
 40
0.4999767207
 40
0.5624761225
 40
0.6249752572
 40
0.6874750549
 40
0.7499732745
 40
0.7812235493
 40
0.8124766598
 40
0.8749784815
 40
0.9062295775
 40
0.9374825188
 40
0.9531147273
 40
0.9687509819
 40
1.0
 40
1.0
 40
1.0
 40
1.0
 10
58.1934451238
 20
87.7313017573
 30
0.0
 10
58.1241076095
 20
88.2092377917
 30
0.0
 10
57.9622782502
 20
89.1618115641
 30
0.0
 10
57.6702991902
 20
90.5811476139
 30
0.0
 10
57.3348661381
 20
91.9908710673
 30
0.0
 10
57.0210327457
 20
93.1569689608
 30
0.0
 10
56.748484373
 20
94.0836814007
 30
0.0
 10
56.5326265797
 20
94.7752696588
 30
0.0
 10
56.304012461
 20
95.4627481104
 30
0.0
 10
56.101458477
 20
96.031526315
 30
0.0
 10
55.9309076836
 20
96.4834071913
 30
0.0
 10
55.7542363784
 20
96.9329357128
 30
0.0
 10
55.5666083353
 20
97.3781618586
 30
0.0
 10
55.3637298581
 20
97.8165353968
 30
0.0
 10
55.2288245315
 20
98.0866891625
 30
0.0
 10
55.1148441574
 20
98.2997006827
 30
0.0
 10
54.9964185875
 20
98.5102310601
 30
0.0
 10
54.9006528132
 20
98.6642621291
 30
0.0
 10
54.8323552618
 20
98.7638286988
 30
0.0
  0
SPLINE
  5
32A
100
AcDbEntity
  8
0
100
AcDbSpline
 62
7
  6
CONTINUOUS
 70
0
 71
3
 72
11
 73
7
 74
0
 42
0.0000001
 43
0.0000001
 44
0.0000000001
 40
0.0
 40
0.0
 40
0.0
 40
0.0
 40
0.2499585116
 40
0.4999045101
 40
0.7498829547
 40
1.0
 40
1.0
 40
1.0
 40
1.0
 10
81.357689963
 20
43.4313133699
 30
0.0
 10
81.357689963
 20
43.3656462109
 30
0.0
 10
81.3304257636
 20
43.2328617073
 30
0.0
 10
81.215703305
 20
43.0664872975
 30
0.0
 10
81.0461473876
 20
42.9568782752
 30
0.0
 10
80.9134423207
 20
42.9313133699
 30
0.0
 10
80.8477335129
 20
42.9313133699
 30
0.0
  0
SPLINE
  5
32B
100
AcDbEntity
  8
0
100
AcDbSpline
 62
7
  6
CONTINUOUS
 70
0
 71
3
 72
11
 73
7
 74
0
 42
0.0000001
 43
0.0000001
 44
0.0000000001
 40
0.0
 40
0.0
 40
0.0
 40
0.0
 40
0.2451935162
 40
0.4931854503
 40
0.7451678277
 40
1.0
 40
1.0
 40
1.0
 40
1.0
 10
80.2271873771
 20
42.9313133699
 30
0.0
 10
80.2896694013
 20
42.9313133704
 30
0.0
 10
80.4168069656
 20
42.9577155545
 30
0.0
 10
80.5761505046
 20
43.0698203012
 30
0.0
 10
80.6821435746
 20
43.2358832138
 30
0.0
 10
80.7067398294
 20
43.3663751522
 30
0.0
 10
80.7067398294
 20
43.4313133699
 30
0.0
  0
SPLINE
  5
32C
100
AcDbEntity
  8
0
100
AcDbSpline
 62
7
  6
CONTINUOUS
 70
0
 71
3
 72
11
 73
7
 74
0
 42
0.0000001
 43
0.0000001
 44
0.0000000001
 40
0.0
 40
0.0
 40
0.0
 40
0.0
 40
0.2499772051
 40
0.4999595373
 40
0.7500797734
 40
1.0
 40
1.0
 40
1.0
 40
1.0
 10
81.4134594235
 20
43.0022671082
 30
0.0
 10
81.4504437473
 20
43.0241428574
 30
0.0
 10
81.5190729064
 20
43.077715131
 30
0.0
 10
81.5979219815
 20
43.1814937752
 30
0.0
 10
81.6475354268
 20
43.3020018377
 30
0.0
 10
81.6589606496
 20
43.38835354
 30
0.0
 10
81.6589606496
 20
43.4313133699
 30
0.0
  0
SPLINE
  5
32D
100
AcDbEntity
  8
0
100
AcDbSpline
 62
7
  6
CONTINUOUS
 70
0
 71
3
 72
20
 73
16
 74
0
 42
0.0000001
 43
0.0000001
 44
0.0000000001
 40
0.0
 40
0.0
 40
0.0
 40
0.0
 40
0.0061819909
 40
0.028082028
 40
0.0616518329
 40
0.1053235065
 40
0.1578940442
 40
0.2179056709
 40
0.2837656119
 40
0.354230483
 40
0.4284104749
 40
0.5054413989
 40
0.6657446638
 40
0.8316831711
 40
1.0
 40
1.0
 40
1.0
 40
1.0
 10
75.4335926957
 20
82.8139330819
 30
0.0
 10
75.4335926957
 20
82.812477604
 30
0.0
 10
75.4248021707
 20
82.8223148363
 30
0.0
 10
75.4195823121
 20
82.8282044733
 30
0.0
 10
75.4006412947
 20
82.8472888323
 30
0.0
 10
75.3797576386
 20
82.8676150813
 30
0.0
 10
75.3532559334
 20
82.8938524079
 30
0.0
 10
75.3236439736
 20
82.9234207087
 30
0.0
 10
75.2909252845
 20
82.9561466275
 30
0.0
 10
75.2558855082
 20
82.9911750225
 30
0.0
 10
75.2189646984
 20
83.0280696247
 30
0.0
 10
75.1670679676
 20
83.0798924822
 30
0.0
 10
75.0998339322
 20
83.1469333289
 30
0.0
 10
75.017183955
 20
83.2289498836
 30
0.0
 10
74.9614996166
 20
83.2845602604
 30
0.0
 10
74.9335926957
 20
83.3126956714
 30
0.0
  0
SPLINE
  5
32E
100
AcDbEntity
  8
0
100
AcDbSpline
 62
7
  6
CONTINUOUS
 70
0
 71
3
 72
26
 73
22
 74
0
 42
0.0000001
 43
0.0000001
 44
0.0000000001
 40
0.0
 40
0.0
 40
0.0
 40
0.0
 40
0.1682616642
 40
0.3341906682
 40
0.4945856862
 40
0.571602514
 40
0.64572826
 40
0.7161618576
 40
0.7820506429
 40
0.8421113892
 40
0.8948115267
 40
0.9179168415
 40
0.9385917958
 40
0.9566344486
 40
0.9718431578
 40
0.9840121947
 40
0.9929145341
 40
0.9960675648
 40
0.9983162455
 40
0.9996323434
 40
1.0
 40
1.0
 40
1.0
 40
1.0
 10
74.9335926957
 20
83.3126956714
 30
0.0
 10
74.9680803565
 20
83.2932108455
 30
0.0
 10
75.0361523105
 20
83.2537622985
 30
0.0
 10
75.1366251247
 20
83.1949261704
 30
0.0
 10
75.2188759786
 20
83.1474826267
 30
0.0
 10
75.2823749375
 20
83.1107849288
 30
0.0
 10
75.3275168886
 20
83.0846483923
 30
0.0
 10
75.3703889348
 20
83.05981977
 30
0.0
 10
75.4104142285
 20
83.036682419
 30
0.0
 10
75.446825482
 20
83.0156353053
 30
0.0
 10
75.4744789552
 20
82.9995617707
 30
0.0
 10
75.4940763028
 20
82.988082058
 30
0.0
 10
75.5066342611
 20
82.9807214487
 30
0.0
 10
75.5175921823
 20
82.9743240072
 30
0.0
 10
75.5268674596
 20
82.9689670452
 30
0.0
 10
75.5342655281
 20
82.964797462
 30
0.0
 10
75.5393475139
 20
82.9619876074
 30
0.0
 10
75.5421674431
 20
82.9604225817
 30
0.0
 10
75.5437494133
 20
82.9595324227
 30
0.0
 10
75.5441969287
 20
82.9592512011
 30
0.0
 10
75.5448521124
 20
82.9588442982
 30
0.0
 10
75.5447685725
 20
82.958821664
 30
0.0
  0
ENDSEC
  0
SECTION
  2
OBJECTS
  0
DICTIONARY
  5
C
100
AcDbDictionary
280
0
281
1
  3
ACAD_GROUP
350
D
  3
ACAD_MLINESTYLE
350
17
  3
ACAD_LAYOUT
350
1A
  3
ACAD_PLOTSETTINGS
350
19
  3
ACAD_PLOTSTYLENAME
350
E
  0
DICTIONARY
  5
D
102
{ACAD_REACTORS
330
C
102
}
100
AcDbDictionary
280
0
281
1
  0
ACDBDICTIONARYWDFLT
  5
E
102
{ACAD_REACTORS
330
C
102
}
100
AcDbDictionary
281
1
  3
Normal
350
F
100
AcDbDictionaryWithDefault
340
F
  0
DICTIONARY
  5
17
102
{ACAD_REACTORS
330
C
102
}
100
AcDbDictionary
280
0
281
1
  3
Standard
350
18
  0
DICTIONARY
  5
19
102
{ACAD_REACTORS
330
C
102
}
100
AcDbDictionary
281
1
  0
DICTIONARY
  5
1A
102
{ACAD_REACTORS
330
C
102
}
100
AcDbDictionary
281
1
  3
Model
350
32F
  3
Layout1
350
330
  0
ACDBPLACEHOLDER
  5
F
102
{ACAD_REACTORS
330
E
102
}
  0
MLINESTYLE
  5
18
102
{ACAD_REACTORS
330
17
102
}
100
AcDbMlineStyle
  2
STANDARD
 70
0
  3

 62
256
 51
90.0
 52
90.0
 71
2
 49
0.5
 62
256
  6
BYLAYER
 49
-0.5
 62
256
  6
BYLAYER
  0
LAYOUT
  5
32F
102
{ACAD_REACTORS
330
1A
102
}
100
AcDbPlotSettings
  1

  2
none_device
  4

  6

 40
0.0
 41
0.0
 42
0.0
 43
0.0
 44
210.0
 45
297.0
 46
0.0
 47
0.0
 48
0.0
 49
0.0
140
0.0
141
0.0
142
1.0
143
1.0
 70
1024
 72
1
 73
0
 74
0
  7

 75
0
147
1.0
148
0.0
149
0.0
100
AcDbLayout
  1
Model
 70
0
 71
0
 10
0.0
 20
0.0
 11
210.0
 21
297.0
 12
0.0
 22
0.0
 32
0.0
 14
0.0
 24
0.0
 34
0.0
 15
0.0
 25
0.0
 35
0.0
146
0.0
 13
0.0
 23
0.0
 33
0.0
 16
1.0
 26
0.0
 36
0.0
 17
0.0
 27
1.0
 37
0.0
 76
0
330
210
345
0
346
0
  0
LAYOUT
  5
330
102
{ACAD_REACTORS
330
1A
102
}
100
AcDbPlotSettings
  1

  2
none_device
  4

  6

 40
0.0
 41
0.0
 42
0.0
 43
0.0
 44
210.0
 45
297.0
 46
0.0
 47
0.0
 48
0.0
 49
0.0
140
0.0
141
0.0
142
1.0
143
1.0
 70
0
 72
1
 73
0
 74
0
  7

 75
0
147
1.0
148
0.0
149
0.0
100
AcDbLayout
  1
Layout1
 70
0
 71
1
 10
0.0
 20
0.0
 11
210.0
 21
297.0
 12
0.0
 22
0.0
 32
0.0
 14
0.0
 24
0.0
 34
0.0
 15
0.0
 25
0.0
 35
0.0
146
0.0
 13
0.0
 23
0.0
 33
0.0
 16
1.0
 26
0.0
 36
0.0
 17
0.0
 27
1.0
 37
0.0
 76
0
330
211
345
0
346
0
  0
ENDSEC
  0
EOF
