999
DXF file: C:\Users\sesa63760\OneDrive - Schneider Electric\Documents\7-Dev\_Creo\CAD\MCADUE0000295_3D-CAD\drw0001_5.dxf
999
Pro/ENGINEER 2019471 by Parametric Technology Corporation
  0
SECTION
  2
HEADER
  9
$ACADVER
  1
AC1024
  9
$DWGCODEPAGE
  3
ANSI_1252
  9
$EXTMAX
 10
422.8695685778
 20
598.0583898457
 30
0.0
  9
$EXTMIN
 10
0.0
 20
0.0
 30
0.0
  9
$LIMMIN
 10
0.0
 20
0.0
  9
$LIMMAX
 10
422.8695685778
 20
598.0583898457
  9
$VIEWCTR
 10
211.4347842889
 20
299.0291949229
  9
$VIEWSIZE
 40
598.0583898457
  9
$CLAYER
  8
0
  9
$LTSCALE
 40
38.9845468936
  9
$CELTYPE
  6
BYLAYER
  9
$DIMSCALE
 40
1.0
  9
$DIMASZ
 40
5.0341615307
  9
$DIMEXO
 40
1.0
  9
$DIMDLI
 40
26.9347778538
  9
$DIMEXE
 40
1.0
  9
$DIMCEN
 40
6.3792894917
  9
$DIMLFAC
 40
1.0
  9
$DIMBLK
  1
_FILLED
  9
$DIMALT
 70
0
  9
$DIMALTF
 40
0.0393700787
  9
$DIMTXT
 40
7.047826143
  9
$DIMTOL
 70
1
  9
$DIMLIM
 70
0
  9
$DIMTFAC
 40
1.0
  9
$DIMTP
 40
0.01
  9
$DIMTM
 40
0.01
  9
$DIMGAP
 40
0.625
  9
$DIMDSEP
 70
46
  9
$AUNITS
 70
0
  9
$PDMODE
 70
3
  9
$PDSIZE
 40
0.3125
  9
$HANDSEED
  5
32B
  9
$TILEMODE
 70
1
  9
$MEASUREMENT
 70
1
  9
$INSUNITS
 70
4
  0
ENDSEC
  0
SECTION
  2
CLASSES
  0
CLASS
  1
ACDBDICTIONARYWDFLT
  2
AcDbDictionaryWithDefault
  3
AutoCAD 2000
 90
0
 91
1
280
0
281
0
  0
CLASS
  1
ACDBPLACEHOLDER
  2
AcDbPlaceHolder
  3
AutoCAD 2000
 90
0
 91
1
280
0
281
0
  0
CLASS
  1
LAYOUT
  2
AcDbLayout
  3
AutoCAD 2000
 90
0
 91
0
280
0
281
0
  0
ENDSEC
  0
SECTION
  2
TABLES
  0
TABLE
  2
VPORT
  5
8
100
AcDbSymbolTable
 70
2
  0
VPORT
  5
1F4
100
AcDbSymbolTableRecord
100
AcDbViewportTableRecord
  2
*ACTIVE
 70
0
 10
0.0
 20
0.0
 11
1.0
 21
1.0
 12
211.4347842889
 22
299.0291949229
 13
0.0
 23
0.0
 14
1.0
 24
1.0
 15
0.0
 25
0.0
 16
0.0
 26
0.0
 36
1.0
 17
0.0
 27
0.0
 37
0.0
 40
598.0583898457
 41
0.7070707071
 42
50.0
 43
0.0
 44
0.0
 50
0.0
 51
0.0
 71
0
 72
100
 73
1
 74
1
 75
0
 76
0
 77
0
 78
0
  0
ENDTAB
  0
TABLE
  2
LTYPE
  5
5
100
AcDbSymbolTable
 70
6
  0
LTYPE
  5
14
100
AcDbSymbolTableRecord
100
AcDbLinetypeTableRecord
  2
BYBLOCK
 70
0
  3

 72
65
 73
0
 40
0.0
  0
LTYPE
  5
15
100
AcDbSymbolTableRecord
100
AcDbLinetypeTableRecord
  2
BYLAYER
 70
0
  3

 72
65
 73
0
 40
0.0
  0
LTYPE
  5
16
100
AcDbSymbolTableRecord
100
AcDbLinetypeTableRecord
  2
CONTINUOUS
 70
64
  3
Solid line
 72
65
 73
0
 40
0.0
  0
LTYPE
  5
1F5
100
AcDbSymbolTableRecord
100
AcDbLinetypeTableRecord
  2
CENTER
 70
64
  3
____ _ ____ _ ____ _ ____ _ ____ _ ____ _ ____
 72
65
 73
4
 40
0.6
 49
0.375
 74
0
 49
-0.075
 74
0
 49
0.075
 74
0
 49
-0.075
 74
0
  0
LTYPE
  5
1F6
100
AcDbSymbolTableRecord
100
AcDbLinetypeTableRecord
  2
HIDDEN
 70
64
  3
- - - - - - - - - - - - - - - - - - - -
 72
65
 73
2
 40
0.2
 49
0.1
 74
0
 49
-0.1
 74
0
  0
LTYPE
  5
1F7
100
AcDbSymbolTableRecord
100
AcDbLinetypeTableRecord
  2
PHANTOM
 70
64
  3
_____ _ _ _____ _ _ _____ _ _ _____
 72
65
 73
6
 40
0.8
 49
0.45
 74
0
 49
-0.05
 74
0
 49
0.1
 74
0
 49
-0.05
 74
0
 49
0.1
 74
0
 49
-0.05
 74
0
  0
LTYPE
  5
1F8
100
AcDbSymbolTableRecord
100
AcDbLinetypeTableRecord
  2
DOT
 70
64
  3
. . . . . . . . . . . . . . . . . . . .
 72
65
 73
2
 40
0.2
 49
0.1
 74
0
 49
-0.1
 74
0
  0
LTYPE
  5
1F9
100
AcDbSymbolTableRecord
100
AcDbLinetypeTableRecord
  2
DASHED
 70
64
  3
- - - - - - - - - - - - - - - - - - - -
 72
65
 73
2
 40
0.2
 49
0.1
 74
0
 49
-0.1
 74
0
  0
ENDTAB
  0
TABLE
  2
LAYER
  5
2
100
AcDbSymbolTable
 70
36
  0
LAYER
  5
10
100
AcDbSymbolTableRecord
100
AcDbLayerTableRecord
  2
0
 70
0
 62
7
  6
CONTINUOUS
370
-3
390
F
  0
LAYER
  5
1FA
100
AcDbSymbolTableRecord
100
AcDbLayerTableRecord
  2
DEFAULT_1
 70
0
 62
7
  6
CENTER
370
-3
390
F
  0
LAYER
  5
1FB
100
AcDbSymbolTableRecord
100
AcDbLayerTableRecord
  2
DEFAULT_2
 70
0
 62
8
  6
HIDDEN
370
-3
390
F
  0
LAYER
  5
1FC
100
AcDbSymbolTableRecord
100
AcDbLayerTableRecord
  2
DEFAULT_3
 70
0
 62
7
  6
PHANTOM
370
-3
390
F
  0
LAYER
  5
1FD
100
AcDbSymbolTableRecord
100
AcDbLayerTableRecord
  2
00_COMPONENTS
 70
0
 62
7
  6
CONTINUOUS
370
-3
390
F
  0
LAYER
  5
1FE
100
AcDbSymbolTableRecord
100
AcDbLayerTableRecord
  2
01_1_DEFAULT_DATUMS
 70
0
 62
7
  6
CONTINUOUS
370
-3
390
F
  0
LAYER
  5
1FF
100
AcDbSymbolTableRecord
100
AcDbLayerTableRecord
  2
01_PLANES
 70
0
 62
7
  6
CONTINUOUS
370
-3
390
F
  0
LAYER
  5
200
100
AcDbSymbolTableRecord
100
AcDbLayerTableRecord
  2
02_COORD_SYS
 70
0
 62
7
  6
CONTINUOUS
370
-3
390
F
  0
LAYER
  5
201
100
AcDbSymbolTableRecord
100
AcDbLayerTableRecord
  2
03_AXES
 70
0
 62
7
  6
CONTINUOUS
370
-3
390
F
  0
LAYER
  5
202
100
AcDbSymbolTableRecord
100
AcDbLayerTableRecord
  2
04_POINTS
 70
0
 62
7
  6
CONTINUOUS
370
-3
390
F
  0
LAYER
  5
203
100
AcDbSymbolTableRecord
100
AcDbLayerTableRecord
  2
05_CURVES
 70
0
 62
7
  6
CONTINUOUS
370
-3
390
F
  0
LAYER
  5
204
100
AcDbSymbolTableRecord
100
AcDbLayerTableRecord
  2
06_SURFS
 70
0
 62
7
  6
CONTINUOUS
370
-3
390
F
  0
LAYER
  5
205
100
AcDbSymbolTableRecord
100
AcDbLayerTableRecord
  2
07_COSMETICS
 70
0
 62
7
  6
CONTINUOUS
370
-3
390
F
  0
LAYER
  5
206
100
AcDbSymbolTableRecord
100
AcDbLayerTableRecord
  2
10_NOTES
 70
0
 62
7
  6
CONTINUOUS
370
-3
390
F
  0
LAYER
  5
207
100
AcDbSymbolTableRecord
100
AcDbLayerTableRecord
  2
11_NOTES_PUB
 70
0
 62
7
  6
CONTINUOUS
370
-3
390
F
  0
LAYER
  5
208
100
AcDbSymbolTableRecord
100
AcDbLayerTableRecord
  2
13_REF_GTOL
 70
0
 62
7
  6
CONTINUOUS
370
-3
390
F
  0
LAYER
  5
209
100
AcDbSymbolTableRecord
100
AcDbLayerTableRecord
  2
16_MISC
 70
0
 62
7
  6
CONTINUOUS
370
-3
390
F
  0
LAYER
  5
20A
100
AcDbSymbolTableRecord
100
AcDbLayerTableRecord
  2
17_NO_PRINT
 70
0
 62
7
  6
CONTINUOUS
370
-3
390
F
  0
LAYER
  5
20B
100
AcDbSymbolTableRecord
100
AcDbLayerTableRecord
  2
18_DATUM_CAMS_JOINTS
 70
0
 62
7
  6
CONTINUOUS
370
-3
390
F
  0
LAYER
  5
20C
100
AcDbSymbolTableRecord
100
AcDbLayerTableRecord
  2
19_DATUM_FUNCTIONAL
 70
0
 62
7
  6
CONTINUOUS
370
-3
390
F
  0
LAYER
  5
20D
100
AcDbSymbolTableRecord
100
AcDbLayerTableRecord
  2
20_DATUM_KINEMATIC_SCHEME
 70
0
 62
7
  6
CONTINUOUS
370
-3
390
F
  0
ENDTAB
  0
TABLE
  2
STYLE
  5
3
100
AcDbSymbolTable
 70
1
  0
STYLE
  5
11
100
AcDbSymbolTableRecord
100
AcDbTextStyleTableRecord
  2
STANDARD
 70
0
 40
0.0
 41
0.8
 50
0.0
 71
0
 42
0.2
  3
txt
  4

  0
STYLE
  5
20E
100
AcDbSymbolTableRecord
100
AcDbTextStyleTableRecord
  2
TEXTSTYLE_1
 70
0
 40
0.0
 41
0.8
 50
0.0
 71
0
 42
0.2
  3
gdt
  4

  0
ENDTAB
  0
TABLE
  2
VIEW
  5
6
100
AcDbSymbolTable
 70
0
  0
ENDTAB
  0
TABLE
  2
UCS
  5
7
100
AcDbSymbolTable
 70
0
  0
ENDTAB
  0
TABLE
  2
APPID
  5
9
100
AcDbSymbolTable
 70
1
  0
APPID
  5
20F
100
AcDbSymbolTableRecord
100
AcDbRegAppTableRecord
  2
ACAD
 70
0
  0
ENDTAB
  0
TABLE
  2
BLOCK_RECORD
  5
1
100
AcDbSymbolTable
 70
0
  0
BLOCK_RECORD
  5
210
100
AcDbSymbolTableRecord
100
AcDbBlockTableRecord
  2
*Model_Space
  0
BLOCK_RECORD
  5
211
100
AcDbSymbolTableRecord
100
AcDbBlockTableRecord
  2
*Paper_Space
  0
BLOCK_RECORD
  5
212
100
AcDbSymbolTableRecord
100
AcDbBlockTableRecord
  2
_FILLED
  0
ENDTAB
  0
TABLE
  2
DIMSTYLE
  5
A
100
AcDbSymbolTable
 70
1
100
AcDbDimStyleTable
 71
0
  0
DIMSTYLE
105
213
100
AcDbSymbolTableRecord
100
AcDbDimStyleTableRecord
  2
STANDARD
 70
0
  3

  4

 40
1.0
 41
5.0341615307
 42
1.0
 43
0.38
 44
1.0
 45
0.0
 46
0.0
 47
0.01
 48
0.01
140
7.047826143
141
0.09
142
0.0
143
25.4
144
1.0
145
0.0
146
1.0
147
0.625
 71
1
 72
0
 73
0
 74
0
 75
0
 76
0
 77
1
 78
8
 79
2
170
0
171
1
172
0
173
0
174
0
175
0
176
0
177
0
178
0
270
2
179
2
271
2
272
2
273
2
274
2
275
0
280
0
281
0
282
0
283
1
284
8
285
0
286
0
287
3
288
0
340
11
278
46
341
212
342
212
343
212
344
212
  0
ENDTAB
  0
ENDSEC
  0
SECTION
  2
BLOCKS
  0
BLOCK
  5
20
100
AcDbEntity
  8
0
100
AcDbBlockBegin
  2
*Model_Space
 70
0
 10
0.0
 20
0.0
 30
0.0
  3
*Model_Space
  1

  0
ENDBLK
  5
21
100
AcDbEntity
  8
0
100
AcDbBlockEnd
  0
BLOCK
  5
1C
100
AcDbEntity
  8
0
100
AcDbBlockBegin
  2
*Paper_Space
 70
0
 10
0.0
 20
0.0
 30
0.0
  3
*Paper_Space
  1

  0
ENDBLK
  5
1D
100
AcDbEntity
  8
0
100
AcDbBlockEnd
  0
BLOCK
  5
214
100
AcDbEntity
  8
0
100
AcDbBlockBegin
  2
_FILLED
 70
64
 10
0.0
 20
0.0
  3
_FILLED
  1

  0
SOLID
  5
215
100
AcDbEntity
  8
0
  6
BYBLOCK
 62
0
100
AcDbTrace
 10
0.0
 20
0.0
 11
-1.0
 21
0.25
 12
-1.0
 22
-0.25
 13
-1.0
 23
-0.25
  0
ENDBLK
  5
216
100
AcDbEntity
  8
0
  6
BYBLOCK
 62
0
100
AcDbBlockEnd
  0
ENDSEC
  0
SECTION
  2
ENTITIES
  0
LINE
  5
217
100
AcDbEntity
  8
0
100
AcDbLine
 62
7
  6
CONTINUOUS
 10
49.4325660428
 20
375.7251360685
 11
49.2928830027
 21
371.7251371467
  0
LINE
  5
218
100
AcDbEntity
  8
0
100
AcDbLine
 62
7
  6
CONTINUOUS
 10
57.0210773656
 20
371.7251377095
 11
57.1475105196
 21
375.7251367151
  0
LINE
  5
219
100
AcDbEntity
  8
0
100
AcDbLine
 62
7
  6
CONTINUOUS
 10
60.1308823605
 20
375.7251371466
 11
60.0044372615
 21
371.7251371466
  0
LINE
  5
21A
100
AcDbEntity
  8
0
100
AcDbLine
 62
7
  6
CONTINUOUS
 10
82.8661936593
 20
213.448138001
 11
79.283879807
 21
217.478246657
  0
LINE
  5
21B
100
AcDbEntity
  8
0
100
AcDbLine
 62
7
  6
CONTINUOUS
 10
81.301886199
 20
219.2720276364
 11
84.8842000513
 21
215.2419189804
  0
LINE
  5
21C
100
AcDbEntity
  8
0
100
AcDbLine
 62
7
  6
CONTINUOUS
 10
73.2503054199
 20
354.1129186753
 11
72.9603380679
 21
370.7251371466
  0
LINE
  5
21D
100
AcDbEntity
  8
0
100
AcDbLine
 62
7
  6
CONTINUOUS
 10
76.4598049987
 20
370.7251371466
 11
76.7497722835
 21
354.1129204611
  0
LINE
  5
21E
100
AcDbEntity
  8
0
100
AcDbLine
 62
7
  6
CONTINUOUS
 10
78.7430165333
 20
307.5855178951
 11
77.942883003
 21
353.4251371466
  0
LINE
  5
21F
100
AcDbEntity
  8
0
100
AcDbLine
 62
7
  6
CONTINUOUS
 10
66.7689130822
 20
370.7251371466
 11
66.7689130822
 21
371.7251371466
  0
LINE
  5
220
100
AcDbEntity
  8
0
100
AcDbLine
 62
7
  6
CONTINUOUS
 10
76.7497724246
 20
353.4251371466
 11
76.7497724246
 21
354.1129204614
  0
LINE
  5
221
100
AcDbEntity
  8
0
100
AcDbLine
 62
7
  6
CONTINUOUS
 10
77.292883003
 20
299.7251371466
 11
77.292883003
 21
296.7251371466
  0
LINE
  5
222
100
AcDbEntity
  8
0
100
AcDbLine
 62
7
  6
CONTINUOUS
 10
77.292883003
 20
279.7251371466
 11
77.292883003
 21
267.2251371466
  0
LINE
  5
223
100
AcDbEntity
  8
0
100
AcDbLine
 62
7
  6
CONTINUOUS
 10
77.292883003
 20
252.2251371466
 11
77.292883003
 21
239.7251371466
  0
LINE
  5
224
100
AcDbEntity
  8
0
100
AcDbLine
 62
7
  6
CONTINUOUS
 10
77.292883003
 20
222.7251371466
 11
77.292883003
 21
219.7251371466
  0
LINE
  5
225
100
AcDbEntity
  8
0
100
AcDbLine
 62
7
  6
CONTINUOUS
 10
79.0956883634
 20
305.3720527923
 11
79.2591809508
 21
300.6902376498
  0
LINE
  5
226
100
AcDbEntity
  8
0
100
AcDbLine
 62
7
  6
CONTINUOUS
 10
83.2537974389
 20
222.7251371466
 11
83.2537974389
 21
229.7251371466
  0
LINE
  5
227
100
AcDbEntity
  8
0
100
AcDbLine
 62
7
  6
CONTINUOUS
 10
84.92157054
 20
212.5251371466
 11
84.92157054
 21
215.2251371466
  0
LINE
  5
228
100
AcDbEntity
  8
0
100
AcDbLine
 62
7
  6
CONTINUOUS
 10
86.0349329867
 20
289.2251371466
 11
86.0349329867
 21
279.7251371466
  0
LINE
  5
229
100
AcDbEntity
  8
0
100
AcDbLine
 62
7
  6
CONTINUOUS
 10
86.0349329867
 20
267.2251371466
 11
86.0349329867
 21
252.2251371466
  0
LINE
  5
22A
100
AcDbEntity
  8
0
100
AcDbLine
 62
7
  6
CONTINUOUS
 10
86.0349329867
 20
239.7251371466
 11
86.0349329867
 21
231.7251371466
  0
LINE
  5
22B
100
AcDbEntity
  8
0
100
AcDbLine
 62
7
  6
CONTINUOUS
 10
88.1820097673
 20
276.630023526
 11
88.1820097673
 21
272.8202503893
  0
LINE
  5
22C
100
AcDbEntity
  8
0
100
AcDbLine
 62
7
  6
CONTINUOUS
 10
88.1820097673
 20
246.630023526
 11
88.1820097673
 21
242.8202503893
  0
LINE
  5
22D
100
AcDbEntity
  8
0
100
AcDbLine
 62
7
  6
CONTINUOUS
 10
88.292883003
 20
290.7251371466
 11
88.292883003
 21
228.7251371466
  0
LINE
  5
22E
100
AcDbEntity
  8
0
100
AcDbLine
 62
7
  6
CONTINUOUS
 10
118.0092277078
 20
213.8235344154
 11
118.2084869641
 21
213.5338542256
  0
LINE
  5
22F
100
AcDbEntity
  8
0
100
AcDbLine
 62
7
  6
CONTINUOUS
 10
119.0840572572
 20
217.0251371466
 11
120.4330267989
 21
215.0640249753
  0
LINE
  5
230
100
AcDbEntity
  8
0
100
AcDbLine
 62
7
  6
CONTINUOUS
 10
107.2570987684
 20
214.0251371467
 11
106.9946327781
 21
217.0251371466
  0
LINE
  5
231
100
AcDbEntity
  8
0
100
AcDbLine
 62
7
  6
CONTINUOUS
 10
118.6365085612
 20
213.3576062524
 11
118.2086744343
 21
213.533581978
  0
LINE
  5
232
100
AcDbEntity
  8
0
100
AcDbLine
 62
7
  6
CONTINUOUS
 10
125.2126016263
 20
213.3576062524
 11
124.7847788947
 21
213.5335654484
  0
LINE
  5
233
100
AcDbEntity
  8
0
100
AcDbLine
 62
7
  6
CONTINUOUS
 10
124.7847788947
 20
213.5335654484
 11
122.3830680755
 21
217.0251371466
  0
LINE
  5
234
100
AcDbEntity
  8
0
100
AcDbLine
 62
7
  6
CONTINUOUS
 10
127.009119864
 20
215.0640249753
 11
124.4967853806
 21
218.7164200677
  0
LINE
  5
235
100
AcDbEntity
  8
0
100
AcDbLine
 62
7
  6
CONTINUOUS
 10
106.994632778
 20
226.7251371466
 11
106.994632778
 21
222.7251371466
  0
LINE
  5
236
100
AcDbEntity
  8
0
100
AcDbLine
 62
7
  6
CONTINUOUS
 10
106.994632778
 20
292.7251371466
 11
106.994632778
 21
296.7251371466
  0
LINE
  5
237
100
AcDbEntity
  8
0
100
AcDbLine
 62
7
  6
CONTINUOUS
 10
109.994632778
 20
233.0251371466
 11
109.994632778
 21
226.7251371466
  0
LINE
  5
238
100
AcDbEntity
  8
0
100
AcDbLine
 62
7
  6
CONTINUOUS
 10
109.994632778
 20
288.4151371466
 11
109.994632778
 21
292.7251371466
  0
LINE
  5
239
100
AcDbEntity
  8
0
100
AcDbLine
 62
7
  6
CONTINUOUS
 10
115.994632778
 20
233.0251371466
 11
115.994632778
 21
226.7251371466
  0
LINE
  5
23A
100
AcDbEntity
  8
0
100
AcDbLine
 62
7
  6
CONTINUOUS
 10
115.994632778
 20
288.4151371466
 11
115.994632778
 21
292.7251371466
  0
LINE
  5
23B
100
AcDbEntity
  8
0
100
AcDbLine
 62
7
  6
CONTINUOUS
 10
116.5301666839
 20
292.7251371466
 11
116.5301666839
 21
282.7251371466
  0
LINE
  5
23C
100
AcDbEntity
  8
0
100
AcDbLine
 62
7
  6
CONTINUOUS
 10
116.5301666839
 20
236.7251371466
 11
116.5301666839
 21
226.7251371466
  0
LINE
  5
23D
100
AcDbEntity
  8
0
100
AcDbLine
 62
7
  6
CONTINUOUS
 10
117.2372734651
 20
222.7251371466
 11
117.2372734651
 21
226.7251371466
  0
LINE
  5
23E
100
AcDbEntity
  8
0
100
AcDbLine
 62
7
  6
CONTINUOUS
 10
117.2372734651
 20
292.7251371466
 11
117.2372734651
 21
296.7251371466
  0
LINE
  5
23F
100
AcDbEntity
  8
0
100
AcDbLine
 62
7
  6
CONTINUOUS
 10
119.3585938086
 20
292.7251371466
 11
119.3585938086
 21
282.7251371467
  0
LINE
  5
240
100
AcDbEntity
  8
0
100
AcDbLine
 62
7
  6
CONTINUOUS
 10
119.3585938086
 20
236.7251371466
 11
119.3585938086
 21
226.7251371466
  0
LINE
  5
241
100
AcDbEntity
  8
0
100
AcDbLine
 62
7
  6
CONTINUOUS
 10
121.8334675428
 20
277.7251371466
 11
121.8334675428
 21
241.7251371466
  0
LINE
  5
242
100
AcDbEntity
  8
0
100
AcDbLine
 62
7
  6
CONTINUOUS
 10
124.6618946676
 20
277.7251371466
 11
124.6618946676
 21
241.7251371467
  0
LINE
  5
243
100
AcDbEntity
  8
0
100
AcDbLine
 62
7
  6
CONTINUOUS
 10
127.501285347
 20
290.7251371467
 11
127.501285347
 21
228.7251371466
  0
LINE
  5
244
100
AcDbEntity
  8
0
100
AcDbLine
 62
7
  6
CONTINUOUS
 10
118.7321667876
 20
214.0251371467
 11
118.9946327778
 21
217.0251371466
  0
LINE
  5
245
100
AcDbEntity
  8
0
100
AcDbLine
 62
7
  6
CONTINUOUS
 10
84.192883003
 20
209.8251371466
 11
350.392883003
 21
209.8251371466
  0
LINE
  5
246
100
AcDbEntity
  8
0
100
AcDbLine
 62
7
  6
CONTINUOUS
 10
84.192883003
 20
212.5251371466
 11
350.392883003
 21
212.5251371466
  0
LINE
  5
247
100
AcDbEntity
  8
0
100
AcDbLine
 62
7
  6
CONTINUOUS
 10
136.1137627262
 20
299.7251371466
 11
136.1137627262
 21
307.5855178951
  0
LINE
  5
248
100
AcDbEntity
  8
0
100
AcDbLine
 62
7
  6
CONTINUOUS
 10
139.8332160788
 20
219.7251371466
 11
139.8332160788
 21
222.7251371466
  0
LINE
  5
249
100
AcDbEntity
  8
0
100
AcDbLine
 62
7
  6
CONTINUOUS
 10
139.8332160788
 20
296.7251371466
 11
139.8332160788
 21
299.7251371466
  0
LINE
  5
24A
100
AcDbEntity
  8
0
100
AcDbLine
 62
7
  6
CONTINUOUS
 10
122.7116199311
 20
217.0261349572
 11
122.6749246124
 21
217.0251371466
  0
LINE
  5
24B
100
AcDbEntity
  8
0
100
AcDbLine
 62
7
  6
CONTINUOUS
 10
327.3286672376
 20
214.0251371466
 11
315.8535992184
 21
214.0251371466
  0
LINE
  5
24C
100
AcDbEntity
  8
0
100
AcDbLine
 62
7
  6
CONTINUOUS
 10
118.7321667876
 20
214.0251371466
 11
107.2570987684
 21
214.0251371466
  0
LINE
  5
24D
100
AcDbEntity
  8
0
100
AcDbLine
 62
7
  6
CONTINUOUS
 10
349.664195466
 20
215.2251371466
 11
327.4336536337
 21
215.2251371466
  0
LINE
  5
24E
100
AcDbEntity
  8
0
100
AcDbLine
 62
7
  6
CONTINUOUS
 10
314.2635617368
 20
215.2251371466
 11
310.9645509185
 21
215.2251371466
  0
LINE
  5
24F
100
AcDbEntity
  8
0
100
AcDbLine
 62
7
  6
CONTINUOUS
 10
123.6212150874
 20
215.2251371466
 11
120.3222042692
 21
215.2251371466
  0
LINE
  5
250
100
AcDbEntity
  8
0
100
AcDbLine
 62
7
  6
CONTINUOUS
 10
84.92157054
 20
215.2251371466
 11
107.1521123723
 21
215.2251371466
  0
LINE
  5
251
100
AcDbEntity
  8
0
100
AcDbLine
 62
7
  6
CONTINUOUS
 10
126.8982973343
 20
215.2251371466
 11
215.942883003
 21
215.2251371466
  0
LINE
  5
252
100
AcDbEntity
  8
0
100
AcDbLine
 62
7
  6
CONTINUOUS
 10
218.642883003
 20
215.2251371466
 11
307.6874686717
 21
215.2251371466
  0
LINE
  5
253
100
AcDbEntity
  8
0
100
AcDbLine
 62
7
  6
CONTINUOUS
 10
106.9954501268
 20
217.0251371466
 11
122.6749246124
 21
217.0251371466
  0
LINE
  5
254
100
AcDbEntity
  8
0
100
AcDbLine
 62
7
  6
CONTINUOUS
 10
311.9108413936
 20
217.0251371466
 11
327.5905941712
 21
217.0251371466
  0
LINE
  5
255
100
AcDbEntity
  8
0
100
AcDbLine
 62
7
  6
CONTINUOUS
 10
77.292883003
 20
219.7251371466
 11
357.292883003
 21
219.7251371466
  0
LINE
  5
256
100
AcDbEntity
  8
0
100
AcDbLine
 62
7
  6
CONTINUOUS
 10
77.292883003
 20
222.7251371466
 11
357.292883003
 21
222.7251371466
  0
LINE
  5
257
100
AcDbEntity
  8
0
100
AcDbLine
 62
7
  6
CONTINUOUS
 10
311.9108413936
 20
217.0251371466
 11
311.8741460749
 21
217.0261349572
  0
LINE
  5
258
100
AcDbEntity
  8
0
100
AcDbLine
 62
7
  6
CONTINUOUS
 10
116.5301666839
 20
282.7251371467
 11
121.8334675428
 21
277.7251371466
  0
LINE
  5
259
100
AcDbEntity
  8
0
100
AcDbLine
 62
7
  6
CONTINUOUS
 10
119.3585938086
 20
282.7251371467
 11
124.6618946676
 21
277.7251371466
  0
LINE
  5
25A
100
AcDbEntity
  8
0
100
AcDbLine
 62
7
  6
CONTINUOUS
 10
106.9954918503
 20
226.7251371466
 11
130.1745655279
 21
226.7251371466
  0
LINE
  5
25B
100
AcDbEntity
  8
0
100
AcDbLine
 62
7
  6
CONTINUOUS
 10
304.4112004781
 20
226.7251371466
 11
327.5902750985
 21
226.7251371466
  0
LINE
  5
25C
100
AcDbEntity
  8
0
100
AcDbLine
 62
7
  6
CONTINUOUS
 10
346.292883003
 20
228.7251371466
 11
324.591133228
 21
228.7251371466
  0
LINE
  5
25D
100
AcDbEntity
  8
0
100
AcDbLine
 62
7
  6
CONTINUOUS
 10
307.084480659
 20
228.7251371466
 11
127.501285347
 21
228.7251371466
  0
LINE
  5
25E
100
AcDbEntity
  8
0
100
AcDbLine
 62
7
  6
CONTINUOUS
 10
109.994632778
 20
228.7251371466
 11
88.292883003
 21
228.7251371466
  0
LINE
  5
25F
100
AcDbEntity
  8
0
100
AcDbLine
 62
7
  6
CONTINUOUS
 10
83.2537974389
 20
229.7251371466
 11
88.292883003
 21
229.7251371466
  0
LINE
  5
260
100
AcDbEntity
  8
0
100
AcDbLine
 62
7
  6
CONTINUOUS
 10
88.292883003
 20
231.7251371466
 11
86.0359488195
 21
231.7251371466
  0
LINE
  5
261
100
AcDbEntity
  8
0
100
AcDbLine
 62
7
  6
CONTINUOUS
 10
109.9947495645
 20
233.0251371466
 11
115.9945159915
 21
233.0251371466
  0
LINE
  5
262
100
AcDbEntity
  8
0
100
AcDbLine
 62
7
  6
CONTINUOUS
 10
318.5912386393
 20
233.0251371466
 11
324.5910278166
 21
233.0251371466
  0
LINE
  5
263
100
AcDbEntity
  8
0
100
AcDbLine
 62
7
  6
CONTINUOUS
 10
116.5301666839
 20
236.7251371466
 11
119.3585938087
 21
236.7251371466
  0
LINE
  5
264
100
AcDbEntity
  8
0
100
AcDbLine
 62
7
  6
CONTINUOUS
 10
315.2271721973
 20
236.7251371466
 11
318.0555993221
 21
236.7251371466
  0
LINE
  5
265
100
AcDbEntity
  8
0
100
AcDbLine
 62
7
  6
CONTINUOUS
 10
88.3083878107
 20
239.7251371466
 11
77.292883003
 21
239.7251371466
  0
LINE
  5
266
100
AcDbEntity
  8
0
100
AcDbLine
 62
7
  6
CONTINUOUS
 10
121.8334675428
 20
241.7251371466
 11
124.6618946676
 21
241.7251371466
  0
LINE
  5
267
100
AcDbEntity
  8
0
100
AcDbLine
 62
7
  6
CONTINUOUS
 10
309.9238713384
 20
241.7251371466
 11
312.7522984632
 21
241.7251371466
  0
LINE
  5
268
100
AcDbEntity
  8
0
100
AcDbLine
 62
7
  6
CONTINUOUS
 10
97.2154171372
 20
353.4251371466
 11
136.1137645032
 21
307.5855178951
  0
LINE
  5
269
100
AcDbEntity
  8
0
100
AcDbLine
 62
7
  6
CONTINUOUS
 10
88.3083878107
 20
252.2251371466
 11
77.292883003
 21
252.2251371466
  0
LINE
  5
26A
100
AcDbEntity
  8
0
100
AcDbLine
 62
7
  6
CONTINUOUS
 10
79.283879807
 20
217.478246657
 11
81.301886199
 21
219.2720276363
  0
LINE
  5
26B
100
AcDbEntity
  8
0
100
AcDbLine
 62
7
  6
CONTINUOUS
 10
84.8842000513
 20
215.2419189804
 11
82.8661936593
 21
213.448138001
  0
LINE
  5
26C
100
AcDbEntity
  8
0
100
AcDbLine
 62
7
  6
CONTINUOUS
 10
88.3083878107
 20
267.2251371466
 11
77.292883003
 21
267.2251371466
  0
LINE
  5
26D
100
AcDbEntity
  8
0
100
AcDbLine
 62
7
  6
CONTINUOUS
 10
197.1647134226
 20
303.3954337138
 11
197.292883003
 21
299.7251371466
  0
LINE
  5
26E
100
AcDbEntity
  8
0
100
AcDbLine
 62
7
  6
CONTINUOUS
 10
116.5301666839
 20
236.7251371466
 11
121.8334675428
 21
241.7251371467
  0
LINE
  5
26F
100
AcDbEntity
  8
0
100
AcDbLine
 62
7
  6
CONTINUOUS
 10
124.6618946676
 20
241.7251371467
 11
119.3585938086
 21
236.7251371466
  0
LINE
  5
270
100
AcDbEntity
  8
0
100
AcDbLine
 62
7
  6
CONTINUOUS
 10
121.8334675428
 20
277.7251371466
 11
124.6618946676
 21
277.7251371466
  0
LINE
  5
271
100
AcDbEntity
  8
0
100
AcDbLine
 62
7
  6
CONTINUOUS
 10
309.9238713384
 20
277.7251371466
 11
312.7522984632
 21
277.7251371466
  0
LINE
  5
272
100
AcDbEntity
  8
0
100
AcDbLine
 62
7
  6
CONTINUOUS
 10
88.3083878107
 20
279.7251371466
 11
77.292883003
 21
279.7251371466
  0
LINE
  5
273
100
AcDbEntity
  8
0
100
AcDbLine
 62
7
  6
CONTINUOUS
 10
318.0555993221
 20
282.7251371467
 11
315.2271721973
 21
282.7251371467
  0
LINE
  5
274
100
AcDbEntity
  8
0
100
AcDbLine
 62
7
  6
CONTINUOUS
 10
119.3585938086
 20
282.7251371467
 11
116.5301666839
 21
282.7251371467
  0
LINE
  5
275
100
AcDbEntity
  8
0
100
AcDbLine
 62
7
  6
CONTINUOUS
 10
324.5910164415
 20
288.4151371466
 11
318.5912500145
 21
288.4151371466
  0
LINE
  5
276
100
AcDbEntity
  8
0
100
AcDbLine
 62
7
  6
CONTINUOUS
 10
115.9945273666
 20
288.4151371466
 11
109.9947381893
 21
288.4151371466
  0
LINE
  5
277
100
AcDbEntity
  8
0
100
AcDbLine
 62
7
  6
CONTINUOUS
 10
218.2935682356
 20
299.7251371466
 11
218.0682147847
 21
304.0251371466
  0
LINE
  5
278
100
AcDbEntity
  8
0
100
AcDbLine
 62
7
  6
CONTINUOUS
 10
218.5675295521
 20
304.0251371466
 11
218.792883003
 21
299.7251371466
  0
LINE
  5
279
100
AcDbEntity
  8
0
100
AcDbLine
 62
7
  6
CONTINUOUS
 10
215.942883003
 20
213.8751371466
 11
215.942883003
 21
218.3751371467
  0
LINE
  5
27A
100
AcDbEntity
  8
0
100
AcDbLine
 62
7
  6
CONTINUOUS
 10
218.642883003
 20
213.8751371466
 11
218.642883003
 21
218.3751371467
  0
LINE
  5
27B
100
AcDbEntity
  8
0
100
AcDbLine
 62
7
  6
CONTINUOUS
 10
215.792883003
 20
299.7251371466
 11
216.0182364539
 21
304.0251371466
  0
LINE
  5
27C
100
AcDbEntity
  8
0
100
AcDbLine
 62
7
  6
CONTINUOUS
 10
216.5175512213
 20
304.0251371466
 11
216.2921977704
 21
299.7251371466
  0
LINE
  5
27D
100
AcDbEntity
  8
0
100
AcDbLine
 62
7
  6
CONTINUOUS
 10
86.0358564625
 20
289.2251371466
 11
88.292883003
 21
289.2251371466
  0
LINE
  5
27E
100
AcDbEntity
  8
0
100
AcDbLine
 62
7
  6
CONTINUOUS
 10
88.292883003
 20
290.7251371466
 11
109.994632778
 21
290.7251371466
  0
LINE
  5
27F
100
AcDbEntity
  8
0
100
AcDbLine
 62
7
  6
CONTINUOUS
 10
127.501285347
 20
290.7251371466
 11
307.084480659
 21
290.7251371466
  0
LINE
  5
280
100
AcDbEntity
  8
0
100
AcDbLine
 62
7
  6
CONTINUOUS
 10
324.591133228
 20
290.7251371466
 11
346.292883003
 21
290.7251371466
  0
LINE
  5
281
100
AcDbEntity
  8
0
100
AcDbLine
 62
7
  6
CONTINUOUS
 10
327.5902741557
 20
292.7251371466
 11
304.4112004781
 21
292.7251371466
  0
LINE
  5
282
100
AcDbEntity
  8
0
100
AcDbLine
 62
7
  6
CONTINUOUS
 10
130.1745655279
 20
292.7251371466
 11
106.9954909075
 21
292.7251371466
  0
LINE
  5
283
100
AcDbEntity
  8
0
100
AcDbLine
 62
7
  6
CONTINUOUS
 10
77.292883003
 20
296.7251371466
 11
357.292883003
 21
296.7251371466
  0
LINE
  5
284
100
AcDbEntity
  8
0
100
AcDbLine
 62
7
  6
CONTINUOUS
 10
77.292883003
 20
299.7251371466
 11
357.292883003
 21
299.7251371466
  0
LINE
  5
285
100
AcDbEntity
  8
0
100
AcDbLine
 62
7
  6
CONTINUOUS
 10
237.3265850552
 20
300.6902376499
 11
218.7423042288
 21
300.6902376499
  0
LINE
  5
286
100
AcDbEntity
  8
0
100
AcDbLine
 62
7
  6
CONTINUOUS
 10
215.8434617772
 20
300.6902376499
 11
197.2591809508
 21
300.6902376499
  0
LINE
  5
287
100
AcDbEntity
  8
0
100
AcDbLine
 62
7
  6
CONTINUOUS
 10
197.1647134226
 20
303.3954337138
 11
215.9852350954
 21
303.3954337138
  0
LINE
  5
288
100
AcDbEntity
  8
0
100
AcDbLine
 62
7
  6
CONTINUOUS
 10
218.6005309106
 20
303.3954337138
 11
237.4210525834
 21
303.3954337138
  0
LINE
  5
289
100
AcDbEntity
  8
0
100
AcDbLine
 62
7
  6
CONTINUOUS
 10
216.0182364539
 20
304.0251371466
 11
218.5675295521
 21
304.0251371466
  0
LINE
  5
28A
100
AcDbEntity
  8
0
100
AcDbLine
 62
7
  6
CONTINUOUS
 10
300.4720015023
 20
307.5855178951
 11
136.1137645032
 21
307.5855178951
  0
LINE
  5
28B
100
AcDbEntity
  8
0
100
AcDbLine
 62
7
  6
CONTINUOUS
 10
237.292883003
 20
299.7251371466
 11
237.4210525834
 21
303.3954337138
  0
LINE
  5
28C
100
AcDbEntity
  8
0
100
AcDbLine
 62
7
  6
CONTINUOUS
 10
351.7195723467
 20
213.448138001
 11
349.7015659547
 21
215.2419189804
  0
LINE
  5
28D
100
AcDbEntity
  8
0
100
AcDbLine
 62
7
  6
CONTINUOUS
 10
315.2271721973
 20
236.7251371466
 11
309.9238713384
 21
241.7251371467
  0
LINE
  5
28E
100
AcDbEntity
  8
0
100
AcDbLine
 62
7
  6
CONTINUOUS
 10
312.7522984632
 20
241.7251371467
 11
318.0555993221
 21
236.7251371466
  0
LINE
  5
28F
100
AcDbEntity
  8
0
100
AcDbLine
 62
7
  6
CONTINUOUS
 10
353.283879807
 20
219.2720276363
 11
355.301886199
 21
217.478246657
  0
LINE
  5
290
100
AcDbEntity
  8
0
100
AcDbLine
 62
7
  6
CONTINUOUS
 10
300.4720015023
 20
307.5855178951
 11
339.3703488688
 21
353.4251371466
  0
LINE
  5
291
100
AcDbEntity
  8
0
100
AcDbLine
 62
7
  6
CONTINUOUS
 10
73.9501987754
 20
353.4251371466
 11
360.1465912652
 21
353.4251371466
  0
LINE
  5
292
100
AcDbEntity
  8
0
100
AcDbLine
 62
7
  6
CONTINUOUS
 10
357.3194286601
 20
354.1129204617
 11
76.7497722835
 21
354.1129204611
  0
LINE
  5
293
100
AcDbEntity
  8
0
100
AcDbLine
 62
7
  6
CONTINUOUS
 10
294.7525499271
 20
299.7251371466
 11
294.7525499271
 21
296.7251371466
  0
LINE
  5
294
100
AcDbEntity
  8
0
100
AcDbLine
 62
7
  6
CONTINUOUS
 10
294.7525499271
 20
222.7251371466
 11
294.7525499271
 21
219.7251371466
  0
LINE
  5
295
100
AcDbEntity
  8
0
100
AcDbLine
 62
7
  6
CONTINUOUS
 10
56.303932875
 20
370.7251371466
 11
381.288033131
 21
370.7251371466
  0
LINE
  5
296
100
AcDbEntity
  8
0
100
AcDbLine
 62
7
  6
CONTINUOUS
 10
49.2928917462
 20
371.7251371466
 11
385.2889673836
 21
371.7251371466
  0
LINE
  5
297
100
AcDbEntity
  8
0
100
AcDbLine
 62
7
  6
CONTINUOUS
 10
377.4382684305
 20
375.7251146977
 11
385.1492850893
 21
375.7251146977
  0
LINE
  5
298
100
AcDbEntity
  8
0
100
AcDbLine
 62
7
  6
CONTINUOUS
 10
374.4548836455
 20
375.7251371466
 11
60.1308823605
 21
375.7251371466
  0
LINE
  5
299
100
AcDbEntity
  8
0
100
AcDbLine
 62
7
  6
CONTINUOUS
 10
49.4325660428
 20
375.7251360685
 11
57.1474982503
 21
375.7251360685
  0
LINE
  5
29A
100
AcDbEntity
  8
0
100
AcDbLine
 62
7
  6
CONTINUOUS
 10
300.4720015017
 20
307.5855178951
 11
300.4720015017
 21
299.7251371466
  0
LINE
  5
29B
100
AcDbEntity
  8
0
100
AcDbLine
 62
7
  6
CONTINUOUS
 10
307.084480659
 20
228.7251371466
 11
307.084480659
 21
290.7251371467
  0
LINE
  5
29C
100
AcDbEntity
  8
0
100
AcDbLine
 62
7
  6
CONTINUOUS
 10
315.2271721973
 20
282.7251371467
 11
309.9238713384
 21
277.7251371466
  0
LINE
  5
29D
100
AcDbEntity
  8
0
100
AcDbLine
 62
7
  6
CONTINUOUS
 10
318.0555993221
 20
282.7251371467
 11
312.7522984632
 21
277.7251371466
  0
LINE
  5
29E
100
AcDbEntity
  8
0
100
AcDbLine
 62
7
  6
CONTINUOUS
 10
383.3316617238
 20
378.7251371466
 11
383.3278488603
 21
378.7251371466
  0
LINE
  5
29F
100
AcDbEntity
  8
0
100
AcDbLine
 62
7
  6
CONTINUOUS
 10
75.8192410636
 20
389.6721928102
 11
68.5607247462
 21
389.697203375
  0
LINE
  5
2A0
100
AcDbEntity
  8
0
100
AcDbLine
 62
7
  6
CONTINUOUS
 10
369.4577089043
 20
382.0078970541
 11
377.1398272958
 21
381.6328866346
  0
LINE
  5
2A1
100
AcDbEntity
  8
0
100
AcDbLine
 62
7
  6
CONTINUOUS
 10
315.8535992184
 20
214.0251371467
 11
315.5911332281
 21
217.0251371466
  0
LINE
  5
2A2
100
AcDbEntity
  8
0
100
AcDbLine
 62
7
  6
CONTINUOUS
 10
309.9238713384
 20
277.7251371466
 11
309.9238713384
 21
241.7251371466
  0
LINE
  5
2A3
100
AcDbEntity
  8
0
100
AcDbLine
 62
7
  6
CONTINUOUS
 10
312.7522984632
 20
277.7251371466
 11
312.7522984632
 21
241.7251371467
  0
LINE
  5
2A4
100
AcDbEntity
  8
0
100
AcDbLine
 62
7
  6
CONTINUOUS
 10
315.2271721973
 20
292.7251371466
 11
315.2271721973
 21
282.7251371466
  0
LINE
  5
2A5
100
AcDbEntity
  8
0
100
AcDbLine
 62
7
  6
CONTINUOUS
 10
315.2271721973
 20
236.7251371466
 11
315.2271721973
 21
226.7251371466
  0
LINE
  5
2A6
100
AcDbEntity
  8
0
100
AcDbLine
 62
7
  6
CONTINUOUS
 10
317.3484925409
 20
296.7251371466
 11
317.3484925409
 21
292.7251371466
  0
LINE
  5
2A7
100
AcDbEntity
  8
0
100
AcDbLine
 62
7
  6
CONTINUOUS
 10
317.3484925409
 20
226.7251371466
 11
317.3484925409
 21
222.7251371466
  0
LINE
  5
2A8
100
AcDbEntity
  8
0
100
AcDbLine
 62
7
  6
CONTINUOUS
 10
318.0555993221
 20
292.7251371466
 11
318.0555993221
 21
282.7251371467
  0
LINE
  5
2A9
100
AcDbEntity
  8
0
100
AcDbLine
 62
7
  6
CONTINUOUS
 10
318.0555993221
 20
236.7251371466
 11
318.0555993221
 21
226.7251371466
  0
LINE
  5
2AA
100
AcDbEntity
  8
0
100
AcDbLine
 62
7
  6
CONTINUOUS
 10
318.591133228
 20
233.0251371466
 11
318.591133228
 21
226.7251371466
  0
LINE
  5
2AB
100
AcDbEntity
  8
0
100
AcDbLine
 62
7
  6
CONTINUOUS
 10
318.591133228
 20
288.4151371466
 11
318.591133228
 21
292.7251371466
  0
LINE
  5
2AC
100
AcDbEntity
  8
0
100
AcDbLine
 62
7
  6
CONTINUOUS
 10
324.591133228
 20
233.0251371466
 11
324.591133228
 21
226.7251371466
  0
LINE
  5
2AD
100
AcDbEntity
  8
0
100
AcDbLine
 62
7
  6
CONTINUOUS
 10
324.591133228
 20
288.4151371466
 11
324.591133228
 21
292.7251371466
  0
LINE
  5
2AE
100
AcDbEntity
  8
0
100
AcDbLine
 62
7
  6
CONTINUOUS
 10
327.591133228
 20
226.7251371466
 11
327.591133228
 21
222.7251371466
  0
LINE
  5
2AF
100
AcDbEntity
  8
0
100
AcDbLine
 62
7
  6
CONTINUOUS
 10
327.591133228
 20
292.7251371466
 11
327.591133228
 21
296.7251371466
  0
LINE
  5
2B0
100
AcDbEntity
  8
0
100
AcDbLine
 62
7
  6
CONTINUOUS
 10
309.8009985067
 20
213.533581978
 11
309.3731643797
 21
213.3576062524
  0
LINE
  5
2B1
100
AcDbEntity
  8
0
100
AcDbLine
 62
7
  6
CONTINUOUS
 10
327.3286672376
 20
214.0251371467
 11
327.5911332278
 21
217.0251371466
  0
LINE
  5
2B2
100
AcDbEntity
  8
0
100
AcDbLine
 62
7
  6
CONTINUOUS
 10
310.0889806254
 20
218.7164200677
 11
307.576646142
 21
215.0640249753
  0
LINE
  5
2B3
100
AcDbEntity
  8
0
100
AcDbLine
 62
7
  6
CONTINUOUS
 10
312.2026979305
 20
217.0251371466
 11
309.8011859768
 21
213.5338542256
  0
LINE
  5
2B4
100
AcDbEntity
  8
0
100
AcDbLine
 62
7
  6
CONTINUOUS
 10
314.152739207
 20
215.0640249753
 11
315.5017087488
 21
217.0251371466
  0
LINE
  5
2B5
100
AcDbEntity
  8
0
100
AcDbLine
 62
7
  6
CONTINUOUS
 10
316.3770801764
 20
213.5335654484
 11
315.9492574448
 21
213.3576062524
  0
LWPOLYLINE
  5
2B6
100
AcDbEntity
  8
0
100
AcDbPolyline
 62
7
  6
CONTINUOUS
 90
4
 70
0
 10
68.5605594215
 20
389.6972038545
 10
60.1548090446
 20
387.8718551526
 10
53.2931524566
 20
382.6847291865
 10
49.4325660804
 20
375.7251371445
  0
LINE
  5
2B7
100
AcDbEntity
  8
0
100
AcDbLine
 62
7
  6
CONTINUOUS
 10
346.292883003
 20
290.7251371466
 11
346.292883003
 21
228.7251371466
  0
LINE
  5
2B8
100
AcDbEntity
  8
0
100
AcDbLine
 62
7
  6
CONTINUOUS
 10
349.664195466
 20
215.2251371466
 11
349.664195466
 21
212.5251371466
  0
LINE
  5
2B9
100
AcDbEntity
  8
0
100
AcDbLine
 62
7
  6
CONTINUOUS
 10
357.292883003
 20
219.7251371466
 11
357.292883003
 21
222.7251371466
  0
LINE
  5
2BA
100
AcDbEntity
  8
0
100
AcDbLine
 62
7
  6
CONTINUOUS
 10
357.292883003
 20
296.7251371466
 11
357.292883003
 21
299.7251371466
  0
LINE
  5
2BB
100
AcDbEntity
  8
0
100
AcDbLine
 62
7
  6
CONTINUOUS
 10
357.3194286597
 20
354.1129204614
 11
357.3194286597
 21
353.4251371466
  0
LINE
  5
2BC
100
AcDbEntity
  8
0
100
AcDbLine
 62
7
  6
CONTINUOUS
 10
358.642883003
 20
353.4251371466
 11
357.8427494727
 21
307.5855178951
  0
LINE
  5
2BD
100
AcDbEntity
  8
0
100
AcDbLine
 62
7
  6
CONTINUOUS
 10
357.4900776426
 20
305.3720527922
 11
357.3265850552
 21
300.6902376499
  0
LINE
  5
2BE
100
AcDbEntity
  8
0
100
AcDbLine
 62
7
  6
CONTINUOUS
 10
357.3194286601
 20
354.1129204617
 11
359.950545287
 21
370.7251371466
  0
LINE
  5
2BF
100
AcDbEntity
  8
0
100
AcDbLine
 62
7
  6
CONTINUOUS
 10
363.4844985627
 20
370.7251371466
 11
360.8379719599
 21
354.0156258001
  0
LINE
  5
2C0
100
AcDbEntity
  8
0
100
AcDbLine
 62
7
  6
CONTINUOUS
 10
316.3772790419
 20
213.5338542256
 11
316.3770801764
 21
213.5335654484
  0
LINE
  5
2C1
100
AcDbEntity
  8
0
100
AcDbLine
 62
7
  6
CONTINUOUS
 10
370.841542807
 20
371.7251371466
 11
370.841542807
 21
370.7251371466
  0
LINE
  5
2C2
100
AcDbEntity
  8
0
100
AcDbLine
 62
7
  6
CONTINUOUS
 10
374.5813287445
 20
371.7251371466
 11
374.4548836455
 21
375.7251371466
  0
LINE
  5
2C3
100
AcDbEntity
  8
0
100
AcDbLine
 62
7
  6
CONTINUOUS
 10
377.4382677085
 20
375.7251318999
 11
377.5646886405
 21
371.7251377095
  0
LINE
  5
2C4
100
AcDbEntity
  8
0
100
AcDbLine
 62
7
  6
CONTINUOUS
 10
353.283879807
 20
219.2720276364
 11
349.7015659547
 21
215.2419189804
  0
LINE
  5
2C5
100
AcDbEntity
  8
0
100
AcDbLine
 62
7
  6
CONTINUOUS
 10
351.7195723467
 20
213.448138001
 11
355.301886199
 21
217.478246657
  0
LINE
  5
2C6
100
AcDbEntity
  8
0
100
AcDbLine
 62
7
  6
CONTINUOUS
 10
385.1492840562
 20
375.7251342762
 11
385.2889673836
 21
371.7251371466
  0
LWPOLYLINE
  5
2C7
100
AcDbEntity
  8
0
100
AcDbPolyline
 62
7
  6
CONTINUOUS
 90
3
 70
0
 10
383.3316617242
 20
378.7251371466
 10
381.522662334
 20
380.2407652577
 10
377.1411479528
 20
381.6328213993
  0
ARC
  5
2C8
100
AcDbEntity
  8
0
100
AcDbCircle
 62
7
  6
CONTINUOUS
 10
49.292883003
 20
-6255.4660393244
 40
6645.191176471
100
AcDbArc
 50
87.2384244111
 51
89.7712853756
  0
ARC
  5
2C9
100
AcDbEntity
  8
0
100
AcDbCircle
 62
7
  6
CONTINUOUS
 10
49.2966251854
 20
-6254.0546242273
 40
6642.0476027507
100
AcDbArc
 50
87.2383857069
 51
89.7713140683
  0
ARC
  5
2CA
100
AcDbEntity
  8
0
100
AcDbCircle
 62
7
  6
CONTINUOUS
 10
112.994632778
 20
223.5124173058
 40
11.0872801592
100
AcDbArc
 50
238.8361007264
 51
301.1638992736
  0
ARC
  5
2CB
100
AcDbEntity
  8
0
100
AcDbCircle
 62
7
  6
CONTINUOUS
 10
86.7417980946
 20
307.7251371466
 40
8.0
100
AcDbArc
 50
181.0
 51
270.0
  0
ARC
  5
2CC
100
AcDbEntity
  8
0
100
AcDbCircle
 62
7
  6
CONTINUOUS
 10
82.292883003
 20
290.7251371466
 40
6.0
100
AcDbArc
 50
0.0
 51
90.0
  0
ARC
  5
2CD
100
AcDbEntity
  8
0
100
AcDbCircle
 62
7
  6
CONTINUOUS
 10
82.292883003
 20
228.7251371466
 40
6.0
100
AcDbArc
 50
270.0
 51
360.0
  0
ARC
  5
2CE
100
AcDbEntity
  8
0
100
AcDbCircle
 62
7
  6
CONTINUOUS
 10
84.92157054
 20
215.2751371466
 40
2.75
100
AcDbArc
 50
221.6335000023
 51
270.0
  0
ARC
  5
2CF
100
AcDbEntity
  8
0
100
AcDbCircle
 62
7
  6
CONTINUOUS
 10
108.344632778
 20
218.3751371466
 40
1.35
100
AcDbArc
 50
90.0
 51
216.0
  0
ARC
  5
2D0
100
AcDbEntity
  8
0
100
AcDbCircle
 62
7
  6
CONTINUOUS
 10
84.192883003
 20
211.1751371466
 40
1.35
100
AcDbArc
 50
90.0
 51
270.0
  0
ARC
  5
2D1
100
AcDbEntity
  8
0
100
AcDbCircle
 62
7
  6
CONTINUOUS
 10
60.1314384909
 20
377.0265612208
 40
1.3014235537
100
AcDbArc
 50
260.3516940017
 51
269.9755161012
  0
ARC
  5
2D2
100
AcDbEntity
  8
0
100
AcDbCircle
 62
7
  6
CONTINUOUS
 10
116.1158517208
 20
218.1725154776
 40
1.1627078922
100
AcDbArc
 50
272.555788032
 51
276.8300347713
  0
ARC
  5
2D3
100
AcDbEntity
  8
0
100
AcDbCircle
 62
7
  6
CONTINUOUS
 10
56.303933003
 20
371.7251371466
 40
1.0
100
AcDbArc
 50
180.0
 51
269.9999926661
  0
ARC
  5
2D4
100
AcDbEntity
  8
0
100
AcDbCircle
 62
7
  6
CONTINUOUS
 10
80.2585717778
 20
300.7251371466
 40
1.0
100
AcDbArc
 50
181.9999999999
 51
270.0
  0
ARC
  5
2D5
100
AcDbEntity
  8
0
100
AcDbCircle
 62
7
  6
CONTINUOUS
 10
122.7000607357
 20
217.9256657124
 40
0.915664391
100
AcDbArc
 50
267.8229125478
 51
270.0129154933
  0
ARC
  5
2D6
100
AcDbEntity
  8
0
100
AcDbCircle
 62
7
  6
CONTINUOUS
 10
122.6985507455
 20
217.8814465959
 40
0.8714198472
100
AcDbArc
 50
266.9792962178
 51
267.8116755976
  0
ARC
  5
2D7
100
AcDbEntity
  8
0
100
AcDbCircle
 62
7
  6
CONTINUOUS
 10
73.9503670146
 20
354.1251524817
 40
0.6999935651
100
AcDbArc
 50
181.0011606835
 51
269.9862297363
  0
ARC
  5
2D8
100
AcDbEntity
  8
0
100
AcDbCircle
 62
7
  6
CONTINUOUS
 10
321.591133228
 20
223.5124173058
 40
11.0872801592
100
AcDbArc
 50
238.8361007264
 51
301.1638992736
  0
ARC
  5
2D9
100
AcDbEntity
  8
0
100
AcDbCircle
 62
7
  6
CONTINUOUS
 10
349.8439679114
 20
307.7251371466
 40
8.0
100
AcDbArc
 50
270.0
 51
359.0
  0
ARC
  5
2DA
100
AcDbEntity
  8
0
100
AcDbCircle
 62
7
  6
CONTINUOUS
 10
352.292883003
 20
290.7251371466
 40
6.0
100
AcDbArc
 50
90.0
 51
180.0
  0
ARC
  5
2DB
100
AcDbEntity
  8
0
100
AcDbCircle
 62
7
  6
CONTINUOUS
 10
352.292883003
 20
228.7251371466
 40
6.0
100
AcDbArc
 50
180.0
 51
270.0
  0
ARC
  5
2DC
100
AcDbEntity
  8
0
100
AcDbCircle
 62
7
  6
CONTINUOUS
 10
349.664195466
 20
215.2751371466
 40
2.75
100
AcDbArc
 50
270.0
 51
318.3664999977
  0
ARC
  5
2DD
100
AcDbEntity
  8
0
100
AcDbCircle
 62
7
  6
CONTINUOUS
 10
217.292883003
 20
213.8751371466
 40
1.35
100
AcDbArc
 50
180.0
 51
360.0
  0
ARC
  5
2DE
100
AcDbEntity
  8
0
100
AcDbCircle
 62
7
  6
CONTINUOUS
 10
326.241133228
 20
218.3751371466
 40
1.35
100
AcDbArc
 50
324.0
 51
90.0
  0
ARC
  5
2DF
100
AcDbEntity
  8
0
100
AcDbCircle
 62
7
  6
CONTINUOUS
 10
350.392883003
 20
211.1751371466
 40
1.35
100
AcDbArc
 50
270.0
 51
90.0
  0
ARC
  5
2E0
100
AcDbEntity
  8
0
100
AcDbCircle
 62
7
  6
CONTINUOUS
 10
374.4544177166
 20
377.0256509781
 40
1.3005159999
100
AcDbArc
 50
270.0205270918
 51
279.272547531
  0
ARC
  5
2E1
100
AcDbEntity
  8
0
100
AcDbCircle
 62
7
  6
CONTINUOUS
 10
318.4699142852
 20
218.1725154777
 40
1.1627078923
100
AcDbArc
 50
263.1699652279
 51
267.4442119676
  0
ARC
  5
2E2
100
AcDbEntity
  8
0
100
AcDbCircle
 62
7
  6
CONTINUOUS
 10
373.7132812551
 20
371.726184533
 40
1.0088423149
100
AcDbArc
 50
347.184414516
 51
359.9405151549
  0
ARC
  5
2E3
100
AcDbEntity
  8
0
100
AcDbCircle
 62
7
  6
CONTINUOUS
 10
381.288033003
 20
371.7251371466
 40
1.0
100
AcDbArc
 50
270.0000073339
 51
360.0
  0
ARC
  5
2E4
100
AcDbEntity
  8
0
100
AcDbCircle
 62
7
  6
CONTINUOUS
 10
356.3271942282
 20
300.7251371466
 40
1.0
100
AcDbArc
 50
270.0
 51
357.9999999944
  0
ARC
  5
2E5
100
AcDbEntity
  8
0
100
AcDbCircle
 62
7
  6
CONTINUOUS
 10
311.8857052746
 20
217.9256653708
 40
0.9156640494
100
AcDbArc
 50
269.9870842327
 51
272.1771104621
  0
ARC
  5
2E6
100
AcDbEntity
  8
0
100
AcDbCircle
 62
7
  6
CONTINUOUS
 10
311.8872151748
 20
217.8814486247
 40
0.8714218779
100
AcDbArc
 50
272.1883485519
 51
273.0205372856
  0
ARC
  5
2E7
100
AcDbEntity
  8
0
100
AcDbCircle
 62
7
  6
CONTINUOUS
 10
360.1465912652
 20
354.1251371466
 40
0.7
100
AcDbArc
 50
270.0
 51
350.9994017486
  0
SPLINE
  5
2E8
100
AcDbEntity
  8
0
100
AcDbSpline
 62
7
  6
CONTINUOUS
 70
0
 71
3
 72
13
 73
9
 74
0
 42
0.0000001
 43
0.0000001
 44
0.0000000001
 40
0.0
 40
0.0
 40
0.0
 40
0.0
 40
0.0995277235
 40
0.2036009052
 40
0.3155822302
 40
0.4371255627
 40
0.7067297987
 40
1.0
 40
1.0
 40
1.0
 40
1.0
 10
218.642849706
 20
218.3751371548
 30
0.0
 10
218.6428507746
 20
218.4340954943
 30
0.0
 10
218.6244657742
 20
218.5553830101
 30
0.0
 10
218.5443878257
 20
218.7266869567
 30
0.0
 10
218.4164172672
 20
218.8827081366
 30
0.0
 10
218.1818120738
 20
219.0694102131
 30
0.0
 10
217.8014923984
 20
219.2299032854
 30
0.0
 10
217.466610719
 20
219.2720276363
 30
0.0
 10
217.292883003
 20
219.2720276363
 30
0.0
  0
SPLINE
  5
2E9
100
AcDbEntity
  8
0
100
AcDbSpline
 62
7
  6
CONTINUOUS
 70
0
 71
3
 72
13
 73
9
 74
0
 42
0.0000001
 43
0.0000001
 44
0.0000000001
 40
0.0
 40
0.0
 40
0.0
 40
0.0
 40
0.2932689038
 40
0.5628651793
 40
0.6844069452
 40
0.796389958
 40
0.9004682832
 40
1.0
 40
1.0
 40
1.0
 40
1.0
 10
217.292883003
 20
219.2720276363
 30
0.0
 10
217.1191558717
 20
219.2720276363
 30
0.0
 10
216.7842797964
 20
219.2299034499
 30
0.0
 10
216.4039633301
 20
219.0694197088
 30
0.0
 10
216.1693598845
 20
218.8827212187
 30
0.0
 10
216.0413885579
 20
218.7266978807
 30
0.0
 10
215.9612959023
 20
218.5553921667
 30
0.0
 10
215.9429173687
 20
218.434097906
 30
0.0
 10
215.9429163
 20
218.3751371386
 30
0.0
  0
SPLINE
  5
2EA
100
AcDbEntity
  8
0
100
AcDbSpline
 62
7
  6
CONTINUOUS
 70
0
 71
3
 72
13
 73
9
 74
0
 42
0.0000001
 43
0.0000001
 44
0.0000000001
 40
0.0
 40
0.0
 40
0.0
 40
0.0
 40
0.2932689038
 40
0.5628651793
 40
0.6844069452
 40
0.796389958
 40
0.9004682832
 40
1.0
 40
1.0
 40
1.0
 40
1.0
 10
217.292883003
 20
217.478246657
 30
0.0
 10
217.4666101343
 20
217.478246657
 30
0.0
 10
217.8014862096
 20
217.5203708434
 30
0.0
 10
218.1818026759
 20
217.6808545845
 30
0.0
 10
218.4164061215
 20
217.8675530746
 30
0.0
 10
218.5443774481
 20
218.0235764127
 30
0.0
 10
218.6244701037
 20
218.1948821266
 30
0.0
 10
218.6428486373
 20
218.3161763874
 30
0.0
 10
218.642849706
 20
218.3751371548
 30
0.0
  0
SPLINE
  5
2EB
100
AcDbEntity
  8
0
100
AcDbSpline
 62
7
  6
CONTINUOUS
 70
0
 71
3
 72
9
 73
5
 74
0
 42
0.0000001
 43
0.0000001
 44
0.0000000001
 40
0.0
 40
0.0
 40
0.0
 40
0.0
 40
0.2811658399
 40
1.0
 40
1.0
 40
1.0
 40
1.0
 10
217.292883003
 20
213.448138001
 30
0.0
 10
217.1649888976
 20
213.448138001
 30
0.0
 10
216.7163211846
 20
213.4883787597
 30
0.0
 10
216.2457119897
 20
213.7058682293
 30
0.0
 10
216.0621436558
 20
213.9764534602
 30
0.0
  0
SPLINE
  5
2EC
100
AcDbEntity
  8
0
100
AcDbSpline
 62
7
  6
CONTINUOUS
 70
0
 71
3
 72
9
 73
5
 74
0
 42
0.0000001
 43
0.0000001
 44
0.0000000001
 40
0.0
 40
0.0
 40
0.0
 40
0.0
 40
0.5127957848
 40
1.0
 40
1.0
 40
1.0
 40
1.0
 10
216.0621436558
 20
213.9764534602
 30
0.0
 10
216.0245448469
 20
214.0318752326
 30
0.0
 10
215.9644460045
 20
214.1500412764
 30
0.0
 10
215.9429063064
 20
214.2813988321
 30
0.0
 10
215.9429063064
 20
214.3450284907
 30
0.0
  0
SPLINE
  5
2ED
100
AcDbEntity
  8
0
100
AcDbSpline
 62
7
  6
CONTINUOUS
 70
0
 71
3
 72
13
 73
9
 74
0
 42
0.0000001
 43
0.0000001
 44
0.0000000001
 40
0.0
 40
0.0
 40
0.0
 40
0.0
 40
0.0995312742
 40
0.2036077934
 40
0.3155933459
 40
0.4371403076
 40
0.7067418393
 40
1.0
 40
1.0
 40
1.0
 40
1.0
 10
218.6428596996
 20
214.3450284907
 30
0.0
 10
218.6428596996
 20
214.2860676791
 30
0.0
 10
218.6244791619
 20
214.1647743972
 30
0.0
 10
218.5443892952
 20
213.9934662709
 30
0.0
 10
218.416411205
 20
213.8374419846
 30
0.0
 10
218.1817999465
 20
213.6507389256
 30
0.0
 10
217.8014788364
 20
213.4902594447
 30
0.0
 10
217.4666046728
 20
213.448138001
 30
0.0
 10
217.292883003
 20
213.448138001
 30
0.0
  0
SPLINE
  5
2EE
100
AcDbEntity
  8
0
100
AcDbSpline
 62
7
  6
CONTINUOUS
 70
0
 71
3
 72
13
 73
9
 74
0
 42
0.0000001
 43
0.0000001
 44
0.0000000001
 40
0.0
 40
0.0
 40
0.0
 40
0.0
 40
0.0995277235
 40
0.2036009052
 40
0.3155822302
 40
0.4371255627
 40
0.7067297987
 40
1.0
 40
1.0
 40
1.0
 40
1.0
 10
215.9429163
 20
218.3751371386
 30
0.0
 10
215.9429152314
 20
218.3161787991
 30
0.0
 10
215.9613002318
 20
218.1948912832
 30
0.0
 10
216.0413781802
 20
218.0235873367
 30
0.0
 10
216.1693487387
 20
217.8675661567
 30
0.0
 10
216.4039539322
 20
217.6808640802
 30
0.0
 10
216.7842736076
 20
217.5203710079
 30
0.0
 10
217.1191552869
 20
217.478246657
 30
0.0
 10
217.292883003
 20
217.478246657
 30
0.0
  0
SPLINE
  5
2EF
100
AcDbEntity
  8
0
100
AcDbSpline
 62
7
  6
CONTINUOUS
 70
0
 71
3
 72
9
 73
5
 74
0
 42
0.0000001
 43
0.0000001
 44
0.0000000001
 40
0.0
 40
0.0
 40
0.0
 40
0.0
 40
0.4974860914
 40
1.0
 40
1.0
 40
1.0
 40
1.0
 10
120.0293534176
 20
212.5251458774
 30
0.0
 10
119.6736774896
 20
212.5253563952
 30
0.0
 10
118.9473356244
 20
212.7221700597
 30
0.0
 10
118.4123387781
 20
213.2376283173
 30
0.0
 10
118.2086718701
 20
213.533593117
 30
0.0
  0
SPLINE
  5
2F0
100
AcDbEntity
  8
0
100
AcDbSpline
 62
7
  6
CONTINUOUS
 70
0
 71
3
 72
9
 73
5
 74
0
 42
0.0000001
 43
0.0000001
 44
0.0000000001
 40
0.0
 40
0.0
 40
0.0
 40
0.0
 40
0.5212089596
 40
1.0
 40
1.0
 40
1.0
 40
1.0
 10
216.5563996304
 20
212.7939915862
 30
0.0
 10
216.4793642858
 20
212.7125392882
 30
0.0
 10
216.3049089089
 20
212.577264651
 30
0.0
 10
216.0877251138
 20
212.5251371466
 30
0.0
 10
215.9847379393
 20
212.5251371466
 30
0.0
  0
SPLINE
  5
2F1
100
AcDbEntity
  8
0
100
AcDbSpline
 62
7
  6
CONTINUOUS
 70
0
 71
3
 72
9
 73
5
 74
0
 42
0.0000001
 43
0.0000001
 44
0.0000000001
 40
0.0
 40
0.0
 40
0.0
 40
0.0
 40
0.5024951143
 40
1.0
 40
1.0
 40
1.0
 40
1.0
 10
124.7847757374
 20
213.5335769362
 30
0.0
 10
124.9884350059
 20
213.2376247962
 30
0.0
 10
125.5234298135
 20
212.7221674
 30
0.0
 10
126.2497706511
 20
212.5253644338
 30
0.0
 10
126.6054587025
 20
212.5251475178
 30
0.0
  0
SPLINE
  5
2F2
100
AcDbEntity
  8
0
100
AcDbSpline
 62
7
  6
CONTINUOUS
 70
0
 71
3
 72
9
 73
5
 74
0
 42
0.0000001
 43
0.0000001
 44
0.0000000001
 40
0.0
 40
0.0
 40
0.0
 40
0.0
 40
0.4974860914
 40
1.0
 40
1.0
 40
1.0
 40
1.0
 10
122.6759189271
 20
219.7251284159
 30
0.0
 10
123.0315948551
 20
219.7249178981
 30
0.0
 10
123.7579367203
 20
219.5281042335
 30
0.0
 10
124.2929335666
 20
219.0126459759
 30
0.0
 10
124.4966004746
 20
218.7166811763
 30
0.0
  0
SPLINE
  5
2F3
100
AcDbEntity
  8
0
100
AcDbSpline
 62
7
  6
CONTINUOUS
 70
0
 71
3
 72
15
 73
11
 74
0
 42
0.0000001
 43
0.0000001
 44
0.0000000001
 40
0.0
 40
0.0
 40
0.0
 40
0.0
 40
0.1201565137
 40
0.2604678478
 40
0.4119375999
 40
0.5635659018
 40
0.7042488742
 40
0.8250049195
 40
0.9217395231
 40
1.0
 40
1.0
 40
1.0
 40
1.0
 10
122.7002671428
 20
217.0100013447
 30
0.0
 10
122.8111244661
 20
217.0100013447
 30
0.0
 10
123.0513055144
 20
217.0495179432
 30
0.0
 10
123.4079593598
 20
217.1852394545
 30
0.0
 10
123.7634036234
 20
217.3912845449
 30
0.0
 10
124.0839958062
 20
217.6483984996
 30
0.0
 10
124.3407294437
 20
217.9329061745
 30
0.0
 10
124.5098875763
 20
218.2197891987
 30
0.0
 10
124.5801695402
 20
218.489766294
 30
0.0
 10
124.5377182309
 20
218.6569399983
 30
0.0
 10
124.496786861
 20
218.7164210862
 30
0.0
  0
SPLINE
  5
2F4
100
AcDbEntity
  8
0
100
AcDbSpline
 62
7
  6
CONTINUOUS
 70
0
 71
3
 72
14
 73
10
 74
0
 42
0.0000001
 43
0.0000001
 44
0.0000000001
 40
0.0
 40
0.0
 40
0.0
 40
0.0
 40
0.101971129
 40
0.213752245
 40
0.3393023196
 40
0.4763154174
 40
0.6184420611
 40
0.7577944548
 40
1.0
 40
1.0
 40
1.0
 40
1.0
 10
120.0303477323
 20
212.5251371466
 30
0.0
 10
120.1387790187
 20
212.5251371466
 30
0.0
 10
120.3685836038
 20
212.5836408819
 30
0.0
 10
120.6534668617
 20
212.818928997
 30
0.0
 10
120.8627470785
 20
213.1645203577
 30
0.0
 10
120.9805347168
 20
213.582914054
 30
0.0
 10
120.9956757727
 20
214.032766198
 30
0.0
 10
120.8873829031
 20
214.5791693001
 30
0.0
 10
120.6515037387
 20
214.9535615954
 30
0.0
 10
120.4371924361
 20
215.096399408
 30
0.0
  0
SPLINE
  5
2F5
100
AcDbEntity
  8
0
100
AcDbSpline
 62
7
  6
CONTINUOUS
 70
0
 71
3
 72
14
 73
10
 74
0
 42
0.0000001
 43
0.0000001
 44
0.0000000001
 40
0.0
 40
0.0
 40
0.0
 40
0.0
 40
0.101971129
 40
0.213752245
 40
0.3393023196
 40
0.4763154175
 40
0.6184420612
 40
0.7577944549
 40
1.0
 40
1.0
 40
1.0
 40
1.0
 10
126.6064407973
 20
212.5251371466
 30
0.0
 10
126.7148720839
 20
212.5251371466
 30
0.0
 10
126.9446766691
 20
212.583640882
 30
0.0
 10
127.2295599272
 20
212.8189289976
 30
0.0
 10
127.438840144
 20
213.1645203587
 30
0.0
 10
127.5566277821
 20
213.5829140555
 30
0.0
 10
127.5717688376
 20
214.0327661999
 30
0.0
 10
127.4634759674
 20
214.5791693022
 30
0.0
 10
127.2275968022
 20
214.9535615973
 30
0.0
 10
127.0132854991
 20
215.0963994094
 30
0.0
  0
SPLINE
  5
2F6
100
AcDbEntity
  8
0
100
AcDbSpline
 62
7
  6
CONTINUOUS
 70
0
 71
3
 72
11
 73
7
 74
0
 42
0.0000001
 43
0.0000001
 44
0.0000000001
 40
0.0
 40
0.0
 40
0.0
 40
0.0
 40
0.2880052506
 40
0.5553344723
 40
0.7905070702
 40
1.0
 40
1.0
 40
1.0
 40
1.0
 10
117.2372734651
 20
218.3751371466
 30
0.0
 10
117.2372734651
 20
218.5490599698
 30
0.0
 10
117.1918422538
 20
218.8865507877
 30
0.0
 10
116.9919409349
 20
219.3283453584
 30
0.0
 10
116.6809208597
 20
219.6430060144
 30
0.0
 10
116.4091895103
 20
219.7251371466
 30
0.0
 10
116.2826793105
 20
219.7251371466
 30
0.0
  0
SPLINE
  5
2F7
100
AcDbEntity
  8
0
100
AcDbSpline
 62
7
  6
CONTINUOUS
 70
0
 71
3
 72
11
 73
7
 74
0
 42
0.0000001
 43
0.0000001
 44
0.0000000001
 40
0.0
 40
0.0
 40
0.0
 40
0.0
 40
0.2094929298
 40
0.4446655277
 40
0.7119947494
 40
1.0
 40
1.0
 40
1.0
 40
1.0
 10
116.2826793105
 20
217.0251371466
 30
0.0
 10
116.4091895103
 20
217.0251371466
 30
0.0
 10
116.6809208597
 20
217.1072682789
 30
0.0
 10
116.9919409349
 20
217.4219289349
 30
0.0
 10
117.1918422538
 20
217.8637235056
 30
0.0
 10
117.2372734651
 20
218.2012143235
 30
0.0
 10
117.2372734651
 20
218.3751371466
 30
0.0
  0
SPLINE
  5
2F8
100
AcDbEntity
  8
0
100
AcDbSpline
 62
7
  6
CONTINUOUS
 70
0
 71
3
 72
15
 73
11
 74
0
 42
0.0000001
 43
0.0000001
 44
0.0000000001
 40
0.0
 40
0.0
 40
0.0
 40
0.0
 40
0.0782604769
 40
0.1749950805
 40
0.2957511258
 40
0.4364340982
 40
0.5880624001
 40
0.7395321522
 40
0.8798434863
 40
1.0
 40
1.0
 40
1.0
 40
1.0
 10
127.0091213445
 20
215.0640259938
 30
0.0
 10
127.0500527143
 20
215.004544906
 30
0.0
 10
127.0925040237
 20
214.8373712017
 30
0.0
 10
127.0222220598
 20
214.5673941064
 30
0.0
 10
126.8530639272
 20
214.2805110822
 30
0.0
 10
126.5963302896
 20
213.9960034072
 30
0.0
 10
126.2757381068
 20
213.7388894526
 30
0.0
 10
125.9202938433
 20
213.5328443622
 30
0.0
 10
125.5636399978
 20
213.3971228509
 30
0.0
 10
125.3234589495
 20
213.3576062524
 30
0.0
 10
125.2126016263
 20
213.3576062524
 30
0.0
  0
SPLINE
  5
2F9
100
AcDbEntity
  8
0
100
AcDbSpline
 62
7
  6
CONTINUOUS
 70
0
 71
3
 72
15
 73
11
 74
0
 42
0.0000001
 43
0.0000001
 44
0.0000000001
 40
0.0
 40
0.0
 40
0.0
 40
0.0
 40
0.104470771
 40
0.2215117045
 40
0.354468744
 40
0.4978721541
 40
0.6417945112
 40
0.7761064522
 40
0.8947048077
 40
1.0
 40
1.0
 40
1.0
 40
1.0
 10
122.6759377068
 20
219.7251363709
 30
0.0
 10
122.8008369393
 20
219.724945099
 30
0.0
 10
123.0686837844
 20
219.6447192012
 30
0.0
 10
123.3774998497
 20
219.3371880473
 30
0.0
 10
123.5784808782
 20
218.9035024783
 30
0.0
 10
123.6523079567
 20
218.4001429014
 30
0.0
 10
123.5914314327
 20
217.8934760862
 30
0.0
 10
123.4019497634
 20
217.4504406736
 30
0.0
 10
123.1029517962
 20
217.128110193
 30
0.0
 10
122.8373131473
 20
217.0330895021
 30
0.0
 10
122.7116194771
 20
217.0261514069
 30
0.0
  0
SPLINE
  5
2FA
100
AcDbEntity
  8
0
100
AcDbSpline
 62
7
  6
CONTINUOUS
 70
0
 71
3
 72
13
 73
9
 74
0
 42
0.0000001
 43
0.0000001
 44
0.0000000001
 40
0.0
 40
0.0
 40
0.0
 40
0.0
 40
0.0787237312
 40
0.1683848346
 40
0.2749309214
 40
0.3992336593
 40
0.6889418531
 40
1.0
 40
1.0
 40
1.0
 40
1.0
 10
120.4330282794
 20
215.0640259938
 30
0.0
 10
120.4621696272
 20
215.021678057
 30
0.0
 10
120.5019766053
 20
214.9145460898
 30
0.0
 10
120.4923589048
 20
214.7319815867
 30
0.0
 10
120.42355168
 20
214.5323345711
 30
0.0
 10
120.2502891415
 20
214.2380157826
 30
0.0
 10
119.9188180984
 20
213.8919440402
 30
0.0
 10
119.5906369395
 20
213.6710951163
 30
0.0
 10
119.4101935529
 20
213.57783642
 30
0.0
  0
SPLINE
  5
2FB
100
AcDbEntity
  8
0
100
AcDbSpline
 62
7
  6
CONTINUOUS
 70
0
 71
3
 72
9
 73
5
 74
0
 42
0.0000001
 43
0.0000001
 44
0.0000000001
 40
0.0
 40
0.0
 40
0.0
 40
0.0
 40
0.2651437476
 40
1.0
 40
1.0
 40
1.0
 40
1.0
 10
119.4101935529
 20
213.57783642
 30
0.0
 10
119.3655393618
 20
213.5547577596
 30
0.0
 10
119.1946436157
 20
213.4728363519
 30
0.0
 10
119.0133548158
 20
213.4107708075
 30
0.0
 10
118.8767619143
 20
213.3833766265
 30
0.0
  0
SPLINE
  5
2FC
100
AcDbEntity
  8
0
100
AcDbSpline
 62
7
  6
CONTINUOUS
 70
0
 71
3
 72
9
 73
5
 74
0
 42
0.0000001
 43
0.0000001
 44
0.0000000001
 40
0.0
 40
0.0
 40
0.0
 40
0.0
 40
0.2645901066
 40
1.0
 40
1.0
 40
1.0
 40
1.0
 10
118.8767619143
 20
213.3833766265
 30
0.0
 10
118.8558487381
 20
213.3791824164
 30
0.0
 10
118.7765037674
 20
213.3649975674
 30
0.0
 10
118.6957927413
 20
213.3576062524
 30
0.0
 10
118.6365085612
 20
213.3576062524
 30
0.0
  0
SPLINE
  5
2FD
100
AcDbEntity
  8
0
100
AcDbSpline
 62
7
  6
CONTINUOUS
 70
0
 71
3
 72
9
 73
5
 74
0
 42
0.0000001
 43
0.0000001
 44
0.0000000001
 40
0.0
 40
0.0
 40
0.0
 40
0.0
 40
0.4974860914
 40
1.0
 40
1.0
 40
1.0
 40
1.0
 10
307.9803195233
 20
212.5251458774
 30
0.0
 10
308.3359954513
 20
212.5253563952
 30
0.0
 10
309.0623373165
 20
212.7221700597
 30
0.0
 10
309.5973341629
 20
213.2376283173
 30
0.0
 10
309.8010010709
 20
213.533593117
 30
0.0
  0
SPLINE
  5
2FE
100
AcDbEntity
  8
0
100
AcDbSpline
 62
7
  6
CONTINUOUS
 70
0
 71
3
 72
9
 73
5
 74
0
 42
0.0000001
 43
0.0000001
 44
0.0000000001
 40
0.0
 40
0.0
 40
0.0
 40
0.0
 40
0.5024951143
 40
1.0
 40
1.0
 40
1.0
 40
1.0
 10
310.0891763337
 20
218.7166973571
 30
0.0
 10
310.2928356022
 20
219.0126494971
 30
0.0
 10
310.8278304098
 20
219.5281068933
 30
0.0
 10
311.5541712473
 20
219.7249098595
 30
0.0
 10
311.9098592988
 20
219.7251267755
 30
0.0
  0
SPLINE
  5
2FF
100
AcDbEntity
  8
0
100
AcDbSpline
 62
7
  6
CONTINUOUS
 70
0
 71
3
 72
9
 73
5
 74
0
 42
0.0000001
 43
0.0000001
 44
0.0000000001
 40
0.0
 40
0.0
 40
0.0
 40
0.0
 40
0.5024951143
 40
1.0
 40
1.0
 40
1.0
 40
1.0
 10
316.3770833336
 20
213.5335769362
 30
0.0
 10
316.1734240651
 20
213.2376247962
 30
0.0
 10
315.6384292575
 20
212.7221674
 30
0.0
 10
314.9120884199
 20
212.5253644338
 30
0.0
 10
314.5564003685
 20
212.5251475178
 30
0.0
  0
SPLINE
  5
300
100
AcDbEntity
  8
0
100
AcDbSpline
 62
7
  6
CONTINUOUS
 70
0
 71
3
 72
15
 73
11
 74
0
 42
0.0000001
 43
0.0000001
 44
0.0000000001
 40
0.0
 40
0.0
 40
0.0
 40
0.0
 40
0.1201565137
 40
0.2604678478
 40
0.4119375999
 40
0.5635659018
 40
0.7042488742
 40
0.8250049195
 40
0.9217395231
 40
1.0
 40
1.0
 40
1.0
 40
1.0
 10
309.3731643797
 20
213.3576062524
 30
0.0
 10
309.2623070565
 20
213.3576062524
 30
0.0
 10
309.0221260082
 20
213.3971228509
 30
0.0
 10
308.6654721627
 20
213.5328443622
 30
0.0
 10
308.3100278992
 20
213.7388894526
 30
0.0
 10
307.9894357164
 20
213.9960034072
 30
0.0
 10
307.7327020788
 20
214.2805110822
 30
0.0
 10
307.5635439462
 20
214.5673941064
 30
0.0
 10
307.4932619823
 20
214.8373712017
 30
0.0
 10
307.5357132917
 20
215.004544906
 30
0.0
 10
307.5766446615
 20
215.0640259938
 30
0.0
  0
SPLINE
  5
301
100
AcDbEntity
  8
0
100
AcDbSpline
 62
7
  6
CONTINUOUS
 70
0
 71
3
 72
15
 73
11
 74
0
 42
0.0000001
 43
0.0000001
 44
0.0000000001
 40
0.0
 40
0.0
 40
0.0
 40
0.0
 40
0.0782604769
 40
0.1749950805
 40
0.2957511258
 40
0.4364340982
 40
0.5880624001
 40
0.7395321522
 40
0.8798434863
 40
1.0
 40
1.0
 40
1.0
 40
1.0
 10
310.088979145
 20
218.7164210862
 30
0.0
 10
310.0480477751
 20
218.6569399983
 30
0.0
 10
310.0055964658
 20
218.489766294
 30
0.0
 10
310.0758784297
 20
218.2197891987
 30
0.0
 10
310.2450365623
 20
217.9329061745
 30
0.0
 10
310.5017701998
 20
217.6483984996
 30
0.0
 10
310.8223623826
 20
217.3912845449
 30
0.0
 10
311.1778066462
 20
217.1852394545
 30
0.0
 10
311.5344604916
 20
217.0495179432
 30
0.0
 10
311.7746415399
 20
217.0100013447
 30
0.0
 10
311.8854988632
 20
217.0100013447
 30
0.0
  0
SPLINE
  5
302
100
AcDbEntity
  8
0
100
AcDbSpline
 62
7
  6
CONTINUOUS
 70
0
 71
3
 72
14
 73
10
 74
0
 42
0.0000001
 43
0.0000001
 44
0.0000000001
 40
0.0
 40
0.0
 40
0.0
 40
0.0
 40
0.2422055451
 40
0.3815579388
 40
0.5236845825
 40
0.6606976804
 40
0.786247755
 40
0.898028871
 40
1.0
 40
1.0
 40
1.0
 40
1.0
 10
314.1485735719
 20
215.0963994094
 30
0.0
 10
313.9342622688
 20
214.9535615974
 30
0.0
 10
313.6983831036
 20
214.5791693022
 30
0.0
 10
313.5900902335
 20
214.0327661999
 30
0.0
 10
313.6052312889
 20
213.5829140555
 30
0.0
 10
313.723018927
 20
213.1645203587
 30
0.0
 10
313.9322991438
 20
212.8189289976
 30
0.0
 10
314.2171824019
 20
212.583640882
 30
0.0
 10
314.4469869872
 20
212.5251371466
 30
0.0
 10
314.5554182737
 20
212.5251371466
 30
0.0
  0
SPLINE
  5
303
100
AcDbEntity
  8
0
100
AcDbSpline
 62
7
  6
CONTINUOUS
 70
0
 71
3
 72
14
 73
10
 74
0
 42
0.0000001
 43
0.0000001
 44
0.0000000001
 40
0.0
 40
0.0
 40
0.0
 40
0.0
 40
0.2422055452
 40
0.3815579389
 40
0.5236845826
 40
0.6606976804
 40
0.786247755
 40
0.898028871
 40
1.0
 40
1.0
 40
1.0
 40
1.0
 10
307.5724805048
 20
215.096399408
 30
0.0
 10
307.3581692022
 20
214.9535615954
 30
0.0
 10
307.1222900378
 20
214.5791693001
 30
0.0
 10
307.0139971683
 20
214.032766198
 30
0.0
 10
307.0291382241
 20
213.582914054
 30
0.0
 10
307.1469258625
 20
213.1645203577
 30
0.0
 10
307.3562060792
 20
212.818928997
 30
0.0
 10
307.6410893372
 20
212.5836408819
 30
0.0
 10
307.8708939222
 20
212.5251371466
 30
0.0
 10
307.9793252087
 20
212.5251371466
 30
0.0
  0
SPLINE
  5
304
100
AcDbEntity
  8
0
100
AcDbSpline
 62
7
  6
CONTINUOUS
 70
0
 71
3
 72
11
 73
7
 74
0
 42
0.0000001
 43
0.0000001
 44
0.0000000001
 40
0.0
 40
0.0
 40
0.0
 40
0.0
 40
0.2880052506
 40
0.5553344723
 40
0.7905070702
 40
1.0
 40
1.0
 40
1.0
 40
1.0
 10
317.3484925409
 20
218.3751371466
 30
0.0
 10
317.3484925409
 20
218.2012143235
 30
0.0
 10
317.3939237522
 20
217.8637235056
 30
0.0
 10
317.593825071
 20
217.4219289349
 30
0.0
 10
317.9048451463
 20
217.1072682789
 30
0.0
 10
318.1765764957
 20
217.0251371466
 30
0.0
 10
318.3030866955
 20
217.0251371466
 30
0.0
  0
SPLINE
  5
305
100
AcDbEntity
  8
0
100
AcDbSpline
 62
7
  6
CONTINUOUS
 70
0
 71
3
 72
11
 73
7
 74
0
 42
0.0000001
 43
0.0000001
 44
0.0000000001
 40
0.0
 40
0.0
 40
0.0
 40
0.0
 40
0.2094929298
 40
0.4446655277
 40
0.7119947494
 40
1.0
 40
1.0
 40
1.0
 40
1.0
 10
318.3030866955
 20
219.7251371466
 30
0.0
 10
318.1765764957
 20
219.7251371466
 30
0.0
 10
317.9048451463
 20
219.6430060144
 30
0.0
 10
317.5938250711
 20
219.3283453584
 30
0.0
 10
317.3939237522
 20
218.8865507877
 30
0.0
 10
317.3484925409
 20
218.5490599698
 30
0.0
 10
317.3484925409
 20
218.3751371466
 30
0.0
  0
SPLINE
  5
306
100
AcDbEntity
  8
0
100
AcDbSpline
 62
7
  6
CONTINUOUS
 70
0
 71
3
 72
15
 73
11
 74
0
 42
0.0000001
 43
0.0000001
 44
0.0000000001
 40
0.0
 40
0.0
 40
0.0
 40
0.0
 40
0.1052952976
 40
0.2238938567
 40
0.3582060572
 40
0.5021286066
 40
0.6455320198
 40
0.7784888263
 40
0.8955294052
 40
1.0
 40
1.0
 40
1.0
 40
1.0
 10
311.8741465289
 20
217.0261514069
 30
0.0
 10
311.7484522957
 20
217.0330895332
 30
0.0
 10
311.4828123808
 20
217.1281110878
 30
0.0
 10
311.1838138027
 20
217.4504441145
 30
0.0
 10
310.9943326886
 20
217.8934824783
 30
0.0
 10
310.9334579693
 20
218.4001518951
 30
0.0
 10
311.0072879518
 20
218.9035128573
 30
0.0
 10
311.2082725975
 20
219.3371979542
 30
0.0
 10
311.5170928441
 20
219.6447262015
 30
0.0
 10
311.7849416698
 20
219.7249475402
 30
0.0
 10
311.9098411298
 20
219.7251363904
 30
0.0
  0
SPLINE
  5
307
100
AcDbEntity
  8
0
100
AcDbSpline
 62
7
  6
CONTINUOUS
 70
0
 71
3
 72
9
 73
5
 74
0
 42
0.0000001
 43
0.0000001
 44
0.0000000001
 40
0.0
 40
0.0
 40
0.0
 40
0.0
 40
0.2352801781
 40
1.0
 40
1.0
 40
1.0
 40
1.0
 10
315.9492574448
 20
213.3576062524
 30
0.0
 10
315.930289222
 20
213.3576062524
 30
0.0
 10
315.8496722996
 20
213.3600286847
 30
0.0
 10
315.769451919
 20
213.3712536047
 30
0.0
 10
315.7090040917
 20
213.3833766265
 30
0.0
  0
SPLINE
  5
308
100
AcDbEntity
  8
0
100
AcDbSpline
 62
7
  6
CONTINUOUS
 70
0
 71
3
 72
9
 73
5
 74
0
 42
0.0000001
 43
0.0000001
 44
0.0000000001
 40
0.0
 40
0.0
 40
0.0
 40
0.0
 40
0.2332948422
 40
1.0
 40
1.0
 40
1.0
 40
1.0
 10
315.7090040917
 20
213.3833766265
 30
0.0
 10
315.6656327998
 20
213.3920748898
 30
0.0
 10
315.4813628204
 20
213.437446453
 30
0.0
 10
315.3047183776
 20
213.5110898311
 30
0.0
 10
315.1755724531
 20
213.57783642
 30
0.0
  0
SPLINE
  5
309
100
AcDbEntity
  8
0
100
AcDbSpline
 62
7
  6
CONTINUOUS
 70
0
 71
3
 72
13
 73
9
 74
0
 42
0.0000001
 43
0.0000001
 44
0.0000000001
 40
0.0
 40
0.0
 40
0.0
 40
0.0
 40
0.3110581469
 40
0.6007663407
 40
0.7250690786
 40
0.8316151654
 40
0.9212762688
 40
1.0
 40
1.0
 40
1.0
 40
1.0
 10
315.1755724531
 20
213.57783642
 30
0.0
 10
314.9951290665
 20
213.6710951163
 30
0.0
 10
314.6669479076
 20
213.8919440402
 30
0.0
 10
314.3354768645
 20
214.2380157826
 30
0.0
 10
314.162214326
 20
214.5323345711
 30
0.0
 10
314.0934071012
 20
214.7319815867
 30
0.0
 10
314.0837894007
 20
214.9145460898
 30
0.0
 10
314.1235963788
 20
215.021678057
 30
0.0
 10
314.1527377266
 20
215.0640259938
 30
0.0
  0
SPLINE
  5
30A
100
AcDbEntity
  8
0
100
AcDbSpline
 62
7
  6
CONTINUOUS
 70
0
 71
3
 72
8
 73
4
 74
0
 42
0.0000001
 43
0.0000001
 44
0.0000000001
 40
0.0
 40
0.0
 40
0.0
 40
0.0
 40
1.0
 40
1.0
 40
1.0
 40
1.0
 10
383.327848861
 20
378.7251371466
 30
0.0
 10
384.1183416983
 20
377.8627288223
 30
0.0
 10
384.7487727323
 20
376.8243238518
 30
0.0
 10
385.1492840562
 20
375.7251342762
 30
0.0
  0
SPLINE
  5
30B
100
AcDbEntity
  8
0
100
AcDbSpline
 62
7
  6
CONTINUOUS
 70
0
 71
3
 72
11
 73
7
 74
0
 42
0.0000001
 43
0.0000001
 44
0.0000000001
 40
0.0
 40
0.0
 40
0.0
 40
0.0
 40
0.2503136344
 40
0.5006986362
 40
0.7507133511
 40
1.0
 40
1.0
 40
1.0
 40
1.0
 10
88.1820097673
 20
276.630023526
 30
0.0
 10
87.9377529904
 20
276.5767392694
 30
0.0
 10
87.4576585147
 20
276.4233731863
 30
0.0
 10
86.8043569495
 20
276.0407709093
 30
0.0
 10
86.2857440639
 20
275.478647518
 30
0.0
 10
86.137011924
 20
274.9741126132
 30
0.0
 10
86.137011924
 20
274.7251371466
 30
0.0
  0
SPLINE
  5
30C
100
AcDbEntity
  8
0
100
AcDbSpline
 62
7
  6
CONTINUOUS
 70
0
 71
3
 72
11
 73
7
 74
0
 42
0.0000001
 43
0.0000001
 44
0.0000000001
 40
0.0
 40
0.0
 40
0.0
 40
0.0
 40
0.249384939
 40
0.4993391199
 40
0.7496903973
 40
1.0
 40
1.0
 40
1.0
 40
1.0
 10
86.137011924
 20
274.7251371466
 30
0.0
 10
86.137011924
 20
274.4760642476
 30
0.0
 10
86.2857937122
 20
273.9714735014
 30
0.0
 10
86.8045193545
 20
273.4094774457
 30
0.0
 10
87.4576862039
 20
273.0268613929
 30
0.0
 10
87.9377576416
 20
272.8735336139
 30
0.0
 10
88.1820097673
 20
272.8202503893
 30
0.0
  0
SPLINE
  5
30D
100
AcDbEntity
  8
0
100
AcDbSpline
 62
7
  6
CONTINUOUS
 70
0
 71
3
 72
11
 73
7
 74
0
 42
0.0000001
 43
0.0000001
 44
0.0000000001
 40
0.0
 40
0.0
 40
0.0
 40
0.0
 40
0.2503136344
 40
0.5006986362
 40
0.7507133511
 40
1.0
 40
1.0
 40
1.0
 40
1.0
 10
88.1820097673
 20
246.630023526
 30
0.0
 10
87.9377529904
 20
246.5767392694
 30
0.0
 10
87.4576585147
 20
246.4233731863
 30
0.0
 10
86.8043569495
 20
246.0407709093
 30
0.0
 10
86.2857440639
 20
245.478647518
 30
0.0
 10
86.137011924
 20
244.9741126132
 30
0.0
 10
86.137011924
 20
244.7251371466
 30
0.0
  0
SPLINE
  5
30E
100
AcDbEntity
  8
0
100
AcDbSpline
 62
7
  6
CONTINUOUS
 70
0
 71
3
 72
11
 73
7
 74
0
 42
0.0000001
 43
0.0000001
 44
0.0000000001
 40
0.0
 40
0.0
 40
0.0
 40
0.0
 40
0.249384939
 40
0.4993391199
 40
0.7496903973
 40
1.0
 40
1.0
 40
1.0
 40
1.0
 10
86.137011924
 20
244.7251371466
 30
0.0
 10
86.137011924
 20
244.4760642476
 30
0.0
 10
86.2857937122
 20
243.9714735014
 30
0.0
 10
86.8045193545
 20
243.4094774457
 30
0.0
 10
87.4576862039
 20
243.0268613929
 30
0.0
 10
87.9377576416
 20
242.8735336139
 30
0.0
 10
88.1820097673
 20
242.8202503893
 30
0.0
  0
SPLINE
  5
30F
100
AcDbEntity
  8
0
100
AcDbSpline
 62
7
  6
CONTINUOUS
 70
0
 71
3
 72
16
 73
12
 74
0
 42
0.0000001
 43
0.0000001
 44
0.0000000001
 40
0.0
 40
0.0
 40
0.0
 40
0.0
 40
0.0045754317
 40
0.0181767786
 40
0.0406399817
 40
0.0717984954
 40
0.1595340808
 40
0.2800483301
 40
0.4310185202
 40
0.6061730755
 40
1.0
 40
1.0
 40
1.0
 40
1.0
 10
75.8190829203
 20
389.6721683383
 30
0.0
 10
75.8164411951
 20
389.6721854021
 30
0.0
 10
75.8218676389
 20
389.6552781574
 30
0.0
 10
75.8159356288
 20
389.6379624602
 30
0.0
 10
75.8184952177
 20
389.5957097036
 30
0.0
 10
75.8157570753
 20
389.5161555283
 30
0.0
 10
75.8159147738
 20
389.3764243523
 30
0.0
 10
75.813769243
 20
389.1697308493
 30
0.0
 10
75.812368402
 20
388.9115898357
 30
0.0
 10
75.8098611427
 20
388.4960230707
 30
0.0
 10
75.808214263
 20
388.1674586727
 30
0.0
 10
75.8071093601
 20
387.9400720569
 30
0.0
  0
SPLINE
  5
310
100
AcDbEntity
  8
0
100
AcDbSpline
 62
7
  6
CONTINUOUS
 70
0
 71
3
 72
11
 73
7
 74
0
 42
0.0000001
 43
0.0000001
 44
0.0000000001
 40
0.0
 40
0.0
 40
0.0
 40
0.0
 40
0.2587716111
 40
0.5125065316
 40
0.7591731622
 40
1.0
 40
1.0
 40
1.0
 40
1.0
 10
75.8071064412
 20
387.9396275736
 30
0.0
 10
73.9515850017
 20
387.9469726495
 30
0.0
 10
70.2430191487
 20
387.3552563634
 30
0.0
 10
65.3667017385
 20
384.7122716263
 30
0.0
 10
61.7329785153
 20
380.6998627491
 30
0.0
 10
60.3320676974
 20
377.4188882311
 30
0.0
 10
59.9137757156
 20
375.7434527102
 30
0.0
  0
SPLINE
  5
311
100
AcDbEntity
  8
0
100
AcDbSpline
 62
7
  6
CONTINUOUS
 70
0
 71
3
 72
11
 73
7
 74
0
 42
0.0000001
 43
0.0000001
 44
0.0000000001
 40
0.0
 40
0.0
 40
0.0
 40
0.0
 40
0.242717628
 40
0.4891913941
 40
0.7419764909
 40
1.0
 40
1.0
 40
1.0
 40
1.0
 10
374.6639594682
 20
375.7421268307
 30
0.0
 10
374.5425561258
 20
376.338683436
 30
0.0
 10
374.0975346058
 20
377.5087455168
 30
0.0
 10
372.8968652181
 20
378.9739570382
 30
0.0
 10
371.240890233
 20
379.9759480853
 30
0.0
 10
369.9608847709
 20
380.24773328
 30
0.0
 10
369.3144679501
 20
380.2790445842
 30
0.0
  0
SPLINE
  5
312
100
AcDbEntity
  8
0
100
AcDbSpline
 62
7
  6
CONTINUOUS
 70
0
 71
3
 72
11
 73
7
 74
0
 42
0.0000001
 43
0.0000001
 44
0.0000000001
 40
0.0
 40
0.0
 40
0.0
 40
0.0
 40
0.257238753
 40
0.510257975
 40
0.7575308671
 40
1.0
 40
1.0
 40
1.0
 40
1.0
 10
75.8190829203
 20
389.6721683383
 30
0.0
 10
73.6812015693
 20
389.680626116
 30
0.0
 10
69.4037040915
 20
389.0107603353
 30
0.0
 10
63.7361224246
 20
386.0193480527
 30
0.0
 10
59.4299260733
 20
381.445642261
 30
0.0
 10
57.7012582311
 20
377.6711457231
 30
0.0
 10
57.1588032113
 20
375.7303814066
 30
0.0
  0
SPLINE
  5
313
100
AcDbEntity
  8
0
100
AcDbSpline
 62
7
  6
CONTINUOUS
 70
0
 71
3
 72
15
 73
11
 74
0
 42
0.0000001
 43
0.0000001
 44
0.0000000001
 40
0.0
 40
0.0
 40
0.0
 40
0.0
 40
0.0053427518
 40
0.0192283366
 40
0.0730948865
 40
0.1608816387
 40
0.2813132184
 40
0.4320874867
 40
0.6069531557
 40
1.0
 40
1.0
 40
1.0
 40
1.0
 10
369.4589909169
 20
382.007637211
 30
0.0
 10
369.4559002238
 20
382.0077381503
 30
0.0
 10
369.4521207842
 20
381.9928121032
 30
0.0
 10
369.4426981105
 20
381.957643837
 30
0.0
 10
369.4313586248
 20
381.8621115643
 30
0.0
 10
369.4150542638
 20
381.7148424711
 30
0.0
 10
369.3970600271
 20
381.5063039295
 30
0.0
 10
369.3772026941
 20
381.2494534838
 30
0.0
 10
369.3482201125
 20
380.8342445131
 30
0.0
 10
369.327802697
 20
380.5062742013
 30
0.0
 10
369.3144641458
 20
380.2791732841
 30
0.0
  0
SPLINE
  5
314
100
AcDbEntity
  8
0
100
AcDbSpline
 62
7
  6
CONTINUOUS
 70
0
 71
3
 72
12
 73
8
 74
0
 42
0.0000001
 43
0.0000001
 44
0.0000000001
 40
0.0
 40
0.0
 40
0.0
 40
0.0
 40
0.3559620913
 40
0.6619157356
 40
0.8834301938
 40
0.9553951884
 40
1.0
 40
1.0
 40
1.0
 40
1.0
 10
374.6639709329
 20
375.7421287402
 30
0.0
 10
374.9908816421
 20
375.7954697214
 30
0.0
 10
375.6038535384
 20
375.8686235273
 30
0.0
 10
376.4247066664
 20
375.8969859553
 30
0.0
 10
376.9860823618
 20
375.8663450812
 30
0.0
 10
377.2916501312
 20
375.7973121829
 30
0.0
 10
377.3954540511
 20
375.7565351673
 30
0.0
 10
377.4273778297
 20
375.730009053
 30
0.0
  0
SPLINE
  5
315
100
AcDbEntity
  8
0
100
AcDbSpline
 62
7
  6
CONTINUOUS
 70
0
 71
3
 72
18
 73
14
 74
0
 42
0.0000001
 43
0.0000001
 44
0.0000000001
 40
0.0
 40
0.0
 40
0.0
 40
0.0
 40
0.0212860685
 40
0.0402770866
 40
0.0664396967
 40
0.1005456658
 40
0.1431580591
 40
0.1946430204
 40
0.2551307432
 40
0.402333996
 40
0.5806073371
 40
0.7825912723
 40
1.0
 40
1.0
 40
1.0
 40
1.0
 10
78.7430165546
 20
307.5855178951
 30
0.0
 10
78.7478895073
 20
307.2978007464
 30
0.0
 10
79.2562764194
 20
306.8696567707
 30
0.0
 10
80.0490099574
 20
306.5314769115
 30
0.0
 10
81.0893820361
 20
306.2146809573
 30
0.0
 10
82.4474186453
 20
305.9349948986
 30
0.0
 10
84.1648839952
 20
305.6830905745
 30
0.0
 10
86.2443545119
 20
305.47661431
 30
0.0
 10
89.7422287166
 20
305.2592499481
 30
0.0
 10
94.9616913854
 20
305.1793421194
 30
0.0
 10
102.0912067203
 20
305.350774058
 30
0.0
 10
110.1612366314
 20
305.7563030711
 30
0.0
 10
115.8188374325
 20
306.1266035906
 30
0.0
 10
118.7509490671
 20
306.3286890814
 30
0.0
  0
SPLINE
  5
316
100
AcDbEntity
  8
0
100
AcDbSpline
 62
7
  6
CONTINUOUS
 70
0
 71
3
 72
9
 73
5
 74
0
 42
0.0000001
 43
0.0000001
 44
0.0000000001
 40
0.0
 40
0.0
 40
0.0
 40
0.0
 40
0.246861798
 40
1.0
 40
1.0
 40
1.0
 40
1.0
 10
118.7509490671
 20
306.3286890814
 30
0.0
 10
120.1800366457
 20
306.4271839208
 30
0.0
 10
125.9683616308
 20
306.8362426744
 30
0.0
 10
131.7550895112
 20
307.2673221587
 30
0.0
 10
136.1137644595
 20
307.5855179463
 30
0.0
  0
SPLINE
  5
317
100
AcDbEntity
  8
0
100
AcDbSpline
 62
7
  6
CONTINUOUS
 70
0
 71
3
 72
9
 73
5
 74
0
 42
0.0000001
 43
0.0000001
 44
0.0000000001
 40
0.0
 40
0.0
 40
0.0
 40
0.0
 40
0.2515728584
 40
1.0
 40
1.0
 40
1.0
 40
1.0
 10
300.4720015015
 20
307.5855178933
 30
0.0
 10
301.7598520859
 20
307.4914878157
 30
0.0
 10
306.8789101266
 20
307.1158723926
 30
0.0
 10
311.9978255158
 20
306.7380750391
 30
0.0
 10
315.8298900582
 20
306.4683768622
 30
0.0
  0
SPLINE
  5
318
100
AcDbEntity
  8
0
100
AcDbSpline
 62
7
  6
CONTINUOUS
 70
0
 71
3
 72
18
 73
14
 74
0
 42
0.0000001
 43
0.0000001
 44
0.0000000001
 40
0.0
 40
0.0
 40
0.0
 40
0.0
 40
0.2150812617
 40
0.416164937
 40
0.5947774915
 40
0.7430144753
 40
0.8040742594
 40
0.8560772756
 40
0.8991130215
 40
0.933525282
 40
0.9598716076
 40
0.9789265062
 40
1.0
 40
1.0
 40
1.0
 40
1.0
 10
315.8298900582
 20
306.4683768622
 30
0.0
 10
318.873894272
 20
306.2541418518
 30
0.0
 10
324.7649991359
 20
305.8560683191
 30
0.0
 10
333.1919277064
 20
305.4024828329
 30
0.0
 10
340.6799988351
 20
305.1854766282
 30
0.0
 10
346.1857347669
 20
305.2364073733
 30
0.0
 10
349.8883182495
 20
305.4412904849
 30
0.0
 10
352.0935849554
 20
305.6437635197
 30
0.0
 10
353.9158032863
 20
305.896209648
 30
0.0
 10
355.3558882992
 20
306.1793955036
 30
0.0
 10
356.4596632694
 20
306.5030144951
 30
0.0
 10
357.2939257085
 20
306.8471939346
 30
0.0
 10
357.8376434671
 20
307.2865746579
 30
0.0
 10
357.8427494522
 20
307.5855179463
 30
0.0
  0
SPLINE
  5
319
100
AcDbEntity
  8
0
100
AcDbSpline
 62
7
  6
CONTINUOUS
 70
0
 71
3
 72
9
 73
5
 74
0
 42
0.0000001
 43
0.0000001
 44
0.0000000001
 40
0.0
 40
0.0
 40
0.0
 40
0.0
 40
0.5008099531
 40
1.0
 40
1.0
 40
1.0
 40
1.0
 10
374.6969923526
 20
371.5024094384
 30
0.0
 10
374.6483003182
 20
371.2880190847
 30
0.0
 10
374.3984753457
 20
370.880714771
 30
0.0
 10
373.9462417255
 20
370.7251371748
 30
0.0
 10
373.7271025846
 20
370.7251371466
 30
0.0
  0
SPLINE
  5
31A
100
AcDbEntity
  8
0
100
AcDbSpline
 62
7
  6
CONTINUOUS
 70
0
 71
3
 72
9
 73
5
 74
0
 42
0.0000001
 43
0.0000001
 44
0.0000000001
 40
0.0
 40
0.0
 40
0.0
 40
0.0
 40
0.5008844252
 40
1.0
 40
1.0
 40
1.0
 40
1.0
 10
62.8883804439
 20
371.7251371466
 30
0.0
 10
62.8883804439
 20
371.4701933685
 30
0.0
 10
63.0994589907
 20
370.939684362
 30
0.0
 10
63.6293951819
 20
370.7251243629
 30
0.0
 10
63.8834386375
 20
370.7251371479
 30
0.0
  0
SPLINE
  5
31B
100
AcDbEntity
  8
0
100
AcDbSpline
 62
7
  6
CONTINUOUS
 70
0
 71
3
 72
11
 73
7
 74
0
 42
0.0000001
 43
0.0000001
 44
0.0000000001
 40
0.0
 40
0.0
 40
0.0
 40
0.0
 40
0.2548006524
 40
0.5065345008
 40
0.7546288041
 40
1.0
 40
1.0
 40
1.0
 40
1.0
 10
369.4592971795
 20
382.0078207736
 30
0.0
 10
370.3748806705
 20
381.9636277504
 30
0.0
 10
372.1945737689
 20
381.5928380903
 30
0.0
 10
374.5945354443
 20
380.2324844868
 30
0.0
 10
376.4335958504
 20
378.2235155126
 30
0.0
 10
377.1865455014
 20
376.5792504644
 30
0.0
 10
377.4274609715
 20
375.730035337
 30
0.0
  0
SPLINE
  5
31C
100
AcDbEntity
  8
0
100
AcDbSpline
 62
7
  6
CONTINUOUS
 70
0
 71
3
 72
11
 73
7
 74
0
 42
0.0000001
 43
0.0000001
 44
0.0000000001
 40
0.0
 40
0.0
 40
0.0
 40
0.0
 40
0.286122409
 40
0.5476792732
 40
0.7827368856
 40
1.0
 40
1.0
 40
1.0
 40
1.0
 10
304.4112004781
 20
292.7251371466
 30
0.0
 10
304.5515068343
 20
293.2857584048
 30
0.0
 10
304.9402664395
 20
294.3348452264
 30
0.0
 10
305.8664377951
 20
295.6423515036
 30
0.0
 10
307.0536710023
 20
296.5137374941
 30
0.0
 10
307.9765008807
 20
296.7251371466
 30
0.0
 10
308.4153302674
 20
296.7251371466
 30
0.0
  0
SPLINE
  5
31D
100
AcDbEntity
  8
0
100
AcDbSpline
 62
7
  6
CONTINUOUS
 70
0
 71
3
 72
11
 73
7
 74
0
 42
0.0000001
 43
0.0000001
 44
0.0000000001
 40
0.0
 40
0.0
 40
0.0
 40
0.0
 40
0.2172627713
 40
0.452320549
 40
0.7138777657
 40
1.0
 40
1.0
 40
1.0
 40
1.0
 10
126.1704357386
 20
296.7251371466
 30
0.0
 10
126.6092644365
 20
296.7251371466
 30
0.0
 10
127.5320939965
 20
296.5137381268
 30
0.0
 10
128.7193277958
 20
295.6423521165
 30
0.0
 10
129.6454996625
 20
294.3348452796
 30
0.0
 10
130.034259256
 20
293.2857580678
 30
0.0
 10
130.1745655279
 20
292.7251371466
 30
0.0
  0
SPLINE
  5
31E
100
AcDbEntity
  8
0
100
AcDbSpline
 62
7
  6
CONTINUOUS
 70
0
 71
3
 72
9
 73
5
 74
0
 42
0.0000001
 43
0.0000001
 44
0.0000000001
 40
0.0
 40
0.0
 40
0.0
 40
0.0
 40
0.247096406
 40
1.0
 40
1.0
 40
1.0
 40
1.0
 10
127.2586155702
 20
292.7251371466
 30
0.0
 10
127.2989229702
 20
292.5639268228
 30
0.0
 10
127.4411492532
 20
291.9064222517
 30
0.0
 10
127.501285347
 20
291.2314667456
 30
0.0
 10
127.501285347
 20
290.7251371467
 30
0.0
  0
SPLINE
  5
31F
100
AcDbEntity
  8
0
100
AcDbSpline
 62
7
  6
CONTINUOUS
 70
0
 71
3
 72
9
 73
5
 74
0
 42
0.0000001
 43
0.0000001
 44
0.0000000001
 40
0.0
 40
0.0
 40
0.0
 40
0.0
 40
0.2524685946
 40
1.0
 40
1.0
 40
1.0
 40
1.0
 10
307.084480659
 20
290.7251371467
 30
0.0
 10
307.084480659
 20
290.8949195105
 30
0.0
 10
307.1046444178
 20
291.5672135339
 30
0.0
 10
307.2052124362
 20
292.2374434616
 30
0.0
 10
307.3271504358
 20
292.7251371466
 30
0.0
  0
SPLINE
  5
320
100
AcDbEntity
  8
0
100
AcDbSpline
 62
7
  6
CONTINUOUS
 70
0
 71
3
 72
9
 73
5
 74
0
 42
0.0000001
 43
0.0000001
 44
0.0000000001
 40
0.0
 40
0.0
 40
0.0
 40
0.0
 40
0.2524685946
 40
1.0
 40
1.0
 40
1.0
 40
1.0
 10
127.501285347
 20
228.7251371466
 30
0.0
 10
127.501285347
 20
228.5553547828
 30
0.0
 10
127.4811215882
 20
227.8830607594
 30
0.0
 10
127.3805535698
 20
227.2128308317
 30
0.0
 10
127.2586155702
 20
226.7251371466
 30
0.0
  0
SPLINE
  5
321
100
AcDbEntity
  8
0
100
AcDbSpline
 62
7
  6
CONTINUOUS
 70
0
 71
3
 72
11
 73
7
 74
0
 42
0.0000001
 43
0.0000001
 44
0.0000000001
 40
0.0
 40
0.0
 40
0.0
 40
0.0
 40
0.286122409
 40
0.5476792732
 40
0.7827368856
 40
1.0
 40
1.0
 40
1.0
 40
1.0
 10
130.1745655279
 20
226.7251371466
 30
0.0
 10
130.0342591716
 20
226.1645158885
 30
0.0
 10
129.6454995665
 20
225.1154290669
 30
0.0
 10
128.7193282109
 20
223.8079227897
 30
0.0
 10
127.5320950037
 20
222.9365367992
 30
0.0
 10
126.6092651253
 20
222.7251371466
 30
0.0
 10
126.1704357386
 20
222.7251371466
 30
0.0
  0
SPLINE
  5
322
100
AcDbEntity
  8
0
100
AcDbSpline
 62
7
  6
CONTINUOUS
 70
0
 71
3
 72
11
 73
7
 74
0
 42
0.0000001
 43
0.0000001
 44
0.0000000001
 40
0.0
 40
0.0
 40
0.0
 40
0.0
 40
0.2172627712
 40
0.452320549
 40
0.7138777657
 40
1.0
 40
1.0
 40
1.0
 40
1.0
 10
308.4153302674
 20
222.7251371466
 30
0.0
 10
307.9765015695
 20
222.7251371466
 30
0.0
 10
307.0536720095
 20
222.9365361665
 30
0.0
 10
305.8664382102
 20
223.8079221768
 30
0.0
 10
304.9402663435
 20
225.1154290137
 30
0.0
 10
304.55150675
 20
226.1645162255
 30
0.0
 10
304.4112004781
 20
226.7251371466
 30
0.0
  0
SPLINE
  5
323
100
AcDbEntity
  8
0
100
AcDbSpline
 62
7
  6
CONTINUOUS
 70
0
 71
3
 72
9
 73
5
 74
0
 42
0.0000001
 43
0.0000001
 44
0.0000000001
 40
0.0
 40
0.0
 40
0.0
 40
0.0
 40
0.247096406
 40
1.0
 40
1.0
 40
1.0
 40
1.0
 10
307.3271504358
 20
226.7251371466
 30
0.0
 10
307.2868430358
 20
226.8863474705
 30
0.0
 10
307.1446167528
 20
227.5438520416
 30
0.0
 10
307.084480659
 20
228.2188075477
 30
0.0
 10
307.084480659
 20
228.7251371466
 30
0.0
  0
SPLINE
  5
324
100
AcDbEntity
  8
0
100
AcDbSpline
 62
7
  6
CONTINUOUS
 70
0
 71
3
 72
9
 73
5
 74
0
 42
0.0000001
 43
0.0000001
 44
0.0000000001
 40
0.0
 40
0.0
 40
0.0
 40
0.0
 40
0.3449109966
 40
1.0
 40
1.0
 40
1.0
 40
1.0
 10
377.4382677085
 20
375.7251318999
 30
0.0
 10
377.4365952935
 20
375.7251319407
 30
0.0
 10
377.4315404269
 20
375.7259194542
 30
0.0
 10
377.4284730844
 20
375.730279194
 30
0.0
 10
377.4266460103
 20
375.7328775429
 30
0.0
  0
SPLINE
  5
325
100
AcDbEntity
  8
0
100
AcDbSpline
 62
7
  6
CONTINUOUS
 70
0
 71
3
 72
9
 73
5
 74
0
 42
0.0000001
 43
0.0000001
 44
0.0000000001
 40
0.0
 40
0.0
 40
0.0
 40
0.0
 40
0.624354438
 40
1.0
 40
1.0
 40
1.0
 40
1.0
 10
57.1588035135
 20
375.7303873503
 30
0.0
 10
57.1568966135
 20
375.7287801821
 30
0.0
 10
57.1543985787
 20
375.7253358813
 30
0.0
 10
57.148996923
 20
375.7261485386
 30
0.0
 10
57.1483566444
 20
375.7275054983
 30
0.0
  0
SPLINE
  5
326
100
AcDbEntity
  8
0
100
AcDbSpline
 62
7
  6
CONTINUOUS
 70
0
 71
3
 72
12
 73
8
 74
0
 42
0.0000001
 43
0.0000001
 44
0.0000000001
 40
0.0
 40
0.0
 40
0.0
 40
0.0
 40
0.3556544076
 40
0.661234274
 40
0.8826658008
 40
0.9549219262
 40
1.0
 40
1.0
 40
1.0
 40
1.0
 10
59.9133180886
 20
375.7435413719
 30
0.0
 10
59.5877689365
 20
375.7988427385
 30
0.0
 10
58.9772557791
 20
375.8758681303
 30
0.0
 10
58.1589171035
 20
375.9066901065
 30
0.0
 10
57.5988405248
 20
375.8736735179
 30
0.0
 10
57.2941185415
 20
375.8001915518
 30
0.0
 10
57.190806441
 20
375.7573599704
 30
0.0
 10
57.1588035135
 20
375.7303873503
 30
0.0
  0
SPLINE
  5
327
100
AcDbEntity
  8
0
100
AcDbSpline
 62
7
  6
CONTINUOUS
 70
0
 71
3
 72
18
 73
14
 74
0
 42
0.0000001
 43
0.0000001
 44
0.0000000001
 40
0.0
 40
0.0
 40
0.0
 40
0.0
 40
0.1941615432
 40
0.3813916399
 40
0.5540053605
 40
0.7056066036
 40
0.8303696262
 40
0.8810394022
 40
0.9232422433
 40
0.9565296999
 40
0.9805325975
 40
0.995071296
 40
1.0
 40
1.0
 40
1.0
 40
1.0
 10
357.3194286443
 20
354.1129204642
 30
0.0
 10
357.5471574052
 20
354.1067200659
 30
0.0
 10
357.9944388388
 20
354.0927940392
 30
0.0
 10
358.6441228928
 20
354.072162412
 30
0.0
 10
359.2440046144
 20
354.0549520348
 30
0.0
 10
359.7704696494
 20
354.0402380996
 30
0.0
 10
360.1543346425
 20
354.0294371573
 30
0.0
 10
360.4091404805
 20
354.0234476859
 30
0.0
 10
360.5581399486
 20
354.0188257839
 30
0.0
 10
360.6721757386
 20
354.0191031374
 30
0.0
 10
360.7625703576
 20
354.0109893178
 30
0.0
 10
360.8026900742
 20
354.0219312439
 30
0.0
 10
360.8369352779
 20
354.0099439758
 30
0.0
 10
360.8379730901
 20
354.0156330254
 30
0.0
  0
SPLINE
  5
328
100
AcDbEntity
  8
0
100
AcDbSpline
 62
7
  6
CONTINUOUS
 70
0
 71
3
 72
18
 73
14
 74
0
 42
0.0000001
 43
0.0000001
 44
0.0000000001
 40
0.0
 40
0.0
 40
0.0
 40
0.0
 40
0.0048566464
 40
0.0192728794
 40
0.0431043225
 40
0.0761785394
 40
0.1181473822
 40
0.1685837676
 40
0.2929740337
 40
0.4444586785
 40
0.6173025572
 40
0.805090134
 40
1.0
 40
1.0
 40
1.0
 40
1.0
 10
73.2503053903
 20
354.1129211245
 30
0.0
 10
73.2505593536
 20
354.1072614983
 30
0.0
 10
73.286053374
 20
354.118460773
 30
0.0
 10
73.3238539971
 20
354.10615004
 30
0.0
 10
73.4140898118
 20
354.1117769758
 30
0.0
 10
73.5263520207
 20
354.1082600586
 30
0.0
 10
73.6738935798
 20
354.1087951075
 30
0.0
 10
73.9262476562
 20
354.1077568495
 30
0.0
 10
74.307231827
 20
354.1078680421
 30
0.0
 10
74.8305278306
 20
354.1080927435
 30
0.0
 10
75.4279606464
 20
354.1090993329
 30
0.0
 10
76.0759883197
 20
354.1107757065
 30
0.0
 10
76.5224093548
 20
354.1122026582
 30
0.0
 10
76.7497723194
 20
354.1129205997
 30
0.0
  0
ENDSEC
  0
SECTION
  2
OBJECTS
  0
DICTIONARY
  5
C
100
AcDbDictionary
280
0
281
1
  3
ACAD_GROUP
350
D
  3
ACAD_MLINESTYLE
350
17
  3
ACAD_LAYOUT
350
1A
  3
ACAD_PLOTSETTINGS
350
19
  3
ACAD_PLOTSTYLENAME
350
E
  0
DICTIONARY
  5
D
102
{ACAD_REACTORS
330
C
102
}
100
AcDbDictionary
280
0
281
1
  0
ACDBDICTIONARYWDFLT
  5
E
102
{ACAD_REACTORS
330
C
102
}
100
AcDbDictionary
281
1
  3
Normal
350
F
100
AcDbDictionaryWithDefault
340
F
  0
DICTIONARY
  5
17
102
{ACAD_REACTORS
330
C
102
}
100
AcDbDictionary
280
0
281
1
  3
Standard
350
18
  0
DICTIONARY
  5
19
102
{ACAD_REACTORS
330
C
102
}
100
AcDbDictionary
281
1
  0
DICTIONARY
  5
1A
102
{ACAD_REACTORS
330
C
102
}
100
AcDbDictionary
281
1
  3
Model
350
329
  3
Layout1
350
32A
  0
ACDBPLACEHOLDER
  5
F
102
{ACAD_REACTORS
330
E
102
}
  0
MLINESTYLE
  5
18
102
{ACAD_REACTORS
330
17
102
}
100
AcDbMlineStyle
  2
STANDARD
 70
0
  3

 62
256
 51
90.0
 52
90.0
 71
2
 49
0.5
 62
256
  6
BYLAYER
 49
-0.5
 62
256
  6
BYLAYER
  0
LAYOUT
  5
329
102
{ACAD_REACTORS
330
1A
102
}
100
AcDbPlotSettings
  1

  2
none_device
  4

  6

 40
0.0
 41
0.0
 42
0.0
 43
0.0
 44
210.0
 45
297.0
 46
0.0
 47
0.0
 48
0.0
 49
0.0
140
0.0
141
0.0
142
1.0
143
1.0
 70
1024
 72
1
 73
0
 74
0
  7

 75
0
147
1.0
148
0.0
149
0.0
100
AcDbLayout
  1
Model
 70
0
 71
0
 10
0.0
 20
0.0
 11
210.0
 21
297.0
 12
0.0
 22
0.0
 32
0.0
 14
0.0
 24
0.0
 34
0.0
 15
0.0
 25
0.0
 35
0.0
146
0.0
 13
0.0
 23
0.0
 33
0.0
 16
1.0
 26
0.0
 36
0.0
 17
0.0
 27
1.0
 37
0.0
 76
0
330
210
345
0
346
0
  0
LAYOUT
  5
32A
102
{ACAD_REACTORS
330
1A
102
}
100
AcDbPlotSettings
  1

  2
none_device
  4

  6

 40
0.0
 41
0.0
 42
0.0
 43
0.0
 44
210.0
 45
297.0
 46
0.0
 47
0.0
 48
0.0
 49
0.0
140
0.0
141
0.0
142
1.0
143
1.0
 70
0
 72
1
 73
0
 74
0
  7

 75
0
147
1.0
148
0.0
149
0.0
100
AcDbLayout
  1
Layout1
 70
0
 71
1
 10
0.0
 20
0.0
 11
210.0
 21
297.0
 12
0.0
 22
0.0
 32
0.0
 14
0.0
 24
0.0
 34
0.0
 15
0.0
 25
0.0
 35
0.0
146
0.0
 13
0.0
 23
0.0
 33
0.0
 16
1.0
 26
0.0
 36
0.0
 17
0.0
 27
1.0
 37
0.0
 76
0
330
211
345
0
346
0
  0
ENDSEC
  0
EOF
