999
DXF file: C:\Users\sesa63760\Dev\_Creo\CAD\MCADID0004083_3D-CAD\drw0001_6.dxf
999
Pro/ENGINEER 2019471 by Parametric Technology Corporation
  0
SECTION
  2
HEADER
  9
$ACADVER
  1
AC1024
  9
$DWGCODEPAGE
  3
ANSI_1252
  9
$EXTMAX
 10
53.7866198643
 20
76.0696480938
 30
0.0
  9
$EXTMIN
 10
0.0
 20
0.0
 30
0.0
  9
$LIMMIN
 10
0.0
 20
0.0
  9
$LIMMAX
 10
53.7866198643
 20
76.0696480938
  9
$VIEWCTR
 10
26.8933099322
 20
38.0348240469
  9
$VIEWSIZE
 40
76.0696480938
  9
$CLAYER
  8
0
  9
$LTSCALE
 40
4.958614098
  9
$CELTYPE
  6
BYLAYER
  9
$DIMSCALE
 40
1.0
  9
$DIMASZ
 40
0.6403169031
  9
$DIMEXO
 40
1.0
  9
$DIMDLI
 40
3.4259515586
  9
$DIMEXE
 40
1.0
  9
$DIMCEN
 40
0.8114095797
  9
$DIMLFAC
 40
1.0
  9
$DIMBLK
  1
_FILLED
  9
$DIMALT
 70
0
  9
$DIMALTF
 40
0.0393700787
  9
$DIMTXT
 40
0.8964436644
  9
$DIMTOL
 70
1
  9
$DIMLIM
 70
0
  9
$DIMTFAC
 40
1.0
  9
$DIMTP
 40
0.01
  9
$DIMTM
 40
0.01
  9
$DIMGAP
 40
0.625
  9
$DIMDSEP
 70
46
  9
$AUNITS
 70
0
  9
$PDMODE
 70
3
  9
$PDSIZE
 40
0.3125
  9
$HANDSEED
  5
255
  9
$TILEMODE
 70
1
  9
$MEASUREMENT
 70
1
  9
$INSUNITS
 70
4
  0
ENDSEC
  0
SECTION
  2
CLASSES
  0
CLASS
  1
ACDBDICTIONARYWDFLT
  2
AcDbDictionaryWithDefault
  3
AutoCAD 2000
 90
0
 91
1
280
0
281
0
  0
CLASS
  1
ACDBPLACEHOLDER
  2
AcDbPlaceHolder
  3
AutoCAD 2000
 90
0
 91
1
280
0
281
0
  0
CLASS
  1
LAYOUT
  2
AcDbLayout
  3
AutoCAD 2000
 90
0
 91
0
280
0
281
0
  0
ENDSEC
  0
SECTION
  2
TABLES
  0
TABLE
  2
VPORT
  5
8
100
AcDbSymbolTable
 70
2
  0
VPORT
  5
1F4
100
AcDbSymbolTableRecord
100
AcDbViewportTableRecord
  2
*ACTIVE
 70
0
 10
0.0
 20
0.0
 11
1.0
 21
1.0
 12
26.8933099322
 22
38.0348240469
 13
0.0
 23
0.0
 14
1.0
 24
1.0
 15
0.0
 25
0.0
 16
0.0
 26
0.0
 36
1.0
 17
0.0
 27
0.0
 37
0.0
 40
76.0696480938
 41
0.7070707071
 42
50.0
 43
0.0
 44
0.0
 50
0.0
 51
0.0
 71
0
 72
100
 73
1
 74
1
 75
0
 76
0
 77
0
 78
0
  0
ENDTAB
  0
TABLE
  2
LTYPE
  5
5
100
AcDbSymbolTable
 70
6
  0
LTYPE
  5
14
100
AcDbSymbolTableRecord
100
AcDbLinetypeTableRecord
  2
BYBLOCK
 70
0
  3

 72
65
 73
0
 40
0.0
  0
LTYPE
  5
15
100
AcDbSymbolTableRecord
100
AcDbLinetypeTableRecord
  2
BYLAYER
 70
0
  3

 72
65
 73
0
 40
0.0
  0
LTYPE
  5
16
100
AcDbSymbolTableRecord
100
AcDbLinetypeTableRecord
  2
CONTINUOUS
 70
64
  3
Solid line
 72
65
 73
0
 40
0.0
  0
LTYPE
  5
1F5
100
AcDbSymbolTableRecord
100
AcDbLinetypeTableRecord
  2
CENTER
 70
64
  3
____ _ ____ _ ____ _ ____ _ ____ _ ____ _ ____
 72
65
 73
4
 40
0.6
 49
0.375
 74
0
 49
-0.075
 74
0
 49
0.075
 74
0
 49
-0.075
 74
0
  0
LTYPE
  5
1F6
100
AcDbSymbolTableRecord
100
AcDbLinetypeTableRecord
  2
HIDDEN
 70
64
  3
- - - - - - - - - - - - - - - - - - - -
 72
65
 73
2
 40
0.2
 49
0.1
 74
0
 49
-0.1
 74
0
  0
LTYPE
  5
1F7
100
AcDbSymbolTableRecord
100
AcDbLinetypeTableRecord
  2
PHANTOM
 70
64
  3
_____ _ _ _____ _ _ _____ _ _ _____
 72
65
 73
6
 40
0.8
 49
0.45
 74
0
 49
-0.05
 74
0
 49
0.1
 74
0
 49
-0.05
 74
0
 49
0.1
 74
0
 49
-0.05
 74
0
  0
LTYPE
  5
1F8
100
AcDbSymbolTableRecord
100
AcDbLinetypeTableRecord
  2
DOT
 70
64
  3
. . . . . . . . . . . . . . . . . . . .
 72
65
 73
2
 40
0.2
 49
0.1
 74
0
 49
-0.1
 74
0
  0
LTYPE
  5
1F9
100
AcDbSymbolTableRecord
100
AcDbLinetypeTableRecord
  2
DASHED
 70
64
  3
- - - - - - - - - - - - - - - - - - - -
 72
65
 73
2
 40
0.2
 49
0.1
 74
0
 49
-0.1
 74
0
  0
ENDTAB
  0
TABLE
  2
LAYER
  5
2
100
AcDbSymbolTable
 70
36
  0
LAYER
  5
10
100
AcDbSymbolTableRecord
100
AcDbLayerTableRecord
  2
0
 70
0
 62
7
  6
CONTINUOUS
370
-3
390
F
  0
LAYER
  5
1FA
100
AcDbSymbolTableRecord
100
AcDbLayerTableRecord
  2
DEFAULT_1
 70
0
 62
7
  6
CENTER
370
-3
390
F
  0
LAYER
  5
1FB
100
AcDbSymbolTableRecord
100
AcDbLayerTableRecord
  2
DEFAULT_2
 70
0
 62
7
  6
HIDDEN
370
-3
390
F
  0
LAYER
  5
1FC
100
AcDbSymbolTableRecord
100
AcDbLayerTableRecord
  2
DEFAULT_3
 70
0
 62
7
  6
PHANTOM
370
-3
390
F
  0
LAYER
  5
1FD
100
AcDbSymbolTableRecord
100
AcDbLayerTableRecord
  2
00_COMPONENTS
 70
0
 62
7
  6
CONTINUOUS
370
-3
390
F
  0
LAYER
  5
1FE
100
AcDbSymbolTableRecord
100
AcDbLayerTableRecord
  2
01_1_DEFAULT_DATUMS
 70
0
 62
7
  6
CONTINUOUS
370
-3
390
F
  0
LAYER
  5
1FF
100
AcDbSymbolTableRecord
100
AcDbLayerTableRecord
  2
01_PLANES
 70
0
 62
7
  6
CONTINUOUS
370
-3
390
F
  0
LAYER
  5
200
100
AcDbSymbolTableRecord
100
AcDbLayerTableRecord
  2
02_COORD_SYS
 70
0
 62
7
  6
CONTINUOUS
370
-3
390
F
  0
LAYER
  5
201
100
AcDbSymbolTableRecord
100
AcDbLayerTableRecord
  2
03_AXES
 70
0
 62
7
  6
CONTINUOUS
370
-3
390
F
  0
LAYER
  5
202
100
AcDbSymbolTableRecord
100
AcDbLayerTableRecord
  2
04_POINTS
 70
0
 62
7
  6
CONTINUOUS
370
-3
390
F
  0
LAYER
  5
203
100
AcDbSymbolTableRecord
100
AcDbLayerTableRecord
  2
05_CURVES
 70
0
 62
7
  6
CONTINUOUS
370
-3
390
F
  0
LAYER
  5
204
100
AcDbSymbolTableRecord
100
AcDbLayerTableRecord
  2
06_SURFS
 70
0
 62
7
  6
CONTINUOUS
370
-3
390
F
  0
LAYER
  5
205
100
AcDbSymbolTableRecord
100
AcDbLayerTableRecord
  2
07_COSMETICS
 70
0
 62
7
  6
CONTINUOUS
370
-3
390
F
  0
LAYER
  5
206
100
AcDbSymbolTableRecord
100
AcDbLayerTableRecord
  2
10_NOTES
 70
0
 62
7
  6
CONTINUOUS
370
-3
390
F
  0
LAYER
  5
207
100
AcDbSymbolTableRecord
100
AcDbLayerTableRecord
  2
11_NOTES_PUB
 70
0
 62
7
  6
CONTINUOUS
370
-3
390
F
  0
LAYER
  5
208
100
AcDbSymbolTableRecord
100
AcDbLayerTableRecord
  2
13_REF_GTOL
 70
0
 62
7
  6
CONTINUOUS
370
-3
390
F
  0
LAYER
  5
209
100
AcDbSymbolTableRecord
100
AcDbLayerTableRecord
  2
16_MISC
 70
0
 62
7
  6
CONTINUOUS
370
-3
390
F
  0
LAYER
  5
20A
100
AcDbSymbolTableRecord
100
AcDbLayerTableRecord
  2
17_NO_PRINT
 70
0
 62
7
  6
CONTINUOUS
370
-3
390
F
  0
LAYER
  5
20B
100
AcDbSymbolTableRecord
100
AcDbLayerTableRecord
  2
18_DATUM_CAMS_JOINTS
 70
0
 62
7
  6
CONTINUOUS
370
-3
390
F
  0
LAYER
  5
20C
100
AcDbSymbolTableRecord
100
AcDbLayerTableRecord
  2
19_DATUM_FUNCTIONAL
 70
0
 62
7
  6
CONTINUOUS
370
-3
390
F
  0
LAYER
  5
20D
100
AcDbSymbolTableRecord
100
AcDbLayerTableRecord
  2
20_DATUM_KINEMATIC_SCHEME
 70
0
 62
7
  6
CONTINUOUS
370
-3
390
F
  0
ENDTAB
  0
TABLE
  2
STYLE
  5
3
100
AcDbSymbolTable
 70
1
  0
STYLE
  5
11
100
AcDbSymbolTableRecord
100
AcDbTextStyleTableRecord
  2
STANDARD
 70
0
 40
0.0
 41
1.0
 50
0.0
 71
0
 42
0.2
  3
ARIAL.TTF
  4

  0
STYLE
  5
20E
100
AcDbSymbolTableRecord
100
AcDbTextStyleTableRecord
  2
TEXTSTYLE_1
 70
0
 40
0.0
 41
0.8
 50
0.0
 71
0
 42
0.2
  3
gdt
  4

  0
ENDTAB
  0
TABLE
  2
VIEW
  5
6
100
AcDbSymbolTable
 70
0
  0
ENDTAB
  0
TABLE
  2
UCS
  5
7
100
AcDbSymbolTable
 70
0
  0
ENDTAB
  0
TABLE
  2
APPID
  5
9
100
AcDbSymbolTable
 70
1
  0
APPID
  5
20F
100
AcDbSymbolTableRecord
100
AcDbRegAppTableRecord
  2
ACAD
 70
0
  0
ENDTAB
  0
TABLE
  2
BLOCK_RECORD
  5
1
100
AcDbSymbolTable
 70
0
  0
BLOCK_RECORD
  5
210
100
AcDbSymbolTableRecord
100
AcDbBlockTableRecord
  2
*Model_Space
  0
BLOCK_RECORD
  5
211
100
AcDbSymbolTableRecord
100
AcDbBlockTableRecord
  2
*Paper_Space
  0
BLOCK_RECORD
  5
212
100
AcDbSymbolTableRecord
100
AcDbBlockTableRecord
  2
_FILLED
  0
ENDTAB
  0
TABLE
  2
DIMSTYLE
  5
A
100
AcDbSymbolTable
 70
1
100
AcDbDimStyleTable
 71
0
  0
DIMSTYLE
105
213
100
AcDbSymbolTableRecord
100
AcDbDimStyleTableRecord
  2
STANDARD
 70
0
  3

  4

 40
1.0
 41
0.6403169031
 42
1.0
 43
0.38
 44
1.0
 45
0.0
 46
0.0
 47
0.01
 48
0.01
140
0.8964436644
141
0.09
142
0.0
143
25.4
144
1.0
145
0.0
146
1.0
147
0.625
 71
1
 72
0
 73
0
 74
0
 75
0
 76
0
 77
1
 78
8
 79
2
170
0
171
1
172
0
173
0
174
0
175
0
176
0
177
0
178
0
270
2
179
2
271
2
272
2
273
2
274
2
275
0
280
0
281
0
282
0
283
1
284
8
285
0
286
0
287
3
288
0
340
11
278
46
341
212
342
212
343
212
344
212
  0
ENDTAB
  0
ENDSEC
  0
SECTION
  2
BLOCKS
  0
BLOCK
  5
20
100
AcDbEntity
  8
0
100
AcDbBlockBegin
  2
*Model_Space
 70
0
 10
0.0
 20
0.0
 30
0.0
  3
*Model_Space
  1

  0
ENDBLK
  5
21
100
AcDbEntity
  8
0
100
AcDbBlockEnd
  0
BLOCK
  5
1C
100
AcDbEntity
  8
0
100
AcDbBlockBegin
  2
*Paper_Space
 70
0
 10
0.0
 20
0.0
 30
0.0
  3
*Paper_Space
  1

  0
ENDBLK
  5
1D
100
AcDbEntity
  8
0
100
AcDbBlockEnd
  0
BLOCK
  5
214
100
AcDbEntity
  8
0
100
AcDbBlockBegin
  2
_FILLED
 70
64
 10
0.0
 20
0.0
  3
_FILLED
  1

  0
SOLID
  5
215
100
AcDbEntity
  8
0
  6
BYBLOCK
 62
0
100
AcDbTrace
 10
0.0
 20
0.0
 11
-1.0
 21
0.25
 12
-1.0
 22
-0.25
 13
-1.0
 23
-0.25
  0
ENDBLK
  5
216
100
AcDbEntity
  8
0
  6
BYBLOCK
 62
0
100
AcDbBlockEnd
  0
ENDSEC
  0
SECTION
  2
ENTITIES
  0
LINE
  5
217
100
AcDbEntity
  8
0
100
AcDbLine
 62
7
  6
BYLAYER
 10
32.8588418971
 20
6.2848240469
 11
21.8588630113
 21
6.2848240469
  0
LINE
  5
218
100
AcDbEntity
  8
0
100
AcDbLine
 62
7
  6
BYLAYER
 10
33.3588524542
 20
7.2848240469
 11
21.3588524542
 21
7.2848240469
  0
LINE
  5
219
100
AcDbEntity
  8
0
100
AcDbLine
 62
7
  6
BYLAYER
 10
21.3588524542
 20
13.2848240469
 11
33.3588524542
 21
13.2848240469
  0
LINE
  5
21A
100
AcDbEntity
  8
0
100
AcDbLine
 62
7
  6
BYLAYER
 10
32.8588524542
 20
14.2848240469
 11
21.8588524542
 21
14.2848240469
  0
LINE
  5
21B
100
AcDbEntity
  8
0
100
AcDbLine
 62
7
  6
BYLAYER
 10
34.5586623295
 20
19.2848240469
 11
20.1590425788
 21
19.2848240469
  0
LINE
  5
21C
100
AcDbEntity
  8
0
100
AcDbLine
 62
7
  6
BYLAYER
 10
35.5588524542
 20
19.7848240469
 11
19.1588524542
 21
19.7848240469
  0
LINE
  5
21D
100
AcDbEntity
  8
0
100
AcDbLine
 62
7
  6
BYLAYER
 10
20.1588524542
 20
19.2848240469
 11
19.1588524542
 21
19.7848240469
  0
LINE
  5
21E
100
AcDbEntity
  8
0
100
AcDbLine
 62
7
  6
BYLAYER
 10
21.8588524542
 20
6.2848240469
 11
21.3588524542
 21
7.2848240469
  0
LINE
  5
21F
100
AcDbEntity
  8
0
100
AcDbLine
 62
7
  6
BYLAYER
 10
15.3588524542
 20
62.7848240469
 11
15.3588524542
 21
54.7848240469
  0
LINE
  5
220
100
AcDbEntity
  8
0
100
AcDbLine
 62
7
  6
BYLAYER
 10
19.1588524542
 20
27.7848240469
 11
18.3588524542
 21
28.7848240469
  0
LINE
  5
221
100
AcDbEntity
  8
0
100
AcDbLine
 62
7
  6
BYLAYER
 10
18.3588524542
 20
28.7848240469
 11
18.3588524542
 21
54.7848240469
  0
LINE
  5
222
100
AcDbEntity
  8
0
100
AcDbLine
 62
7
  6
BYLAYER
 10
19.1588524542
 20
27.7848240469
 11
35.5588524542
 21
27.7848240469
  0
LINE
  5
223
100
AcDbEntity
  8
0
100
AcDbLine
 62
7
  6
BYLAYER
 10
36.3588524542
 20
28.7848240469
 11
18.3588524542
 21
28.7848240469
  0
LINE
  5
224
100
AcDbEntity
  8
0
100
AcDbLine
 62
7
  6
BYLAYER
 10
19.1588524542
 20
19.7848240469
 11
19.1588524542
 21
27.7848240469
  0
LINE
  5
225
100
AcDbEntity
  8
0
100
AcDbLine
 62
7
  6
BYLAYER
 10
19.1588524542
 20
62.7848240469
 11
19.1588524542
 21
69.7848240469
  0
LINE
  5
226
100
AcDbEntity
  8
0
100
AcDbLine
 62
7
  6
BYLAYER
 10
21.3588524542
 20
7.2848240469
 11
21.3588524542
 21
13.2848240469
  0
LINE
  5
227
100
AcDbEntity
  8
0
100
AcDbLine
 62
7
  6
BYLAYER
 10
21.8588524542
 20
14.2848240469
 11
21.8588524542
 21
19.2848240469
  0
LINE
  5
228
100
AcDbEntity
  8
0
100
AcDbLine
 62
7
  6
BYLAYER
 10
32.8588524542
 20
14.2848240469
 11
33.3588524542
 21
13.2848240469
  0
LINE
  5
229
100
AcDbEntity
  8
0
100
AcDbLine
 62
7
  6
BYLAYER
 10
27.3588524542
 20
61.7130272772
 11
27.3588524542
 21
59.8566208166
  0
LINE
  5
22A
100
AcDbEntity
  8
0
100
AcDbLine
 62
7
  6
BYLAYER
 10
27.3588524542
 20
57.7130272772
 11
27.3588524542
 21
55.8566208166
  0
LINE
  5
22B
100
AcDbEntity
  8
0
100
AcDbLine
 62
7
  6
BYLAYER
 10
32.8588524542
 20
14.2848240469
 11
32.8588524542
 21
19.2848240469
  0
LINE
  5
22C
100
AcDbEntity
  8
0
100
AcDbLine
 62
7
  6
BYLAYER
 10
33.3588524542
 20
7.2848240469
 11
33.3588524542
 21
13.2848240469
  0
LINE
  5
22D
100
AcDbEntity
  8
0
100
AcDbLine
 62
7
  6
BYLAYER
 10
21.8588524542
 20
14.2848240469
 11
21.3588524542
 21
13.2848240469
  0
LINE
  5
22E
100
AcDbEntity
  8
0
100
AcDbLine
 62
7
  6
BYLAYER
 10
35.5588524542
 20
19.7848240469
 11
35.5588524542
 21
27.7848240469
  0
LINE
  5
22F
100
AcDbEntity
  8
0
100
AcDbLine
 62
7
  6
BYLAYER
 10
35.5588524542
 20
62.7848240469
 11
35.5588524542
 21
69.7848240469
  0
LINE
  5
230
100
AcDbEntity
  8
0
100
AcDbLine
 62
7
  6
BYLAYER
 10
36.3588524542
 20
28.7848240469
 11
36.3588524542
 21
54.7848240469
  0
LINE
  5
231
100
AcDbEntity
  8
0
100
AcDbLine
 62
7
  6
BYLAYER
 10
39.3588524542
 20
54.7848240469
 11
39.3588524542
 21
62.7848240469
  0
LINE
  5
232
100
AcDbEntity
  8
0
100
AcDbLine
 62
7
  6
BYLAYER
 10
35.5588524542
 20
27.7848240469
 11
36.3588524542
 21
28.7848240469
  0
LINE
  5
233
100
AcDbEntity
  8
0
100
AcDbLine
 62
7
  6
BYLAYER
 10
39.3588524542
 20
54.7848240469
 11
15.3588524542
 21
54.7848240469
  0
LINE
  5
234
100
AcDbEntity
  8
0
100
AcDbLine
 62
7
  6
BYLAYER
 10
32.8588524542
 20
6.2848240469
 11
33.3588524542
 21
7.2848240469
  0
LINE
  5
235
100
AcDbEntity
  8
0
100
AcDbLine
 62
7
  6
BYLAYER
 10
34.5588524542
 20
19.2848240469
 11
35.5588524542
 21
19.7848240469
  0
LINE
  5
236
100
AcDbEntity
  8
0
100
AcDbLine
 62
7
  6
BYLAYER
 10
39.3588524542
 20
58.7848240469
 11
15.3588524542
 21
58.7848240469
  0
LINE
  5
237
100
AcDbEntity
  8
0
100
AcDbLine
 62
7
  6
BYLAYER
 10
15.3588524542
 20
62.7848240469
 11
39.3588524542
 21
62.7848240469
  0
LINE
  5
238
100
AcDbEntity
  8
0
100
AcDbLine
 62
7
  6
BYLAYER
 10
19.1588635411
 20
69.7848240469
 11
35.5588413672
 21
69.7848240469
  0
ARC
  5
239
100
AcDbEntity
  8
0
100
AcDbCircle
 62
7
  6
BYLAYER
 10
23.8233185482
 20
17.2848240469
 40
0.5
100
AcDbArc
 50
111.3703802996
 51
248.0729064008
  0
ARC
  5
23A
100
AcDbEntity
  8
0
100
AcDbCircle
 62
7
  6
BYLAYER
 10
30.8943863601
 20
17.2848240469
 40
0.5
100
AcDbArc
 50
291.3703802996
 51
68.0729064008
  0
SPLINE
  5
23B
100
AcDbEntity
  8
0
100
AcDbSpline
 62
7
  6
BYLAYER
 70
0
 71
3
 72
13
 73
9
 74
0
 42
0.0000001
 43
0.0000001
 44
0.0000000001
 40
0.0
 40
0.0
 40
0.0
 40
0.0
 40
0.2513855782
 40
0.5016831749
 40
0.6264930183
 40
0.7511112818
 40
0.8755962448
 40
1.0
 40
1.0
 40
1.0
 40
1.0
 10
39.3588524542
 20
55.8566208166
 30
0.0
 10
38.8722485902
 20
55.6944195287
 30
0.0
 10
37.8920639583
 20
55.3969521144
 30
0.0
 10
36.6449172037
 20
55.1104514207
 30
0.0
 10
35.6387014854
 20
54.9438328878
 30
0.0
 10
34.8809595097
 20
54.8526684403
 30
0.0
 10
34.1206027806
 20
54.7972179145
 30
0.0
 10
33.6126850724
 20
54.7848240469
 30
0.0
 10
33.3588524542
 20
54.7848240469
 30
0.0
  0
SPLINE
  5
23C
100
AcDbEntity
  8
0
100
AcDbSpline
 62
7
  6
BYLAYER
 70
0
 71
3
 72
13
 73
9
 74
0
 42
0.0000001
 43
0.0000001
 44
0.0000000001
 40
0.0
 40
0.0
 40
0.0
 40
0.0
 40
0.1244037923
 40
0.2488888388
 40
0.3735071292
 40
0.4983169576
 40
0.7486145012
 40
1.0
 40
1.0
 40
1.0
 40
1.0
 10
33.3588524542
 20
58.7848240469
 30
0.0
 10
33.6126851486
 20
58.7848240469
 30
0.0
 10
34.1206030913
 20
58.7724299156
 30
0.0
 10
34.8809601598
 20
58.7169797797
 30
0.0
 10
35.6387022292
 20
58.625814493
 30
0.0
 10
36.6449180229
 20
58.4591970212
 30
0.0
 10
37.8920645098
 20
58.1726962647
 30
0.0
 10
38.872248743
 20
57.8752285142
 30
0.0
 10
39.3588524542
 20
57.7130272772
 30
0.0
  0
SPLINE
  5
23D
100
AcDbEntity
  8
0
100
AcDbSpline
 62
7
  6
BYLAYER
 70
0
 71
3
 72
13
 73
9
 74
0
 42
0.0000001
 43
0.0000001
 44
0.0000000001
 40
0.0
 40
0.0
 40
0.0
 40
0.0
 40
0.2513855782
 40
0.5016831749
 40
0.6264930183
 40
0.7511112818
 40
0.8755962448
 40
1.0
 40
1.0
 40
1.0
 40
1.0
 10
15.3588524542
 20
57.7130272772
 30
0.0
 10
15.8454563181
 20
57.8752285652
 30
0.0
 10
16.82564095
 20
58.1726959795
 30
0.0
 10
18.0727877047
 20
58.4591966731
 30
0.0
 10
19.0790034229
 20
58.625815206
 30
0.0
 10
19.8367453986
 20
58.7169796535
 30
0.0
 10
20.5971021277
 20
58.7724301793
 30
0.0
 10
21.1050198359
 20
58.7848240469
 30
0.0
 10
21.3588524542
 20
58.7848240469
 30
0.0
  0
SPLINE
  5
23E
100
AcDbEntity
  8
0
100
AcDbSpline
 62
7
  6
BYLAYER
 70
0
 71
3
 72
13
 73
9
 74
0
 42
0.0000001
 43
0.0000001
 44
0.0000000001
 40
0.0
 40
0.0
 40
0.0
 40
0.0
 40
0.1244037923
 40
0.2488888388
 40
0.3735071292
 40
0.4983169576
 40
0.7486145012
 40
1.0
 40
1.0
 40
1.0
 40
1.0
 10
21.3588524542
 20
54.7848240469
 30
0.0
 10
21.1050197597
 20
54.7848240469
 30
0.0
 10
20.597101817
 20
54.7972181782
 30
0.0
 10
19.8367447485
 20
54.8526683141
 30
0.0
 10
19.0790026791
 20
54.9438336008
 30
0.0
 10
18.0727868854
 20
55.1104510726
 30
0.0
 10
16.8256403986
 20
55.3969518291
 30
0.0
 10
15.8454561653
 20
55.6944195796
 30
0.0
 10
15.3588524542
 20
55.8566208166
 30
0.0
  0
SPLINE
  5
23F
100
AcDbEntity
  8
0
100
AcDbSpline
 62
7
  6
BYLAYER
 70
0
 71
3
 72
13
 73
9
 74
0
 42
0.0000001
 43
0.0000001
 44
0.0000000001
 40
0.0
 40
0.0
 40
0.0
 40
0.0
 40
0.2513855782
 40
0.5016831749
 40
0.6264930183
 40
0.7511112818
 40
0.8755962448
 40
1.0
 40
1.0
 40
1.0
 40
1.0
 10
27.3588524542
 20
55.8566208166
 30
0.0
 10
26.8722485902
 20
55.6944195287
 30
0.0
 10
25.8920639583
 20
55.3969521144
 30
0.0
 10
24.6449172037
 20
55.1104514207
 30
0.0
 10
23.6387014854
 20
54.9438328878
 30
0.0
 10
22.8809595097
 20
54.8526684403
 30
0.0
 10
22.1206027806
 20
54.7972179145
 30
0.0
 10
21.6126850724
 20
54.7848240469
 30
0.0
 10
21.3588524542
 20
54.7848240469
 30
0.0
  0
SPLINE
  5
240
100
AcDbEntity
  8
0
100
AcDbSpline
 62
7
  6
BYLAYER
 70
0
 71
3
 72
13
 73
9
 74
0
 42
0.0000001
 43
0.0000001
 44
0.0000000001
 40
0.0
 40
0.0
 40
0.0
 40
0.0
 40
0.2513855782
 40
0.5016831749
 40
0.6264930183
 40
0.7511112818
 40
0.8755962448
 40
1.0
 40
1.0
 40
1.0
 40
1.0
 10
27.3588524542
 20
57.7130272772
 30
0.0
 10
27.8454563181
 20
57.8752285652
 30
0.0
 10
28.82564095
 20
58.1726959795
 30
0.0
 10
30.0727877047
 20
58.4591966731
 30
0.0
 10
31.0790034229
 20
58.625815206
 30
0.0
 10
31.8367453986
 20
58.7169796535
 30
0.0
 10
32.5971021277
 20
58.7724301793
 30
0.0
 10
33.1050198359
 20
58.7848240469
 30
0.0
 10
33.3588524542
 20
58.7848240469
 30
0.0
  0
SPLINE
  5
241
100
AcDbEntity
  8
0
100
AcDbSpline
 62
7
  6
BYLAYER
 70
0
 71
3
 72
13
 73
9
 74
0
 42
0.0000001
 43
0.0000001
 44
0.0000000001
 40
0.0
 40
0.0
 40
0.0
 40
0.0
 40
0.1244037923
 40
0.2488888388
 40
0.3735071292
 40
0.4983169576
 40
0.7486145012
 40
1.0
 40
1.0
 40
1.0
 40
1.0
 10
33.3588524542
 20
54.7848240469
 30
0.0
 10
33.1050197597
 20
54.7848240469
 30
0.0
 10
32.597101817
 20
54.7972181782
 30
0.0
 10
31.8367447485
 20
54.8526683141
 30
0.0
 10
31.0790026791
 20
54.9438336008
 30
0.0
 10
30.0727868854
 20
55.1104510726
 30
0.0
 10
28.8256403986
 20
55.3969518291
 30
0.0
 10
27.8454561653
 20
55.6944195796
 30
0.0
 10
27.3588524542
 20
55.8566208166
 30
0.0
  0
SPLINE
  5
242
100
AcDbEntity
  8
0
100
AcDbSpline
 62
7
  6
BYLAYER
 70
0
 71
3
 72
13
 73
9
 74
0
 42
0.0000001
 43
0.0000001
 44
0.0000000001
 40
0.0
 40
0.0
 40
0.0
 40
0.0
 40
0.1244037923
 40
0.2488888388
 40
0.3735071292
 40
0.4983169576
 40
0.7486145012
 40
1.0
 40
1.0
 40
1.0
 40
1.0
 10
21.3588524542
 20
58.7848240469
 30
0.0
 10
21.6126851486
 20
58.7848240469
 30
0.0
 10
22.1206030913
 20
58.7724299156
 30
0.0
 10
22.8809601598
 20
58.7169797797
 30
0.0
 10
23.6387022292
 20
58.625814493
 30
0.0
 10
24.6449180229
 20
58.4591970212
 30
0.0
 10
25.8920645098
 20
58.1726962647
 30
0.0
 10
26.872248743
 20
57.8752285142
 30
0.0
 10
27.3588524542
 20
57.7130272772
 30
0.0
  0
SPLINE
  5
243
100
AcDbEntity
  8
0
100
AcDbSpline
 62
7
  6
BYLAYER
 70
0
 71
3
 72
13
 73
9
 74
0
 42
0.0000001
 43
0.0000001
 44
0.0000000001
 40
0.0
 40
0.0
 40
0.0
 40
0.0
 40
0.2513855782
 40
0.5016831749
 40
0.6264930183
 40
0.7511112818
 40
0.8755962448
 40
1.0
 40
1.0
 40
1.0
 40
1.0
 10
39.3588524542
 20
59.8566208166
 30
0.0
 10
38.8722485902
 20
59.6944195287
 30
0.0
 10
37.8920639583
 20
59.3969521144
 30
0.0
 10
36.6449172037
 20
59.1104514207
 30
0.0
 10
35.6387014854
 20
58.9438328878
 30
0.0
 10
34.8809595097
 20
58.8526684403
 30
0.0
 10
34.1206027806
 20
58.7972179145
 30
0.0
 10
33.6126850724
 20
58.7848240469
 30
0.0
 10
33.3588524542
 20
58.7848240469
 30
0.0
  0
SPLINE
  5
244
100
AcDbEntity
  8
0
100
AcDbSpline
 62
7
  6
BYLAYER
 70
0
 71
3
 72
13
 73
9
 74
0
 42
0.0000001
 43
0.0000001
 44
0.0000000001
 40
0.0
 40
0.0
 40
0.0
 40
0.0
 40
0.1244037923
 40
0.2488888388
 40
0.3735071292
 40
0.4983169576
 40
0.7486145012
 40
1.0
 40
1.0
 40
1.0
 40
1.0
 10
33.3588524542
 20
62.7848240469
 30
0.0
 10
33.6126851486
 20
62.7848240469
 30
0.0
 10
34.1206030913
 20
62.7724299156
 30
0.0
 10
34.8809601598
 20
62.7169797797
 30
0.0
 10
35.6387022292
 20
62.625814493
 30
0.0
 10
36.6449180229
 20
62.4591970212
 30
0.0
 10
37.8920645098
 20
62.1726962647
 30
0.0
 10
38.872248743
 20
61.8752285142
 30
0.0
 10
39.3588524542
 20
61.7130272772
 30
0.0
  0
SPLINE
  5
245
100
AcDbEntity
  8
0
100
AcDbSpline
 62
7
  6
BYLAYER
 70
0
 71
3
 72
13
 73
9
 74
0
 42
0.0000001
 43
0.0000001
 44
0.0000000001
 40
0.0
 40
0.0
 40
0.0
 40
0.0
 40
0.2513855782
 40
0.5016831749
 40
0.6264930183
 40
0.7511112818
 40
0.8755962448
 40
1.0
 40
1.0
 40
1.0
 40
1.0
 10
15.3588524542
 20
61.7130272772
 30
0.0
 10
15.8454563181
 20
61.8752285652
 30
0.0
 10
16.82564095
 20
62.1726959795
 30
0.0
 10
18.0727877047
 20
62.4591966731
 30
0.0
 10
19.0790034229
 20
62.625815206
 30
0.0
 10
19.8367453986
 20
62.7169796535
 30
0.0
 10
20.5971021277
 20
62.7724301793
 30
0.0
 10
21.1050198359
 20
62.7848240469
 30
0.0
 10
21.3588524542
 20
62.7848240469
 30
0.0
  0
SPLINE
  5
246
100
AcDbEntity
  8
0
100
AcDbSpline
 62
7
  6
BYLAYER
 70
0
 71
3
 72
13
 73
9
 74
0
 42
0.0000001
 43
0.0000001
 44
0.0000000001
 40
0.0
 40
0.0
 40
0.0
 40
0.0
 40
0.1244037923
 40
0.2488888388
 40
0.3735071292
 40
0.4983169576
 40
0.7486145012
 40
1.0
 40
1.0
 40
1.0
 40
1.0
 10
21.3588524542
 20
58.7848240469
 30
0.0
 10
21.1050197597
 20
58.7848240469
 30
0.0
 10
20.597101817
 20
58.7972181782
 30
0.0
 10
19.8367447485
 20
58.8526683141
 30
0.0
 10
19.0790026791
 20
58.9438336008
 30
0.0
 10
18.0727868854
 20
59.1104510726
 30
0.0
 10
16.8256403986
 20
59.3969518291
 30
0.0
 10
15.8454561653
 20
59.6944195796
 30
0.0
 10
15.3588524542
 20
59.8566208166
 30
0.0
  0
SPLINE
  5
247
100
AcDbEntity
  8
0
100
AcDbSpline
 62
7
  6
BYLAYER
 70
0
 71
3
 72
13
 73
9
 74
0
 42
0.0000001
 43
0.0000001
 44
0.0000000001
 40
0.0
 40
0.0
 40
0.0
 40
0.0
 40
0.2513855782
 40
0.5016831749
 40
0.6264930183
 40
0.7511112818
 40
0.8755962448
 40
1.0
 40
1.0
 40
1.0
 40
1.0
 10
27.3588524542
 20
59.8566208166
 30
0.0
 10
26.8722485902
 20
59.6944195287
 30
0.0
 10
25.8920639583
 20
59.3969521144
 30
0.0
 10
24.6449172037
 20
59.1104514207
 30
0.0
 10
23.6387014854
 20
58.9438328878
 30
0.0
 10
22.8809595097
 20
58.8526684403
 30
0.0
 10
22.1206027806
 20
58.7972179145
 30
0.0
 10
21.6126850724
 20
58.7848240469
 30
0.0
 10
21.3588524542
 20
58.7848240469
 30
0.0
  0
SPLINE
  5
248
100
AcDbEntity
  8
0
100
AcDbSpline
 62
7
  6
BYLAYER
 70
0
 71
3
 72
13
 73
9
 74
0
 42
0.0000001
 43
0.0000001
 44
0.0000000001
 40
0.0
 40
0.0
 40
0.0
 40
0.0
 40
0.2513855782
 40
0.5016831749
 40
0.6264930183
 40
0.7511112818
 40
0.8755962448
 40
1.0
 40
1.0
 40
1.0
 40
1.0
 10
27.3588524542
 20
61.7130272772
 30
0.0
 10
27.8454563181
 20
61.8752285652
 30
0.0
 10
28.82564095
 20
62.1726959795
 30
0.0
 10
30.0727877047
 20
62.4591966731
 30
0.0
 10
31.0790034229
 20
62.625815206
 30
0.0
 10
31.8367453986
 20
62.7169796535
 30
0.0
 10
32.5971021277
 20
62.7724301793
 30
0.0
 10
33.1050198359
 20
62.7848240469
 30
0.0
 10
33.3588524542
 20
62.7848240469
 30
0.0
  0
SPLINE
  5
249
100
AcDbEntity
  8
0
100
AcDbSpline
 62
7
  6
BYLAYER
 70
0
 71
3
 72
13
 73
9
 74
0
 42
0.0000001
 43
0.0000001
 44
0.0000000001
 40
0.0
 40
0.0
 40
0.0
 40
0.0
 40
0.1244037923
 40
0.2488888388
 40
0.3735071292
 40
0.4983169576
 40
0.7486145012
 40
1.0
 40
1.0
 40
1.0
 40
1.0
 10
33.3588524542
 20
58.7848240469
 30
0.0
 10
33.1050197597
 20
58.7848240469
 30
0.0
 10
32.597101817
 20
58.7972181782
 30
0.0
 10
31.8367447485
 20
58.8526683141
 30
0.0
 10
31.0790026791
 20
58.9438336008
 30
0.0
 10
30.0727868854
 20
59.1104510726
 30
0.0
 10
28.8256403986
 20
59.3969518291
 30
0.0
 10
27.8454561653
 20
59.6944195796
 30
0.0
 10
27.3588524542
 20
59.8566208166
 30
0.0
  0
SPLINE
  5
24A
100
AcDbEntity
  8
0
100
AcDbSpline
 62
7
  6
BYLAYER
 70
0
 71
3
 72
13
 73
9
 74
0
 42
0.0000001
 43
0.0000001
 44
0.0000000001
 40
0.0
 40
0.0
 40
0.0
 40
0.0
 40
0.1244037923
 40
0.2488888388
 40
0.3735071292
 40
0.4983169576
 40
0.7486145012
 40
1.0
 40
1.0
 40
1.0
 40
1.0
 10
21.3588524542
 20
62.7848240469
 30
0.0
 10
21.6126851486
 20
62.7848240469
 30
0.0
 10
22.1206030913
 20
62.7724299156
 30
0.0
 10
22.8809601598
 20
62.7169797797
 30
0.0
 10
23.6387022292
 20
62.625814493
 30
0.0
 10
24.6449180229
 20
62.4591970212
 30
0.0
 10
25.8920645098
 20
62.1726962647
 30
0.0
 10
26.872248743
 20
61.8752285142
 30
0.0
 10
27.3588524542
 20
61.7130272772
 30
0.0
  0
SPLINE
  5
24B
100
AcDbEntity
  8
0
100
AcDbSpline
 62
7
  6
BYLAYER
 70
0
 71
3
 72
13
 73
9
 74
0
 42
0.0000001
 43
0.0000001
 44
0.0000000001
 40
0.0
 40
0.0
 40
0.0
 40
0.0
 40
0.2838903964
 40
0.5503474105
 40
0.6735549262
 40
0.7888764528
 40
0.8970167443
 40
1.0
 40
1.0
 40
1.0
 40
1.0
 10
30.8782824098
 20
17.2848240469
 30
0.0
 10
30.8782824098
 20
17.2202565825
 30
0.0
 10
30.8969614661
 20
17.0943105698
 30
0.0
 10
30.966030722
 20
16.9541150119
 30
0.0
 10
31.0433201259
 20
16.8682770892
 30
0.0
 10
31.1073421202
 20
16.8211867454
 30
0.0
 10
31.1762587685
 20
16.791701446
 30
0.0
 10
31.2244960038
 20
16.7848469422
 30
0.0
 10
31.2479183097
 20
16.7848465265
 30
0.0
  0
SPLINE
  5
24C
100
AcDbEntity
  8
0
100
AcDbSpline
 62
7
  6
BYLAYER
 70
0
 71
3
 72
13
 73
9
 74
0
 42
0.0000001
 43
0.0000001
 44
0.0000000001
 40
0.0
 40
0.0
 40
0.0
 40
0.0
 40
0.2838903964
 40
0.5503474105
 40
0.6735549262
 40
0.7888764528
 40
0.8970167443
 40
1.0
 40
1.0
 40
1.0
 40
1.0
 10
23.8394224985
 20
17.2848240469
 30
0.0
 10
23.8394224985
 20
17.3493915114
 30
0.0
 10
23.8207434422
 20
17.475337524
 30
0.0
 10
23.7516741863
 20
17.615533082
 30
0.0
 10
23.6743847824
 20
17.7013710046
 30
0.0
 10
23.6103627881
 20
17.7484613484
 30
0.0
 10
23.5414461399
 20
17.7779466478
 30
0.0
 10
23.4932089045
 20
17.7848011516
 30
0.0
 10
23.4697865986
 20
17.7848015673
 30
0.0
  0
SPLINE
  5
24D
100
AcDbEntity
  8
0
100
AcDbSpline
 62
7
  6
BYLAYER
 70
0
 71
3
 72
13
 73
9
 74
0
 42
0.0000001
 43
0.0000001
 44
0.0000000001
 40
0.0
 40
0.0
 40
0.0
 40
0.0
 40
0.1029768226
 40
0.2111068914
 40
0.326428223
 40
0.4496484971
 40
0.7161432417
 40
1.0
 40
1.0
 40
1.0
 40
1.0
 10
23.4697866016
 20
16.7848465265
 30
0.0
 10
23.4932074199
 20
16.7848461108
 30
0.0
 10
23.5414403117
 20
16.7917020813
 30
0.0
 10
23.610355993
 20
16.8211795846
 30
0.0
 10
23.6743757322
 20
16.868274069
 30
0.0
 10
23.7516792854
 20
16.9541140944
 30
0.0
 10
23.8207423288
 20
17.0943193329
 30
0.0
 10
23.8394224985
 20
17.2202643005
 30
0.0
 10
23.8394224985
 20
17.2848240469
 30
0.0
  0
SPLINE
  5
24E
100
AcDbEntity
  8
0
100
AcDbSpline
 62
7
  6
BYLAYER
 70
0
 71
3
 72
13
 73
9
 74
0
 42
0.0000001
 43
0.0000001
 44
0.0000000001
 40
0.0
 40
0.0
 40
0.0
 40
0.0
 40
0.1029768226
 40
0.2111068914
 40
0.326428223
 40
0.4496484971
 40
0.7161432417
 40
1.0
 40
1.0
 40
1.0
 40
1.0
 10
31.2479183067
 20
17.7848015673
 30
0.0
 10
31.2244974884
 20
17.7848019831
 30
0.0
 10
31.1762645966
 20
17.7779460126
 30
0.0
 10
31.1073489153
 20
17.7484685093
 30
0.0
 10
31.0433291761
 20
17.7013740249
 30
0.0
 10
30.966025623
 20
17.6155339994
 30
0.0
 10
30.8969625795
 20
17.475328761
 30
0.0
 10
30.8782824098
 20
17.3493837934
 30
0.0
 10
30.8782824098
 20
17.2848240469
 30
0.0
  0
SPLINE
  5
24F
100
AcDbEntity
  8
0
100
AcDbSpline
 62
7
  6
BYLAYER
 70
0
 71
3
 72
14
 73
10
 74
0
 42
0.0000001
 43
0.0000001
 44
0.0000000001
 40
0.0
 40
0.0
 40
0.0
 40
0.0
 40
0.1038899562
 40
0.210058906
 40
0.322178616
 40
0.4426021821
 40
0.5720014094
 40
0.709660758
 40
1.0
 40
1.0
 40
1.0
 40
1.0
 10
23.4697865986
 20
17.7848015673
 30
0.0
 10
23.4467644818
 20
17.784801976
 30
0.0
 10
23.3999383246
 20
17.7782503041
 30
0.0
 10
23.3340335843
 20
17.7486836864
 30
0.0
 10
23.274951333
 20
17.701233946
 30
0.0
 10
23.2245793728
 20
17.6381272076
 30
0.0
 10
23.1840605333
 20
17.5619316741
 30
0.0
 10
23.143885218
 20
17.4447587268
 30
0.0
 10
23.1323157174
 20
17.3491635093
 30
0.0
 10
23.1323157174
 20
17.2848240469
 30
0.0
  0
SPLINE
  5
250
100
AcDbEntity
  8
0
100
AcDbSpline
 62
7
  6
BYLAYER
 70
0
 71
3
 72
14
 73
10
 74
0
 42
0.0000001
 43
0.0000001
 44
0.0000000001
 40
0.0
 40
0.0
 40
0.0
 40
0.0
 40
0.1038899562
 40
0.210058906
 40
0.322178616
 40
0.4426021821
 40
0.5720014094
 40
0.709660758
 40
1.0
 40
1.0
 40
1.0
 40
1.0
 10
31.2479183097
 20
16.7848465265
 30
0.0
 10
31.2709404265
 20
16.7848461179
 30
0.0
 10
31.3177665837
 20
16.7913977897
 30
0.0
 10
31.383671324
 20
16.8209644075
 30
0.0
 10
31.4427535753
 20
16.8684141478
 30
0.0
 10
31.4931255356
 20
16.9315208862
 30
0.0
 10
31.533644375
 20
17.0077164198
 30
0.0
 10
31.5738196903
 20
17.124889367
 30
0.0
 10
31.585389191
 20
17.2204845845
 30
0.0
 10
31.585389191
 20
17.2848240469
 30
0.0
  0
SPLINE
  5
251
100
AcDbEntity
  8
0
100
AcDbSpline
 62
7
  6
BYLAYER
 70
0
 71
3
 72
14
 73
10
 74
0
 42
0.0000001
 43
0.0000001
 44
0.0000000001
 40
0.0
 40
0.0
 40
0.0
 40
0.0
 40
0.2903742092
 40
0.4280179183
 40
0.5573938826
 40
0.6778063649
 40
0.7899274367
 40
0.8961045046
 40
1.0
 40
1.0
 40
1.0
 40
1.0
 10
31.585389191
 20
17.2848240469
 30
0.0
 10
31.585389191
 20
17.3491712319
 30
0.0
 10
31.5738160514
 20
17.4447703008
 30
0.0
 10
31.5336413357
 20
17.5619427867
 30
0.0
 10
31.4931236122
 20
17.6381256796
 30
0.0
 10
31.4427611662
 20
17.7012310211
 30
0.0
 10
31.3836758596
 20
17.7486758729
 30
0.0
 10
31.3177714687
 20
17.778251202
 30
0.0
 10
31.2709416416
 20
17.7848011587
 30
0.0
 10
31.2479183067
 20
17.7848015673
 30
0.0
  0
SPLINE
  5
252
100
AcDbEntity
  8
0
100
AcDbSpline
 62
7
  6
BYLAYER
 70
0
 71
3
 72
14
 73
10
 74
0
 42
0.0000001
 43
0.0000001
 44
0.0000000001
 40
0.0
 40
0.0
 40
0.0
 40
0.0
 40
0.2903742092
 40
0.4280179183
 40
0.5573938826
 40
0.6778063649
 40
0.7899274367
 40
0.8961045046
 40
1.0
 40
1.0
 40
1.0
 40
1.0
 10
23.1323157174
 20
17.2848240469
 30
0.0
 10
23.1323157174
 20
17.2204768619
 30
0.0
 10
23.1438888569
 20
17.1248777931
 30
0.0
 10
23.1840635726
 20
17.0077053071
 30
0.0
 10
23.2245812962
 20
16.9315224143
 30
0.0
 10
23.2749437421
 20
16.8684170728
 30
0.0
 10
23.3340290487
 20
16.820972221
 30
0.0
 10
23.3999334396
 20
16.7913968919
 30
0.0
 10
23.4467632667
 20
16.7848469352
 30
0.0
 10
23.4697866016
 20
16.7848465265
 30
0.0
  0
ENDSEC
  0
SECTION
  2
OBJECTS
  0
DICTIONARY
  5
C
100
AcDbDictionary
280
0
281
1
  3
ACAD_GROUP
350
D
  3
ACAD_MLINESTYLE
350
17
  3
ACAD_LAYOUT
350
1A
  3
ACAD_PLOTSETTINGS
350
19
  3
ACAD_PLOTSTYLENAME
350
E
  0
DICTIONARY
  5
D
102
{ACAD_REACTORS
330
C
102
}
100
AcDbDictionary
280
0
281
1
  0
ACDBDICTIONARYWDFLT
  5
E
102
{ACAD_REACTORS
330
C
102
}
100
AcDbDictionary
281
1
  3
Normal
350
F
100
AcDbDictionaryWithDefault
340
F
  0
DICTIONARY
  5
17
102
{ACAD_REACTORS
330
C
102
}
100
AcDbDictionary
280
0
281
1
  3
Standard
350
18
  0
DICTIONARY
  5
19
102
{ACAD_REACTORS
330
C
102
}
100
AcDbDictionary
281
1
  0
DICTIONARY
  5
1A
102
{ACAD_REACTORS
330
C
102
}
100
AcDbDictionary
281
1
  3
Model
350
253
  3
Layout1
350
254
  0
ACDBPLACEHOLDER
  5
F
102
{ACAD_REACTORS
330
E
102
}
  0
MLINESTYLE
  5
18
102
{ACAD_REACTORS
330
17
102
}
100
AcDbMlineStyle
  2
STANDARD
 70
0
  3

 62
256
 51
90.0
 52
90.0
 71
2
 49
0.5
 62
256
  6
BYLAYER
 49
-0.5
 62
256
  6
BYLAYER
  0
LAYOUT
  5
253
102
{ACAD_REACTORS
330
1A
102
}
100
AcDbPlotSettings
  1

  2
none_device
  4

  6

 40
0.0
 41
0.0
 42
0.0
 43
0.0
 44
210.0
 45
297.0
 46
0.0
 47
0.0
 48
0.0
 49
0.0
140
0.0
141
0.0
142
1.0
143
1.0
 70
1024
 72
1
 73
0
 74
0
  7

 75
0
147
1.0
148
0.0
149
0.0
100
AcDbLayout
  1
Model
 70
0
 71
0
 10
0.0
 20
0.0
 11
210.0
 21
297.0
 12
0.0
 22
0.0
 32
0.0
 14
0.0
 24
0.0
 34
0.0
 15
0.0
 25
0.0
 35
0.0
146
0.0
 13
0.0
 23
0.0
 33
0.0
 16
1.0
 26
0.0
 36
0.0
 17
0.0
 27
1.0
 37
0.0
 76
0
330
210
345
0
346
0
  0
LAYOUT
  5
254
102
{ACAD_REACTORS
330
1A
102
}
100
AcDbPlotSettings
  1

  2
none_device
  4

  6

 40
0.0
 41
0.0
 42
0.0
 43
0.0
 44
210.0
 45
297.0
 46
0.0
 47
0.0
 48
0.0
 49
0.0
140
0.0
141
0.0
142
1.0
143
1.0
 70
0
 72
1
 73
0
 74
0
  7

 75
0
147
1.0
148
0.0
149
0.0
100
AcDbLayout
  1
Layout1
 70
0
 71
1
 10
0.0
 20
0.0
 11
210.0
 21
297.0
 12
0.0
 22
0.0
 32
0.0
 14
0.0
 24
0.0
 34
0.0
 15
0.0
 25
0.0
 35
0.0
146
0.0
 13
0.0
 23
0.0
 33
0.0
 16
1.0
 26
0.0
 36
0.0
 17
0.0
 27
1.0
 37
0.0
 76
0
330
211
345
0
346
0
  0
ENDSEC
  0
EOF
