999
DXF file: C:\Users\sesa63760\OneDrive - Schneider Electric\Documents\7-Dev\_Creo\CAD\MCADPP0000215_3D-CAD\drw0001_6.dxf
999
Pro/ENGINEER 2019471 by Parametric Technology Corporation
  0
SECTION
  2
HEADER
  9
$ACADVER
  1
AC1024
  9
$DWGCODEPAGE
  3
ANSI_1252
  9
$EXTMAX
 10
56.8828327034
 20
80.4485776805
 30
0.0
  9
$EXTMIN
 10
0.0
 20
0.0
 30
0.0
  9
$LIMMIN
 10
0.0
 20
0.0
  9
$LIMMAX
 10
56.8828327034
 20
80.4485776805
  9
$VIEWCTR
 10
28.4414163517
 20
40.2242888403
  9
$VIEWSIZE
 40
80.4485776805
  9
$CLAYER
  8
0
  9
$LTSCALE
 40
5.244055434
  9
$CELTYPE
  6
BYLAYER
  9
$DIMSCALE
 40
1.0
  9
$DIMASZ
 40
0.6771765798
  9
$DIMEXO
 40
1.0
  9
$DIMDLI
 40
3.6231655726
  9
$DIMEXE
 40
1.0
  9
$DIMCEN
 40
0.8581181619
  9
$DIMLFAC
 40
1.0
  9
$DIMBLK
  1
_FILLED
  9
$DIMALT
 70
0
  9
$DIMALTF
 40
0.0393700787
  9
$DIMTXT
 40
0.9480472117
  9
$DIMTOL
 70
1
  9
$DIMLIM
 70
0
  9
$DIMTFAC
 40
1.0
  9
$DIMTP
 40
0.01
  9
$DIMTM
 40
0.01
  9
$DIMGAP
 40
0.625
  9
$DIMDSEP
 70
46
  9
$AUNITS
 70
0
  9
$PDMODE
 70
3
  9
$PDSIZE
 40
0.3125
  9
$HANDSEED
  5
379
  9
$TILEMODE
 70
1
  9
$MEASUREMENT
 70
1
  9
$INSUNITS
 70
4
  0
ENDSEC
  0
SECTION
  2
CLASSES
  0
CLASS
  1
ACDBDICTIONARYWDFLT
  2
AcDbDictionaryWithDefault
  3
AutoCAD 2000
 90
0
 91
1
280
0
281
0
  0
CLASS
  1
ACDBPLACEHOLDER
  2
AcDbPlaceHolder
  3
AutoCAD 2000
 90
0
 91
1
280
0
281
0
  0
CLASS
  1
LAYOUT
  2
AcDbLayout
  3
AutoCAD 2000
 90
0
 91
0
280
0
281
0
  0
ENDSEC
  0
SECTION
  2
TABLES
  0
TABLE
  2
VPORT
  5
8
100
AcDbSymbolTable
 70
2
  0
VPORT
  5
1F4
100
AcDbSymbolTableRecord
100
AcDbViewportTableRecord
  2
*ACTIVE
 70
0
 10
0.0
 20
0.0
 11
1.0
 21
1.0
 12
28.4414163517
 22
40.2242888403
 13
0.0
 23
0.0
 14
1.0
 24
1.0
 15
0.0
 25
0.0
 16
0.0
 26
0.0
 36
1.0
 17
0.0
 27
0.0
 37
0.0
 40
80.4485776805
 41
0.7070707071
 42
50.0
 43
0.0
 44
0.0
 50
0.0
 51
0.0
 71
0
 72
100
 73
1
 74
1
 75
0
 76
0
 77
0
 78
0
  0
ENDTAB
  0
TABLE
  2
LTYPE
  5
5
100
AcDbSymbolTable
 70
6
  0
LTYPE
  5
14
100
AcDbSymbolTableRecord
100
AcDbLinetypeTableRecord
  2
BYBLOCK
 70
0
  3

 72
65
 73
0
 40
0.0
  0
LTYPE
  5
15
100
AcDbSymbolTableRecord
100
AcDbLinetypeTableRecord
  2
BYLAYER
 70
0
  3

 72
65
 73
0
 40
0.0
  0
LTYPE
  5
16
100
AcDbSymbolTableRecord
100
AcDbLinetypeTableRecord
  2
CONTINUOUS
 70
64
  3
Solid line
 72
65
 73
0
 40
0.0
  0
LTYPE
  5
1F5
100
AcDbSymbolTableRecord
100
AcDbLinetypeTableRecord
  2
CENTER
 70
64
  3
____ _ ____ _ ____ _ ____ _ ____ _ ____ _ ____
 72
65
 73
4
 40
0.6
 49
0.375
 74
0
 49
-0.075
 74
0
 49
0.075
 74
0
 49
-0.075
 74
0
  0
LTYPE
  5
1F6
100
AcDbSymbolTableRecord
100
AcDbLinetypeTableRecord
  2
HIDDEN
 70
64
  3
- - - - - - - - - - - - - - - - - - - -
 72
65
 73
2
 40
0.2
 49
0.1
 74
0
 49
-0.1
 74
0
  0
LTYPE
  5
1F7
100
AcDbSymbolTableRecord
100
AcDbLinetypeTableRecord
  2
PHANTOM
 70
64
  3
_____ _ _ _____ _ _ _____ _ _ _____
 72
65
 73
6
 40
0.8
 49
0.45
 74
0
 49
-0.05
 74
0
 49
0.1
 74
0
 49
-0.05
 74
0
 49
0.1
 74
0
 49
-0.05
 74
0
  0
LTYPE
  5
1F8
100
AcDbSymbolTableRecord
100
AcDbLinetypeTableRecord
  2
DOT
 70
64
  3
. . . . . . . . . . . . . . . . . . . .
 72
65
 73
2
 40
0.2
 49
0.1
 74
0
 49
-0.1
 74
0
  0
LTYPE
  5
1F9
100
AcDbSymbolTableRecord
100
AcDbLinetypeTableRecord
  2
DASHED
 70
64
  3
- - - - - - - - - - - - - - - - - - - -
 72
65
 73
2
 40
0.2
 49
0.1
 74
0
 49
-0.1
 74
0
  0
ENDTAB
  0
TABLE
  2
LAYER
  5
2
100
AcDbSymbolTable
 70
36
  0
LAYER
  5
10
100
AcDbSymbolTableRecord
100
AcDbLayerTableRecord
  2
0
 70
0
 62
7
  6
CONTINUOUS
370
-3
390
F
  0
LAYER
  5
1FA
100
AcDbSymbolTableRecord
100
AcDbLayerTableRecord
  2
DEFAULT_1
 70
0
 62
7
  6
CENTER
370
-3
390
F
  0
LAYER
  5
1FB
100
AcDbSymbolTableRecord
100
AcDbLayerTableRecord
  2
DEFAULT_2
 70
0
 62
8
  6
HIDDEN
370
-3
390
F
  0
LAYER
  5
1FC
100
AcDbSymbolTableRecord
100
AcDbLayerTableRecord
  2
DEFAULT_3
 70
0
 62
7
  6
PHANTOM
370
-3
390
F
  0
LAYER
  5
1FD
100
AcDbSymbolTableRecord
100
AcDbLayerTableRecord
  2
00_COMPONENTS
 70
0
 62
7
  6
CONTINUOUS
370
-3
390
F
  0
LAYER
  5
1FE
100
AcDbSymbolTableRecord
100
AcDbLayerTableRecord
  2
01_1_DEFAULT_DATUMS
 70
0
 62
7
  6
CONTINUOUS
370
-3
390
F
  0
LAYER
  5
1FF
100
AcDbSymbolTableRecord
100
AcDbLayerTableRecord
  2
01_PLANES
 70
0
 62
7
  6
CONTINUOUS
370
-3
390
F
  0
LAYER
  5
200
100
AcDbSymbolTableRecord
100
AcDbLayerTableRecord
  2
02_COORD_SYS
 70
0
 62
7
  6
CONTINUOUS
370
-3
390
F
  0
LAYER
  5
201
100
AcDbSymbolTableRecord
100
AcDbLayerTableRecord
  2
03_AXES
 70
0
 62
7
  6
CONTINUOUS
370
-3
390
F
  0
LAYER
  5
202
100
AcDbSymbolTableRecord
100
AcDbLayerTableRecord
  2
04_POINTS
 70
0
 62
7
  6
CONTINUOUS
370
-3
390
F
  0
LAYER
  5
203
100
AcDbSymbolTableRecord
100
AcDbLayerTableRecord
  2
05_CURVES
 70
0
 62
7
  6
CONTINUOUS
370
-3
390
F
  0
LAYER
  5
204
100
AcDbSymbolTableRecord
100
AcDbLayerTableRecord
  2
06_SURFS
 70
0
 62
7
  6
CONTINUOUS
370
-3
390
F
  0
LAYER
  5
205
100
AcDbSymbolTableRecord
100
AcDbLayerTableRecord
  2
07_COSMETICS
 70
0
 62
7
  6
CONTINUOUS
370
-3
390
F
  0
LAYER
  5
206
100
AcDbSymbolTableRecord
100
AcDbLayerTableRecord
  2
10_NOTES
 70
0
 62
7
  6
CONTINUOUS
370
-3
390
F
  0
LAYER
  5
207
100
AcDbSymbolTableRecord
100
AcDbLayerTableRecord
  2
11_NOTES_PUB
 70
0
 62
7
  6
CONTINUOUS
370
-3
390
F
  0
LAYER
  5
208
100
AcDbSymbolTableRecord
100
AcDbLayerTableRecord
  2
13_REF_GTOL
 70
0
 62
7
  6
CONTINUOUS
370
-3
390
F
  0
LAYER
  5
209
100
AcDbSymbolTableRecord
100
AcDbLayerTableRecord
  2
16_MISC
 70
0
 62
7
  6
CONTINUOUS
370
-3
390
F
  0
LAYER
  5
20A
100
AcDbSymbolTableRecord
100
AcDbLayerTableRecord
  2
17_NO_PRINT
 70
0
 62
7
  6
CONTINUOUS
370
-3
390
F
  0
LAYER
  5
20B
100
AcDbSymbolTableRecord
100
AcDbLayerTableRecord
  2
18_DATUM_CAMS_JOINTS
 70
0
 62
7
  6
CONTINUOUS
370
-3
390
F
  0
LAYER
  5
20C
100
AcDbSymbolTableRecord
100
AcDbLayerTableRecord
  2
19_DATUM_FUNCTIONAL
 70
0
 62
7
  6
CONTINUOUS
370
-3
390
F
  0
LAYER
  5
20D
100
AcDbSymbolTableRecord
100
AcDbLayerTableRecord
  2
20_DATUM_KINEMATIC_SCHEME
 70
0
 62
7
  6
CONTINUOUS
370
-3
390
F
  0
ENDTAB
  0
TABLE
  2
STYLE
  5
3
100
AcDbSymbolTable
 70
1
  0
STYLE
  5
11
100
AcDbSymbolTableRecord
100
AcDbTextStyleTableRecord
  2
STANDARD
 70
0
 40
0.0
 41
0.8
 50
0.0
 71
0
 42
0.2
  3
txt
  4

  0
STYLE
  5
20E
100
AcDbSymbolTableRecord
100
AcDbTextStyleTableRecord
  2
TEXTSTYLE_1
 70
0
 40
0.0
 41
0.8
 50
0.0
 71
0
 42
0.2
  3
gdt
  4

  0
ENDTAB
  0
TABLE
  2
VIEW
  5
6
100
AcDbSymbolTable
 70
0
  0
ENDTAB
  0
TABLE
  2
UCS
  5
7
100
AcDbSymbolTable
 70
0
  0
ENDTAB
  0
TABLE
  2
APPID
  5
9
100
AcDbSymbolTable
 70
1
  0
APPID
  5
20F
100
AcDbSymbolTableRecord
100
AcDbRegAppTableRecord
  2
ACAD
 70
0
  0
ENDTAB
  0
TABLE
  2
BLOCK_RECORD
  5
1
100
AcDbSymbolTable
 70
0
  0
BLOCK_RECORD
  5
210
100
AcDbSymbolTableRecord
100
AcDbBlockTableRecord
  2
*Model_Space
  0
BLOCK_RECORD
  5
211
100
AcDbSymbolTableRecord
100
AcDbBlockTableRecord
  2
*Paper_Space
  0
BLOCK_RECORD
  5
212
100
AcDbSymbolTableRecord
100
AcDbBlockTableRecord
  2
_FILLED
  0
ENDTAB
  0
TABLE
  2
DIMSTYLE
  5
A
100
AcDbSymbolTable
 70
1
100
AcDbDimStyleTable
 71
0
  0
DIMSTYLE
105
213
100
AcDbSymbolTableRecord
100
AcDbDimStyleTableRecord
  2
STANDARD
 70
0
  3

  4

 40
1.0
 41
0.6771765798
 42
1.0
 43
0.38
 44
1.0
 45
0.0
 46
0.0
 47
0.01
 48
0.01
140
0.9480472117
141
0.09
142
0.0
143
25.4
144
1.0
145
0.0
146
1.0
147
0.625
 71
1
 72
0
 73
0
 74
0
 75
0
 76
0
 77
1
 78
8
 79
2
170
0
171
1
172
0
173
0
174
0
175
0
176
0
177
0
178
0
270
2
179
2
271
2
272
2
273
2
274
2
275
0
280
0
281
0
282
0
283
1
284
8
285
0
286
0
287
3
288
0
340
11
278
46
341
212
342
212
343
212
344
212
  0
ENDTAB
  0
ENDSEC
  0
SECTION
  2
BLOCKS
  0
BLOCK
  5
20
100
AcDbEntity
  8
0
100
AcDbBlockBegin
  2
*Model_Space
 70
0
 10
0.0
 20
0.0
 30
0.0
  3
*Model_Space
  1

  0
ENDBLK
  5
21
100
AcDbEntity
  8
0
100
AcDbBlockEnd
  0
BLOCK
  5
1C
100
AcDbEntity
  8
0
100
AcDbBlockBegin
  2
*Paper_Space
 70
0
 10
0.0
 20
0.0
 30
0.0
  3
*Paper_Space
  1

  0
ENDBLK
  5
1D
100
AcDbEntity
  8
0
100
AcDbBlockEnd
  0
BLOCK
  5
214
100
AcDbEntity
  8
0
100
AcDbBlockBegin
  2
_FILLED
 70
64
 10
0.0
 20
0.0
  3
_FILLED
  1

  0
SOLID
  5
215
100
AcDbEntity
  8
0
  6
BYBLOCK
 62
0
100
AcDbTrace
 10
0.0
 20
0.0
 11
-1.0
 21
0.25
 12
-1.0
 22
-0.25
 13
-1.0
 23
-0.25
  0
ENDBLK
  5
216
100
AcDbEntity
  8
0
  6
BYBLOCK
 62
0
100
AcDbBlockEnd
  0
ENDSEC
  0
SECTION
  2
ENTITIES
  0
LINE
  5
217
100
AcDbEntity
  8
0
100
AcDbLine
 62
7
  6
CONTINUOUS
 10
6.4337577084
 20
32.9040156114
 11
6.4337577084
 21
26.5040156114
  0
LINE
  5
218
100
AcDbEntity
  8
0
100
AcDbLine
 62
7
  6
CONTINUOUS
 10
6.9537577084
 20
38.4040156114
 11
6.9537577084
 21
26.4540156114
  0
LINE
  5
219
100
AcDbEntity
  8
0
100
AcDbLine
 62
7
  6
CONTINUOUS
 10
7.3866004208
 20
34.1540156114
 11
7.3866004208
 21
35.4540156114
  0
LINE
  5
21A
100
AcDbEntity
  8
0
100
AcDbLine
 62
7
  6
CONTINUOUS
 10
7.4451790646
 20
35.4540156114
 11
7.4451790646
 21
34.1540156114
  0
LINE
  5
21B
100
AcDbEntity
  8
0
100
AcDbLine
 62
7
  6
CONTINUOUS
 10
7.9537577084
 20
35.4540156114
 11
7.9537577084
 21
27.0540156114
  0
LINE
  5
21C
100
AcDbEntity
  8
0
100
AcDbLine
 62
7
  6
CONTINUOUS
 10
7.9837577084
 20
47.0240134109
 11
7.9837577084
 21
39.0740178119
  0
LINE
  5
21D
100
AcDbEntity
  8
0
100
AcDbLine
 62
7
  6
CONTINUOUS
 10
8.0537577084
 20
35.4540156114
 11
8.0537577084
 21
38.4040156114
  0
LINE
  5
21E
100
AcDbEntity
  8
0
100
AcDbLine
 62
7
  6
CONTINUOUS
 10
8.2337577084
 20
54.7540156114
 11
8.2337577084
 21
49.8540156114
  0
LINE
  5
21F
100
AcDbEntity
  8
0
100
AcDbLine
 62
7
  6
CONTINUOUS
 10
8.2337577084
 20
45.0540156114
 11
8.2337577084
 21
37.0540156114
  0
LINE
  5
220
100
AcDbEntity
  8
0
100
AcDbLine
 62
7
  6
CONTINUOUS
 10
8.3837577084
 20
35.4424917575
 11
8.3837577084
 21
36.80279968
  0
LINE
  5
221
100
AcDbEntity
  8
0
100
AcDbLine
 62
7
  6
CONTINUOUS
 10
8.3837577084
 20
45.3052363773
 11
8.3837577084
 21
49.60279968
  0
LINE
  5
222
100
AcDbEntity
  8
0
100
AcDbLine
 62
7
  6
CONTINUOUS
 10
9.8837577084
 20
56.5490156114
 11
9.8837577084
 21
55.2540156114
  0
LINE
  5
223
100
AcDbEntity
  8
0
100
AcDbLine
 62
7
  6
CONTINUOUS
 10
9.8837577084
 20
35.3901106032
 11
9.8837577084
 21
36.8909408975
  0
LINE
  5
224
100
AcDbEntity
  8
0
100
AcDbLine
 62
7
  6
CONTINUOUS
 10
9.8837577084
 20
45.2170903751
 11
9.8837577084
 21
49.6909408975
  0
LINE
  5
225
100
AcDbEntity
  8
0
100
AcDbLine
 62
7
  6
CONTINUOUS
 10
9.9837577084
 20
35.3866185263
 11
9.9837577084
 21
36.6961584606
  0
LINE
  5
226
100
AcDbEntity
  8
0
100
AcDbLine
 62
7
  6
CONTINUOUS
 10
9.9837577084
 20
42.2490156114
 11
9.9837577084
 21
43.8490156114
  0
LINE
  5
227
100
AcDbEntity
  8
0
100
AcDbLine
 62
7
  6
CONTINUOUS
 10
9.9837577084
 20
45.4118727622
 11
9.9837577084
 21
49.4961584606
  0
LINE
  5
228
100
AcDbEntity
  8
0
100
AcDbLine
 62
7
  6
CONTINUOUS
 10
10.4837577084
 20
56.4654234764
 11
10.4837577084
 21
56.5490156114
  0
LINE
  5
229
100
AcDbEntity
  8
0
100
AcDbLine
 62
7
  6
CONTINUOUS
 10
10.8837577084
 20
56.4654234764
 11
10.8837577084
 21
56.5490156114
  0
LINE
  5
22A
100
AcDbEntity
  8
0
100
AcDbLine
 62
7
  6
CONTINUOUS
 10
11.4837577084
 20
55.2540156114
 11
11.4837577084
 21
56.6988982648
  0
LINE
  5
22B
100
AcDbEntity
  8
0
100
AcDbLine
 62
7
  6
CONTINUOUS
 10
17.1537577084
 20
23.4040156114
 11
17.4537577084
 21
23.4040156114
  0
LINE
  5
22C
100
AcDbEntity
  8
0
100
AcDbLine
 62
7
  6
CONTINUOUS
 10
13.7646962301
 20
34.9343280219
 11
13.7250691521
 21
45.6042544366
  0
LINE
  5
22D
100
AcDbEntity
  8
0
100
AcDbLine
 62
7
  6
CONTINUOUS
 10
12.5837577084
 20
44.0490156114
 11
12.5837577084
 21
42.0490156114
  0
LINE
  5
22E
100
AcDbEntity
  8
0
100
AcDbLine
 62
7
  6
CONTINUOUS
 10
12.6537577084
 20
25.5040156114
 11
12.6537577084
 21
23.8440156114
  0
LINE
  5
22F
100
AcDbEntity
  8
0
100
AcDbLine
 62
7
  6
CONTINUOUS
 10
17.6251790646
 20
28.4125942552
 11
17.5423363522
 21
28.4954369676
  0
LINE
  5
230
100
AcDbEntity
  8
0
100
AcDbLine
 62
7
  6
CONTINUOUS
 10
14.4237577084
 20
24.3340156114
 11
14.4237577084
 21
25.5040156114
  0
LINE
  5
231
100
AcDbEntity
  8
0
100
AcDbLine
 62
7
  6
CONTINUOUS
 10
15.2337577084
 20
55.2540156114
 11
15.2337577084
 21
56.9540156114
  0
LINE
  5
232
100
AcDbEntity
  8
0
100
AcDbLine
 62
7
  6
CONTINUOUS
 10
15.5837577084
 20
44.0490156114
 11
15.5837577084
 21
42.0490156114
  0
LINE
  5
233
100
AcDbEntity
  8
0
100
AcDbLine
 62
7
  6
CONTINUOUS
 10
16.0337577084
 20
42.2490156114
 11
16.0337577084
 21
43.8490156114
  0
LINE
  5
234
100
AcDbEntity
  8
0
100
AcDbLine
 62
7
  6
CONTINUOUS
 10
42.2701091952
 20
27.9345642626
 11
40.9667004363
 21
27.8033179019
  0
LINE
  5
235
100
AcDbEntity
  8
0
100
AcDbLine
 62
7
  6
CONTINUOUS
 10
38.1011911037
 20
27.5147762844
 11
36.7977823448
 21
27.3835299237
  0
LINE
  5
236
100
AcDbEntity
  8
0
100
AcDbLine
 62
7
  6
CONTINUOUS
 10
16.3537577084
 20
25.5040156114
 11
7.9537577084
 21
25.5040156114
  0
LINE
  5
237
100
AcDbEntity
  8
0
100
AcDbLine
 62
7
  6
CONTINUOUS
 10
37.5104099325
 20
25.7040156114
 11
45.1337577084
 21
25.7040156114
  0
LINE
  5
238
100
AcDbEntity
  8
0
100
AcDbLine
 62
7
  6
CONTINUOUS
 10
17.2337577084
 20
25.8540156114
 11
16.7337577084
 21
25.8540156114
  0
LINE
  5
239
100
AcDbEntity
  8
0
100
AcDbLine
 62
7
  6
CONTINUOUS
 10
16.1037577084
 20
25.8540156114
 11
7.5537577084
 21
25.8540156114
  0
LINE
  5
23A
100
AcDbEntity
  8
0
100
AcDbLine
 62
7
  6
CONTINUOUS
 10
6.4337577084
 20
26.5040156114
 11
6.9537577084
 21
26.5040156114
  0
LINE
  5
23B
100
AcDbEntity
  8
0
100
AcDbLine
 62
7
  6
CONTINUOUS
 10
7.5537577084
 20
27.0540156114
 11
8.0537577084
 21
27.0540156114
  0
LINE
  5
23C
100
AcDbEntity
  8
0
100
AcDbLine
 62
7
  6
CONTINUOUS
 10
12.0996848783
 20
35.3127287213
 11
17.4037577084
 21
31.5987769425
  0
LINE
  5
23D
100
AcDbEntity
  8
0
100
AcDbLine
 62
7
  6
CONTINUOUS
 10
16.2481654288
 20
39.3900286615
 11
16.2609494478
 21
35.9478232656
  0
LINE
  5
23E
100
AcDbEntity
  8
0
100
AcDbLine
 62
7
  6
CONTINUOUS
 10
16.2537577084
 20
32.4040156114
 11
16.2537577084
 21
31.9007462864
  0
LINE
  5
23F
100
AcDbEntity
  8
0
100
AcDbLine
 62
7
  6
CONTINUOUS
 10
16.3537577084
 20
24.2040156114
 11
16.3537577084
 21
25.6040156114
  0
LINE
  5
240
100
AcDbEntity
  8
0
100
AcDbLine
 62
7
  6
CONTINUOUS
 10
16.4837577084
 20
26.1040156114
 11
16.4837577084
 21
28.1540156114
  0
LINE
  5
241
100
AcDbEntity
  8
0
100
AcDbLine
 62
7
  6
CONTINUOUS
 10
17.4037577084
 20
28.4040156114
 11
17.4037577084
 21
31.5987769425
  0
LINE
  5
242
100
AcDbEntity
  8
0
100
AcDbLine
 62
7
  6
CONTINUOUS
 10
17.4837577084
 20
29.4040156114
 11
17.4837577084
 21
26.1040156114
  0
LINE
  5
243
100
AcDbEntity
  8
0
100
AcDbLine
 62
7
  6
CONTINUOUS
 10
22.3308649728
 20
26.9198240564
 11
19.376650444
 21
26.3882071664
  0
LINE
  5
244
100
AcDbEntity
  8
0
100
AcDbLine
 62
7
  6
CONTINUOUS
 10
20.7009149959
 20
28.3540156114
 11
17.7666004208
 21
28.3540156114
  0
LINE
  5
245
100
AcDbEntity
  8
0
100
AcDbLine
 62
7
  6
CONTINUOUS
 10
24.1037577084
 20
28.4040156114
 11
22.3337577084
 21
28.4040156114
  0
LINE
  5
246
100
AcDbEntity
  8
0
100
AcDbLine
 62
7
  6
CONTINUOUS
 10
17.4037577084
 20
28.4040156114
 11
12.8962260872
 21
28.4040156114
  0
LINE
  5
247
100
AcDbEntity
  8
0
100
AcDbLine
 62
7
  6
CONTINUOUS
 10
17.4037577084
 20
29.0540156114
 11
13.8364906263
 21
29.0540156114
  0
LINE
  5
248
100
AcDbEntity
  8
0
100
AcDbLine
 62
7
  6
CONTINUOUS
 10
24.1037577084
 20
29.2490156114
 11
30.8837577084
 21
29.2490156114
  0
LINE
  5
249
100
AcDbEntity
  8
0
100
AcDbLine
 62
7
  6
CONTINUOUS
 10
30.8837577084
 20
29.3990156114
 11
31.3837577084
 21
29.3990156114
  0
LINE
  5
24A
100
AcDbEntity
  8
0
100
AcDbLine
 62
7
  6
CONTINUOUS
 10
17.4837577084
 20
29.4040156114
 11
17.4037577084
 21
29.4040156114
  0
LINE
  5
24B
100
AcDbEntity
  8
0
100
AcDbLine
 62
7
  6
CONTINUOUS
 10
20.9837577084
 20
29.4040156114
 11
24.6837687949
 21
29.4040156114
  0
LINE
  5
24C
100
AcDbEntity
  8
0
100
AcDbLine
 62
7
  6
CONTINUOUS
 10
33.3784186203
 20
29.5490156114
 11
33.1337577084
 21
29.5490156114
  0
LINE
  5
24D
100
AcDbEntity
  8
0
100
AcDbLine
 62
7
  6
CONTINUOUS
 10
32.3837577084
 20
29.5490156114
 11
31.3837577084
 21
29.5490156114
  0
LINE
  5
24E
100
AcDbEntity
  8
0
100
AcDbLine
 62
7
  6
CONTINUOUS
 10
19.3887825224
 20
54.8037674708
 11
19.6712453014
 21
51.9791396817
  0
LINE
  5
24F
100
AcDbEntity
  8
0
100
AcDbLine
 62
7
  6
CONTINUOUS
 10
20.1837577084
 20
56.9540156114
 11
20.1837577084
 21
57.1040156114
  0
LINE
  5
250
100
AcDbEntity
  8
0
100
AcDbLine
 62
7
  6
CONTINUOUS
 10
20.9837577084
 20
28.6368583239
 11
20.9837577084
 21
29.4040156114
  0
LINE
  5
251
100
AcDbEntity
  8
0
100
AcDbLine
 62
7
  6
CONTINUOUS
 10
21.0837577084
 20
26.9944081755
 11
21.0837577084
 21
29.0040156114
  0
LINE
  5
252
100
AcDbEntity
  8
0
100
AcDbLine
 62
7
  6
CONTINUOUS
 10
21.1837577084
 20
57.1040156114
 11
21.1837577084
 21
56.9540156114
  0
LINE
  5
253
100
AcDbEntity
  8
0
100
AcDbLine
 62
7
  6
CONTINUOUS
 10
21.2437577084
 20
52.0040156114
 11
21.2437577084
 21
54.7540156114
  0
LINE
  5
254
100
AcDbEntity
  8
0
100
AcDbLine
 62
7
  6
CONTINUOUS
 10
17.1373866061
 20
40.3898195522
 11
16.3207317014
 21
39.56707608
  0
LINE
  5
255
100
AcDbEntity
  8
0
100
AcDbLine
 62
7
  6
CONTINUOUS
 10
34.6337577084
 20
32.6290156114
 11
33.1337577084
 21
32.6290156114
  0
LINE
  5
256
100
AcDbEntity
  8
0
100
AcDbLine
 62
7
  6
CONTINUOUS
 10
6.4337577084
 20
32.9040156114
 11
6.9537577084
 21
32.9040156114
  0
LINE
  5
257
100
AcDbEntity
  8
0
100
AcDbLine
 62
7
  6
CONTINUOUS
 10
22.0837577084
 20
28.1540156114
 11
22.0837577084
 21
27.0843841885
  0
LINE
  5
258
100
AcDbEntity
  8
0
100
AcDbLine
 62
7
  6
CONTINUOUS
 10
7.4451790646
 20
34.1540156114
 11
6.9537577084
 21
34.1540156114
  0
LINE
  5
259
100
AcDbEntity
  8
0
100
AcDbLine
 62
7
  6
CONTINUOUS
 10
8.0537577084
 20
35.4540156114
 11
12.0996848783
 21
35.3127287213
  0
LINE
  5
25A
100
AcDbEntity
  8
0
100
AcDbLine
 62
7
  6
CONTINUOUS
 10
24.1037577084
 20
28.4040156114
 11
24.1037577084
 21
29.4040156114
  0
LINE
  5
25B
100
AcDbEntity
  8
0
100
AcDbLine
 62
7
  6
CONTINUOUS
 10
25.2337577084
 20
56.4040156114
 11
25.2337577084
 21
56.9540156114
  0
LINE
  5
25C
100
AcDbEntity
  8
0
100
AcDbLine
 62
7
  6
CONTINUOUS
 10
18.6078117624
 20
25.7283399357
 11
17.9267306813
 21
23.7418534492
  0
LINE
  5
25D
100
AcDbEntity
  8
0
100
AcDbLine
 62
7
  6
CONTINUOUS
 10
16.2607051395
 20
36.0136053376
 11
13.7607223807
 21
36.0043206427
  0
LINE
  5
25E
100
AcDbEntity
  8
0
100
AcDbLine
 62
7
  6
CONTINUOUS
 10
7.3866048538
 20
35.4540156114
 11
8.0537577084
 21
35.4540156114
  0
LINE
  5
25F
100
AcDbEntity
  8
0
100
AcDbLine
 62
7
  6
CONTINUOUS
 10
34.6337577084
 20
36.6290156114
 11
33.1337577084
 21
36.6290156114
  0
LINE
  5
260
100
AcDbEntity
  8
0
100
AcDbLine
 62
7
  6
CONTINUOUS
 10
8.3837577084
 20
36.6290156114
 11
9.8837577084
 21
36.6290156114
  0
LINE
  5
261
100
AcDbEntity
  8
0
100
AcDbLine
 62
7
  6
CONTINUOUS
 10
37.1568565419
 20
25.8504622208
 11
33.6485304298
 21
29.3587883329
  0
LINE
  5
262
100
AcDbEntity
  8
0
100
AcDbLine
 62
7
  6
CONTINUOUS
 10
32.9167704103
 20
53.8700410152
 11
32.272432843
 21
52.7540156114
  0
LINE
  5
263
100
AcDbEntity
  8
0
100
AcDbLine
 62
7
  6
CONTINUOUS
 10
16.1239602895
 20
35.7238949321
 11
14.1277036236
 21
34.7122566274
  0
LINE
  5
264
100
AcDbEntity
  8
0
100
AcDbLine
 62
7
  6
CONTINUOUS
 10
8.9179314596
 20
36.7540156114
 11
8.5337577084
 21
36.7540156114
  0
LINE
  5
265
100
AcDbEntity
  8
0
100
AcDbLine
 62
7
  6
CONTINUOUS
 10
8.0537577084
 20
38.4040156114
 11
6.9537577084
 21
38.4040156114
  0
LINE
  5
266
100
AcDbEntity
  8
0
100
AcDbLine
 62
7
  6
CONTINUOUS
 10
40.9190335168
 20
34.4716928569
 11
41.3990455076
 21
34.3515673994
  0
LINE
  5
267
100
AcDbEntity
  8
0
100
AcDbLine
 62
7
  6
CONTINUOUS
 10
45.9686615189
 20
28.4085346643
 11
45.8387577084
 21
28.4835346642
  0
LINE
  5
268
100
AcDbEntity
  8
0
100
AcDbLine
 62
7
  6
CONTINUOUS
 10
39.1394030305
 20
46.649018472
 11
36.0280715236
 21
44.8372503685
  0
LINE
  5
269
100
AcDbEntity
  8
0
100
AcDbLine
 62
7
  6
CONTINUOUS
 10
7.9837577084
 20
39.0740156114
 11
8.2337577084
 21
39.0740156114
  0
LINE
  5
26A
100
AcDbEntity
  8
0
100
AcDbLine
 62
7
  6
CONTINUOUS
 10
9.047340982
 20
45.3369785246
 11
9.6690529471
 21
45.1703913056
  0
LINE
  5
26B
100
AcDbEntity
  8
0
100
AcDbLine
 62
7
  6
CONTINUOUS
 10
30.0837577084
 20
52.5040156114
 11
30.0837577084
 21
54.2540156114
  0
LINE
  5
26C
100
AcDbEntity
  8
0
100
AcDbLine
 62
7
  6
CONTINUOUS
 10
30.1837577084
 20
52.5040156114
 11
30.1837577084
 21
55.0040156114
  0
LINE
  5
26D
100
AcDbEntity
  8
0
100
AcDbLine
 62
7
  6
CONTINUOUS
 10
30.8837577084
 20
29.249086105
 11
30.8837577084
 21
30.8771729946
  0
LINE
  5
26E
100
AcDbEntity
  8
0
100
AcDbLine
 62
7
  6
CONTINUOUS
 10
33.0337577084
 20
54.2540156114
 11
33.2024074816
 21
54.8834251339
  0
LINE
  5
26F
100
AcDbEntity
  8
0
100
AcDbLine
 62
7
  6
CONTINUOUS
 10
36.5312828029
 20
43.9730871294
 11
39.6426160276
 21
45.7848560766
  0
LINE
  5
270
100
AcDbEntity
  8
0
100
AcDbLine
 62
7
  6
CONTINUOUS
 10
34.7880839421
 20
41.6673824032
 11
37.3246745786
 21
42.7206669709
  0
LINE
  5
271
100
AcDbEntity
  8
0
100
AcDbLine
 62
7
  6
CONTINUOUS
 10
35.9730361186
 20
41.9428607861
 11
34.8647818468
 21
41.4826733579
  0
LINE
  5
272
100
AcDbEntity
  8
0
100
AcDbLine
 62
7
  6
CONTINUOUS
 10
9.6690529471
 20
36.9376399172
 11
9.0473409823
 21
36.7710526983
  0
LINE
  5
273
100
AcDbEntity
  8
0
100
AcDbLine
 62
7
  6
CONTINUOUS
 10
17.3095272097
 20
40.463644599
 11
35.1312542437
 21
40.8409366351
  0
LINE
  5
274
100
AcDbEntity
  8
0
100
AcDbLine
 62
7
  6
CONTINUOUS
 10
34.9119915211
 20
41.3689798496
 11
34.0409505672
 21
41.3657448874
  0
LINE
  5
275
100
AcDbEntity
  8
0
100
AcDbLine
 62
7
  6
CONTINUOUS
 10
21.6148703543
 20
41.6335288115
 11
31.6398012172
 21
41.6707604382
  0
LINE
  5
276
100
AcDbEntity
  8
0
100
AcDbLine
 62
7
  6
CONTINUOUS
 10
45.754003385
 20
40.6540156114
 11
48.3312933344
 21
40.6540156114
  0
LINE
  5
277
100
AcDbEntity
  8
0
100
AcDbLine
 62
7
  6
CONTINUOUS
 10
48.6837577084
 20
41.0040156114
 11
51.4337577084
 21
41.0040156114
  0
LINE
  5
278
100
AcDbEntity
  8
0
100
AcDbLine
 62
7
  6
CONTINUOUS
 10
44.6038640903
 20
41.0540156114
 11
51.4337577084
 21
41.0540156114
  0
LINE
  5
279
100
AcDbEntity
  8
0
100
AcDbLine
 62
7
  6
CONTINUOUS
 10
12.5837577084
 20
42.0490156114
 11
15.5837577084
 21
42.0490156114
  0
LINE
  5
27A
100
AcDbEntity
  8
0
100
AcDbLine
 62
7
  6
CONTINUOUS
 10
16.0337577084
 20
42.2490156114
 11
9.9837577084
 21
42.2490156114
  0
LINE
  5
27B
100
AcDbEntity
  8
0
100
AcDbLine
 62
7
  6
CONTINUOUS
 10
41.0656220528
 20
35.5132807879
 11
42.1509682273
 21
35.0013983
  0
LINE
  5
27C
100
AcDbEntity
  8
0
100
AcDbLine
 62
7
  6
CONTINUOUS
 10
41.1935926748
 20
35.7846173315
 11
42.2789388493
 21
35.2727348437
  0
LINE
  5
27D
100
AcDbEntity
  8
0
100
AcDbLine
 62
7
  6
CONTINUOUS
 10
41.0237665495
 20
36.362249643
 11
42.4708947823
 21
35.6797396591
  0
LINE
  5
27E
100
AcDbEntity
  8
0
100
AcDbLine
 62
7
  6
CONTINUOUS
 10
31.1724329358
 20
56.8040156114
 11
31.1724329358
 21
56.9540156114
  0
LINE
  5
27F
100
AcDbEntity
  8
0
100
AcDbLine
 62
7
  6
CONTINUOUS
 10
31.1837577084
 20
53.6540156114
 11
31.1837577084
 21
56.1540156114
  0
LINE
  5
280
100
AcDbEntity
  8
0
100
AcDbLine
 62
7
  6
CONTINUOUS
 10
31.3837577084
 20
29.399132958
 11
31.3837577084
 21
30.7386746463
  0
LINE
  5
281
100
AcDbEntity
  8
0
100
AcDbLine
 62
7
  6
CONTINUOUS
 10
31.9837577084
 20
56.1540156114
 11
31.9837577084
 21
53.6540156114
  0
LINE
  5
282
100
AcDbEntity
  8
0
100
AcDbLine
 62
7
  6
CONTINUOUS
 10
32.3837577084
 20
29.5490156114
 11
32.3837577084
 21
30.2495093761
  0
LINE
  5
283
100
AcDbEntity
  8
0
100
AcDbLine
 62
7
  6
CONTINUOUS
 10
32.4098948351
 20
56.8040156114
 11
32.4098948351
 21
56.9540156114
  0
LINE
  5
284
100
AcDbEntity
  8
0
100
AcDbLine
 62
7
  6
CONTINUOUS
 10
20.9251790646
 20
28.4954369676
 11
20.8423363521
 21
28.4125942551
  0
LINE
  5
285
100
AcDbEntity
  8
0
100
AcDbLine
 62
7
  6
CONTINUOUS
 10
35.9067832004
 20
38.9732557154
 11
37.0150374722
 21
39.4334431437
  0
LINE
  5
286
100
AcDbEntity
  8
0
100
AcDbLine
 62
7
  6
CONTINUOUS
 10
37.0692710807
 20
39.3028341252
 11
35.9610168089
 21
38.842646697
  0
LINE
  5
287
100
AcDbEntity
  8
0
100
AcDbLine
 62
7
  6
CONTINUOUS
 10
31.6363658801
 20
42.595754059
 11
25.5421673822
 21
42.5731207933
  0
LINE
  5
288
100
AcDbEntity
  8
0
100
AcDbLine
 62
7
  6
CONTINUOUS
 10
23.3380820965
 20
42.564935033
 11
23.0749395294
 21
42.5639577469
  0
LINE
  5
289
100
AcDbEntity
  8
0
100
AcDbLine
 62
7
  6
CONTINUOUS
 10
51.4337577084
 20
42.4040156114
 11
44.4056317468
 21
42.4040156114
  0
LINE
  5
28A
100
AcDbEntity
  8
0
100
AcDbLine
 62
7
  6
CONTINUOUS
 10
44.4710064165
 20
42.5040156114
 11
51.4337577084
 21
42.5040156114
  0
LINE
  5
28B
100
AcDbEntity
  8
0
100
AcDbLine
 62
7
  6
CONTINUOUS
 10
44.6467652511
 20
43.1540156114
 11
47.7545910417
 21
43.1540156114
  0
LINE
  5
28C
100
AcDbEntity
  8
0
100
AcDbLine
 62
7
  6
CONTINUOUS
 10
16.0337577084
 20
43.8490156114
 11
9.9837577084
 21
43.8490156114
  0
LINE
  5
28D
100
AcDbEntity
  8
0
100
AcDbLine
 62
7
  6
CONTINUOUS
 10
12.5837577084
 20
44.0490156114
 11
15.5837577084
 21
44.0490156114
  0
LINE
  5
28E
100
AcDbEntity
  8
0
100
AcDbLine
 62
7
  6
CONTINUOUS
 10
44.8892243761
 20
27.3519249041
 11
45.5752688192
 21
26.5343289743
  0
LINE
  5
28F
100
AcDbEntity
  8
0
100
AcDbLine
 62
7
  6
CONTINUOUS
 10
34.0429852192
 20
40.8178976098
 11
34.0409505672
 21
41.3657448874
  0
LINE
  5
290
100
AcDbEntity
  8
0
100
AcDbLine
 62
7
  6
CONTINUOUS
 10
32.9837577084
 20
55.0040156114
 11
32.9837577084
 21
54.1200410152
  0
LINE
  5
291
100
AcDbEntity
  8
0
100
AcDbLine
 62
7
  6
CONTINUOUS
 10
33.0337577084
 20
52.5040156114
 11
33.0337577084
 21
54.2540156114
  0
LINE
  5
292
100
AcDbEntity
  8
0
100
AcDbLine
 62
7
  6
CONTINUOUS
 10
33.1337577084
 20
49.4790156114
 11
33.1337577084
 21
48.6763571242
  0
LINE
  5
293
100
AcDbEntity
  8
0
100
AcDbLine
 62
7
  6
CONTINUOUS
 10
33.1337577084
 20
36.6290156114
 11
33.1337577084
 21
32.6290156114
  0
LINE
  5
294
100
AcDbEntity
  8
0
100
AcDbLine
 62
7
  6
CONTINUOUS
 10
33.1337577084
 20
29.7213189976
 11
33.1337577084
 21
29.5490156114
  0
LINE
  5
295
100
AcDbEntity
  8
0
100
AcDbLine
 62
7
  6
CONTINUOUS
 10
33.2576205817
 20
56.8040156114
 11
33.2576205817
 21
56.9540156114
  0
LINE
  5
296
100
AcDbEntity
  8
0
100
AcDbLine
 62
7
  6
CONTINUOUS
 10
34.495082481
 20
56.9540156114
 11
34.495082481
 21
56.8040156114
  0
LINE
  5
297
100
AcDbEntity
  8
0
100
AcDbLine
 62
7
  6
CONTINUOUS
 10
34.6337577084
 20
49.4790156114
 11
34.6337577084
 21
48.6819279796
  0
LINE
  5
298
100
AcDbEntity
  8
0
100
AcDbLine
 62
7
  6
CONTINUOUS
 10
34.6337577084
 20
36.6290156114
 11
34.6337577084
 21
32.6290156114
  0
LINE
  5
299
100
AcDbEntity
  8
0
100
AcDbLine
 62
7
  6
CONTINUOUS
 10
39.2120890926
 20
44.0944719946
 11
40.1922670266
 21
45.244142957
  0
LINE
  5
29A
100
AcDbEntity
  8
0
100
AcDbLine
 62
7
  6
CONTINUOUS
 10
24.0234483983
 20
28.2704262061
 11
22.8325204682
 21
27.1696579902
  0
LINE
  5
29B
100
AcDbEntity
  8
0
100
AcDbLine
 62
7
  6
CONTINUOUS
 10
14.1921954545
 20
23.9121848675
 11
13.4221954545
 21
23.4221848675
  0
LINE
  5
29C
100
AcDbEntity
  8
0
100
AcDbLine
 62
7
  6
CONTINUOUS
 10
36.2995777401
 20
38.0273015241
 11
37.4078320119
 21
38.4874889524
  0
LINE
  5
29D
100
AcDbEntity
  8
0
100
AcDbLine
 62
7
  6
CONTINUOUS
 10
36.3220420363
 20
37.9732014973
 11
38.0767779666
 21
38.701831592
  0
LINE
  5
29E
100
AcDbEntity
  8
0
100
AcDbLine
 62
7
  6
CONTINUOUS
 10
23.0632408138
 20
45.713936023
 11
23.1126315622
 21
45.7141194555
  0
LINE
  5
29F
100
AcDbEntity
  8
0
100
AcDbLine
 62
7
  6
CONTINUOUS
 10
25.7451083159
 20
45.7238962204
 11
31.6246671645
 21
45.7457323351
  0
LINE
  5
2A0
100
AcDbEntity
  8
0
100
AcDbLine
 62
7
  6
CONTINUOUS
 10
8.9179314596
 20
45.3540156114
 11
8.5337577084
 21
45.3540156114
  0
LINE
  5
2A1
100
AcDbEntity
  8
0
100
AcDbLine
 62
7
  6
CONTINUOUS
 10
8.3837577084
 20
45.4790156114
 11
9.8837577084
 21
45.4790156114
  0
LINE
  5
2A2
100
AcDbEntity
  8
0
100
AcDbLine
 62
7
  6
CONTINUOUS
 10
43.5122897376
 20
45.7440156114
 11
44.9837577084
 21
45.7440156114
  0
LINE
  5
2A3
100
AcDbEntity
  8
0
100
AcDbLine
 62
7
  6
CONTINUOUS
 10
29.9151079351
 20
54.883425134
 11
30.0837577084
 21
54.2540156114
  0
LINE
  5
2A4
100
AcDbEntity
  8
0
100
AcDbLine
 62
7
  6
CONTINUOUS
 10
36.2502040549
 20
27.830920152
 11
36.0999219625
 21
29.3233729294
  0
LINE
  5
2A5
100
AcDbEntity
  8
0
100
AcDbLine
 62
7
  6
CONTINUOUS
 10
35.0421203944
 20
41.0555947572
 11
35.0429306022
 21
40.8390667935
  0
LINE
  5
2A6
100
AcDbEntity
  8
0
100
AcDbLine
 62
7
  6
CONTINUOUS
 10
35.3286503234
 20
56.9540156114
 11
35.3286503196
 21
56.8040156114
  0
LINE
  5
2A7
100
AcDbEntity
  8
0
100
AcDbLine
 62
7
  6
CONTINUOUS
 10
36.0171596217
 20
56.9540156114
 11
36.0171596217
 21
56.8040156114
  0
LINE
  5
2A8
100
AcDbEntity
  8
0
100
AcDbLine
 62
7
  6
CONTINUOUS
 10
43.9320103226
 20
41.8239548339
 11
42.9069426247
 21
41.1128400688
  0
LINE
  5
2A9
100
AcDbEntity
  8
0
100
AcDbLine
 62
7
  6
CONTINUOUS
 10
31.6212318273
 20
46.6707259559
 11
21.5963009644
 21
46.6334943292
  0
LINE
  5
2AA
100
AcDbEntity
  8
0
100
AcDbLine
 62
7
  6
CONTINUOUS
 10
9.9837577084
 20
46.757114855
 11
9.8837577084
 21
46.757114855
  0
LINE
  5
2AB
100
AcDbEntity
  8
0
100
AcDbLine
 62
7
  6
CONTINUOUS
 10
7.9837577084
 20
47.0240156114
 11
8.3837577084
 21
47.0240156114
  0
LINE
  5
2AC
100
AcDbEntity
  8
0
100
AcDbLine
 62
7
  6
CONTINUOUS
 10
44.5184247338
 20
40.0211243573
 11
42.9356287307
 21
40.7676194156
  0
LINE
  5
2AD
100
AcDbEntity
  8
0
100
AcDbLine
 62
7
  6
CONTINUOUS
 10
43.5610491812
 20
40.8043433888
 11
44.6463953558
 21
40.2924609009
  0
LINE
  5
2AE
100
AcDbEntity
  8
0
100
AcDbLine
 62
7
  6
CONTINUOUS
 10
43.6037060552
 20
40.8947889034
 11
44.6890522297
 21
40.3829064155
  0
LINE
  5
2AF
100
AcDbEntity
  8
0
100
AcDbLine
 62
7
  6
CONTINUOUS
 10
44.6667046179
 20
39.6933207334
 11
46.5393729011
 21
38.5793851541
  0
LINE
  5
2B0
100
AcDbEntity
  8
0
100
AcDbLine
 62
7
  6
CONTINUOUS
 10
36.3220420363
 20
37.9732014973
 11
34.7880839421
 21
41.6673824032
  0
LINE
  5
2B1
100
AcDbEntity
  8
0
100
AcDbLine
 62
7
  6
CONTINUOUS
 10
37.430296308
 20
38.4333889255
 11
35.8963382139
 21
42.1275698314
  0
LINE
  5
2B2
100
AcDbEntity
  8
0
100
AcDbLine
 62
7
  6
CONTINUOUS
 10
38.4984873012
 20
28.5598388335
 11
38.548581332
 21
28.0623545744
  0
LINE
  5
2B3
100
AcDbEntity
  8
0
100
AcDbLine
 62
7
  6
CONTINUOUS
 10
37.0337577084
 20
35.8335265122
 11
37.0337577084
 21
38.2687316957
  0
LINE
  5
2B4
100
AcDbEntity
  8
0
100
AcDbLine
 62
7
  6
CONTINUOUS
 10
37.0337577084
 20
56.8040156114
 11
37.0337577084
 21
56.9040156114
  0
LINE
  5
2B5
100
AcDbEntity
  8
0
100
AcDbLine
 62
7
  6
CONTINUOUS
 10
38.1060111686
 20
56.8040156114
 11
38.1060111686
 21
56.9040156114
  0
LINE
  5
2B6
100
AcDbEntity
  8
0
100
AcDbLine
 62
7
  6
CONTINUOUS
 10
36.1381693346
 20
30.2968335542
 11
37.2853074152
 21
36.6405902451
  0
LINE
  5
2B7
100
AcDbEntity
  8
0
100
AcDbLine
 62
7
  6
CONTINUOUS
 10
37.783001748
 20
37.6958524008
 11
37.2853074152
 21
36.6405902451
  0
LINE
  5
2B8
100
AcDbEntity
  8
0
100
AcDbLine
 62
7
  6
CONTINUOUS
 10
16.7139068288
 20
48.6153753811
 11
36.0195665144
 21
48.6870747399
  0
LINE
  5
2B9
100
AcDbEntity
  8
0
100
AcDbLine
 62
7
  6
CONTINUOUS
 10
38.7504800419
 20
48.0440156114
 11
44.9837577084
 21
48.0440156114
  0
LINE
  5
2BA
100
AcDbEntity
  8
0
100
AcDbLine
 62
7
  6
CONTINUOUS
 10
47.7545910417
 20
48.1540156114
 11
46.7337577084
 21
48.1540156114
  0
LINE
  5
2BB
100
AcDbEntity
  8
0
100
AcDbLine
 62
7
  6
CONTINUOUS
 10
38.3683551057
 20
48.2040156114
 11
39.1337577084
 21
48.2040156114
  0
LINE
  5
2BC
100
AcDbEntity
  8
0
100
AcDbLine
 62
7
  6
CONTINUOUS
 10
39.4837577084
 20
48.2540156114
 11
40.2376537554
 21
48.2540156114
  0
LINE
  5
2BD
100
AcDbEntity
  8
0
100
AcDbLine
 62
7
  6
CONTINUOUS
 10
34.6337577084
 20
49.4790156114
 11
33.1337577084
 21
49.4790156114
  0
LINE
  5
2BE
100
AcDbEntity
  8
0
100
AcDbLine
 62
7
  6
CONTINUOUS
 10
8.3837577084
 20
49.4790156114
 11
9.8837577084
 21
49.4790156114
  0
LINE
  5
2BF
100
AcDbEntity
  8
0
100
AcDbLine
 62
7
  6
CONTINUOUS
 10
8.9179314596
 20
49.5540156114
 11
8.5337577084
 21
49.5540156114
  0
LINE
  5
2C0
100
AcDbEntity
  8
0
100
AcDbLine
 62
7
  6
CONTINUOUS
 10
36.0280715191
 20
44.8372503658
 11
36.5312843409
 21
43.9730879467
  0
LINE
  5
2C1
100
AcDbEntity
  8
0
100
AcDbLine
 62
7
  6
CONTINUOUS
 10
37.9844234439
 20
38.6634826397
 11
36.4504653498
 21
42.3576635456
  0
LINE
  5
2C2
100
AcDbEntity
  8
0
100
AcDbLine
 62
7
  6
CONTINUOUS
 10
40.486980336
 20
35.5546427075
 11
42.3356609523
 21
30.9208881455
  0
LINE
  5
2C3
100
AcDbEntity
  8
0
100
AcDbLine
 62
7
  6
CONTINUOUS
 10
40.4191221463
 20
28.2507081302
 11
40.3690281155
 21
28.7481923893
  0
LINE
  5
2C4
100
AcDbEntity
  8
0
100
AcDbLine
 62
7
  6
CONTINUOUS
 10
38.6837577084
 20
56.9040156114
 11
38.6837577084
 21
57.1040156114
  0
LINE
  5
2C5
100
AcDbEntity
  8
0
100
AcDbLine
 62
7
  6
CONTINUOUS
 10
39.0337577084
 20
56.4040156114
 11
39.0337577084
 21
56.8040156114
  0
LINE
  5
2C6
100
AcDbEntity
  8
0
100
AcDbLine
 62
7
  6
CONTINUOUS
 10
39.3837577084
 20
55.0040156114
 11
39.3837577084
 21
48.4540156114
  0
LINE
  5
2C7
100
AcDbEntity
  8
0
100
AcDbLine
 62
7
  6
CONTINUOUS
 10
39.4837577084
 20
48.2540156114
 11
39.4837577084
 21
55.2540156114
  0
LINE
  5
2C8
100
AcDbEntity
  8
0
100
AcDbLine
 62
7
  6
CONTINUOUS
 10
39.6837577084
 20
57.1040156114
 11
39.6837577084
 21
56.9540156114
  0
LINE
  5
2C9
100
AcDbEntity
  8
0
100
AcDbLine
 62
7
  6
CONTINUOUS
 10
39.7837577084
 20
57.1040156114
 11
39.7837577084
 21
56.9540156114
  0
LINE
  5
2CA
100
AcDbEntity
  8
0
100
AcDbLine
 62
7
  6
CONTINUOUS
 10
40.0647081349
 20
55.8046806246
 11
40.0647080838
 21
55.2540156114
  0
LINE
  5
2CB
100
AcDbEntity
  8
0
100
AcDbLine
 62
7
  6
CONTINUOUS
 10
40.0837577084
 20
57.1040156114
 11
40.0837577084
 21
56.9540156114
  0
LINE
  5
2CC
100
AcDbEntity
  8
0
100
AcDbLine
 62
7
  6
CONTINUOUS
 10
40.1538013086
 20
55.2540156114
 11
40.1538013086
 21
48.2540156114
  0
LINE
  5
2CD
100
AcDbEntity
  8
0
100
AcDbLine
 62
7
  6
CONTINUOUS
 10
40.2376537554
 20
48.0440156114
 11
40.2376537554
 21
48.2540156114
  0
LINE
  5
2CE
100
AcDbEntity
  8
0
100
AcDbLine
 62
7
  6
CONTINUOUS
 10
40.3162654674
 20
55.8041714003
 11
40.3162654414
 21
48.0440156114
  0
LINE
  5
2CF
100
AcDbEntity
  8
0
100
AcDbLine
 62
7
  6
CONTINUOUS
 10
38.5858333654
 20
48.1210969365
 11
43.2351395997
 21
45.9444682126
  0
LINE
  5
2D0
100
AcDbEntity
  8
0
100
AcDbLine
 62
7
  6
CONTINUOUS
 10
42.5672173311
 20
29.9745953299
 11
42.7174994235
 21
28.4821425525
  0
LINE
  5
2D1
100
AcDbEntity
  8
0
100
AcDbLine
 62
7
  6
CONTINUOUS
 10
42.1837577084
 20
46.4366853046
 11
42.1837577084
 21
48.0440156114
  0
LINE
  5
2D2
100
AcDbEntity
  8
0
100
AcDbLine
 62
7
  6
CONTINUOUS
 10
40.4991575398
 20
35.9532057963
 11
40.6244593839
 21
36.2188837213
  0
LINE
  5
2D3
100
AcDbEntity
  8
0
100
AcDbLine
 62
7
  6
CONTINUOUS
 10
42.8931140753
 20
40.7946925159
 11
40.8102885684
 21
36.3784691661
  0
LINE
  5
2D4
100
AcDbEntity
  8
0
100
AcDbLine
 62
7
  6
CONTINUOUS
 10
41.0656220528
 20
35.5132807879
 11
41.3855486077
 21
36.191622147
  0
LINE
  5
2D5
100
AcDbEntity
  8
0
100
AcDbLine
 62
7
  6
CONTINUOUS
 10
43.4330785592
 20
40.5330068452
 11
43.7587656722
 21
41.2235623351
  0
LINE
  5
2D6
100
AcDbEntity
  8
0
100
AcDbLine
 62
7
  6
CONTINUOUS
 10
20.9937577084
 20
51.7540156114
 11
19.9200045989
 21
51.7540156114
  0
LINE
  5
2D7
100
AcDbEntity
  8
0
100
AcDbLine
 62
7
  6
CONTINUOUS
 10
32.7837577084
 20
52.2540156114
 11
30.3337577084
 21
52.2540156114
  0
LINE
  5
2D8
100
AcDbEntity
  8
0
100
AcDbLine
 62
7
  6
CONTINUOUS
 10
51.4337577084
 20
53.1040156114
 11
46.7337577084
 21
53.1040156114
  0
LINE
  5
2D9
100
AcDbEntity
  8
0
100
AcDbLine
 62
7
  6
CONTINUOUS
 10
46.7337577084
 20
53.3040156114
 11
51.4337577084
 21
53.3040156114
  0
LINE
  5
2DA
100
AcDbEntity
  8
0
100
AcDbLine
 62
7
  6
CONTINUOUS
 10
21.2437577084
 20
52.6682087436
 11
19.5878510895
 21
52.8130818006
  0
LINE
  5
2DB
100
AcDbEntity
  8
0
100
AcDbLine
 62
7
  6
CONTINUOUS
 10
43.2442404008
 20
41.9875316626
 11
43.5443032432
 21
41.5549928626
  0
LINE
  5
2DC
100
AcDbEntity
  8
0
100
AcDbLine
 62
7
  6
CONTINUOUS
 10
39.6426158523
 20
45.7848560529
 11
39.1394030305
 21
46.649018472
  0
LINE
  5
2DD
100
AcDbEntity
  8
0
100
AcDbLine
 62
7
  6
CONTINUOUS
 10
46.0348085141
 20
42.4040156114
 11
46.08143928
 21
42.5040156114
  0
LINE
  5
2DE
100
AcDbEntity
  8
0
100
AcDbLine
 62
7
  6
CONTINUOUS
 10
41.9726573534
 20
34.6233251495
 11
45.0055678751
 21
41.0540156114
  0
LINE
  5
2DF
100
AcDbEntity
  8
0
100
AcDbLine
 62
7
  6
CONTINUOUS
 10
9.6690529471
 20
49.7376399172
 11
9.0473409823
 21
49.5710526983
  0
LINE
  5
2E0
100
AcDbEntity
  8
0
100
AcDbLine
 62
7
  6
CONTINUOUS
 10
51.4337577084
 20
53.9540156114
 11
49.8337577084
 21
53.9540156114
  0
LINE
  5
2E1
100
AcDbEntity
  8
0
100
AcDbLine
 62
7
  6
CONTINUOUS
 10
50.9337577074
 20
54.4540156114
 11
49.8337577084
 21
54.4540156114
  0
LINE
  5
2E2
100
AcDbEntity
  8
0
100
AcDbLine
 62
7
  6
CONTINUOUS
 10
29.9337577084
 20
55.2540156114
 11
8.7337577084
 21
55.2540156114
  0
LINE
  5
2E3
100
AcDbEntity
  8
0
100
AcDbLine
 62
7
  6
CONTINUOUS
 10
33.2337577084
 20
55.2540156114
 11
40.1538013086
 21
55.2540156114
  0
LINE
  5
2E4
100
AcDbEntity
  8
0
100
AcDbLine
 62
7
  6
CONTINUOUS
 10
41.2710590828
 20
45.9897420305
 11
41.4738091136
 21
45.4250364213
  0
LINE
  5
2E5
100
AcDbEntity
  8
0
100
AcDbLine
 62
7
  6
CONTINUOUS
 10
44.9837577084
 20
43.1540156114
 11
44.9837577084
 21
56.9040156114
  0
LINE
  5
2E6
100
AcDbEntity
  8
0
100
AcDbLine
 62
7
  6
CONTINUOUS
 10
45.6337577084
 20
26.373632072
 11
45.6337577084
 21
26.2040156114
  0
LINE
  5
2E7
100
AcDbEntity
  8
0
100
AcDbLine
 62
7
  6
CONTINUOUS
 10
45.754003385
 20
40.6540156114
 11
45.754003385
 21
41.0540156114
  0
LINE
  5
2E8
100
AcDbEntity
  8
0
100
AcDbLine
 62
7
  6
CONTINUOUS
 10
40.3162654674
 20
55.8041714003
 11
40.0647081234
 21
55.8041713479
  0
LINE
  5
2E9
100
AcDbEntity
  8
0
100
AcDbLine
 62
7
  6
CONTINUOUS
 10
25.2337577084
 20
56.4040156114
 11
39.0337577084
 21
56.4040156114
  0
LINE
  5
2EA
100
AcDbEntity
  8
0
100
AcDbLine
 62
7
  6
CONTINUOUS
 10
10.4837577084
 20
56.4654234764
 11
10.8837577084
 21
56.4654234764
  0
LINE
  5
2EB
100
AcDbEntity
  8
0
100
AcDbLine
 62
7
  6
CONTINUOUS
 10
9.8837577084
 20
56.5490156114
 11
10.4837577084
 21
56.5490156114
  0
LINE
  5
2EC
100
AcDbEntity
  8
0
100
AcDbLine
 62
7
  6
CONTINUOUS
 10
10.8837577084
 20
56.5490156114
 11
11.4837577084
 21
56.5490156114
  0
LINE
  5
2ED
100
AcDbEntity
  8
0
100
AcDbLine
 62
7
  6
CONTINUOUS
 10
11.4837577084
 20
56.6990156114
 11
15.2337577084
 21
56.6990156114
  0
LINE
  5
2EE
100
AcDbEntity
  8
0
100
AcDbLine
 62
7
  6
CONTINUOUS
 10
39.3147375787
 20
56.8040156114
 11
39.0631802779
 21
56.8040156114
  0
LINE
  5
2EF
100
AcDbEntity
  8
0
100
AcDbLine
 62
7
  6
CONTINUOUS
 10
25.2337577084
 20
56.8040156114
 11
39.0626639056
 21
56.8040156093
  0
LINE
  5
2F0
100
AcDbEntity
  8
0
100
AcDbLine
 62
7
  6
CONTINUOUS
 10
37.0337577084
 20
56.9040156114
 11
44.9837577084
 21
56.9040156114
  0
LINE
  5
2F1
100
AcDbEntity
  8
0
100
AcDbLine
 62
7
  6
CONTINUOUS
 10
48.6337577084
 20
56.9540156114
 11
40.0837577084
 21
56.9540156114
  0
LINE
  5
2F2
100
AcDbEntity
  8
0
100
AcDbLine
 62
7
  6
CONTINUOUS
 10
15.2337577084
 20
56.9540156114
 11
39.7837577084
 21
56.9540156114
  0
LINE
  5
2F3
100
AcDbEntity
  8
0
100
AcDbLine
 62
7
  6
CONTINUOUS
 10
40.0837577084
 20
57.1040156114
 11
39.7837577084
 21
57.1040156114
  0
LINE
  5
2F4
100
AcDbEntity
  8
0
100
AcDbLine
 62
7
  6
CONTINUOUS
 10
39.6837577084
 20
57.1040156114
 11
20.1837577084
 21
57.1040156114
  0
LINE
  5
2F5
100
AcDbEntity
  8
0
100
AcDbLine
 62
7
  6
CONTINUOUS
 10
46.7337577084
 20
55.7040156114
 11
46.7337577084
 21
48.1540156114
  0
LINE
  5
2F6
100
AcDbEntity
  8
0
100
AcDbLine
 62
7
  6
CONTINUOUS
 10
46.7837577084
 20
29.4542972736
 11
46.7837577084
 21
38.1496632984
  0
LINE
  5
2F7
100
AcDbEntity
  8
0
100
AcDbLine
 62
7
  6
CONTINUOUS
 10
46.8124373648
 20
41.0540156114
 11
46.8124373648
 21
42.4040156114
  0
LINE
  5
2F8
100
AcDbEntity
  8
0
100
AcDbLine
 62
7
  6
CONTINUOUS
 10
47.7545910417
 20
43.1540156114
 11
47.7545910417
 21
48.1540156114
  0
LINE
  5
2F9
100
AcDbEntity
  8
0
100
AcDbLine
 62
7
  6
CONTINUOUS
 10
47.8730975366
 20
42.4040156114
 11
47.8730975366
 21
41.0540156114
  0
LINE
  5
2FA
100
AcDbEntity
  8
0
100
AcDbLine
 62
7
  6
CONTINUOUS
 10
47.9908004595
 20
41.0540156114
 11
47.9908004595
 21
40.6540156114
  0
LINE
  5
2FB
100
AcDbEntity
  8
0
100
AcDbLine
 62
7
  6
CONTINUOUS
 10
48.3312933344
 20
40.6540156114
 11
48.3312933344
 21
41.0540156114
  0
LINE
  5
2FC
100
AcDbEntity
  8
0
100
AcDbLine
 62
7
  6
CONTINUOUS
 10
48.6837577084
 20
41.0040156114
 11
48.6837577084
 21
41.0540156114
  0
LINE
  5
2FD
100
AcDbEntity
  8
0
100
AcDbLine
 62
7
  6
CONTINUOUS
 10
48.9435653295
 20
41.0540156114
 11
48.9435653295
 21
41.0040156114
  0
LINE
  5
2FE
100
AcDbEntity
  8
0
100
AcDbLine
 62
7
  6
CONTINUOUS
 10
49.8337577084
 20
42.5040156114
 11
49.8337577084
 21
53.1040156114
  0
LINE
  5
2FF
100
AcDbEntity
  8
0
100
AcDbLine
 62
7
  6
CONTINUOUS
 10
49.8337577084
 20
53.3040156114
 11
49.8337577084
 21
55.4540156112
  0
LINE
  5
300
100
AcDbEntity
  8
0
100
AcDbLine
 62
7
  6
CONTINUOUS
 10
49.9337577084
 20
42.4040156114
 11
49.9337577084
 21
42.5040156114
  0
LINE
  5
301
100
AcDbEntity
  8
0
100
AcDbLine
 62
7
  6
CONTINUOUS
 10
49.9337577084
 20
53.1040156114
 11
49.9337577084
 21
53.3040156114
  0
LINE
  5
302
100
AcDbEntity
  8
0
100
AcDbLine
 62
7
  6
CONTINUOUS
 10
50.4337577084
 20
53.3040156114
 11
50.4337577084
 21
53.1040156114
  0
LINE
  5
303
100
AcDbEntity
  8
0
100
AcDbLine
 62
7
  6
CONTINUOUS
 10
50.4337577084
 20
42.5040156114
 11
50.4337577084
 21
42.4040156114
  0
LINE
  5
304
100
AcDbEntity
  8
0
100
AcDbLine
 62
7
  6
CONTINUOUS
 10
50.9944178802
 20
41.0540156114
 11
50.9944178802
 21
42.4040156114
  0
LINE
  5
305
100
AcDbEntity
  8
0
100
AcDbLine
 62
7
  6
CONTINUOUS
 10
51.4337577084
 20
41.0040156114
 11
51.4337577084
 21
53.9540156114
  0
LINE
  5
306
100
AcDbEntity
  8
0
100
AcDbLine
 62
7
  6
CONTINUOUS
 10
46.7167704103
 20
29.2042972737
 11
46.3101678698
 21
28.5000410151
  0
LINE
  5
307
100
AcDbEntity
  8
0
100
AcDbLine
 62
7
  6
CONTINUOUS
 10
46.7337577084
 20
55.7040156114
 11
44.9837577084
 21
56.9040156114
  0
ARC
  5
308
100
AcDbEntity
  8
0
100
AcDbCircle
 62
7
  6
CONTINUOUS
 10
8.0537577084
 20
36.4140156114
 40
9.36
100
AcDbArc
 50
270.0
 51
331.1716708432
  0
ARC
  5
309
100
AcDbEntity
  8
0
100
AcDbCircle
 62
7
  6
CONTINUOUS
 10
29.1937577084
 20
24.9040156114
 40
6.3
100
AcDbArc
 50
45.0
 51
133.5152742412
  0
ARC
  5
30A
100
AcDbEntity
  8
0
100
AcDbCircle
 62
7
  6
CONTINUOUS
 10
19.5537577084
 20
25.4040156114
 40
1.0
100
AcDbArc
 50
100.2013112608
 51
161.075355584
  0
ARC
  5
30B
100
AcDbEntity
  8
0
100
AcDbCircle
 62
7
  6
CONTINUOUS
 10
7.9537577084
 20
26.5040156114
 40
1.0
100
AcDbArc
 50
202.1362285601
 51
270.0
  0
ARC
  5
30C
100
AcDbEntity
  8
0
100
AcDbCircle
 62
7
  6
CONTINUOUS
 10
22.1537577084
 20
27.9040156114
 40
1.0
100
AcDbArc
 50
280.2013112612
 51
312.7470362219
  0
ARC
  5
30D
100
AcDbEntity
  8
0
100
AcDbCircle
 62
7
  6
CONTINUOUS
 10
17.1537577084
 20
24.2040156114
 40
0.8
100
AcDbArc
 50
180.0
 51
270.0
  0
ARC
  5
30E
100
AcDbEntity
  8
0
100
AcDbCircle
 62
7
  6
CONTINUOUS
 10
7.5537577084
 20
27.6540156114
 40
0.6
100
AcDbArc
 50
179.9999999999
 51
270.0
  0
ARC
  5
30F
100
AcDbEntity
  8
0
100
AcDbCircle
 62
7
  6
CONTINUOUS
 10
7.5537577084
 20
26.4540156114
 40
0.6
100
AcDbArc
 50
180.0
 51
270.0
  0
ARC
  5
310
100
AcDbEntity
  8
0
100
AcDbCircle
 62
7
  6
CONTINUOUS
 10
17.4537577084
 20
23.9040156114
 40
0.5
100
AcDbArc
 50
270.0
 51
341.075355584
  0
ARC
  5
311
100
AcDbEntity
  8
0
100
AcDbCircle
 62
7
  6
CONTINUOUS
 10
13.1537577084
 20
23.8440156114
 40
0.5
100
AcDbArc
 50
180.0
 51
302.4711922908
  0
ARC
  5
312
100
AcDbEntity
  8
0
100
AcDbCircle
 62
7
  6
CONTINUOUS
 10
13.9237577084
 20
24.3340156114
 40
0.5
100
AcDbArc
 50
302.4711922911
 51
360.0
  0
ARC
  5
313
100
AcDbEntity
  8
0
100
AcDbCircle
 62
7
  6
CONTINUOUS
 10
8.9179314596
 20
37.2540156114
 40
0.5
100
AcDbArc
 50
270.0
 51
285.0000000188
  0
ARC
  5
314
100
AcDbEntity
  8
0
100
AcDbCircle
 62
7
  6
CONTINUOUS
 10
21.4837577084
 20
29.0040156114
 40
0.4
100
AcDbArc
 50
90.0
 51
180.0
  0
ARC
  5
315
100
AcDbEntity
  8
0
100
AcDbCircle
 62
7
  6
CONTINUOUS
 10
8.5337577084
 20
37.0540156114
 40
0.3
100
AcDbArc
 50
180.0
 51
270.0
  0
ARC
  5
316
100
AcDbEntity
  8
0
100
AcDbCircle
 62
7
  6
CONTINUOUS
 10
16.2337577084
 20
28.1540156114
 40
0.25
100
AcDbArc
 50
0.0
 51
89.9999984546
  0
ARC
  5
317
100
AcDbEntity
  8
0
100
AcDbCircle
 62
7
  6
CONTINUOUS
 10
16.7337577084
 20
26.1040156114
 40
0.25
100
AcDbArc
 50
180.0
 51
270.0
  0
ARC
  5
318
100
AcDbEntity
  8
0
100
AcDbCircle
 62
7
  6
CONTINUOUS
 10
17.2337577084
 20
26.1040156114
 40
0.25
100
AcDbArc
 50
270.0
 51
360.0
  0
ARC
  5
319
100
AcDbEntity
  8
0
100
AcDbCircle
 62
7
  6
CONTINUOUS
 10
17.2337577084
 20
29.1540156114
 40
0.25
100
AcDbArc
 50
0.0
 51
47.1563569564
  0
ARC
  5
31A
100
AcDbEntity
  8
0
100
AcDbCircle
 62
7
  6
CONTINUOUS
 10
16.1037577084
 20
25.6040156114
 40
0.25
100
AcDbArc
 50
0.0
 51
90.0
  0
ARC
  5
31B
100
AcDbEntity
  8
0
100
AcDbCircle
 62
7
  6
CONTINUOUS
 10
21.8337577084
 20
27.0843841885
 40
0.25
100
AcDbArc
 50
280.2013112615
 51
360.0
  0
ARC
  5
31C
100
AcDbEntity
  8
0
100
AcDbCircle
 62
7
  6
CONTINUOUS
 10
21.3337577084
 20
26.9944081755
 40
0.25
100
AcDbArc
 50
180.0
 51
280.2013112602
  0
ARC
  5
31D
100
AcDbEntity
  8
0
100
AcDbCircle
 62
7
  6
CONTINUOUS
 10
23.8537577084
 20
29.1540156114
 40
0.25
100
AcDbArc
 50
0.0
 51
90.0
  0
ARC
  5
31E
100
AcDbEntity
  8
0
100
AcDbCircle
 62
7
  6
CONTINUOUS
 10
22.3337577084
 20
28.1540156114
 40
0.25
100
AcDbArc
 50
90.0
 51
180.0
  0
ARC
  5
31F
100
AcDbEntity
  8
0
100
AcDbCircle
 62
7
  6
CONTINUOUS
 10
23.8537577084
 20
28.4540156114
 40
0.25
100
AcDbArc
 50
312.74703622
 51
348.4630409672
  0
ARC
  5
320
100
AcDbEntity
  8
0
100
AcDbCircle
 62
7
  6
CONTINUOUS
 10
14.014694506
 20
34.9352564914
 40
0.25
100
AcDbArc
 50
180.2127900228
 51
296.8744170459
  0
ARC
  5
321
100
AcDbEntity
  8
0
100
AcDbCircle
 62
7
  6
CONTINUOUS
 10
16.0109511719
 20
35.9468947961
 40
0.25
100
AcDbArc
 50
296.8744170298
 51
0.2127900228
  0
ARC
  5
322
100
AcDbEntity
  8
0
100
AcDbCircle
 62
7
  6
CONTINUOUS
 10
17.3148186093
 20
40.2137006031
 40
0.25
100
AcDbArc
 50
91.2127900226
 51
135.2127900225
  0
ARC
  5
323
100
AcDbEntity
  8
0
100
AcDbCircle
 62
7
  6
CONTINUOUS
 10
16.4981637047
 20
39.3909571309
 40
0.25
100
AcDbArc
 50
135.2127900243
 51
180.2127900228
  0
ARC
  5
324
100
AcDbEntity
  8
0
100
AcDbCircle
 62
7
  6
CONTINUOUS
 10
24.6837687949
 20
29.6540156114
 40
0.25
100
AcDbArc
 50
270.0
 51
313.515274218
  0
ARC
  5
325
100
AcDbEntity
  8
0
100
AcDbCircle
 62
7
  6
CONTINUOUS
 10
9.7337577084
 20
36.6961584606
 40
0.25
100
AcDbArc
 50
0.0
 51
104.9999999944
  0
ARC
  5
326
100
AcDbEntity
  8
0
100
AcDbCircle
 62
7
  6
CONTINUOUS
 10
20.7837577084
 20
28.6368583239
 40
0.2
100
AcDbArc
 50
314.9999999993
 51
360.0
  0
ARC
  5
327
100
AcDbEntity
  8
0
100
AcDbCircle
 62
7
  6
CONTINUOUS
 10
20.7009149959
 20
28.5540156114
 40
0.2
100
AcDbArc
 50
270.0
 51
314.9999999817
  0
ARC
  5
328
100
AcDbEntity
  8
0
100
AcDbCircle
 62
7
  6
CONTINUOUS
 10
17.7666004208
 20
28.5540156114
 40
0.2
100
AcDbArc
 50
225.0000000056
 51
270.0
  0
ARC
  5
329
100
AcDbEntity
  8
0
100
AcDbCircle
 62
7
  6
CONTINUOUS
 10
17.6837577084
 20
28.6368583239
 40
0.2
100
AcDbArc
 50
180.0
 51
225.0000000107
  0
ARC
  5
32A
100
AcDbEntity
  8
0
100
AcDbCircle
 62
7
  6
CONTINUOUS
 10
16.7250484627
 20
45.6153960705
 40
3.0
100
AcDbArc
 50
90.2127900228
 51
180.2127900228
  0
ARC
  5
32B
100
AcDbEntity
  8
0
100
AcDbCircle
 62
7
  6
CONTINUOUS
 10
21.6055856594
 20
44.1335115703
 40
2.5
100
AcDbArc
 50
90.2127900228
 51
270.2127900228
  0
ARC
  5
32C
100
AcDbEntity
  8
0
100
AcDbCircle
 62
7
  6
CONTINUOUS
 10
21.6055856594
 20
44.1335115703
 40
2.15
100
AcDbArc
 50
47.3140728408
 51
313.1115072047
  0
CIRCLE
  5
32D
100
AcDbEntity
  8
0
100
AcDbCircle
 62
7
  6
CONTINUOUS
 10
24.4337577084
 20
44.2140156114
 40
2.0
  0
ARC
  5
32E
100
AcDbEntity
  8
0
100
AcDbCircle
 62
7
  6
CONTINUOUS
 10
8.9179314596
 20
44.8540156114
 40
0.5
100
AcDbArc
 50
75.0000000214
 51
90.0
  0
ARC
  5
32F
100
AcDbEntity
  8
0
100
AcDbCircle
 62
7
  6
CONTINUOUS
 10
8.9179314596
 20
50.0540156114
 40
0.5
100
AcDbArc
 50
270.0
 51
285.0000000189
  0
ARC
  5
330
100
AcDbEntity
  8
0
100
AcDbCircle
 62
7
  6
CONTINUOUS
 10
8.7337577084
 20
54.7540156114
 40
0.5
100
AcDbArc
 50
90.0
 51
180.0
  0
ARC
  5
331
100
AcDbEntity
  8
0
100
AcDbCircle
 62
7
  6
CONTINUOUS
 10
18.8912639273
 20
54.7540156114
 40
0.5
100
AcDbArc
 50
5.710593129
 51
90.0
  0
ARC
  5
332
100
AcDbEntity
  8
0
100
AcDbCircle
 62
7
  6
CONTINUOUS
 10
21.7437577084
 20
54.7540156114
 40
0.5
100
AcDbArc
 50
90.0
 51
180.0
  0
ARC
  5
333
100
AcDbEntity
  8
0
100
AcDbCircle
 62
7
  6
CONTINUOUS
 10
8.5337577084
 20
45.0540156114
 40
0.3
100
AcDbArc
 50
90.0
 51
180.0
  0
ARC
  5
334
100
AcDbEntity
  8
0
100
AcDbCircle
 62
7
  6
CONTINUOUS
 10
8.5337577084
 20
49.8540156114
 40
0.3
100
AcDbArc
 50
180.0
 51
270.0
  0
ARC
  5
335
100
AcDbEntity
  8
0
100
AcDbCircle
 62
7
  6
CONTINUOUS
 10
9.7337577084
 20
45.4118727622
 40
0.25
100
AcDbArc
 50
254.9999999888
 51
360.0
  0
ARC
  5
336
100
AcDbEntity
  8
0
100
AcDbCircle
 62
7
  6
CONTINUOUS
 10
9.7337577084
 20
49.4961584606
 40
0.25
100
AcDbArc
 50
0.0
 51
104.9999999944
  0
ARC
  5
337
100
AcDbEntity
  8
0
100
AcDbCircle
 62
7
  6
CONTINUOUS
 10
19.9200045989
 20
52.0040156114
 40
0.25
100
AcDbArc
 50
185.7105931358
 51
270.0
  0
ARC
  5
338
100
AcDbEntity
  8
0
100
AcDbCircle
 62
7
  6
CONTINUOUS
 10
20.9937577084
 20
52.0040156114
 40
0.25
100
AcDbArc
 50
270.0
 51
360.0
  0
ARC
  5
339
100
AcDbEntity
  8
0
100
AcDbCircle
 62
7
  6
CONTINUOUS
 10
39.4337577084
 20
28.6540156114
 40
13.3
100
AcDbArc
 50
70.2500771772
 51
72.7956246108
  0
ARC
  5
33A
100
AcDbEntity
  8
0
100
AcDbCircle
 62
7
  6
CONTINUOUS
 10
39.5823117763
 20
29.6740311451
 40
3.5
100
AcDbArc
 50
169.75
 51
185.7500000004
  0
ARC
  5
33B
100
AcDbEntity
  8
0
100
AcDbCircle
 62
7
  6
CONTINUOUS
 10
39.0848275172
 20
29.6239371143
 40
3.5
100
AcDbArc
 50
5.7499999999
 51
21.7499999999
  0
ARC
  5
33C
100
AcDbEntity
  8
0
100
AcDbCircle
 62
7
  6
CONTINUOUS
 10
39.4337577084
 20
28.6540156114
 40
0.94
100
AcDbArc
 50
5.7500000001
 51
185.75
  0
CIRCLE
  5
33D
100
AcDbEntity
  8
0
100
AcDbCircle
 62
7
  6
CONTINUOUS
 10
39.4337577084
 20
28.6540156114
 40
0.9125
  0
ARC
  5
33E
100
AcDbEntity
  8
0
100
AcDbCircle
 62
7
  6
CONTINUOUS
 10
36.747688314
 20
27.8810141828
 40
0.5
100
AcDbArc
 50
185.75
 51
275.7500000006
  0
ARC
  5
33F
100
AcDbEntity
  8
0
100
AcDbCircle
 62
7
  6
CONTINUOUS
 10
40.9166064055
 20
28.300802161
 40
0.5
100
AcDbArc
 50
185.7500000002
 51
275.7500000002
  0
ARC
  5
340
100
AcDbEntity
  8
0
100
AcDbCircle
 62
7
  6
CONTINUOUS
 10
38.0510970729
 20
28.0122605436
 40
0.5
100
AcDbArc
 50
275.7500000002
 51
5.7500000004
  0
ARC
  5
341
100
AcDbEntity
  8
0
100
AcDbCircle
 62
7
  6
CONTINUOUS
 10
37.5104099325
 20
26.2040156114
 40
0.5
100
AcDbArc
 50
224.9999999999
 51
270.0
  0
ARC
  5
342
100
AcDbEntity
  8
0
100
AcDbCircle
 62
7
  6
CONTINUOUS
 10
38.2685227283
 20
38.2400589788
 40
0.5
100
AcDbArc
 50
244.1777868061
 51
112.5500000007
  0
ARC
  5
343
100
AcDbEntity
  8
0
100
AcDbCircle
 62
7
  6
CONTINUOUS
 10
40.9513851125
 20
35.7399214263
 40
0.5
100
AcDbArc
 50
154.75
 51
201.7500000003
  0
ARC
  5
344
100
AcDbEntity
  8
0
100
AcDbCircle
 62
7
  6
CONTINUOUS
 10
37.5337577084
 20
35.8342946099
 40
0.5
100
AcDbArc
 50
180.156685429
 51
204.9357067034
  0
ARC
  5
345
100
AcDbEntity
  8
0
100
AcDbCircle
 62
7
  6
CONTINUOUS
 10
40.8957959276
 20
36.0909130993
 40
0.3
100
AcDbArc
 50
64.75
 51
154.75
  0
ARC
  5
346
100
AcDbEntity
  8
0
100
AcDbCircle
 62
7
  6
CONTINUOUS
 10
37.9636166483
 20
37.6099540015
 40
0.2
100
AcDbArc
 50
64.1777868056
 51
154.5637794877
  0
ARC
  5
347
100
AcDbEntity
  8
0
100
AcDbCircle
 62
7
  6
CONTINUOUS
 10
45.4637577084
 20
27.8340156114
 40
1.0
100
AcDbArc
 50
260.1865016921
 51
41.0779108772
  0
ARC
  5
348
100
AcDbEntity
  8
0
100
AcDbCircle
 62
7
  6
CONTINUOUS
 10
45.4637577084
 20
27.8340156114
 40
0.75
100
AcDbArc
 50
60.0000000006
 51
220.0000000023
  0
CIRCLE
  5
349
100
AcDbEntity
  8
0
100
AcDbCircle
 62
7
  6
CONTINUOUS
 10
45.4637577084
 20
27.8340156114
 40
0.7375
  0
ARC
  5
34A
100
AcDbEntity
  8
0
100
AcDbCircle
 62
7
  6
CONTINUOUS
 10
42.2200151644
 20
28.4320485217
 40
0.5
100
AcDbArc
 50
275.7500000003
 51
5.7500000001
  0
ARC
  5
34B
100
AcDbEntity
  8
0
100
AcDbCircle
 62
7
  6
CONTINUOUS
 10
46.2837577084
 20
29.4542972736
 40
0.5
100
AcDbArc
 50
330.0000000169
 51
360.0
  0
ARC
  5
34C
100
AcDbEntity
  8
0
100
AcDbCircle
 62
7
  6
CONTINUOUS
 10
45.1337577084
 20
26.2040156114
 40
0.5
100
AcDbArc
 50
270.0
 51
360.0
  0
ARC
  5
34D
100
AcDbEntity
  8
0
100
AcDbCircle
 62
7
  6
CONTINUOUS
 10
46.0936615189
 20
28.6250410152
 40
0.25
100
AcDbArc
 50
239.9999999857
 51
329.9999999799
  0
ARC
  5
34E
100
AcDbEntity
  8
0
100
AcDbCircle
 62
7
  6
CONTINUOUS
 10
45.3837577084
 20
26.373632072
 40
0.25
100
AcDbArc
 50
0.0
 51
39.9999999897
  0
ARC
  5
34F
100
AcDbEntity
  8
0
100
AcDbCircle
 62
7
  6
CONTINUOUS
 10
41.5204297807
 20
34.8366095195
 40
0.5
100
AcDbArc
 50
255.9500000004
 51
334.7499999999
  0
ARC
  5
350
100
AcDbEntity
  8
0
100
AcDbCircle
 62
7
  6
CONTINUOUS
 10
46.2837577084
 20
38.1496632984
 40
0.5
100
AcDbArc
 50
0.0
 51
59.2541800975
  0
ARC
  5
351
100
AcDbEntity
  8
0
100
AcDbCircle
 62
7
  6
CONTINUOUS
 10
44.5388970215
 20
39.4784598056
 40
0.25
100
AcDbArc
 50
59.2541800913
 51
154.7500000019
  0
ARC
  5
352
100
AcDbEntity
  8
0
100
AcDbCircle
 62
7
  6
CONTINUOUS
 10
36.0418497823
 20
42.6871161187
 40
6.0
100
AcDbArc
 50
64.9127900228
 51
90.2127900228
  0
ARC
  5
353
100
AcDbEntity
  8
0
100
AcDbCircle
 62
7
  6
CONTINUOUS
 10
35.407226961
 20
47.3383931033
 40
5.0
100
AcDbArc
 50
292.549999999
 51
319.5499999997
  0
ARC
  5
354
100
AcDbEntity
  8
0
100
AcDbCircle
 62
7
  6
CONTINUOUS
 10
38.0409229813
 20
41.3806003993
 40
4.0
100
AcDbArc
 50
120.2127900228
 51
180.2127900229
  0
ARC
  5
355
100
AcDbEntity
  8
0
100
AcDbCircle
 62
7
  6
CONTINUOUS
 10
38.0409229813
 20
41.3806003993
 40
3.0000003047
100
AcDbArc
 50
120.2128233608
 51
171.7515128813
  0
ARC
  5
356
100
AcDbEntity
  8
0
100
AcDbCircle
 62
7
  6
CONTINUOUS
 10
31.6305165223
 20
44.170743197
 40
2.5
100
AcDbArc
 50
270.2127900228
 51
90.2127900228
  0
ARC
  5
357
100
AcDbEntity
  8
0
100
AcDbCircle
 62
7
  6
CONTINUOUS
 10
38.7871540254
 20
47.2539322166
 40
1.7
100
AcDbArc
 50
300.2127955312
 51
359.2285286893
  0
ARC
  5
358
100
AcDbEntity
  8
0
100
AcDbCircle
 62
7
  6
CONTINUOUS
 10
31.6305165223
 20
44.170743197
 40
1.575
100
AcDbArc
 50
270.2127900227
 51
90.2127900228
  0
ARC
  5
359
100
AcDbEntity
  8
0
100
AcDbCircle
 62
7
  6
CONTINUOUS
 10
38.7871540254
 20
47.2539322166
 40
0.7
100
AcDbArc
 50
300.2127900228
 51
64.9127900229
  0
ARC
  5
35A
100
AcDbEntity
  8
0
100
AcDbCircle
 62
7
  6
CONTINUOUS
 10
39.1337577084
 20
48.4540156114
 40
0.25
100
AcDbArc
 50
270.0
 51
360.0
  0
ARC
  5
35B
100
AcDbEntity
  8
0
100
AcDbCircle
 62
7
  6
CONTINUOUS
 10
39.0640389346
 20
55.803273792
 40
1.0007013137
100
AcDbArc
 50
0.080551614
 51
90.0787249093
  0
ARC
  5
35C
100
AcDbEntity
  8
0
100
AcDbCircle
 62
7
  6
CONTINUOUS
 10
39.3155962954
 20
55.8032737969
 40
1.0007013028
100
AcDbArc
 50
0.0805572123
 51
90.0787267728
  0
ARC
  5
35D
100
AcDbEntity
  8
0
100
AcDbCircle
 62
7
  6
CONTINUOUS
 10
31.4064074392
 20
53.2540156114
 40
1.0
100
AcDbArc
 50
270.0
 51
330.0000000001
  0
ARC
  5
35E
100
AcDbEntity
  8
0
100
AcDbCircle
 62
7
  6
CONTINUOUS
 10
32.4837577084
 20
54.1200410152
 40
0.5
100
AcDbArc
 50
330.0000000011
 51
360.0
  0
ARC
  5
35F
100
AcDbEntity
  8
0
100
AcDbCircle
 62
7
  6
CONTINUOUS
 10
29.432145022
 20
54.7540156114
 40
0.5
100
AcDbArc
 50
14.9999999998
 51
90.0
  0
ARC
  5
360
100
AcDbEntity
  8
0
100
AcDbCircle
 62
7
  6
CONTINUOUS
 10
33.6853703948
 20
54.7540156114
 40
0.5
100
AcDbArc
 50
90.0
 51
165.0000000007
  0
ARC
  5
361
100
AcDbEntity
  8
0
100
AcDbCircle
 62
7
  6
CONTINUOUS
 10
31.5837577084
 20
53.6540156114
 40
0.4
100
AcDbArc
 50
180.0
 51
360.0
  0
ARC
  5
362
100
AcDbEntity
  8
0
100
AcDbCircle
 62
7
  6
CONTINUOUS
 10
33.2337577084
 20
55.0040156114
 40
0.25
100
AcDbArc
 50
90.0
 51
180.0
  0
ARC
  5
363
100
AcDbEntity
  8
0
100
AcDbCircle
 62
7
  6
CONTINUOUS
 10
30.4337577084
 20
52.5040156114
 40
0.25
100
AcDbArc
 50
180.0
 51
270.0
  0
ARC
  5
364
100
AcDbEntity
  8
0
100
AcDbCircle
 62
7
  6
CONTINUOUS
 10
29.9337577084
 20
55.0040156114
 40
0.25
100
AcDbArc
 50
0.0
 51
90.0
  0
ARC
  5
365
100
AcDbEntity
  8
0
100
AcDbCircle
 62
7
  6
CONTINUOUS
 10
30.9337577084
 20
56.1540156114
 40
0.25
100
AcDbArc
 50
0.0
 51
90.0
  0
ARC
  5
366
100
AcDbEntity
  8
0
100
AcDbCircle
 62
7
  6
CONTINUOUS
 10
32.2337577084
 20
56.1540156114
 40
0.25
100
AcDbArc
 50
90.0
 51
180.0
  0
ARC
  5
367
100
AcDbEntity
  8
0
100
AcDbCircle
 62
7
  6
CONTINUOUS
 10
30.3337577084
 20
52.5040156114
 40
0.25
100
AcDbArc
 50
180.0
 51
270.0
  0
ARC
  5
368
100
AcDbEntity
  8
0
100
AcDbCircle
 62
7
  6
CONTINUOUS
 10
32.7837577084
 20
52.5040156114
 40
0.25
100
AcDbArc
 50
270.0
 51
360.0
  0
ARC
  5
369
100
AcDbEntity
  8
0
100
AcDbCircle
 62
7
  6
CONTINUOUS
 10
39.1337577084
 20
55.0040156114
 40
0.25
100
AcDbArc
 50
0.0
 51
90.0
  0
ARC
  5
36A
100
AcDbEntity
  8
0
100
AcDbCircle
 62
7
  6
CONTINUOUS
 10
42.1327467137
 20
43.5897431916
 40
2.6
100
AcDbArc
 50
289.2185115927
 51
64.9127900226
  0
ARC
  5
36B
100
AcDbEntity
  8
0
100
AcDbCircle
 62
7
  6
CONTINUOUS
 10
42.1327467137
 20
43.5897431916
 40
2.55
100
AcDbArc
 50
322.4738469871
 51
139.5499999996
  0
ARC
  5
36C
100
AcDbEntity
  8
0
100
AcDbCircle
 62
7
  6
CONTINUOUS
 10
44.6038640903
 20
43.0540156114
 40
2.0
100
AcDbArc
 50
250.250077385
 51
270.0
  0
ARC
  5
36D
100
AcDbEntity
  8
0
100
AcDbCircle
 62
7
  6
CONTINUOUS
 10
42.1327467137
 20
43.5897431916
 40
1.95
100
AcDbArc
 50
304.75
 51
109.7499999999
  0
CIRCLE
  5
36E
100
AcDbEntity
  8
0
100
AcDbCircle
 62
7
  6
CONTINUOUS
 10
42.1327467137
 20
43.5897431916
 40
1.2
  0
CIRCLE
  5
36F
100
AcDbEntity
  8
0
100
AcDbCircle
 62
7
  6
CONTINUOUS
 10
42.1327467137
 20
43.5897431916
 40
1.15
  0
ARC
  5
370
100
AcDbEntity
  8
0
100
AcDbCircle
 62
7
  6
CONTINUOUS
 10
43.36201356
 20
42.6456017718
 40
1.0
100
AcDbArc
 50
304.7500000003
 51
322.4738469873
  0
ARC
  5
371
100
AcDbEntity
  8
0
100
AcDbCircle
 62
7
  6
CONTINUOUS
 10
43.0209419772
 20
40.9485106812
 40
0.2
100
AcDbArc
 50
124.7499999953
 51
244.7494133209
  0
ARC
  5
372
100
AcDbEntity
  8
0
100
AcDbCircle
 62
7
  6
CONTINUOUS
 10
48.3337577084
 20
55.4540156114
 40
1.5
100
AcDbArc
 50
0.0
 51
90.0
  0
ARC
  5
373
100
AcDbEntity
  8
0
100
AcDbCircle
 62
7
  6
CONTINUOUS
 10
50.9337577063
 20
53.9540156114
 40
0.5
100
AcDbArc
 50
0.0
 51
89.9999997599
  0
ARC
  5
374
100
AcDbEntity
  8
0
100
AcDbCircle
 62
7
  6
CONTINUOUS
 10
48.6337577084
 20
56.6540156114
 40
0.3
100
AcDbArc
 50
27.0642023062
 51
90.0
  0
SPLINE
  5
375
100
AcDbEntity
  8
0
100
AcDbSpline
 62
7
  6
CONTINUOUS
 70
0
 71
3
 72
11
 73
7
 74
0
 42
0.0000001
 43
0.0000001
 44
0.0000000001
 40
0.0
 40
0.0
 40
0.0
 40
0.0
 40
0.323362827
 40
0.589743725
 40
0.8087135005
 40
1.0
 40
1.0
 40
1.0
 40
1.0
 10
11.4480760303
 20
56.5490156114
 30
0.0
 10
11.453438282
 20
56.5462720965
 30
0.0
 10
11.4629667992
 20
56.5407202142
 30
0.0
 10
11.4745725081
 20
56.5309570798
 30
0.0
 10
11.4819656887
 20
56.5204985543
 30
0.0
 10
11.4837577084
 20
56.5127979066
 30
0.0
 10
11.4837577084
 20
56.5092347775
 30
0.0
  0
SPLINE
  5
376
100
AcDbEntity
  8
0
100
AcDbSpline
 62
7
  6
CONTINUOUS
 70
0
 71
3
 72
11
 73
7
 74
0
 42
0.0000001
 43
0.0000001
 44
0.0000000001
 40
0.0
 40
0.0
 40
0.0
 40
0.0
 40
0.1912865926
 40
0.4102562622
 40
0.6766373132
 40
1.0
 40
1.0
 40
1.0
 40
1.0
 10
10.8837577084
 20
56.5092348889
 30
0.0
 10
10.8837577731
 20
56.5127980124
 30
0.0
 10
10.8855497786
 20
56.5204986249
 30
0.0
 10
10.892942953
 20
56.5309571398
 30
0.0
 10
10.9045486531
 20
56.5407202285
 30
0.0
 10
10.9140771481
 20
56.5462721033
 30
0.0
 10
10.9194393864
 20
56.5490156114
 30
0.0
  0
ENDSEC
  0
SECTION
  2
OBJECTS
  0
DICTIONARY
  5
C
100
AcDbDictionary
280
0
281
1
  3
ACAD_GROUP
350
D
  3
ACAD_MLINESTYLE
350
17
  3
ACAD_LAYOUT
350
1A
  3
ACAD_PLOTSETTINGS
350
19
  3
ACAD_PLOTSTYLENAME
350
E
  0
DICTIONARY
  5
D
102
{ACAD_REACTORS
330
C
102
}
100
AcDbDictionary
280
0
281
1
  0
ACDBDICTIONARYWDFLT
  5
E
102
{ACAD_REACTORS
330
C
102
}
100
AcDbDictionary
281
1
  3
Normal
350
F
100
AcDbDictionaryWithDefault
340
F
  0
DICTIONARY
  5
17
102
{ACAD_REACTORS
330
C
102
}
100
AcDbDictionary
280
0
281
1
  3
Standard
350
18
  0
DICTIONARY
  5
19
102
{ACAD_REACTORS
330
C
102
}
100
AcDbDictionary
281
1
  0
DICTIONARY
  5
1A
102
{ACAD_REACTORS
330
C
102
}
100
AcDbDictionary
281
1
  3
Model
350
377
  3
Layout1
350
378
  0
ACDBPLACEHOLDER
  5
F
102
{ACAD_REACTORS
330
E
102
}
  0
MLINESTYLE
  5
18
102
{ACAD_REACTORS
330
17
102
}
100
AcDbMlineStyle
  2
STANDARD
 70
0
  3

 62
256
 51
90.0
 52
90.0
 71
2
 49
0.5
 62
256
  6
BYLAYER
 49
-0.5
 62
256
  6
BYLAYER
  0
LAYOUT
  5
377
102
{ACAD_REACTORS
330
1A
102
}
100
AcDbPlotSettings
  1

  2
none_device
  4

  6

 40
0.0
 41
0.0
 42
0.0
 43
0.0
 44
210.0
 45
297.0
 46
0.0
 47
0.0
 48
0.0
 49
0.0
140
0.0
141
0.0
142
1.0
143
1.0
 70
1024
 72
1
 73
0
 74
0
  7

 75
0
147
1.0
148
0.0
149
0.0
100
AcDbLayout
  1
Model
 70
0
 71
0
 10
0.0
 20
0.0
 11
210.0
 21
297.0
 12
0.0
 22
0.0
 32
0.0
 14
0.0
 24
0.0
 34
0.0
 15
0.0
 25
0.0
 35
0.0
146
0.0
 13
0.0
 23
0.0
 33
0.0
 16
1.0
 26
0.0
 36
0.0
 17
0.0
 27
1.0
 37
0.0
 76
0
330
210
345
0
346
0
  0
LAYOUT
  5
378
102
{ACAD_REACTORS
330
1A
102
}
100
AcDbPlotSettings
  1

  2
none_device
  4

  6

 40
0.0
 41
0.0
 42
0.0
 43
0.0
 44
210.0
 45
297.0
 46
0.0
 47
0.0
 48
0.0
 49
0.0
140
0.0
141
0.0
142
1.0
143
1.0
 70
0
 72
1
 73
0
 74
0
  7

 75
0
147
1.0
148
0.0
149
0.0
100
AcDbLayout
  1
Layout1
 70
0
 71
1
 10
0.0
 20
0.0
 11
210.0
 21
297.0
 12
0.0
 22
0.0
 32
0.0
 14
0.0
 24
0.0
 34
0.0
 15
0.0
 25
0.0
 35
0.0
146
0.0
 13
0.0
 23
0.0
 33
0.0
 16
1.0
 26
0.0
 36
0.0
 17
0.0
 27
1.0
 37
0.0
 76
0
330
211
345
0
346
0
  0
ENDSEC
  0
EOF
