999
DXF file: C:\Users\sesa63760\Dev\_Creo\CAD\MCADID0001251_3D-CAD\drw0001_4.dxf
999
Pro/ENGINEER 2019471 by Parametric Technology Corporation
  0
SECTION
  2
HEADER
  9
$ACADVER
  1
AC1024
  9
$DWGCODEPAGE
  3
ANSI_1252
  9
$EXTMAX
 10
224.4211903205
 20
317.3956834532
 30
0.0
  9
$EXTMIN
 10
0.0
 20
0.0
 30
0.0
  9
$LIMMIN
 10
0.0
 20
0.0
  9
$LIMMAX
 10
224.4211903205
 20
317.3956834532
  9
$VIEWCTR
 10
112.2105951602
 20
158.6978417266
  9
$VIEWSIZE
 40
317.3956834532
  9
$CLAYER
  8
0
  9
$LTSCALE
 40
20.6894964029
  9
$CELTYPE
  6
BYLAYER
  9
$DIMSCALE
 40
1.0
  9
$DIMASZ
 40
2.6716808371
  9
$DIMEXO
 40
1.0
  9
$DIMDLI
 40
14.2945611511
  9
$DIMEXE
 40
1.0
  9
$DIMCEN
 40
3.3855539568
  9
$DIMLFAC
 40
1.0
  9
$DIMBLK
  1
_FILLED
  9
$DIMALT
 70
0
  9
$DIMALTF
 40
0.0393700787
  9
$DIMTXT
 40
3.740353172
  9
$DIMTOL
 70
1
  9
$DIMLIM
 70
0
  9
$DIMTFAC
 40
1.0
  9
$DIMTP
 40
0.01
  9
$DIMTM
 40
0.01
  9
$DIMGAP
 40
0.625
  9
$DIMDSEP
 70
46
  9
$AUNITS
 70
0
  9
$PDMODE
 70
3
  9
$PDSIZE
 40
0.3125
  9
$HANDSEED
  5
3F8
  9
$TILEMODE
 70
1
  9
$MEASUREMENT
 70
1
  9
$INSUNITS
 70
4
  0
ENDSEC
  0
SECTION
  2
CLASSES
  0
CLASS
  1
ACDBDICTIONARYWDFLT
  2
AcDbDictionaryWithDefault
  3
AutoCAD 2000
 90
0
 91
1
280
0
281
0
  0
CLASS
  1
ACDBPLACEHOLDER
  2
AcDbPlaceHolder
  3
AutoCAD 2000
 90
0
 91
1
280
0
281
0
  0
CLASS
  1
LAYOUT
  2
AcDbLayout
  3
AutoCAD 2000
 90
0
 91
0
280
0
281
0
  0
ENDSEC
  0
SECTION
  2
TABLES
  0
TABLE
  2
VPORT
  5
8
100
AcDbSymbolTable
 70
2
  0
VPORT
  5
1F4
100
AcDbSymbolTableRecord
100
AcDbViewportTableRecord
  2
*ACTIVE
 70
0
 10
0.0
 20
0.0
 11
1.0
 21
1.0
 12
112.2105951602
 22
158.6978417266
 13
0.0
 23
0.0
 14
1.0
 24
1.0
 15
0.0
 25
0.0
 16
0.0
 26
0.0
 36
1.0
 17
0.0
 27
0.0
 37
0.0
 40
317.3956834532
 41
0.7070707071
 42
50.0
 43
0.0
 44
0.0
 50
0.0
 51
0.0
 71
0
 72
100
 73
1
 74
1
 75
0
 76
0
 77
0
 78
0
  0
ENDTAB
  0
TABLE
  2
LTYPE
  5
5
100
AcDbSymbolTable
 70
6
  0
LTYPE
  5
14
100
AcDbSymbolTableRecord
100
AcDbLinetypeTableRecord
  2
BYBLOCK
 70
0
  3

 72
65
 73
0
 40
0.0
  0
LTYPE
  5
15
100
AcDbSymbolTableRecord
100
AcDbLinetypeTableRecord
  2
BYLAYER
 70
0
  3

 72
65
 73
0
 40
0.0
  0
LTYPE
  5
16
100
AcDbSymbolTableRecord
100
AcDbLinetypeTableRecord
  2
CONTINUOUS
 70
64
  3
Solid line
 72
65
 73
0
 40
0.0
  0
LTYPE
  5
1F5
100
AcDbSymbolTableRecord
100
AcDbLinetypeTableRecord
  2
CENTER
 70
64
  3
____ _ ____ _ ____ _ ____ _ ____ _ ____ _ ____
 72
65
 73
4
 40
0.6
 49
0.375
 74
0
 49
-0.075
 74
0
 49
0.075
 74
0
 49
-0.075
 74
0
  0
LTYPE
  5
1F6
100
AcDbSymbolTableRecord
100
AcDbLinetypeTableRecord
  2
HIDDEN
 70
64
  3
- - - - - - - - - - - - - - - - - - - -
 72
65
 73
2
 40
0.2
 49
0.1
 74
0
 49
-0.1
 74
0
  0
LTYPE
  5
1F7
100
AcDbSymbolTableRecord
100
AcDbLinetypeTableRecord
  2
PHANTOM
 70
64
  3
_____ _ _ _____ _ _ _____ _ _ _____
 72
65
 73
6
 40
0.8
 49
0.45
 74
0
 49
-0.05
 74
0
 49
0.1
 74
0
 49
-0.05
 74
0
 49
0.1
 74
0
 49
-0.05
 74
0
  0
LTYPE
  5
1F8
100
AcDbSymbolTableRecord
100
AcDbLinetypeTableRecord
  2
DOT
 70
64
  3
. . . . . . . . . . . . . . . . . . . .
 72
65
 73
2
 40
0.2
 49
0.1
 74
0
 49
-0.1
 74
0
  0
LTYPE
  5
1F9
100
AcDbSymbolTableRecord
100
AcDbLinetypeTableRecord
  2
DASHED
 70
64
  3
- - - - - - - - - - - - - - - - - - - -
 72
65
 73
2
 40
0.2
 49
0.1
 74
0
 49
-0.1
 74
0
  0
ENDTAB
  0
TABLE
  2
LAYER
  5
2
100
AcDbSymbolTable
 70
36
  0
LAYER
  5
10
100
AcDbSymbolTableRecord
100
AcDbLayerTableRecord
  2
0
 70
0
 62
7
  6
CONTINUOUS
370
-3
390
F
  0
LAYER
  5
1FA
100
AcDbSymbolTableRecord
100
AcDbLayerTableRecord
  2
DEFAULT_1
 70
0
 62
7
  6
CENTER
370
-3
390
F
  0
LAYER
  5
1FB
100
AcDbSymbolTableRecord
100
AcDbLayerTableRecord
  2
DEFAULT_2
 70
0
 62
8
  6
HIDDEN
370
-3
390
F
  0
LAYER
  5
1FC
100
AcDbSymbolTableRecord
100
AcDbLayerTableRecord
  2
DEFAULT_3
 70
0
 62
7
  6
PHANTOM
370
-3
390
F
  0
LAYER
  5
1FD
100
AcDbSymbolTableRecord
100
AcDbLayerTableRecord
  2
00_COMPONENTS
 70
0
 62
7
  6
CONTINUOUS
370
-3
390
F
  0
LAYER
  5
1FE
100
AcDbSymbolTableRecord
100
AcDbLayerTableRecord
  2
01_1_DEFAULT_DATUMS
 70
0
 62
7
  6
CONTINUOUS
370
-3
390
F
  0
LAYER
  5
1FF
100
AcDbSymbolTableRecord
100
AcDbLayerTableRecord
  2
01_PLANES
 70
0
 62
7
  6
CONTINUOUS
370
-3
390
F
  0
LAYER
  5
200
100
AcDbSymbolTableRecord
100
AcDbLayerTableRecord
  2
02_COORD_SYS
 70
0
 62
7
  6
CONTINUOUS
370
-3
390
F
  0
LAYER
  5
201
100
AcDbSymbolTableRecord
100
AcDbLayerTableRecord
  2
03_AXES
 70
0
 62
7
  6
CONTINUOUS
370
-3
390
F
  0
LAYER
  5
202
100
AcDbSymbolTableRecord
100
AcDbLayerTableRecord
  2
04_POINTS
 70
0
 62
7
  6
CONTINUOUS
370
-3
390
F
  0
LAYER
  5
203
100
AcDbSymbolTableRecord
100
AcDbLayerTableRecord
  2
05_CURVES
 70
0
 62
7
  6
CONTINUOUS
370
-3
390
F
  0
LAYER
  5
204
100
AcDbSymbolTableRecord
100
AcDbLayerTableRecord
  2
06_SURFS
 70
0
 62
7
  6
CONTINUOUS
370
-3
390
F
  0
LAYER
  5
205
100
AcDbSymbolTableRecord
100
AcDbLayerTableRecord
  2
07_COSMETICS
 70
0
 62
7
  6
CONTINUOUS
370
-3
390
F
  0
LAYER
  5
206
100
AcDbSymbolTableRecord
100
AcDbLayerTableRecord
  2
1
 70
0
 62
7
  6
CONTINUOUS
370
-3
390
F
  0
LAYER
  5
207
100
AcDbSymbolTableRecord
100
AcDbLayerTableRecord
  2
10_NOTES
 70
0
 62
7
  6
CONTINUOUS
370
-3
390
F
  0
LAYER
  5
208
100
AcDbSymbolTableRecord
100
AcDbLayerTableRecord
  2
11_NOTES_PUB
 70
0
 62
7
  6
CONTINUOUS
370
-3
390
F
  0
LAYER
  5
209
100
AcDbSymbolTableRecord
100
AcDbLayerTableRecord
  2
13_REF_GTOL
 70
0
 62
7
  6
CONTINUOUS
370
-3
390
F
  0
LAYER
  5
20A
100
AcDbSymbolTableRecord
100
AcDbLayerTableRecord
  2
16_MISC
 70
0
 62
7
  6
CONTINUOUS
370
-3
390
F
  0
LAYER
  5
20B
100
AcDbSymbolTableRecord
100
AcDbLayerTableRecord
  2
17_NO_PRINT
 70
0
 62
7
  6
CONTINUOUS
370
-3
390
F
  0
LAYER
  5
20C
100
AcDbSymbolTableRecord
100
AcDbLayerTableRecord
  2
18_DATUM_CAMS_JOINTS
 70
0
 62
7
  6
CONTINUOUS
370
-3
390
F
  0
LAYER
  5
20D
100
AcDbSymbolTableRecord
100
AcDbLayerTableRecord
  2
19_DATUM_FUNCTIONAL
 70
0
 62
7
  6
CONTINUOUS
370
-3
390
F
  0
LAYER
  5
20E
100
AcDbSymbolTableRecord
100
AcDbLayerTableRecord
  2
2
 70
0
 62
7
  6
CONTINUOUS
370
-3
390
F
  0
LAYER
  5
20F
100
AcDbSymbolTableRecord
100
AcDbLayerTableRecord
  2
20_DATUM_KINEMATIC_SCHEME
 70
0
 62
7
  6
CONTINUOUS
370
-3
390
F
  0
ENDTAB
  0
TABLE
  2
STYLE
  5
3
100
AcDbSymbolTable
 70
1
  0
STYLE
  5
11
100
AcDbSymbolTableRecord
100
AcDbTextStyleTableRecord
  2
STANDARD
 70
0
 40
0.0
 41
0.8
 50
0.0
 71
0
 42
0.2
  3
txt
  4

  0
STYLE
  5
210
100
AcDbSymbolTableRecord
100
AcDbTextStyleTableRecord
  2
TEXTSTYLE_1
 70
0
 40
0.0
 41
0.8
 50
0.0
 71
0
 42
0.2
  3
gdt
  4

  0
ENDTAB
  0
TABLE
  2
VIEW
  5
6
100
AcDbSymbolTable
 70
0
  0
ENDTAB
  0
TABLE
  2
UCS
  5
7
100
AcDbSymbolTable
 70
0
  0
ENDTAB
  0
TABLE
  2
APPID
  5
9
100
AcDbSymbolTable
 70
1
  0
APPID
  5
211
100
AcDbSymbolTableRecord
100
AcDbRegAppTableRecord
  2
ACAD
 70
0
  0
ENDTAB
  0
TABLE
  2
BLOCK_RECORD
  5
1
100
AcDbSymbolTable
 70
0
  0
BLOCK_RECORD
  5
212
100
AcDbSymbolTableRecord
100
AcDbBlockTableRecord
  2
*Model_Space
  0
BLOCK_RECORD
  5
213
100
AcDbSymbolTableRecord
100
AcDbBlockTableRecord
  2
*Paper_Space
  0
BLOCK_RECORD
  5
214
100
AcDbSymbolTableRecord
100
AcDbBlockTableRecord
  2
_FILLED
  0
ENDTAB
  0
TABLE
  2
DIMSTYLE
  5
A
100
AcDbSymbolTable
 70
1
100
AcDbDimStyleTable
 71
0
  0
DIMSTYLE
105
215
100
AcDbSymbolTableRecord
100
AcDbDimStyleTableRecord
  2
STANDARD
 70
0
  3

  4

 40
1.0
 41
2.6716808371
 42
1.0
 43
0.38
 44
1.0
 45
0.0
 46
0.0
 47
0.01
 48
0.01
140
3.740353172
141
0.09
142
0.0
143
25.4
144
1.0
145
0.0
146
1.0
147
0.625
 71
1
 72
0
 73
0
 74
0
 75
0
 76
0
 77
1
 78
8
 79
2
170
0
171
1
172
0
173
0
174
0
175
0
176
0
177
0
178
0
270
2
179
2
271
2
272
2
273
2
274
2
275
0
280
0
281
0
282
0
283
1
284
8
285
0
286
0
287
3
288
0
340
11
278
46
341
214
342
214
343
214
344
214
  0
ENDTAB
  0
ENDSEC
  0
SECTION
  2
BLOCKS
  0
BLOCK
  5
20
100
AcDbEntity
  8
0
100
AcDbBlockBegin
  2
*Model_Space
 70
0
 10
0.0
 20
0.0
 30
0.0
  3
*Model_Space
  1

  0
ENDBLK
  5
21
100
AcDbEntity
  8
0
100
AcDbBlockEnd
  0
BLOCK
  5
1C
100
AcDbEntity
  8
0
100
AcDbBlockBegin
  2
*Paper_Space
 70
0
 10
0.0
 20
0.0
 30
0.0
  3
*Paper_Space
  1

  0
ENDBLK
  5
1D
100
AcDbEntity
  8
0
100
AcDbBlockEnd
  0
BLOCK
  5
216
100
AcDbEntity
  8
0
100
AcDbBlockBegin
  2
_FILLED
 70
64
 10
0.0
 20
0.0
  3
_FILLED
  1

  0
SOLID
  5
217
100
AcDbEntity
  8
0
  6
BYBLOCK
 62
0
100
AcDbTrace
 10
0.0
 20
0.0
 11
-1.0
 21
0.25
 12
-1.0
 22
-0.25
 13
-1.0
 23
-0.25
  0
ENDBLK
  5
218
100
AcDbEntity
  8
0
  6
BYBLOCK
 62
0
100
AcDbBlockEnd
  0
ENDSEC
  0
SECTION
  2
ENTITIES
  0
LINE
  5
219
100
AcDbEntity
  8
1
100
AcDbLine
 62
7
  6
CONTINUOUS
 10
60.124264225
 20
22.726618705
 11
153.2423919378
 21
22.726618705
  0
LINE
  5
21A
100
AcDbEntity
  8
1
100
AcDbLine
 62
7
  6
CONTINUOUS
 10
159.0061365122
 20
22.726618705
 11
170.124264225
 21
22.726618705
  0
LINE
  5
21B
100
AcDbEntity
  8
1
100
AcDbLine
 62
7
  6
CONTINUOUS
 10
167.824264225
 20
32.377623738
 11
165.824264225
 21
32.377623738
  0
LINE
  5
21C
100
AcDbEntity
  8
1
100
AcDbLine
 62
7
  6
CONTINUOUS
 10
64.424264225
 20
32.377623738
 11
62.424264225
 21
32.377623738
  0
LINE
  5
21D
100
AcDbEntity
  8
1
100
AcDbLine
 62
7
  6
CONTINUOUS
 10
69.424264225
 20
42.226618705
 11
81.174264225
 21
42.226618705
  0
LINE
  5
21E
100
AcDbEntity
  8
1
100
AcDbLine
 62
7
  6
CONTINUOUS
 10
124.074264225
 20
42.226618705
 11
125.824264225
 21
42.226618705
  0
LINE
  5
21F
100
AcDbEntity
  8
1
100
AcDbLine
 62
7
  6
CONTINUOUS
 10
170.124264225
 20
42.726618705
 11
60.124264225
 21
42.726618705
  0
LINE
  5
220
100
AcDbEntity
  8
1
100
AcDbLine
 62
7
  6
CONTINUOUS
 10
96.244264225
 20
47.936618705
 11
89.344264225
 21
47.936618705
  0
LINE
  5
221
100
AcDbEntity
  8
1
100
AcDbLine
 62
7
  6
CONTINUOUS
 10
89.344264225
 20
48.936618705
 11
96.444264225
 21
48.936618705
  0
LINE
  5
222
100
AcDbEntity
  8
1
100
AcDbLine
 62
7
  6
CONTINUOUS
 10
85.524264225
 20
49.026618705
 11
67.924264225
 21
49.026618705
  0
LINE
  5
223
100
AcDbEntity
  8
1
100
AcDbLine
 62
7
  6
CONTINUOUS
 10
87.324264225
 20
55.276618705
 11
85.524264225
 21
55.276618705
  0
LINE
  5
224
100
AcDbEntity
  8
1
100
AcDbLine
 62
7
  6
CONTINUOUS
 10
85.524264225
 20
59.276618705
 11
87.324264225
 21
59.276618705
  0
LINE
  5
225
100
AcDbEntity
  8
1
100
AcDbLine
 62
7
  6
CONTINUOUS
 10
87.324264225
 20
83.976618705
 11
85.524264225
 21
83.976618705
  0
LINE
  5
226
100
AcDbEntity
  8
1
100
AcDbLine
 62
7
  6
CONTINUOUS
 10
85.524264225
 20
87.976618705
 11
87.324264225
 21
87.976618705
  0
LINE
  5
227
100
AcDbEntity
  8
1
100
AcDbLine
 62
7
  6
CONTINUOUS
 10
67.924264225
 20
94.226618705
 11
85.524264225
 21
94.226618705
  0
LINE
  5
228
100
AcDbEntity
  8
1
100
AcDbLine
 62
7
  6
CONTINUOUS
 10
96.444264225
 20
94.446618705
 11
89.344264225
 21
94.446618705
  0
LINE
  5
229
100
AcDbEntity
  8
1
100
AcDbLine
 62
7
  6
CONTINUOUS
 10
89.344264225
 20
95.446618705
 11
96.244264225
 21
95.446618705
  0
LINE
  5
22A
100
AcDbEntity
  8
1
100
AcDbLine
 62
7
  6
CONTINUOUS
 10
60.124264225
 20
22.726618705
 11
60.124264225
 21
292.726618705
  0
LINE
  5
22B
100
AcDbEntity
  8
1
100
AcDbLine
 62
7
  6
CONTINUOUS
 10
62.424264225
 20
22.726618705
 11
62.424264225
 21
42.726618705
  0
LINE
  5
22C
100
AcDbEntity
  8
1
100
AcDbLine
 62
7
  6
CONTINUOUS
 10
62.424264225
 20
272.726618705
 11
62.424264225
 21
292.726618705
  0
LINE
  5
22D
100
AcDbEntity
  8
1
100
AcDbLine
 62
7
  6
CONTINUOUS
 10
64.424264225
 20
292.726618705
 11
64.424264225
 21
272.726618705
  0
LINE
  5
22E
100
AcDbEntity
  8
1
100
AcDbLine
 62
7
  6
CONTINUOUS
 10
64.424264225
 20
27.5218870098
 11
64.424264225
 21
22.726618705
  0
LINE
  5
22F
100
AcDbEntity
  8
1
100
AcDbLine
 62
7
  6
CONTINUOUS
 10
64.424264225
 20
27.726618705
 11
64.424264225
 21
42.726618705
  0
LINE
  5
230
100
AcDbEntity
  8
1
100
AcDbLine
 62
7
  6
CONTINUOUS
 10
67.124264225
 20
42.726618705
 11
67.124264225
 21
43.1872266909
  0
LINE
  5
231
100
AcDbEntity
  8
1
100
AcDbLine
 62
7
  6
CONTINUOUS
 10
67.124264225
 20
272.2660107192
 11
67.124264225
 21
272.726618705
  0
LINE
  5
232
100
AcDbEntity
  8
2
100
AcDbLine
 62
7
  6
CONTINUOUS
 10
151.924264225
 20
266.276618705
 11
151.7768596355
 21
266.126618705
  0
LINE
  5
233
100
AcDbEntity
  8
1
100
AcDbLine
 62
7
  6
CONTINUOUS
 10
93.074264225
 20
106.826618705
 11
71.374264225
 21
106.826618705
  0
LINE
  5
234
100
AcDbEntity
  8
1
100
AcDbLine
 62
7
  6
CONTINUOUS
 10
67.924264225
 20
49.026618705
 11
67.924264225
 21
94.226618705
  0
LINE
  5
235
100
AcDbEntity
  8
1
100
AcDbLine
 62
7
  6
CONTINUOUS
 10
71.374264225
 20
106.826618705
 11
71.374264225
 21
125.626618705
  0
LINE
  5
236
100
AcDbEntity
  8
1
100
AcDbLine
 62
7
  6
CONTINUOUS
 10
71.374264225
 20
285.4897584259
 11
71.374264225
 21
286.726618705
  0
LINE
  5
237
100
AcDbEntity
  8
1
100
AcDbLine
 62
7
  6
CONTINUOUS
 10
76.874264225
 20
286.726618705
 11
76.874264225
 21
285.4897584259
  0
LINE
  5
238
100
AcDbEntity
  8
2
100
AcDbLine
 62
7
  6
CONTINUOUS
 10
168.4283877197
 20
266.580719354
 11
168.4459743278
 21
266.5983059621
  0
LINE
  5
239
100
AcDbEntity
  8
2
100
AcDbLine
 62
7
  6
CONTINUOUS
 10
168.5959514821
 20
266.4483288078
 11
168.578364874
 21
266.4307421998
  0
LINE
  5
23A
100
AcDbEntity
  8
1
100
AcDbLine
 62
7
  6
CONTINUOUS
 10
139.724264225
 20
115.726618705
 11
122.724264225
 21
115.726618705
  0
LINE
  5
23B
100
AcDbEntity
  8
1
100
AcDbLine
 62
7
  6
CONTINUOUS
 10
149.124264225
 20
115.726618705
 11
165.124264225
 21
115.726618705
  0
LINE
  5
23C
100
AcDbEntity
  8
1
100
AcDbLine
 62
7
  6
CONTINUOUS
 10
80.574264225
 20
272.726618705
 11
80.574264225
 21
289.726618705
  0
LINE
  5
23D
100
AcDbEntity
  8
1
100
AcDbLine
 62
7
  6
CONTINUOUS
 10
81.174264225
 20
42.226618705
 11
81.174264225
 21
42.726618705
  0
LINE
  5
23E
100
AcDbEntity
  8
1
100
AcDbLine
 62
7
  6
CONTINUOUS
 10
83.124264225
 20
141.656618705
 11
83.124264225
 21
215.556618705
  0
LINE
  5
23F
100
AcDbEntity
  8
1
100
AcDbLine
 62
7
  6
CONTINUOUS
 10
84.574264225
 20
289.726618705
 11
84.574264225
 21
272.726618705
  0
LINE
  5
240
100
AcDbEntity
  8
1
100
AcDbLine
 62
7
  6
CONTINUOUS
 10
84.624264225
 20
215.556618705
 11
84.624264225
 21
141.656618705
  0
LINE
  5
241
100
AcDbEntity
  8
1
100
AcDbLine
 62
7
  6
CONTINUOUS
 10
85.124264225
 20
228.9785269157
 11
85.124264225
 21
262.726618705
  0
LINE
  5
242
100
AcDbEntity
  8
1
100
AcDbLine
 62
7
  6
CONTINUOUS
 10
85.524264225
 20
94.226618705
 11
85.524264225
 21
87.976618705
  0
LINE
  5
243
100
AcDbEntity
  8
1
100
AcDbLine
 62
7
  6
CONTINUOUS
 10
85.524264225
 20
83.976618705
 11
85.524264225
 21
59.276618705
  0
LINE
  5
244
100
AcDbEntity
  8
1
100
AcDbLine
 62
7
  6
CONTINUOUS
 10
85.524264225
 20
55.276618705
 11
85.524264225
 21
49.026618705
  0
LINE
  5
245
100
AcDbEntity
  8
1
100
AcDbLine
 62
7
  6
CONTINUOUS
 10
87.124264225
 20
229.576618705
 11
87.124264225
 21
262.726618705
  0
LINE
  5
246
100
AcDbEntity
  8
2
100
AcDbLine
 62
7
  6
CONTINUOUS
 10
158.0760778837
 20
122.0740232945
 11
157.9261007295
 21
122.0714054335
  0
LINE
  5
247
100
AcDbEntity
  8
2
100
AcDbLine
 62
7
  6
CONTINUOUS
 10
165.1863962593
 20
121.9118275948
 11
158.0762911592
 21
121.9118275948
  0
LINE
  5
248
100
AcDbEntity
  8
2
100
AcDbLine
 62
7
  6
CONTINUOUS
 10
151.7722372907
 20
121.9118275948
 11
144.559450269
 21
121.9118275948
  0
LINE
  5
249
100
AcDbEntity
  8
2
100
AcDbLine
 62
7
  6
CONTINUOUS
 10
144.5716688145
 20
121.9240461402
 11
151.7724505662
 21
121.9240461402
  0
LINE
  5
24A
100
AcDbEntity
  8
2
100
AcDbLine
 62
7
  6
CONTINUOUS
 10
158.0760778837
 20
121.9240461402
 11
165.476345753
 21
121.9240461402
  0
LINE
  5
24B
100
AcDbEntity
  8
2
100
AcDbLine
 62
7
  6
CONTINUOUS
 10
168.578364874
 20
122.0224952103
 11
168.5344537369
 21
122.0224952103
  0
LINE
  5
24C
100
AcDbEntity
  8
2
100
AcDbLine
 62
7
  6
CONTINUOUS
 10
165.5824117702
 20
122.0740232945
 11
158.0760778837
 21
122.0740232945
  0
LINE
  5
24D
100
AcDbEntity
  8
2
100
AcDbLine
 62
7
  6
CONTINUOUS
 10
151.7724505662
 20
122.0740232945
 11
144.4216916602
 21
122.0740232945
  0
LINE
  5
24E
100
AcDbEntity
  8
2
100
AcDbLine
 62
7
  6
CONTINUOUS
 10
151.924264225
 20
122.176618705
 11
157.924264225
 21
122.176618705
  0
LINE
  5
24F
100
AcDbEntity
  8
2
100
AcDbLine
 62
7
  6
CONTINUOUS
 10
158.0716688145
 20
122.326618705
 11
151.7768596355
 21
122.326618705
  0
LINE
  5
250
100
AcDbEntity
  8
1
100
AcDbLine
 62
7
  6
CONTINUOUS
 10
71.374264225
 20
125.626618705
 11
93.074264225
 21
125.626618705
  0
LINE
  5
251
100
AcDbEntity
  8
2
100
AcDbLine
 62
7
  6
CONTINUOUS
 10
151.9224277205
 20
122.0714054335
 11
151.7724505662
 21
122.0740232945
  0
LINE
  5
252
100
AcDbEntity
  8
2
100
AcDbLine
 62
7
  6
CONTINUOUS
 10
165.1863962593
 20
121.9118275948
 11
168.4459743278
 21
121.854931448
  0
LINE
  5
253
100
AcDbEntity
  8
2
100
AcDbLine
 62
7
  6
CONTINUOUS
 10
168.4283877197
 20
121.872518056
 11
165.476345753
 21
121.9240461402
  0
LINE
  5
254
100
AcDbEntity
  8
2
100
AcDbLine
 62
7
  6
CONTINUOUS
 10
165.5824117702
 20
122.0740232945
 11
168.5344537369
 21
122.0224952103
  0
LINE
  5
255
100
AcDbEntity
  8
1
100
AcDbLine
 62
7
  6
CONTINUOUS
 10
87.324264225
 20
87.976618705
 11
87.324264225
 21
83.976618705
  0
LINE
  5
256
100
AcDbEntity
  8
1
100
AcDbLine
 62
7
  6
CONTINUOUS
 10
87.324264225
 20
59.276618705
 11
87.324264225
 21
55.276618705
  0
LINE
  5
257
100
AcDbEntity
  8
1
100
AcDbLine
 62
7
  6
CONTINUOUS
 10
87.724264225
 20
182.406618705
 11
87.724264225
 21
168.606618705
  0
LINE
  5
258
100
AcDbEntity
  8
1
100
AcDbLine
 62
7
  6
CONTINUOUS
 10
88.324264225
 20
182.406618705
 11
88.324264225
 21
168.606618705
  0
LINE
  5
259
100
AcDbEntity
  8
1
100
AcDbLine
 62
7
  6
CONTINUOUS
 10
89.324264225
 20
167.806618705
 11
89.324264225
 21
183.206618705
  0
LINE
  5
25A
100
AcDbEntity
  8
1
100
AcDbLine
 62
7
  6
CONTINUOUS
 10
89.344264225
 20
95.446618705
 11
89.344264225
 21
94.446618705
  0
LINE
  5
25B
100
AcDbEntity
  8
1
100
AcDbLine
 62
7
  6
CONTINUOUS
 10
89.344264225
 20
48.936618705
 11
89.344264225
 21
47.936618705
  0
LINE
  5
25C
100
AcDbEntity
  8
1
100
AcDbLine
 62
7
  6
CONTINUOUS
 10
90.1840718461
 20
182.406618705
 11
90.1840718461
 21
168.606618705
  0
LINE
  5
25D
100
AcDbEntity
  8
1
100
AcDbLine
 62
7
  6
CONTINUOUS
 10
90.224264225
 20
168.606618705
 11
90.224264225
 21
182.406618705
  0
LINE
  5
25E
100
AcDbEntity
  8
1
100
AcDbLine
 62
7
  6
CONTINUOUS
 10
91.324264225
 20
183.206618705
 11
91.324264225
 21
167.806618705
  0
LINE
  5
25F
100
AcDbEntity
  8
1
100
AcDbLine
 62
7
  6
CONTINUOUS
 10
92.344264225
 20
95.446618705
 11
92.344264225
 21
94.446618705
  0
LINE
  5
260
100
AcDbEntity
  8
1
100
AcDbLine
 62
7
  6
CONTINUOUS
 10
92.344264225
 20
48.936618705
 11
92.344264225
 21
47.936618705
  0
LINE
  5
261
100
AcDbEntity
  8
1
100
AcDbLine
 62
7
  6
CONTINUOUS
 10
92.524264225
 20
291.226618705
 11
92.524264225
 21
272.726618705
  0
LINE
  5
262
100
AcDbEntity
  8
1
100
AcDbLine
 62
7
  6
CONTINUOUS
 10
93.074264225
 20
125.626618705
 11
93.074264225
 21
106.826618705
  0
LINE
  5
263
100
AcDbEntity
  8
1
100
AcDbLine
 62
7
  6
CONTINUOUS
 10
93.824264225
 20
235.976618705
 11
93.824264225
 21
238.776618705
  0
LINE
  5
264
100
AcDbEntity
  8
1
100
AcDbLine
 62
7
  6
CONTINUOUS
 10
93.824264225
 20
257.976618705
 11
93.824264225
 21
260.776618705
  0
LINE
  5
265
100
AcDbEntity
  8
1
100
AcDbLine
 62
7
  6
CONTINUOUS
 10
94.824264225
 20
231.326618705
 11
94.824264225
 21
235.976618705
  0
LINE
  5
266
100
AcDbEntity
  8
1
100
AcDbLine
 62
7
  6
CONTINUOUS
 10
94.824264225
 20
238.776618705
 11
94.824264225
 21
257.976618705
  0
LINE
  5
267
100
AcDbEntity
  8
1
100
AcDbLine
 62
7
  6
CONTINUOUS
 10
94.824264225
 20
260.776618705
 11
94.824264225
 21
265.426618705
  0
LINE
  5
268
100
AcDbEntity
  8
1
100
AcDbLine
 62
7
  6
CONTINUOUS
 10
95.344264225
 20
47.936618705
 11
95.344264225
 21
48.936618705
  0
LINE
  5
269
100
AcDbEntity
  8
1
100
AcDbLine
 62
7
  6
CONTINUOUS
 10
95.344264225
 20
94.446618705
 11
95.344264225
 21
95.446618705
  0
LINE
  5
26A
100
AcDbEntity
  8
2
100
AcDbLine
 62
7
  6
CONTINUOUS
 10
144.4094731147
 20
222.0618047491
 11
144.4216916602
 21
222.0740232945
  0
LINE
  5
26B
100
AcDbEntity
  8
2
100
AcDbLine
 62
7
  6
CONTINUOUS
 10
144.5716688145
 20
221.9240461402
 11
144.559450269
 21
221.9118275948
  0
LINE
  5
26C
100
AcDbEntity
  8
1
100
AcDbLine
 62
7
  6
CONTINUOUS
 10
122.724264225
 20
133.426618705
 11
139.724264225
 21
133.426618705
  0
LINE
  5
26D
100
AcDbEntity
  8
1
100
AcDbLine
 62
7
  6
CONTINUOUS
 10
90.124264225
 20
134.656618705
 11
135.124264225
 21
134.656618705
  0
LINE
  5
26E
100
AcDbEntity
  8
1
100
AcDbLine
 62
7
  6
CONTINUOUS
 10
90.124264225
 20
136.156618705
 11
135.124264225
 21
136.156618705
  0
LINE
  5
26F
100
AcDbEntity
  8
1
100
AcDbLine
 62
7
  6
CONTINUOUS
 10
98.024264225
 20
291.226618705
 11
98.024264225
 21
272.726618705
  0
LINE
  5
270
100
AcDbEntity
  8
1
100
AcDbLine
 62
7
  6
CONTINUOUS
 10
98.244264225
 20
50.736618705
 11
98.244264225
 21
92.646618705
  0
LINE
  5
271
100
AcDbEntity
  8
1
100
AcDbLine
 62
7
  6
CONTINUOUS
 10
99.244264225
 20
92.446618705
 11
99.244264225
 21
50.936618705
  0
LINE
  5
272
100
AcDbEntity
  8
1
100
AcDbLine
 62
7
  6
CONTINUOUS
 10
100.188854225
 20
272.726618705
 11
100.188854225
 21
291.226618705
  0
LINE
  5
273
100
AcDbEntity
  8
1
100
AcDbLine
 62
7
  6
CONTINUOUS
 10
104.124264225
 20
168.876618705
 11
104.124264225
 21
186.576618705
  0
LINE
  5
274
100
AcDbEntity
  8
1
100
AcDbLine
 62
7
  6
CONTINUOUS
 10
104.824264225
 20
265.426618705
 11
104.824264225
 21
231.326618705
  0
LINE
  5
275
100
AcDbEntity
  8
2
100
AcDbLine
 62
7
  6
CONTINUOUS
 10
151.924264225
 20
216.276618705
 11
151.7768596355
 21
216.126618705
  0
LINE
  5
276
100
AcDbEntity
  8
2
100
AcDbLine
 62
7
  6
CONTINUOUS
 10
157.924264225
 20
222.176618705
 11
158.0716688145
 21
222.326618705
  0
LINE
  5
277
100
AcDbEntity
  8
1
100
AcDbLine
 62
7
  6
CONTINUOUS
 10
107.624264225
 20
240.426618705
 11
107.624264225
 21
264.526618705
  0
LINE
  5
278
100
AcDbEntity
  8
1
100
AcDbLine
 62
7
  6
CONTINUOUS
 10
108.324264225
 20
159.926618705
 11
108.324264225
 21
163.526618705
  0
LINE
  5
279
100
AcDbEntity
  8
1
100
AcDbLine
 62
7
  6
CONTINUOUS
 10
109.724264225
 20
229.926618705
 11
109.724264225
 21
229.576618705
  0
LINE
  5
27A
100
AcDbEntity
  8
1
100
AcDbLine
 62
7
  6
CONTINUOUS
 10
113.524264225
 20
226.426618705
 11
113.524264225
 21
227.926618705
  0
LINE
  5
27B
100
AcDbEntity
  8
2
100
AcDbLine
 62
7
  6
CONTINUOUS
 10
168.4283877197
 20
216.580719354
 11
168.4459743278
 21
216.5983059621
  0
LINE
  5
27C
100
AcDbEntity
  8
2
100
AcDbLine
 62
7
  6
CONTINUOUS
 10
168.5959514821
 20
216.4483288078
 11
168.578364874
 21
216.4307421998
  0
LINE
  5
27D
100
AcDbEntity
  8
1
100
AcDbLine
 62
7
  6
CONTINUOUS
 10
116.824264225
 20
227.926618705
 11
116.824264225
 21
226.426618705
  0
LINE
  5
27E
100
AcDbEntity
  8
1
100
AcDbLine
 62
7
  6
CONTINUOUS
 10
116.924264225
 20
163.526618705
 11
116.924264225
 21
159.926618705
  0
LINE
  5
27F
100
AcDbEntity
  8
1
100
AcDbLine
 62
7
  6
CONTINUOUS
 10
119.724264225
 20
264.526618705
 11
119.724264225
 21
240.426618705
  0
LINE
  5
280
100
AcDbEntity
  8
1
100
AcDbLine
 62
7
  6
CONTINUOUS
 10
120.524264225
 20
226.426618705
 11
120.524264225
 21
227.926618705
  0
LINE
  5
281
100
AcDbEntity
  8
1
100
AcDbLine
 62
7
  6
CONTINUOUS
 10
121.124264225
 20
186.576618705
 11
121.124264225
 21
168.876618705
  0
LINE
  5
282
100
AcDbEntity
  8
1
100
AcDbLine
 62
7
  6
CONTINUOUS
 10
122.724264225
 20
115.726618705
 11
122.724264225
 21
133.426618705
  0
LINE
  5
283
100
AcDbEntity
  8
1
100
AcDbLine
 62
7
  6
CONTINUOUS
 10
123.824264225
 20
227.926618705
 11
123.824264225
 21
226.426618705
  0
LINE
  5
284
100
AcDbEntity
  8
1
100
AcDbLine
 62
7
  6
CONTINUOUS
 10
124.074264225
 20
42.726618705
 11
124.074264225
 21
42.226618705
  0
LINE
  5
285
100
AcDbEntity
  8
1
100
AcDbLine
 62
7
  6
CONTINUOUS
 10
125.424264225
 20
240.426618705
 11
125.424264225
 21
261.026618705
  0
LINE
  5
286
100
AcDbEntity
  8
2
100
AcDbLine
 62
7
  6
CONTINUOUS
 10
144.4094731147
 20
172.0618047491
 11
144.4216916602
 21
172.0740232945
  0
LINE
  5
287
100
AcDbEntity
  8
2
100
AcDbLine
 62
7
  6
CONTINUOUS
 10
144.5716688145
 20
171.9240461402
 11
144.559450269
 21
171.9118275948
  0
LINE
  5
288
100
AcDbEntity
  8
2
100
AcDbLine
 62
7
  6
CONTINUOUS
 10
168.5344537369
 20
166.4307421998
 11
165.5824117702
 21
166.3792141156
  0
LINE
  5
289
100
AcDbEntity
  8
2
100
AcDbLine
 62
7
  6
CONTINUOUS
 10
165.476345753
 20
166.5291912698
 11
168.4283877197
 21
166.580719354
  0
LINE
  5
28A
100
AcDbEntity
  8
2
100
AcDbLine
 62
7
  6
CONTINUOUS
 10
168.4459743278
 20
166.5983059621
 11
165.1863962593
 21
166.5414098153
  0
LINE
  5
28B
100
AcDbEntity
  8
2
100
AcDbLine
 62
7
  6
CONTINUOUS
 10
151.7724505662
 20
166.3792141156
 11
151.9224277205
 21
166.3818319765
  0
LINE
  5
28C
100
AcDbEntity
  8
1
100
AcDbLine
 62
7
  6
CONTINUOUS
 10
116.924264225
 20
159.926618705
 11
108.324264225
 21
159.926618705
  0
LINE
  5
28D
100
AcDbEntity
  8
1
100
AcDbLine
 62
7
  6
CONTINUOUS
 10
108.324264225
 20
163.526618705
 11
116.924264225
 21
163.526618705
  0
LINE
  5
28E
100
AcDbEntity
  8
2
100
AcDbLine
 62
7
  6
CONTINUOUS
 10
151.7768596355
 20
166.126618705
 11
158.0716688145
 21
166.126618705
  0
LINE
  5
28F
100
AcDbEntity
  8
2
100
AcDbLine
 62
7
  6
CONTINUOUS
 10
157.924264225
 20
166.276618705
 11
151.924264225
 21
166.276618705
  0
LINE
  5
290
100
AcDbEntity
  8
2
100
AcDbLine
 62
7
  6
CONTINUOUS
 10
144.4216916602
 20
166.3792141156
 11
151.7724505662
 21
166.3792141156
  0
LINE
  5
291
100
AcDbEntity
  8
2
100
AcDbLine
 62
7
  6
CONTINUOUS
 10
158.0760778837
 20
166.3792141156
 11
165.5824117702
 21
166.3792141156
  0
LINE
  5
292
100
AcDbEntity
  8
2
100
AcDbLine
 62
7
  6
CONTINUOUS
 10
168.5344537369
 20
166.4307421998
 11
168.578364874
 21
166.4307421998
  0
LINE
  5
293
100
AcDbEntity
  8
2
100
AcDbLine
 62
7
  6
CONTINUOUS
 10
165.476345753
 20
166.5291912698
 11
158.0760778837
 21
166.5291912698
  0
LINE
  5
294
100
AcDbEntity
  8
2
100
AcDbLine
 62
7
  6
CONTINUOUS
 10
151.7724505662
 20
166.5291912698
 11
144.5716688145
 21
166.5291912698
  0
LINE
  5
295
100
AcDbEntity
  8
2
100
AcDbLine
 62
7
  6
CONTINUOUS
 10
144.559450269
 20
166.5414098153
 11
151.7722372907
 21
166.5414098153
  0
LINE
  5
296
100
AcDbEntity
  8
2
100
AcDbLine
 62
7
  6
CONTINUOUS
 10
158.0762911592
 20
166.5414098153
 11
165.1863962593
 21
166.5414098153
  0
LINE
  5
297
100
AcDbEntity
  8
1
100
AcDbLine
 62
7
  6
CONTINUOUS
 10
135.924264225
 20
167.806618705
 11
133.924264225
 21
167.806618705
  0
LINE
  5
298
100
AcDbEntity
  8
1
100
AcDbLine
 62
7
  6
CONTINUOUS
 10
91.324264225
 20
167.806618705
 11
89.324264225
 21
167.806618705
  0
LINE
  5
299
100
AcDbEntity
  8
1
100
AcDbLine
 62
7
  6
CONTINUOUS
 10
137.524264225
 20
168.606618705
 11
135.024264225
 21
168.606618705
  0
LINE
  5
29A
100
AcDbEntity
  8
1
100
AcDbLine
 62
7
  6
CONTINUOUS
 10
90.224264225
 20
168.606618705
 11
87.724264225
 21
168.606618705
  0
LINE
  5
29B
100
AcDbEntity
  8
2
100
AcDbLine
 62
7
  6
CONTINUOUS
 10
157.9261007295
 20
166.3818319765
 11
158.0760778837
 21
166.3792141156
  0
LINE
  5
29C
100
AcDbEntity
  8
2
100
AcDbLine
 62
7
  6
CONTINUOUS
 10
151.924264225
 20
122.176618705
 11
151.7768596355
 21
122.326618705
  0
LINE
  5
29D
100
AcDbEntity
  8
1
100
AcDbLine
 62
7
  6
CONTINUOUS
 10
127.524264225
 20
226.426618705
 11
127.524264225
 21
227.926618705
  0
LINE
  5
29E
100
AcDbEntity
  8
1
100
AcDbLine
 62
7
  6
CONTINUOUS
 10
130.7990310066
 20
278.676618705
 11
130.7990310066
 21
272.726618705
  0
LINE
  5
29F
100
AcDbEntity
  8
1
100
AcDbLine
 62
7
  6
CONTINUOUS
 10
130.824264225
 20
227.926618705
 11
130.824264225
 21
226.426618705
  0
LINE
  5
2A0
100
AcDbEntity
  8
1
100
AcDbLine
 62
7
  6
CONTINUOUS
 10
130.824264225
 20
37.226618705
 11
130.824264225
 21
27.726618705
  0
LINE
  5
2A1
100
AcDbEntity
  8
1
100
AcDbLine
 62
7
  6
CONTINUOUS
 10
133.924264225
 20
167.806618705
 11
133.924264225
 21
183.206618705
  0
LINE
  5
2A2
100
AcDbEntity
  8
1
100
AcDbLine
 62
7
  6
CONTINUOUS
 10
134.524264225
 20
226.426618705
 11
134.524264225
 21
227.926618705
  0
LINE
  5
2A3
100
AcDbEntity
  8
1
100
AcDbLine
 62
7
  6
CONTINUOUS
 10
135.024264225
 20
182.406618705
 11
135.024264225
 21
168.606618705
  0
LINE
  5
2A4
100
AcDbEntity
  8
1
100
AcDbLine
 62
7
  6
CONTINUOUS
 10
135.0644566038
 20
168.606618705
 11
135.0644566038
 21
182.406618705
  0
LINE
  5
2A5
100
AcDbEntity
  8
1
100
AcDbLine
 62
7
  6
CONTINUOUS
 10
135.8538327029
 20
278.676618705
 11
135.8538327029
 21
272.726618705
  0
LINE
  5
2A6
100
AcDbEntity
  8
2
100
AcDbLine
 62
7
  6
CONTINUOUS
 10
151.924264225
 20
166.276618705
 11
151.7768596355
 21
166.126618705
  0
LINE
  5
2A7
100
AcDbEntity
  8
2
100
AcDbLine
 62
7
  6
CONTINUOUS
 10
157.924264225
 20
172.176618705
 11
158.0716688145
 21
172.326618705
  0
LINE
  5
2A8
100
AcDbEntity
  8
2
100
AcDbLine
 62
7
  6
CONTINUOUS
 10
158.0760778837
 20
172.0740232945
 11
157.9261007295
 21
172.0714054335
  0
LINE
  5
2A9
100
AcDbEntity
  8
1
100
AcDbLine
 62
7
  6
CONTINUOUS
 10
121.124264225
 20
168.876618705
 11
104.124264225
 21
168.876618705
  0
LINE
  5
2AA
100
AcDbEntity
  8
2
100
AcDbLine
 62
7
  6
CONTINUOUS
 10
165.1863962593
 20
171.9118275948
 11
158.0762911592
 21
171.9118275948
  0
LINE
  5
2AB
100
AcDbEntity
  8
2
100
AcDbLine
 62
7
  6
CONTINUOUS
 10
151.7722372907
 20
171.9118275948
 11
144.559450269
 21
171.9118275948
  0
LINE
  5
2AC
100
AcDbEntity
  8
2
100
AcDbLine
 62
7
  6
CONTINUOUS
 10
144.5716688145
 20
171.9240461402
 11
151.7724505662
 21
171.9240461402
  0
LINE
  5
2AD
100
AcDbEntity
  8
2
100
AcDbLine
 62
7
  6
CONTINUOUS
 10
158.0760778837
 20
171.9240461402
 11
165.476345753
 21
171.9240461402
  0
LINE
  5
2AE
100
AcDbEntity
  8
2
100
AcDbLine
 62
7
  6
CONTINUOUS
 10
168.578364874
 20
172.0224952103
 11
168.5344537369
 21
172.0224952103
  0
LINE
  5
2AF
100
AcDbEntity
  8
2
100
AcDbLine
 62
7
  6
CONTINUOUS
 10
165.5824117702
 20
172.0740232945
 11
158.0760778837
 21
172.0740232945
  0
LINE
  5
2B0
100
AcDbEntity
  8
2
100
AcDbLine
 62
7
  6
CONTINUOUS
 10
151.7724505662
 20
172.0740232945
 11
144.4216916602
 21
172.0740232945
  0
LINE
  5
2B1
100
AcDbEntity
  8
2
100
AcDbLine
 62
7
  6
CONTINUOUS
 10
151.924264225
 20
172.176618705
 11
157.924264225
 21
172.176618705
  0
LINE
  5
2B2
100
AcDbEntity
  8
2
100
AcDbLine
 62
7
  6
CONTINUOUS
 10
158.0716688145
 20
172.326618705
 11
151.7768596355
 21
172.326618705
  0
LINE
  5
2B3
100
AcDbEntity
  8
2
100
AcDbLine
 62
7
  6
CONTINUOUS
 10
151.9224277205
 20
172.0714054335
 11
151.7724505662
 21
172.0740232945
  0
LINE
  5
2B4
100
AcDbEntity
  8
2
100
AcDbLine
 62
7
  6
CONTINUOUS
 10
165.1863962593
 20
171.9118275948
 11
168.4459743278
 21
171.854931448
  0
LINE
  5
2B5
100
AcDbEntity
  8
2
100
AcDbLine
 62
7
  6
CONTINUOUS
 10
168.4283877197
 20
171.872518056
 11
165.476345753
 21
171.9240461402
  0
LINE
  5
2B6
100
AcDbEntity
  8
2
100
AcDbLine
 62
7
  6
CONTINUOUS
 10
165.5824117702
 20
172.0740232945
 11
168.5344537369
 21
172.0224952103
  0
LINE
  5
2B7
100
AcDbEntity
  8
2
100
AcDbLine
 62
7
  6
CONTINUOUS
 10
168.4459743278
 20
121.854931448
 11
168.4283877197
 21
121.872518056
  0
LINE
  5
2B8
100
AcDbEntity
  8
2
100
AcDbLine
 62
7
  6
CONTINUOUS
 10
168.578364874
 20
122.0224952103
 11
168.5959514821
 21
122.0049086022
  0
LINE
  5
2B9
100
AcDbEntity
  8
1
100
AcDbLine
 62
7
  6
CONTINUOUS
 10
135.924264225
 20
183.206618705
 11
135.924264225
 21
167.806618705
  0
LINE
  5
2BA
100
AcDbEntity
  8
1
100
AcDbLine
 62
7
  6
CONTINUOUS
 10
136.924264225
 20
182.406618705
 11
136.924264225
 21
168.606618705
  0
LINE
  5
2BB
100
AcDbEntity
  8
1
100
AcDbLine
 62
7
  6
CONTINUOUS
 10
137.524264225
 20
261.026618705
 11
137.524264225
 21
240.426618705
  0
LINE
  5
2BC
100
AcDbEntity
  8
1
100
AcDbLine
 62
7
  6
CONTINUOUS
 10
137.524264225
 20
182.406618705
 11
137.524264225
 21
168.606618705
  0
LINE
  5
2BD
100
AcDbEntity
  8
1
100
AcDbLine
 62
7
  6
CONTINUOUS
 10
137.824264225
 20
227.926618705
 11
137.824264225
 21
226.426618705
  0
LINE
  5
2BE
100
AcDbEntity
  8
1
100
AcDbLine
 62
7
  6
CONTINUOUS
 10
139.724264225
 20
133.426618705
 11
139.724264225
 21
115.726618705
  0
LINE
  5
2BF
100
AcDbEntity
  8
1
100
AcDbLine
 62
7
  6
CONTINUOUS
 10
140.624264225
 20
141.656618705
 11
140.624264225
 21
215.556618705
  0
LINE
  5
2C0
100
AcDbEntity
  8
1
100
AcDbLine
 62
7
  6
CONTINUOUS
 10
141.624264225
 20
262.726618705
 11
141.624264225
 21
235.926618705
  0
LINE
  5
2C1
100
AcDbEntity
  8
1
100
AcDbLine
 62
7
  6
CONTINUOUS
 10
142.124264225
 20
215.556618705
 11
142.124264225
 21
141.656618705
  0
LINE
  5
2C2
100
AcDbEntity
  8
1
100
AcDbLine
 62
7
  6
CONTINUOUS
 10
144.124264225
 20
262.726618705
 11
144.124264225
 21
120.726618705
  0
LINE
  5
2C3
100
AcDbEntity
  8
1
100
AcDbLine
 62
7
  6
CONTINUOUS
 10
144.2834431624
 20
278.676618705
 11
144.2834431624
 21
272.726618705
  0
LINE
  5
2C4
100
AcDbEntity
  8
2
100
AcDbLine
 62
7
  6
CONTINUOUS
 10
144.4094731147
 20
122.0618047491
 11
144.4094731147
 21
166.391432661
  0
LINE
  5
2C5
100
AcDbEntity
  8
2
100
AcDbLine
 62
7
  6
CONTINUOUS
 10
144.4094731147
 20
172.0618047491
 11
144.4094731147
 21
216.391432661
  0
LINE
  5
2C6
100
AcDbEntity
  8
2
100
AcDbLine
 62
7
  6
CONTINUOUS
 10
144.4094731147
 20
222.0618047491
 11
144.4094731147
 21
266.391432661
  0
LINE
  5
2C7
100
AcDbEntity
  8
2
100
AcDbLine
 62
7
  6
CONTINUOUS
 10
144.4216916602
 20
266.3792141156
 11
144.4216916602
 21
222.0740232945
  0
LINE
  5
2C8
100
AcDbEntity
  8
2
100
AcDbLine
 62
7
  6
CONTINUOUS
 10
144.4216916602
 20
216.3792141156
 11
144.4216916602
 21
172.0740232945
  0
LINE
  5
2C9
100
AcDbEntity
  8
2
100
AcDbLine
 62
7
  6
CONTINUOUS
 10
144.4216916602
 20
166.3792141156
 11
144.4216916602
 21
122.0740232945
  0
LINE
  5
2CA
100
AcDbEntity
  8
2
100
AcDbLine
 62
7
  6
CONTINUOUS
 10
144.5716688145
 20
121.9240461402
 11
144.5716688145
 21
166.5291912698
  0
LINE
  5
2CB
100
AcDbEntity
  8
2
100
AcDbLine
 62
7
  6
CONTINUOUS
 10
144.5716688145
 20
171.9240461402
 11
144.5716688145
 21
216.5291912698
  0
LINE
  5
2CC
100
AcDbEntity
  8
2
100
AcDbLine
 62
7
  6
CONTINUOUS
 10
144.5716688145
 20
221.9240461402
 11
144.5716688145
 21
266.5291912698
  0
LINE
  5
2CD
100
AcDbEntity
  8
1
100
AcDbLine
 62
7
  6
CONTINUOUS
 10
87.724264225
 20
182.406618705
 11
90.224264225
 21
182.406618705
  0
LINE
  5
2CE
100
AcDbEntity
  8
1
100
AcDbLine
 62
7
  6
CONTINUOUS
 10
135.024264225
 20
182.406618705
 11
137.524264225
 21
182.406618705
  0
LINE
  5
2CF
100
AcDbEntity
  8
1
100
AcDbLine
 62
7
  6
CONTINUOUS
 10
89.324264225
 20
183.206618705
 11
91.324264225
 21
183.206618705
  0
LINE
  5
2D0
100
AcDbEntity
  8
1
100
AcDbLine
 62
7
  6
CONTINUOUS
 10
133.924264225
 20
183.206618705
 11
135.924264225
 21
183.206618705
  0
LINE
  5
2D1
100
AcDbEntity
  8
1
100
AcDbLine
 62
7
  6
CONTINUOUS
 10
104.124264225
 20
186.576618705
 11
121.124264225
 21
186.576618705
  0
LINE
  5
2D2
100
AcDbEntity
  8
2
100
AcDbLine
 62
7
  6
CONTINUOUS
 10
144.4216916602
 20
166.3792141156
 11
144.4094731147
 21
166.391432661
  0
LINE
  5
2D3
100
AcDbEntity
  8
2
100
AcDbLine
 62
7
  6
CONTINUOUS
 10
144.559450269
 20
166.5414098153
 11
144.5716688145
 21
166.5291912698
  0
LINE
  5
2D4
100
AcDbEntity
  8
2
100
AcDbLine
 62
7
  6
CONTINUOUS
 10
151.7724505662
 20
166.3792141156
 11
151.7768596355
 21
166.126618705
  0
LINE
  5
2D5
100
AcDbEntity
  8
2
100
AcDbLine
 62
7
  6
CONTINUOUS
 10
151.7722372907
 20
166.5414098153
 11
151.7724505662
 21
166.5291912698
  0
LINE
  5
2D6
100
AcDbEntity
  8
2
100
AcDbLine
 62
7
  6
CONTINUOUS
 10
151.924264225
 20
166.276618705
 11
151.922214445
 21
166.394050522
  0
LINE
  5
2D7
100
AcDbEntity
  8
2
100
AcDbLine
 62
7
  6
CONTINUOUS
 10
151.7724505662
 20
216.3792141156
 11
151.7768596355
 21
216.126618705
  0
LINE
  5
2D8
100
AcDbEntity
  8
2
100
AcDbLine
 62
7
  6
CONTINUOUS
 10
151.7722372907
 20
216.5414098153
 11
151.7724505662
 21
216.5291912698
  0
LINE
  5
2D9
100
AcDbEntity
  8
2
100
AcDbLine
 62
7
  6
CONTINUOUS
 10
151.924264225
 20
216.276618705
 11
151.922214445
 21
216.394050522
  0
LINE
  5
2DA
100
AcDbEntity
  8
2
100
AcDbLine
 62
7
  6
CONTINUOUS
 10
151.7724505662
 20
266.3792141156
 11
151.7768596355
 21
266.126618705
  0
LINE
  5
2DB
100
AcDbEntity
  8
2
100
AcDbLine
 62
7
  6
CONTINUOUS
 10
151.7722372907
 20
266.5414098153
 11
151.7724505662
 21
266.5291912698
  0
LINE
  5
2DC
100
AcDbEntity
  8
2
100
AcDbLine
 62
7
  6
CONTINUOUS
 10
151.924264225
 20
266.276618705
 11
151.922214445
 21
266.394050522
  0
LINE
  5
2DD
100
AcDbEntity
  8
1
100
AcDbLine
 62
7
  6
CONTINUOUS
 10
145.674264225
 20
272.726618705
 11
145.674264225
 21
289.726618705
  0
LINE
  5
2DE
100
AcDbEntity
  8
1
100
AcDbLine
 62
7
  6
CONTINUOUS
 10
149.674264225
 20
289.726618705
 11
149.674264225
 21
272.726618705
  0
LINE
  5
2DF
100
AcDbEntity
  8
2
100
AcDbLine
 62
7
  6
CONTINUOUS
 10
151.7724505662
 20
266.5291912698
 11
151.7724505662
 21
266.3792141156
  0
LINE
  5
2E0
100
AcDbEntity
  8
2
100
AcDbLine
 62
7
  6
CONTINUOUS
 10
151.7724505662
 20
222.0740232945
 11
151.7724505662
 21
221.9240461402
  0
LINE
  5
2E1
100
AcDbEntity
  8
2
100
AcDbLine
 62
7
  6
CONTINUOUS
 10
151.7724505662
 20
216.5291912698
 11
151.7724505662
 21
216.3792141156
  0
LINE
  5
2E2
100
AcDbEntity
  8
2
100
AcDbLine
 62
7
  6
CONTINUOUS
 10
151.7724505662
 20
172.0740232945
 11
151.7724505662
 21
171.9240461402
  0
LINE
  5
2E3
100
AcDbEntity
  8
2
100
AcDbLine
 62
7
  6
CONTINUOUS
 10
151.7724505662
 20
166.5291912698
 11
151.7724505662
 21
166.3792141156
  0
LINE
  5
2E4
100
AcDbEntity
  8
2
100
AcDbLine
 62
7
  6
CONTINUOUS
 10
151.7724505662
 20
122.0740232945
 11
151.7724505662
 21
121.9240461402
  0
LINE
  5
2E5
100
AcDbEntity
  8
1
100
AcDbLine
 62
7
  6
CONTINUOUS
 10
153.374264225
 20
285.4897584259
 11
153.374264225
 21
286.726618705
  0
LINE
  5
2E6
100
AcDbEntity
  8
2
100
AcDbLine
 62
7
  6
CONTINUOUS
 10
151.7768596355
 20
222.326618705
 11
151.7724505662
 21
222.0740232945
  0
LINE
  5
2E7
100
AcDbEntity
  8
2
100
AcDbLine
 62
7
  6
CONTINUOUS
 10
151.7724505662
 20
221.9240461402
 11
151.7722372907
 21
221.9118275948
  0
LINE
  5
2E8
100
AcDbEntity
  8
2
100
AcDbLine
 62
7
  6
CONTINUOUS
 10
151.922214445
 20
222.0591868881
 11
151.924264225
 21
222.176618705
  0
LINE
  5
2E9
100
AcDbEntity
  8
2
100
AcDbLine
 62
7
  6
CONTINUOUS
 10
151.7768596355
 20
172.326618705
 11
151.7724505662
 21
172.0740232945
  0
LINE
  5
2EA
100
AcDbEntity
  8
2
100
AcDbLine
 62
7
  6
CONTINUOUS
 10
151.7724505662
 20
171.9240461402
 11
151.7722372907
 21
171.9118275948
  0
LINE
  5
2EB
100
AcDbEntity
  8
2
100
AcDbLine
 62
7
  6
CONTINUOUS
 10
151.922214445
 20
172.0591868881
 11
151.924264225
 21
172.176618705
  0
LINE
  5
2EC
100
AcDbEntity
  8
2
100
AcDbLine
 62
7
  6
CONTINUOUS
 10
151.7768596355
 20
122.326618705
 11
151.7724505662
 21
122.0740232945
  0
LINE
  5
2ED
100
AcDbEntity
  8
2
100
AcDbLine
 62
7
  6
CONTINUOUS
 10
151.7724505662
 20
121.9240461402
 11
151.7722372907
 21
121.9118275948
  0
LINE
  5
2EE
100
AcDbEntity
  8
2
100
AcDbLine
 62
7
  6
CONTINUOUS
 10
151.922214445
 20
122.0591868881
 11
151.924264225
 21
122.176618705
  0
LINE
  5
2EF
100
AcDbEntity
  8
2
100
AcDbLine
 62
7
  6
CONTINUOUS
 10
168.4283877197
 20
166.580719354
 11
168.4459743278
 21
166.5983059621
  0
LINE
  5
2F0
100
AcDbEntity
  8
2
100
AcDbLine
 62
7
  6
CONTINUOUS
 10
168.5959514821
 20
166.4483288078
 11
168.578364874
 21
166.4307421998
  0
LINE
  5
2F1
100
AcDbEntity
  8
2
100
AcDbLine
 62
7
  6
CONTINUOUS
 10
151.924264225
 20
172.176618705
 11
151.7768596355
 21
172.326618705
  0
LINE
  5
2F2
100
AcDbEntity
  8
2
100
AcDbLine
 62
7
  6
CONTINUOUS
 10
157.924264225
 20
166.276618705
 11
158.0716688145
 21
166.126618705
  0
LINE
  5
2F3
100
AcDbEntity
  8
1
100
AcDbLine
 62
7
  6
CONTINUOUS
 10
158.8733218687
 20
27.7986053129
 11
159.0061365122
 21
22.726618705
  0
LINE
  5
2F4
100
AcDbEntity
  8
2
100
AcDbLine
 62
7
  6
CONTINUOUS
 10
157.926314005
 20
122.0591868881
 11
157.924264225
 21
122.176618705
  0
LINE
  5
2F5
100
AcDbEntity
  8
2
100
AcDbLine
 62
7
  6
CONTINUOUS
 10
158.0762911592
 20
121.9118275948
 11
158.0760778837
 21
121.9240461402
  0
LINE
  5
2F6
100
AcDbEntity
  8
2
100
AcDbLine
 62
7
  6
CONTINUOUS
 10
158.0760778837
 20
122.0740232945
 11
158.0716688145
 21
122.326618705
  0
LINE
  5
2F7
100
AcDbEntity
  8
2
100
AcDbLine
 62
7
  6
CONTINUOUS
 10
157.926314005
 20
172.0591868881
 11
157.924264225
 21
172.176618705
  0
LINE
  5
2F8
100
AcDbEntity
  8
2
100
AcDbLine
 62
7
  6
CONTINUOUS
 10
158.0762911592
 20
171.9118275948
 11
158.0760778837
 21
171.9240461402
  0
LINE
  5
2F9
100
AcDbEntity
  8
2
100
AcDbLine
 62
7
  6
CONTINUOUS
 10
158.0760778837
 20
172.0740232945
 11
158.0716688145
 21
172.326618705
  0
LINE
  5
2FA
100
AcDbEntity
  8
2
100
AcDbLine
 62
7
  6
CONTINUOUS
 10
157.926314005
 20
222.0591868881
 11
157.924264225
 21
222.176618705
  0
LINE
  5
2FB
100
AcDbEntity
  8
2
100
AcDbLine
 62
7
  6
CONTINUOUS
 10
158.0762911592
 20
221.9118275948
 11
158.0760778837
 21
221.9240461402
  0
LINE
  5
2FC
100
AcDbEntity
  8
2
100
AcDbLine
 62
7
  6
CONTINUOUS
 10
158.0760778837
 20
222.0740232945
 11
158.0716688145
 21
222.326618705
  0
LINE
  5
2FD
100
AcDbEntity
  8
2
100
AcDbLine
 62
7
  6
CONTINUOUS
 10
158.0760778837
 20
121.9240461402
 11
158.0760778837
 21
122.0740232945
  0
LINE
  5
2FE
100
AcDbEntity
  8
2
100
AcDbLine
 62
7
  6
CONTINUOUS
 10
158.0760778837
 20
166.3792141156
 11
158.0760778837
 21
166.5291912698
  0
LINE
  5
2FF
100
AcDbEntity
  8
2
100
AcDbLine
 62
7
  6
CONTINUOUS
 10
158.0760778837
 20
171.9240461402
 11
158.0760778837
 21
172.0740232945
  0
LINE
  5
300
100
AcDbEntity
  8
2
100
AcDbLine
 62
7
  6
CONTINUOUS
 10
158.0760778837
 20
216.3792141156
 11
158.0760778837
 21
216.5291912698
  0
LINE
  5
301
100
AcDbEntity
  8
2
100
AcDbLine
 62
7
  6
CONTINUOUS
 10
158.0760778837
 20
221.9240461402
 11
158.0760778837
 21
222.0740232945
  0
LINE
  5
302
100
AcDbEntity
  8
2
100
AcDbLine
 62
7
  6
CONTINUOUS
 10
158.0760778837
 20
266.3792141156
 11
158.0760778837
 21
266.5291912698
  0
LINE
  5
303
100
AcDbEntity
  8
1
100
AcDbLine
 62
7
  6
CONTINUOUS
 10
158.874264225
 20
286.726618705
 11
158.874264225
 21
285.4897584259
  0
LINE
  5
304
100
AcDbEntity
  8
1
100
AcDbLine
 62
7
  6
CONTINUOUS
 10
163.124264225
 20
272.726618705
 11
163.124264225
 21
272.2660107192
  0
LINE
  5
305
100
AcDbEntity
  8
1
100
AcDbLine
 62
7
  6
CONTINUOUS
 10
163.124264225
 20
43.1872266909
 11
163.124264225
 21
42.726618705
  0
LINE
  5
306
100
AcDbEntity
  8
2
100
AcDbLine
 62
7
  6
CONTINUOUS
 10
157.924264225
 20
266.276618705
 11
157.926314005
 21
266.394050522
  0
LINE
  5
307
100
AcDbEntity
  8
2
100
AcDbLine
 62
7
  6
CONTINUOUS
 10
158.0760778837
 20
266.5291912698
 11
158.0762911592
 21
266.5414098153
  0
LINE
  5
308
100
AcDbEntity
  8
2
100
AcDbLine
 62
7
  6
CONTINUOUS
 10
158.0716688145
 20
266.126618705
 11
158.0760778837
 21
266.3792141156
  0
LINE
  5
309
100
AcDbEntity
  8
2
100
AcDbLine
 62
7
  6
CONTINUOUS
 10
157.924264225
 20
216.276618705
 11
157.926314005
 21
216.394050522
  0
LINE
  5
30A
100
AcDbEntity
  8
2
100
AcDbLine
 62
7
  6
CONTINUOUS
 10
158.0760778837
 20
216.5291912698
 11
158.0762911592
 21
216.5414098153
  0
LINE
  5
30B
100
AcDbEntity
  8
2
100
AcDbLine
 62
7
  6
CONTINUOUS
 10
158.0716688145
 20
216.126618705
 11
158.0760778837
 21
216.3792141156
  0
LINE
  5
30C
100
AcDbEntity
  8
2
100
AcDbLine
 62
7
  6
CONTINUOUS
 10
157.924264225
 20
166.276618705
 11
157.926314005
 21
166.394050522
  0
LINE
  5
30D
100
AcDbEntity
  8
2
100
AcDbLine
 62
7
  6
CONTINUOUS
 10
158.0760778837
 20
166.5291912698
 11
158.0762911592
 21
166.5414098153
  0
LINE
  5
30E
100
AcDbEntity
  8
2
100
AcDbLine
 62
7
  6
CONTINUOUS
 10
158.0716688145
 20
166.126618705
 11
158.0760778837
 21
166.3792141156
  0
LINE
  5
30F
100
AcDbEntity
  8
1
100
AcDbLine
 62
7
  6
CONTINUOUS
 10
153.2423919378
 20
22.726618705
 11
153.3752065813
 21
27.7986053128
  0
LINE
  5
310
100
AcDbEntity
  8
2
100
AcDbLine
 62
7
  6
CONTINUOUS
 10
144.4094731147
 20
122.0618047491
 11
144.4216916602
 21
122.0740232945
  0
LINE
  5
311
100
AcDbEntity
  8
2
100
AcDbLine
 62
7
  6
CONTINUOUS
 10
144.5716688145
 20
121.9240461402
 11
144.559450269
 21
121.9118275948
  0
LINE
  5
312
100
AcDbEntity
  8
2
100
AcDbLine
 62
7
  6
CONTINUOUS
 10
168.4459743278
 20
171.854931448
 11
168.4283877197
 21
171.872518056
  0
LINE
  5
313
100
AcDbEntity
  8
2
100
AcDbLine
 62
7
  6
CONTINUOUS
 10
168.578364874
 20
172.0224952103
 11
168.5959514821
 21
172.0049086022
  0
LINE
  5
314
100
AcDbEntity
  8
1
100
AcDbLine
 62
7
  6
CONTINUOUS
 10
165.124264225
 20
115.726618705
 11
165.124264225
 21
121.9118275948
  0
LINE
  5
315
100
AcDbEntity
  8
1
100
AcDbLine
 62
7
  6
CONTINUOUS
 10
165.124264225
 20
166.5414098153
 11
165.124264225
 21
171.9118275948
  0
LINE
  5
316
100
AcDbEntity
  8
1
100
AcDbLine
 62
7
  6
CONTINUOUS
 10
165.124264225
 20
216.5414098153
 11
165.124264225
 21
221.9118275948
  0
LINE
  5
317
100
AcDbEntity
  8
1
100
AcDbLine
 62
7
  6
CONTINUOUS
 10
165.124264225
 20
266.5414098153
 11
165.124264225
 21
271.3868727429
  0
LINE
  5
318
100
AcDbEntity
  8
2
100
AcDbLine
 62
7
  6
CONTINUOUS
 10
165.476345753
 20
266.5291912698
 11
165.476345753
 21
221.9240461402
  0
LINE
  5
319
100
AcDbEntity
  8
2
100
AcDbLine
 62
7
  6
CONTINUOUS
 10
165.476345753
 20
216.5291912698
 11
165.476345753
 21
171.9240461402
  0
LINE
  5
31A
100
AcDbEntity
  8
2
100
AcDbLine
 62
7
  6
CONTINUOUS
 10
165.476345753
 20
166.5291912698
 11
165.476345753
 21
121.9240461402
  0
LINE
  5
31B
100
AcDbEntity
  8
2
100
AcDbLine
 62
7
  6
CONTINUOUS
 10
165.5824117702
 20
122.0740232945
 11
165.5824117702
 21
166.3792141156
  0
LINE
  5
31C
100
AcDbEntity
  8
2
100
AcDbLine
 62
7
  6
CONTINUOUS
 10
165.5824117702
 20
172.0740232945
 11
165.5824117702
 21
216.3792141156
  0
LINE
  5
31D
100
AcDbEntity
  8
2
100
AcDbLine
 62
7
  6
CONTINUOUS
 10
165.5824117702
 20
222.0740232945
 11
165.5824117702
 21
266.3792141156
  0
LINE
  5
31E
100
AcDbEntity
  8
1
100
AcDbLine
 62
7
  6
CONTINUOUS
 10
165.824264225
 20
22.726618705
 11
165.824264225
 21
42.726618705
  0
LINE
  5
31F
100
AcDbEntity
  8
1
100
AcDbLine
 62
7
  6
CONTINUOUS
 10
165.824264225
 20
272.726618705
 11
165.824264225
 21
292.726618705
  0
LINE
  5
320
100
AcDbEntity
  8
1
100
AcDbLine
 62
7
  6
CONTINUOUS
 10
167.824264225
 20
292.726618705
 11
167.824264225
 21
272.726618705
  0
LINE
  5
321
100
AcDbEntity
  8
1
100
AcDbLine
 62
7
  6
CONTINUOUS
 10
167.824264225
 20
42.726618705
 11
167.824264225
 21
22.726618705
  0
LINE
  5
322
100
AcDbEntity
  8
2
100
AcDbLine
 62
7
  6
CONTINUOUS
 10
168.5344537369
 20
266.4307421998
 11
168.5344537369
 21
222.0224952103
  0
LINE
  5
323
100
AcDbEntity
  8
2
100
AcDbLine
 62
7
  6
CONTINUOUS
 10
168.5344537369
 20
216.4307421998
 11
168.5344537369
 21
172.0224952103
  0
LINE
  5
324
100
AcDbEntity
  8
2
100
AcDbLine
 62
7
  6
CONTINUOUS
 10
168.5344537369
 20
166.4307421998
 11
168.5344537369
 21
122.0224952103
  0
LINE
  5
325
100
AcDbEntity
  8
2
100
AcDbLine
 62
7
  6
CONTINUOUS
 10
168.578364874
 20
122.0224952103
 11
168.578364874
 21
166.4307421998
  0
LINE
  5
326
100
AcDbEntity
  8
2
100
AcDbLine
 62
7
  6
CONTINUOUS
 10
168.578364874
 20
172.0224952103
 11
168.578364874
 21
216.4307421998
  0
LINE
  5
327
100
AcDbEntity
  8
2
100
AcDbLine
 62
7
  6
CONTINUOUS
 10
168.578364874
 20
222.0224952103
 11
168.578364874
 21
266.4307421998
  0
LINE
  5
328
100
AcDbEntity
  8
2
100
AcDbLine
 62
7
  6
CONTINUOUS
 10
168.5959514821
 20
266.4483288078
 11
168.5959514821
 21
222.0049086022
  0
LINE
  5
329
100
AcDbEntity
  8
2
100
AcDbLine
 62
7
  6
CONTINUOUS
 10
168.5959514821
 20
216.4483288078
 11
168.5959514821
 21
172.0049086022
  0
LINE
  5
32A
100
AcDbEntity
  8
2
100
AcDbLine
 62
7
  6
CONTINUOUS
 10
168.5959514821
 20
166.4483288078
 11
168.5959514821
 21
122.0049086022
  0
LINE
  5
32B
100
AcDbEntity
  8
1
100
AcDbLine
 62
7
  6
CONTINUOUS
 10
170.124264225
 20
22.726618705
 11
170.124264225
 21
292.726618705
  0
LINE
  5
32C
100
AcDbEntity
  8
2
100
AcDbLine
 62
7
  6
CONTINUOUS
 10
157.924264225
 20
122.176618705
 11
158.0716688145
 21
122.326618705
  0
LINE
  5
32D
100
AcDbEntity
  8
2
100
AcDbLine
 62
7
  6
CONTINUOUS
 10
168.5344537369
 20
216.4307421998
 11
165.5824117702
 21
216.3792141156
  0
LINE
  5
32E
100
AcDbEntity
  8
2
100
AcDbLine
 62
7
  6
CONTINUOUS
 10
165.476345753
 20
216.5291912698
 11
168.4283877197
 21
216.580719354
  0
LINE
  5
32F
100
AcDbEntity
  8
2
100
AcDbLine
 62
7
  6
CONTINUOUS
 10
168.4459743278
 20
216.5983059621
 11
165.1863962593
 21
216.5414098153
  0
LINE
  5
330
100
AcDbEntity
  8
2
100
AcDbLine
 62
7
  6
CONTINUOUS
 10
151.7724505662
 20
216.3792141156
 11
151.9224277205
 21
216.3818319765
  0
LINE
  5
331
100
AcDbEntity
  8
2
100
AcDbLine
 62
7
  6
CONTINUOUS
 10
151.7768596355
 20
216.126618705
 11
158.0716688145
 21
216.126618705
  0
LINE
  5
332
100
AcDbEntity
  8
2
100
AcDbLine
 62
7
  6
CONTINUOUS
 10
157.924264225
 20
216.276618705
 11
151.924264225
 21
216.276618705
  0
LINE
  5
333
100
AcDbEntity
  8
2
100
AcDbLine
 62
7
  6
CONTINUOUS
 10
144.4216916602
 20
216.3792141156
 11
151.7724505662
 21
216.3792141156
  0
LINE
  5
334
100
AcDbEntity
  8
2
100
AcDbLine
 62
7
  6
CONTINUOUS
 10
158.0760778837
 20
216.3792141156
 11
165.5824117702
 21
216.3792141156
  0
LINE
  5
335
100
AcDbEntity
  8
2
100
AcDbLine
 62
7
  6
CONTINUOUS
 10
168.5344537369
 20
216.4307421998
 11
168.578364874
 21
216.4307421998
  0
LINE
  5
336
100
AcDbEntity
  8
2
100
AcDbLine
 62
7
  6
CONTINUOUS
 10
165.476345753
 20
216.5291912698
 11
158.0760778837
 21
216.5291912698
  0
LINE
  5
337
100
AcDbEntity
  8
2
100
AcDbLine
 62
7
  6
CONTINUOUS
 10
151.7724505662
 20
216.5291912698
 11
144.5716688145
 21
216.5291912698
  0
LINE
  5
338
100
AcDbEntity
  8
2
100
AcDbLine
 62
7
  6
CONTINUOUS
 10
144.559450269
 20
216.5414098153
 11
151.7722372907
 21
216.5414098153
  0
LINE
  5
339
100
AcDbEntity
  8
2
100
AcDbLine
 62
7
  6
CONTINUOUS
 10
158.0762911592
 20
216.5414098153
 11
165.1863962593
 21
216.5414098153
  0
LINE
  5
33A
100
AcDbEntity
  8
2
100
AcDbLine
 62
7
  6
CONTINUOUS
 10
157.9261007295
 20
216.3818319765
 11
158.0760778837
 21
216.3792141156
  0
LINE
  5
33B
100
AcDbEntity
  8
2
100
AcDbLine
 62
7
  6
CONTINUOUS
 10
158.0760778837
 20
222.0740232945
 11
157.9261007295
 21
222.0714054335
  0
LINE
  5
33C
100
AcDbEntity
  8
1
100
AcDbLine
 62
7
  6
CONTINUOUS
 10
90.124264225
 20
221.056618705
 11
135.124264225
 21
221.056618705
  0
LINE
  5
33D
100
AcDbEntity
  8
2
100
AcDbLine
 62
7
  6
CONTINUOUS
 10
165.1863962593
 20
221.9118275948
 11
158.0762911592
 21
221.9118275948
  0
LINE
  5
33E
100
AcDbEntity
  8
2
100
AcDbLine
 62
7
  6
CONTINUOUS
 10
151.7722372907
 20
221.9118275948
 11
144.559450269
 21
221.9118275948
  0
LINE
  5
33F
100
AcDbEntity
  8
2
100
AcDbLine
 62
7
  6
CONTINUOUS
 10
144.5716688145
 20
221.9240461402
 11
151.7724505662
 21
221.9240461402
  0
LINE
  5
340
100
AcDbEntity
  8
2
100
AcDbLine
 62
7
  6
CONTINUOUS
 10
158.0760778837
 20
221.9240461402
 11
165.476345753
 21
221.9240461402
  0
LINE
  5
341
100
AcDbEntity
  8
2
100
AcDbLine
 62
7
  6
CONTINUOUS
 10
168.578364874
 20
222.0224952103
 11
168.5344537369
 21
222.0224952103
  0
LINE
  5
342
100
AcDbEntity
  8
2
100
AcDbLine
 62
7
  6
CONTINUOUS
 10
165.5824117702
 20
222.0740232945
 11
158.0760778837
 21
222.0740232945
  0
LINE
  5
343
100
AcDbEntity
  8
2
100
AcDbLine
 62
7
  6
CONTINUOUS
 10
151.7724505662
 20
222.0740232945
 11
144.4216916602
 21
222.0740232945
  0
LINE
  5
344
100
AcDbEntity
  8
2
100
AcDbLine
 62
7
  6
CONTINUOUS
 10
151.924264225
 20
222.176618705
 11
157.924264225
 21
222.176618705
  0
LINE
  5
345
100
AcDbEntity
  8
2
100
AcDbLine
 62
7
  6
CONTINUOUS
 10
158.0716688145
 20
222.326618705
 11
151.7768596355
 21
222.326618705
  0
LINE
  5
346
100
AcDbEntity
  8
1
100
AcDbLine
 62
7
  6
CONTINUOUS
 10
90.124264225
 20
222.556618705
 11
135.124264225
 21
222.556618705
  0
LINE
  5
347
100
AcDbEntity
  8
1
100
AcDbLine
 62
7
  6
CONTINUOUS
 10
137.824264225
 20
226.426618705
 11
134.524264225
 21
226.426618705
  0
LINE
  5
348
100
AcDbEntity
  8
1
100
AcDbLine
 62
7
  6
CONTINUOUS
 10
130.824264225
 20
226.426618705
 11
127.524264225
 21
226.426618705
  0
LINE
  5
349
100
AcDbEntity
  8
1
100
AcDbLine
 62
7
  6
CONTINUOUS
 10
123.824264225
 20
226.426618705
 11
120.524264225
 21
226.426618705
  0
LINE
  5
34A
100
AcDbEntity
  8
1
100
AcDbLine
 62
7
  6
CONTINUOUS
 10
116.824264225
 20
226.426618705
 11
113.524264225
 21
226.426618705
  0
LINE
  5
34B
100
AcDbEntity
  8
1
100
AcDbLine
 62
7
  6
CONTINUOUS
 10
106.724264225
 20
226.576618705
 11
90.124264225
 21
226.576618705
  0
LINE
  5
34C
100
AcDbEntity
  8
2
100
AcDbLine
 62
7
  6
CONTINUOUS
 10
151.9224277205
 20
222.0714054335
 11
151.7724505662
 21
222.0740232945
  0
LINE
  5
34D
100
AcDbEntity
  8
2
100
AcDbLine
 62
7
  6
CONTINUOUS
 10
165.1863962593
 20
221.9118275948
 11
168.4459743278
 21
221.854931448
  0
LINE
  5
34E
100
AcDbEntity
  8
2
100
AcDbLine
 62
7
  6
CONTINUOUS
 10
168.4283877197
 20
221.872518056
 11
165.476345753
 21
221.9240461402
  0
LINE
  5
34F
100
AcDbEntity
  8
2
100
AcDbLine
 62
7
  6
CONTINUOUS
 10
165.5824117702
 20
222.0740232945
 11
168.5344537369
 21
222.0224952103
  0
LINE
  5
350
100
AcDbEntity
  8
2
100
AcDbLine
 62
7
  6
CONTINUOUS
 10
144.4216916602
 20
216.3792141156
 11
144.4094731147
 21
216.391432661
  0
LINE
  5
351
100
AcDbEntity
  8
2
100
AcDbLine
 62
7
  6
CONTINUOUS
 10
144.559450269
 20
216.5414098153
 11
144.5716688145
 21
216.5291912698
  0
LINE
  5
352
100
AcDbEntity
  8
1
100
AcDbLine
 62
7
  6
CONTINUOUS
 10
113.524264225
 20
227.926618705
 11
116.824264225
 21
227.926618705
  0
LINE
  5
353
100
AcDbEntity
  8
1
100
AcDbLine
 62
7
  6
CONTINUOUS
 10
120.524264225
 20
227.926618705
 11
123.824264225
 21
227.926618705
  0
LINE
  5
354
100
AcDbEntity
  8
1
100
AcDbLine
 62
7
  6
CONTINUOUS
 10
127.524264225
 20
227.926618705
 11
130.824264225
 21
227.926618705
  0
LINE
  5
355
100
AcDbEntity
  8
1
100
AcDbLine
 62
7
  6
CONTINUOUS
 10
134.524264225
 20
227.926618705
 11
137.824264225
 21
227.926618705
  0
LINE
  5
356
100
AcDbEntity
  8
1
100
AcDbLine
 62
7
  6
CONTINUOUS
 10
85.124264225
 20
228.9785269157
 11
87.1844876669
 21
228.9785269157
  0
LINE
  5
357
100
AcDbEntity
  8
1
100
AcDbLine
 62
7
  6
CONTINUOUS
 10
104.824264225
 20
231.326618705
 11
94.824264225
 21
231.326618705
  0
LINE
  5
358
100
AcDbEntity
  8
1
100
AcDbLine
 62
7
  6
CONTINUOUS
 10
87.124264225
 20
231.9780700012
 11
85.124264225
 21
231.9780700012
  0
LINE
  5
359
100
AcDbEntity
  8
1
100
AcDbLine
 62
7
  6
CONTINUOUS
 10
85.124264225
 20
232.0322629933
 11
87.124264225
 21
232.0322629933
  0
LINE
  5
35A
100
AcDbEntity
  8
1
100
AcDbLine
 62
7
  6
CONTINUOUS
 10
138.624264225
 20
232.926618705
 11
112.724264225
 21
232.926618705
  0
LINE
  5
35B
100
AcDbEntity
  8
1
100
AcDbLine
 62
7
  6
CONTINUOUS
 10
87.124264225
 20
235.0318060787
 11
85.124264225
 21
235.0318060787
  0
LINE
  5
35C
100
AcDbEntity
  8
1
100
AcDbLine
 62
7
  6
CONTINUOUS
 10
94.824264225
 20
235.976618705
 11
93.824264225
 21
235.976618705
  0
LINE
  5
35D
100
AcDbEntity
  8
2
100
AcDbLine
 62
7
  6
CONTINUOUS
 10
151.924264225
 20
222.176618705
 11
151.7768596355
 21
222.326618705
  0
LINE
  5
35E
100
AcDbEntity
  8
2
100
AcDbLine
 62
7
  6
CONTINUOUS
 10
157.924264225
 20
216.276618705
 11
158.0716688145
 21
216.126618705
  0
LINE
  5
35F
100
AcDbEntity
  8
1
100
AcDbLine
 62
7
  6
CONTINUOUS
 10
93.824264225
 20
238.776618705
 11
94.824264225
 21
238.776618705
  0
LINE
  5
360
100
AcDbEntity
  8
1
100
AcDbLine
 62
7
  6
CONTINUOUS
 10
137.524264225
 20
240.426618705
 11
125.424264225
 21
240.426618705
  0
LINE
  5
361
100
AcDbEntity
  8
1
100
AcDbLine
 62
7
  6
CONTINUOUS
 10
119.724264225
 20
240.426618705
 11
107.624264225
 21
240.426618705
  0
LINE
  5
362
100
AcDbEntity
  8
2
100
AcDbLine
 62
7
  6
CONTINUOUS
 10
168.4459743278
 20
221.854931448
 11
168.4283877197
 21
221.872518056
  0
LINE
  5
363
100
AcDbEntity
  8
2
100
AcDbLine
 62
7
  6
CONTINUOUS
 10
168.578364874
 20
222.0224952103
 11
168.5959514821
 21
222.0049086022
  0
LINE
  5
364
100
AcDbEntity
  8
1
100
AcDbLine
 62
7
  6
CONTINUOUS
 10
87.124264225
 20
261.3476463315
 11
85.124264225
 21
261.7986971339
  0
LINE
  5
365
100
AcDbEntity
  8
1
100
AcDbLine
 62
7
  6
CONTINUOUS
 10
85.346568142
 20
264.8234399441
 11
87.2977039911
 21
264.3834092489
  0
LINE
  5
366
100
AcDbEntity
  8
1
100
AcDbLine
 62
7
  6
CONTINUOUS
 10
87.3091073653
 20
264.4363915724
 11
85.358075341
 21
264.8763988525
  0
LINE
  5
367
100
AcDbEntity
  8
2
100
AcDbLine
 62
7
  6
CONTINUOUS
 10
144.4216916602
 20
266.3792141156
 11
144.4094731147
 21
266.391432661
  0
LINE
  5
368
100
AcDbEntity
  8
2
100
AcDbLine
 62
7
  6
CONTINUOUS
 10
144.559450269
 20
266.5414098153
 11
144.5716688145
 21
266.5291912698
  0
LINE
  5
369
100
AcDbEntity
  8
2
100
AcDbLine
 62
7
  6
CONTINUOUS
 10
168.5344537369
 20
266.4307421998
 11
165.5824117702
 21
266.3792141156
  0
LINE
  5
36A
100
AcDbEntity
  8
2
100
AcDbLine
 62
7
  6
CONTINUOUS
 10
165.476345753
 20
266.5291912698
 11
168.4283877197
 21
266.580719354
  0
LINE
  5
36B
100
AcDbEntity
  8
2
100
AcDbLine
 62
7
  6
CONTINUOUS
 10
168.4459743278
 20
266.5983059621
 11
165.1863962593
 21
266.5414098153
  0
LINE
  5
36C
100
AcDbEntity
  8
2
100
AcDbLine
 62
7
  6
CONTINUOUS
 10
151.7724505662
 20
266.3792141156
 11
151.9224277205
 21
266.3818319765
  0
LINE
  5
36D
100
AcDbEntity
  8
1
100
AcDbLine
 62
7
  6
CONTINUOUS
 10
94.824264225
 20
257.976618705
 11
93.824264225
 21
257.976618705
  0
LINE
  5
36E
100
AcDbEntity
  8
1
100
AcDbLine
 62
7
  6
CONTINUOUS
 10
93.824264225
 20
260.776618705
 11
94.824264225
 21
260.776618705
  0
LINE
  5
36F
100
AcDbEntity
  8
1
100
AcDbLine
 62
7
  6
CONTINUOUS
 10
125.424264225
 20
261.026618705
 11
137.524264225
 21
261.026618705
  0
LINE
  5
370
100
AcDbEntity
  8
1
100
AcDbLine
 62
7
  6
CONTINUOUS
 10
107.624264225
 20
264.526618705
 11
119.724264225
 21
264.526618705
  0
LINE
  5
371
100
AcDbEntity
  8
1
100
AcDbLine
 62
7
  6
CONTINUOUS
 10
94.824264225
 20
265.426618705
 11
104.824264225
 21
265.426618705
  0
LINE
  5
372
100
AcDbEntity
  8
1
100
AcDbLine
 62
7
  6
CONTINUOUS
 10
86.4513954396
 20
267.7047053888
 11
88.5180659197
 21
267.2386186996
  0
LINE
  5
373
100
AcDbEntity
  8
2
100
AcDbLine
 62
7
  6
CONTINUOUS
 10
157.924264225
 20
266.276618705
 11
158.0716688145
 21
266.126618705
  0
LINE
  5
374
100
AcDbEntity
  8
2
100
AcDbLine
 62
7
  6
CONTINUOUS
 10
151.7768596355
 20
266.126618705
 11
158.0716688145
 21
266.126618705
  0
LINE
  5
375
100
AcDbEntity
  8
2
100
AcDbLine
 62
7
  6
CONTINUOUS
 10
157.924264225
 20
266.276618705
 11
151.924264225
 21
266.276618705
  0
LINE
  5
376
100
AcDbEntity
  8
2
100
AcDbLine
 62
7
  6
CONTINUOUS
 10
144.4216916602
 20
266.3792141156
 11
151.7724505662
 21
266.3792141156
  0
LINE
  5
377
100
AcDbEntity
  8
2
100
AcDbLine
 62
7
  6
CONTINUOUS
 10
158.0760778837
 20
266.3792141156
 11
165.5824117702
 21
266.3792141156
  0
LINE
  5
378
100
AcDbEntity
  8
2
100
AcDbLine
 62
7
  6
CONTINUOUS
 10
168.5344537369
 20
266.4307421998
 11
168.578364874
 21
266.4307421998
  0
LINE
  5
379
100
AcDbEntity
  8
2
100
AcDbLine
 62
7
  6
CONTINUOUS
 10
165.476345753
 20
266.5291912698
 11
158.0760778837
 21
266.5291912698
  0
LINE
  5
37A
100
AcDbEntity
  8
2
100
AcDbLine
 62
7
  6
CONTINUOUS
 10
151.7724505662
 20
266.5291912698
 11
144.5716688145
 21
266.5291912698
  0
LINE
  5
37B
100
AcDbEntity
  8
2
100
AcDbLine
 62
7
  6
CONTINUOUS
 10
144.559450269
 20
266.5414098153
 11
151.7722372907
 21
266.5414098153
  0
LINE
  5
37C
100
AcDbEntity
  8
2
100
AcDbLine
 62
7
  6
CONTINUOUS
 10
158.0762911592
 20
266.5414098153
 11
165.1863962593
 21
266.5414098153
  0
LINE
  5
37D
100
AcDbEntity
  8
1
100
AcDbLine
 62
7
  6
CONTINUOUS
 10
95.124264225
 20
270.726618705
 11
133.624264225
 21
270.726618705
  0
LINE
  5
37E
100
AcDbEntity
  8
1
100
AcDbLine
 62
7
  6
CONTINUOUS
 10
60.124264225
 20
272.726618705
 11
170.124264225
 21
272.726618705
  0
LINE
  5
37F
100
AcDbEntity
  8
2
100
AcDbLine
 62
7
  6
CONTINUOUS
 10
157.9261007295
 20
266.3818319765
 11
158.0760778837
 21
266.3792141156
  0
LINE
  5
380
100
AcDbEntity
  8
1
100
AcDbLine
 62
7
  6
CONTINUOUS
 10
144.2834431624
 20
278.676618705
 11
130.7990310066
 21
278.676618705
  0
LINE
  5
381
100
AcDbEntity
  8
1
100
AcDbLine
 62
7
  6
CONTINUOUS
 10
62.424264225
 20
283.075613672
 11
64.424264225
 21
283.075613672
  0
LINE
  5
382
100
AcDbEntity
  8
1
100
AcDbLine
 62
7
  6
CONTINUOUS
 10
165.824264225
 20
283.075613672
 11
167.824264225
 21
283.075613672
  0
LINE
  5
383
100
AcDbEntity
  8
1
100
AcDbLine
 62
7
  6
CONTINUOUS
 10
80.574264225
 20
289.726618705
 11
84.574264225
 21
289.726618705
  0
LINE
  5
384
100
AcDbEntity
  8
1
100
AcDbLine
 62
7
  6
CONTINUOUS
 10
145.674264225
 20
289.726618705
 11
149.674264225
 21
289.726618705
  0
LINE
  5
385
100
AcDbEntity
  8
1
100
AcDbLine
 62
7
  6
CONTINUOUS
 10
92.524264225
 20
291.226618705
 11
100.188854225
 21
291.226618705
  0
LINE
  5
386
100
AcDbEntity
  8
1
100
AcDbLine
 62
7
  6
CONTINUOUS
 10
60.124264225
 20
292.726618705
 11
170.124264225
 21
292.726618705
  0
ARC
  5
387
100
AcDbEntity
  8
1
100
AcDbCircle
 62
7
  6
CONTINUOUS
 10
70.124264225
 20
52.726618705
 40
10.0
100
AcDbArc
 50
180.0
 51
270.0
  0
ARC
  5
388
100
AcDbEntity
  8
1
100
AcDbCircle
 62
7
  6
CONTINUOUS
 10
90.124264225
 20
141.656618705
 40
7.0
100
AcDbArc
 50
180.0
 51
270.0
  0
ARC
  5
389
100
AcDbEntity
  8
1
100
AcDbCircle
 62
7
  6
CONTINUOUS
 10
90.124264225
 20
141.656618705
 40
5.5
100
AcDbArc
 50
180.0
 51
270.0
  0
ARC
  5
38A
100
AcDbEntity
  8
1
100
AcDbCircle
 62
7
  6
CONTINUOUS
 10
69.424264225
 20
37.226618705
 40
5.0
100
AcDbArc
 50
90.0
 51
180.0
  0
ARC
  5
38B
100
AcDbEntity
  8
1
100
AcDbCircle
 62
7
  6
CONTINUOUS
 10
69.424264225
 20
27.726618705
 40
5.0
100
AcDbArc
 50
180.0
 51
270.0
  0
ARC
  5
38C
100
AcDbEntity
  8
1
100
AcDbCircle
 62
7
  6
CONTINUOUS
 10
96.244264225
 20
50.936618705
 40
3.0
100
AcDbArc
 50
270.0
 51
360.0
  0
ARC
  5
38D
100
AcDbEntity
  8
1
100
AcDbCircle
 62
7
  6
CONTINUOUS
 10
96.244264225
 20
92.446618705
 40
3.0
100
AcDbArc
 50
0.0
 51
90.0
  0
CIRCLE
  5
38E
100
AcDbEntity
  8
1
100
AcDbCircle
 62
7
  6
CONTINUOUS
 10
81.974264225
 20
35.876618705
 40
2.5
  0
CIRCLE
  5
38F
100
AcDbEntity
  8
1
100
AcDbCircle
 62
7
  6
CONTINUOUS
 10
102.624264225
 20
28.276618705
 40
2.5
  0
CIRCLE
  5
390
100
AcDbEntity
  8
1
100
AcDbCircle
 62
7
  6
CONTINUOUS
 10
69.974264225
 20
35.876618705
 40
2.5
  0
ARC
  5
391
100
AcDbEntity
  8
1
100
AcDbCircle
 62
7
  6
CONTINUOUS
 10
96.444264225
 20
92.646618705
 40
1.8
100
AcDbArc
 50
0.0
 51
90.0
  0
ARC
  5
392
100
AcDbEntity
  8
1
100
AcDbCircle
 62
7
  6
CONTINUOUS
 10
96.444264225
 20
50.736618705
 40
1.8
100
AcDbArc
 50
270.0
 51
360.0
  0
ARC
  5
393
100
AcDbEntity
  8
1
100
AcDbCircle
 62
7
  6
CONTINUOUS
 10
70.124264225
 20
262.726618705
 40
10.0
100
AcDbArc
 50
90.0
 51
180.0
  0
ARC
  5
394
100
AcDbEntity
  8
1
100
AcDbCircle
 62
7
  6
CONTINUOUS
 10
95.124264225
 20
262.726618705
 40
10.0
100
AcDbArc
 50
150.1448717439
 51
180.0
  0
ARC
  5
395
100
AcDbEntity
  8
1
100
AcDbCircle
 62
7
  6
CONTINUOUS
 10
95.124264225
 20
262.726618705
 40
8.0
100
AcDbArc
 50
90.0
 51
180.0
  0
ARC
  5
396
100
AcDbEntity
  8
1
100
AcDbCircle
 62
7
  6
CONTINUOUS
 10
90.124264225
 20
215.556618705
 40
7.0
100
AcDbArc
 50
90.0
 51
180.0
  0
ARC
  5
397
100
AcDbEntity
  8
1
100
AcDbCircle
 62
7
  6
CONTINUOUS
 10
90.124264225
 20
215.556618705
 40
5.5
100
AcDbArc
 50
90.0
 51
180.0
  0
ARC
  5
398
100
AcDbEntity
  8
1
100
AcDbCircle
 62
7
  6
CONTINUOUS
 10
74.124264225
 20
280.726618705
 40
5.5
100
AcDbArc
 50
120.0
 51
60.0
  0
ARC
  5
399
100
AcDbEntity
  8
1
100
AcDbCircle
 62
7
  6
CONTINUOUS
 10
106.724264225
 20
229.576618705
 40
3.0
100
AcDbArc
 50
270.0
 51
360.0
  0
ARC
  5
39A
100
AcDbEntity
  8
1
100
AcDbCircle
 62
7
  6
CONTINUOUS
 10
112.724264225
 20
229.926618705
 40
3.0
100
AcDbArc
 50
90.0
 51
180.0
  0
ARC
  5
39B
100
AcDbEntity
  8
1
100
AcDbCircle
 62
7
  6
CONTINUOUS
 10
90.124264225
 20
229.576618705
 40
3.0
100
AcDbArc
 50
180.0
 51
270.0
  0
ARC
  5
39C
100
AcDbEntity
  8
1
100
AcDbCircle
 62
7
  6
CONTINUOUS
 10
74.124264225
 20
286.726618705
 40
2.75
100
AcDbArc
 50
0.0
 51
180.0
  0
ARC
  5
39D
100
AcDbEntity
  8
1
100
AcDbCircle
 62
7
  6
CONTINUOUS
 10
160.124264225
 20
52.726618705
 40
10.0
100
AcDbArc
 50
270.0
 51
360.0
  0
ARC
  5
39E
100
AcDbEntity
  8
1
100
AcDbCircle
 62
7
  6
CONTINUOUS
 10
135.124264225
 20
141.656618705
 40
7.0
100
AcDbArc
 50
270.0
 51
360.0
  0
ARC
  5
39F
100
AcDbEntity
  8
1
100
AcDbCircle
 62
7
  6
CONTINUOUS
 10
135.124264225
 20
141.656618705
 40
5.5
100
AcDbArc
 50
270.0
 51
360.0
  0
ARC
  5
3A0
100
AcDbEntity
  8
1
100
AcDbCircle
 62
7
  6
CONTINUOUS
 10
165.124264225
 20
110.726618705
 40
5.0
100
AcDbArc
 50
0.0
 51
90.0
  0
ARC
  5
3A1
100
AcDbEntity
  8
1
100
AcDbCircle
 62
7
  6
CONTINUOUS
 10
149.124264225
 20
120.726618705
 40
5.0
100
AcDbArc
 50
180.0
 51
270.0
  0
ARC
  5
3A2
100
AcDbEntity
  8
1
100
AcDbCircle
 62
7
  6
CONTINUOUS
 10
125.824264225
 20
27.726618705
 40
5.0
100
AcDbArc
 50
270.0
 51
360.0
  0
ARC
  5
3A3
100
AcDbEntity
  8
1
100
AcDbCircle
 62
7
  6
CONTINUOUS
 10
125.824264225
 20
37.226618705
 40
5.0
100
AcDbArc
 50
0.0
 51
90.0
  0
ARC
  5
3A4
100
AcDbEntity
  8
1
100
AcDbCircle
 62
7
  6
CONTINUOUS
 10
156.124264225
 20
27.726618705
 40
2.75
100
AcDbArc
 50
1.4999999995
 51
178.5000000015
  0
CIRCLE
  5
3A5
100
AcDbEntity
  8
1
100
AcDbCircle
 62
7
  6
CONTINUOUS
 10
125.274264225
 20
35.876618705
 40
2.5
  0
ARC
  5
3A6
100
AcDbEntity
  8
2
100
AcDbCircle
 62
7
  6
CONTINUOUS
 10
144.5595051491
 20
122.0618596291
 40
0.1500323182
100
AcDbArc
 50
180.0209581745
 51
269.9790418237
  0
ARC
  5
3A7
100
AcDbEntity
  8
2
100
AcDbCircle
 62
7
  6
CONTINUOUS
 10
144.5717236946
 20
122.0740781746
 40
0.1500323182
100
AcDbArc
 50
180.0209581912
 51
269.979041807
  0
ARC
  5
3A8
100
AcDbEntity
  8
2
100
AcDbCircle
 62
7
  6
CONTINUOUS
 10
168.4459284622
 20
122.0049599075
 40
0.1500230287
100
AcDbArc
 50
270.0196170457
 51
359.9804058263
  0
ARC
  5
3A9
100
AcDbEntity
  8
2
100
AcDbCircle
 62
7
  6
CONTINUOUS
 10
168.4283413253
 20
122.0225445583
 40
0.1500226895
100
AcDbArc
 50
273.4475746638
 51
359.9811534249
  0
ARC
  5
3AA
100
AcDbEntity
  8
2
100
AcDbCircle
 62
7
  6
CONTINUOUS
 10
158.0762782756
 20
122.0618164535
 40
0.1499880912
100
AcDbArc
 50
181.0045563447
 51
270.0049215448
  0
ARC
  5
3AB
100
AcDbEntity
  8
2
100
AcDbCircle
 62
7
  6
CONTINUOUS
 10
151.7724634498
 20
122.0740349989
 40
0.1499880912
100
AcDbArc
 50
269.9950784552
 51
358.9954436563
  0
ARC
  5
3AC
100
AcDbEntity
  8
2
100
AcDbCircle
 62
7
  6
CONTINUOUS
 10
158.0760650001
 20
122.0740349989
 40
0.1499880912
100
AcDbArc
 50
181.004556347
 51
270.0049215471
  0
ARC
  5
3AD
100
AcDbEntity
  8
2
100
AcDbCircle
 62
7
  6
CONTINUOUS
 10
151.772271977
 20
122.061805981
 40
0.1499653405
100
AcDbArc
 50
269.9989570763
 51
358.9992981092
  0
ARC
  5
3AE
100
AcDbEntity
  8
2
100
AcDbCircle
 62
7
  6
CONTINUOUS
 10
168.4283277032
 20
122.0202384524
 40
0.1477204086
100
AcDbArc
 50
270.0232784095
 51
273.5066373042
  0
ARC
  5
3AF
100
AcDbEntity
  8
2
100
AcDbCircle
 62
7
  6
CONTINUOUS
 10
168.4270838657
 20
121.9465937545
 40
0.0740871725
100
AcDbArc
 50
271.008395701
 51
275.1214106805
  0
ARC
  5
3B0
100
AcDbEntity
  8
1
100
AcDbCircle
 62
7
  6
CONTINUOUS
 10
135.124264225
 20
215.556618705
 40
7.0
100
AcDbArc
 50
0.0
 51
90.0
  0
ARC
  5
3B1
100
AcDbEntity
  8
1
100
AcDbCircle
 62
7
  6
CONTINUOUS
 10
135.124264225
 20
215.556618705
 40
5.5
100
AcDbArc
 50
0.0
 51
90.0
  0
ARC
  5
3B2
100
AcDbEntity
  8
2
100
AcDbCircle
 62
7
  6
CONTINUOUS
 10
144.5595051491
 20
172.0618596291
 40
0.1500323182
100
AcDbArc
 50
180.0209581745
 51
269.9790418237
  0
ARC
  5
3B3
100
AcDbEntity
  8
2
100
AcDbCircle
 62
7
  6
CONTINUOUS
 10
144.5595051491
 20
216.3913777809
 40
0.1500323182
100
AcDbArc
 50
90.020958193
 51
179.9790418097
  0
ARC
  5
3B4
100
AcDbEntity
  8
2
100
AcDbCircle
 62
7
  6
CONTINUOUS
 10
144.5717236946
 20
172.0740781746
 40
0.1500323182
100
AcDbArc
 50
180.0209581912
 51
269.979041807
  0
ARC
  5
3B5
100
AcDbEntity
  8
2
100
AcDbCircle
 62
7
  6
CONTINUOUS
 10
144.5717236577
 20
216.3791592723
 40
0.1500323182
100
AcDbArc
 50
90.020944126
 51
179.9790558767
  0
ARC
  5
3B6
100
AcDbEntity
  8
2
100
AcDbCircle
 62
7
  6
CONTINUOUS
 10
144.5595051491
 20
222.0618596291
 40
0.1500323182
100
AcDbArc
 50
180.0209581745
 51
269.9790418237
  0
ARC
  5
3B7
100
AcDbEntity
  8
2
100
AcDbCircle
 62
7
  6
CONTINUOUS
 10
144.5717236946
 20
222.0740781746
 40
0.1500323182
100
AcDbArc
 50
180.0209581912
 51
269.979041807
  0
ARC
  5
3B8
100
AcDbEntity
  8
2
100
AcDbCircle
 62
7
  6
CONTINUOUS
 10
144.5595051491
 20
166.3913777809
 40
0.1500323182
100
AcDbArc
 50
90.020958193
 51
179.9790418097
  0
ARC
  5
3B9
100
AcDbEntity
  8
2
100
AcDbCircle
 62
7
  6
CONTINUOUS
 10
144.5717236577
 20
166.3791592723
 40
0.1500323182
100
AcDbArc
 50
90.020944126
 51
179.9790558767
  0
ARC
  5
3BA
100
AcDbEntity
  8
1
100
AcDbCircle
 62
7
  6
CONTINUOUS
 10
134.124264225
 20
262.726618705
 40
10.0
100
AcDbArc
 50
0.0
 51
90.0
  0
ARC
  5
3BB
100
AcDbEntity
  8
1
100
AcDbCircle
 62
7
  6
CONTINUOUS
 10
133.624264225
 20
262.726618705
 40
8.0
100
AcDbArc
 50
0.0
 51
90.0
  0
ARC
  5
3BC
100
AcDbEntity
  8
1
100
AcDbCircle
 62
7
  6
CONTINUOUS
 10
138.624264225
 20
235.926618705
 40
3.0
100
AcDbArc
 50
270.0
 51
360.0
  0
ARC
  5
3BD
100
AcDbEntity
  8
2
100
AcDbCircle
 62
7
  6
CONTINUOUS
 10
144.5595051491
 20
266.3913777809
 40
0.1500323182
100
AcDbArc
 50
90.020958193
 51
179.9790418097
  0
ARC
  5
3BE
100
AcDbEntity
  8
2
100
AcDbCircle
 62
7
  6
CONTINUOUS
 10
144.5717236577
 20
266.3791592723
 40
0.1500323182
100
AcDbArc
 50
90.020944126
 51
179.9790558767
  0
ARC
  5
3BF
100
AcDbEntity
  8
2
100
AcDbCircle
 62
7
  6
CONTINUOUS
 10
168.4459160649
 20
216.4482708776
 40
0.1500355271
100
AcDbArc
 50
0.0221224894
 51
89.9777504245
  0
ARC
  5
3C0
100
AcDbEntity
  8
2
100
AcDbCircle
 62
7
  6
CONTINUOUS
 10
168.4459160649
 20
166.4482708776
 40
0.1500355271
100
AcDbArc
 50
0.0221224896
 51
89.9777504243
  0
ARC
  5
3C1
100
AcDbEntity
  8
2
100
AcDbCircle
 62
7
  6
CONTINUOUS
 10
168.4459229643
 20
222.0049546104
 40
0.1500231712
100
AcDbArc
 50
270.0196163985
 51
359.9803836018
  0
ARC
  5
3C2
100
AcDbEntity
  8
2
100
AcDbCircle
 62
7
  6
CONTINUOUS
 10
168.4459284622
 20
172.0049599075
 40
0.1500230287
100
AcDbArc
 50
270.0196170457
 51
359.9804058263
  0
ARC
  5
3C3
100
AcDbEntity
  8
2
100
AcDbCircle
 62
7
  6
CONTINUOUS
 10
168.4283411348
 20
216.4306926996
 40
0.1500228645
100
AcDbArc
 50
0.01890466
 51
86.5458891288
  0
ARC
  5
3C4
100
AcDbEntity
  8
2
100
AcDbCircle
 62
7
  6
CONTINUOUS
 10
168.4283411348
 20
166.4306926997
 40
0.1500228644
100
AcDbArc
 50
0.0189046579
 51
86.5458891309
  0
ARC
  5
3C5
100
AcDbEntity
  8
2
100
AcDbCircle
 62
7
  6
CONTINUOUS
 10
168.4283413253
 20
172.0225445583
 40
0.1500226895
100
AcDbArc
 50
273.4475746607
 51
359.981153428
  0
ARC
  5
3C6
100
AcDbEntity
  8
2
100
AcDbCircle
 62
7
  6
CONTINUOUS
 10
168.4283413253
 20
222.0225445583
 40
0.1500226895
100
AcDbArc
 50
273.4475746638
 51
359.981153425
  0
ARC
  5
3C7
100
AcDbEntity
  8
2
100
AcDbCircle
 62
7
  6
CONTINUOUS
 10
158.0762782756
 20
172.0618164535
 40
0.1499880912
100
AcDbArc
 50
181.0045563447
 51
270.0049215447
  0
ARC
  5
3C8
100
AcDbEntity
  8
2
100
AcDbCircle
 62
7
  6
CONTINUOUS
 10
151.7724634498
 20
172.0740349989
 40
0.1499880912
100
AcDbArc
 50
269.9950784552
 51
358.9954436563
  0
ARC
  5
3C9
100
AcDbEntity
  8
2
100
AcDbCircle
 62
7
  6
CONTINUOUS
 10
151.7722501743
 20
216.3914209566
 40
0.1499880912
100
AcDbArc
 50
1.0045563447
 51
90.0049215448
  0
ARC
  5
3CA
100
AcDbEntity
  8
2
100
AcDbCircle
 62
7
  6
CONTINUOUS
 10
158.0760650001
 20
216.3792024112
 40
0.1499880912
100
AcDbArc
 50
89.9950784553
 51
178.9954436562
  0
ARC
  5
3CB
100
AcDbEntity
  8
2
100
AcDbCircle
 62
7
  6
CONTINUOUS
 10
158.0760650001
 20
172.0740349989
 40
0.1499880912
100
AcDbArc
 50
181.004556347
 51
270.0049215471
  0
ARC
  5
3CC
100
AcDbEntity
  8
2
100
AcDbCircle
 62
7
  6
CONTINUOUS
 10
151.7724634498
 20
216.3792024112
 40
0.1499880912
100
AcDbArc
 50
1.004556347
 51
90.0049215471
  0
ARC
  5
3CD
100
AcDbEntity
  8
2
100
AcDbCircle
 62
7
  6
CONTINUOUS
 10
158.0762782756
 20
222.0618164535
 40
0.1499880912
100
AcDbArc
 50
181.0045563447
 51
270.0049215447
  0
ARC
  5
3CE
100
AcDbEntity
  8
2
100
AcDbCircle
 62
7
  6
CONTINUOUS
 10
151.7724634498
 20
222.0740349989
 40
0.1499880912
100
AcDbArc
 50
269.9950784553
 51
358.9954436562
  0
ARC
  5
3CF
100
AcDbEntity
  8
2
100
AcDbCircle
 62
7
  6
CONTINUOUS
 10
158.0760650001
 20
222.0740349989
 40
0.1499880912
100
AcDbArc
 50
181.004556347
 51
270.0049215471
  0
ARC
  5
3D0
100
AcDbEntity
  8
2
100
AcDbCircle
 62
7
  6
CONTINUOUS
 10
151.7722501743
 20
166.3914209566
 40
0.1499880912
100
AcDbArc
 50
1.0045563447
 51
90.0049215447
  0
ARC
  5
3D1
100
AcDbEntity
  8
2
100
AcDbCircle
 62
7
  6
CONTINUOUS
 10
158.0760650001
 20
166.3792024112
 40
0.1499880912
100
AcDbArc
 50
89.9950784552
 51
178.9954436563
  0
ARC
  5
3D2
100
AcDbEntity
  8
2
100
AcDbCircle
 62
7
  6
CONTINUOUS
 10
151.7724634498
 20
166.3792024112
 40
0.1499880912
100
AcDbArc
 50
1.004556347
 51
90.0049215471
  0
ARC
  5
3D3
100
AcDbEntity
  8
2
100
AcDbCircle
 62
7
  6
CONTINUOUS
 10
158.0762564729
 20
216.3914314291
 40
0.1499653405
100
AcDbArc
 50
89.9989570763
 51
178.9992981091
  0
ARC
  5
3D4
100
AcDbEntity
  8
2
100
AcDbCircle
 62
7
  6
CONTINUOUS
 10
151.772271977
 20
172.061805981
 40
0.1499653405
100
AcDbArc
 50
269.9989570763
 51
358.9992981092
  0
ARC
  5
3D5
100
AcDbEntity
  8
2
100
AcDbCircle
 62
7
  6
CONTINUOUS
 10
151.772271977
 20
222.061805981
 40
0.1499653405
100
AcDbArc
 50
269.9989570763
 51
358.9992981092
  0
ARC
  5
3D6
100
AcDbEntity
  8
2
100
AcDbCircle
 62
7
  6
CONTINUOUS
 10
158.0762564729
 20
166.3914314291
 40
0.1499653405
100
AcDbArc
 50
89.9989570763
 51
178.9992981092
  0
ARC
  5
3D7
100
AcDbEntity
  8
2
100
AcDbCircle
 62
7
  6
CONTINUOUS
 10
168.428327667
 20
216.4329885474
 40
0.1477308188
100
AcDbArc
 50
86.4870283183
 51
89.9767092292
  0
ARC
  5
3D8
100
AcDbEntity
  8
2
100
AcDbCircle
 62
7
  6
CONTINUOUS
 10
168.428327667
 20
166.4329885474
 40
0.1477308188
100
AcDbArc
 50
86.4870283182
 51
89.9767092296
  0
ARC
  5
3D9
100
AcDbEntity
  8
2
100
AcDbCircle
 62
7
  6
CONTINUOUS
 10
168.4283277032
 20
172.0202384524
 40
0.1477204085
100
AcDbArc
 50
270.0232784091
 51
273.5066373043
  0
ARC
  5
3DA
100
AcDbEntity
  8
2
100
AcDbCircle
 62
7
  6
CONTINUOUS
 10
168.4283277032
 20
222.0202384523
 40
0.1477204085
100
AcDbArc
 50
270.0232784086
 51
273.5066373048
  0
ARC
  5
3DB
100
AcDbEntity
  8
2
100
AcDbCircle
 62
7
  6
CONTINUOUS
 10
168.4270838657
 20
216.5066436556
 40
0.0740871726
100
AcDbArc
 50
84.8785893259
 51
88.9916042975
  0
ARC
  5
3DC
100
AcDbEntity
  8
2
100
AcDbCircle
 62
7
  6
CONTINUOUS
 10
168.4270838657
 20
171.9465937544
 40
0.0740871725
100
AcDbArc
 50
271.0083957009
 51
275.1214106805
  0
ARC
  5
3DD
100
AcDbEntity
  8
2
100
AcDbCircle
 62
7
  6
CONTINUOUS
 10
168.4270838657
 20
221.9465937545
 40
0.0740871726
100
AcDbArc
 50
271.0083957028
 51
275.1214106786
  0
ARC
  5
3DE
100
AcDbEntity
  8
2
100
AcDbCircle
 62
7
  6
CONTINUOUS
 10
168.4270838657
 20
166.5066436556
 40
0.0740871725
100
AcDbArc
 50
84.8785893236
 51
88.9916042988
  0
ARC
  5
3DF
100
AcDbEntity
  8
1
100
AcDbCircle
 62
7
  6
CONTINUOUS
 10
160.124264225
 20
262.726618705
 40
10.0
100
AcDbArc
 50
0.0
 51
90.0
  0
ARC
  5
3E0
100
AcDbEntity
  8
1
100
AcDbCircle
 62
7
  6
CONTINUOUS
 10
156.124264225
 20
280.726618705
 40
5.5
100
AcDbArc
 50
120.0
 51
60.0
  0
ARC
  5
3E1
100
AcDbEntity
  8
1
100
AcDbCircle
 62
7
  6
CONTINUOUS
 10
156.124264225
 20
286.726618705
 40
2.75
100
AcDbArc
 50
0.0
 51
180.0
  0
ARC
  5
3E2
100
AcDbEntity
  8
2
100
AcDbCircle
 62
7
  6
CONTINUOUS
 10
168.4459160649
 20
266.4482708776
 40
0.1500355271
100
AcDbArc
 50
0.0221224892
 51
89.9777504246
  0
ARC
  5
3E3
100
AcDbEntity
  8
2
100
AcDbCircle
 62
7
  6
CONTINUOUS
 10
168.4283411348
 20
266.4306926996
 40
0.1500228645
100
AcDbArc
 50
0.0189046593
 51
86.5458891295
  0
ARC
  5
3E4
100
AcDbEntity
  8
2
100
AcDbCircle
 62
7
  6
CONTINUOUS
 10
151.7722501743
 20
266.3914209566
 40
0.1499880912
100
AcDbArc
 50
1.0045563447
 51
90.0049215448
  0
ARC
  5
3E5
100
AcDbEntity
  8
2
100
AcDbCircle
 62
7
  6
CONTINUOUS
 10
158.0760650001
 20
266.3792024112
 40
0.1499880912
100
AcDbArc
 50
89.9950784552
 51
178.9954436563
  0
ARC
  5
3E6
100
AcDbEntity
  8
2
100
AcDbCircle
 62
7
  6
CONTINUOUS
 10
151.7724634498
 20
266.3792024112
 40
0.1499880912
100
AcDbArc
 50
1.004556347
 51
90.0049215471
  0
ARC
  5
3E7
100
AcDbEntity
  8
2
100
AcDbCircle
 62
7
  6
CONTINUOUS
 10
158.0762564729
 20
266.3914314291
 40
0.1499653405
100
AcDbArc
 50
89.9989570763
 51
178.9992981091
  0
ARC
  5
3E8
100
AcDbEntity
  8
2
100
AcDbCircle
 62
7
  6
CONTINUOUS
 10
168.4283276671
 20
266.4329885475
 40
0.1477308188
100
AcDbArc
 50
86.487028318
 51
89.97670923
  0
ARC
  5
3E9
100
AcDbEntity
  8
2
100
AcDbCircle
 62
7
  6
CONTINUOUS
 10
168.4270838657
 20
266.5066436556
 40
0.0740871726
100
AcDbArc
 50
84.8785893259
 51
88.9916042975
  0
SPLINE
  5
3EA
100
AcDbEntity
  8
2
100
AcDbSpline
 62
7
  6
CONTINUOUS
 70
0
 71
3
 72
11
 73
7
 74
0
 42
0.0000001
 43
0.0000001
 44
0.0000000001
 40
0.0
 40
0.0
 40
0.0
 40
0.0
 40
0.2871261899
 40
0.5546014119
 40
0.7904761079
 40
1.0
 40
1.0
 40
1.0
 40
1.0
 10
165.5824117702
 20
216.3792141156
 30
0.0
 10
165.582244238
 20
216.3984099425
 30
0.0
 10
165.5769249994
 20
216.4356705742
 30
0.0
 10
165.5546139124
 20
216.4844730987
 30
0.0
 10
165.5202867061
 20
216.5193981335
 30
0.0
 10
165.490351878
 20
216.5289468665
 30
0.0
 10
165.476345753
 20
216.5291912698
 30
0.0
  0
SPLINE
  5
3EB
100
AcDbEntity
  8
2
100
AcDbSpline
 62
7
  6
CONTINUOUS
 70
0
 71
3
 72
11
 73
7
 74
0
 42
0.0000001
 43
0.0000001
 44
0.0000000001
 40
0.0
 40
0.0
 40
0.0
 40
0.0
 40
0.210380072
 40
0.4473545826
 40
0.7145086271
 40
1.0
 40
1.0
 40
1.0
 40
1.0
 10
168.4336973682
 20
216.5804350556
 30
0.0
 10
168.4473452771
 20
216.5792136421
 30
0.0
 10
168.4758834503
 20
216.5682246593
 30
0.0
 10
168.5082493425
 20
216.5332264124
 30
0.0
 10
168.5292779678
 20
216.4854931022
 30
0.0
 10
168.5342914581
 20
216.4493360885
 30
0.0
 10
168.5344537369
 20
216.4307421998
 30
0.0
  0
SPLINE
  5
3EC
100
AcDbEntity
  8
2
100
AcDbSpline
 62
7
  6
CONTINUOUS
 70
0
 71
3
 72
11
 73
7
 74
0
 42
0.0000001
 43
0.0000001
 44
0.0000000001
 40
0.0
 40
0.0
 40
0.0
 40
0.0
 40
0.2095153874
 40
0.4453794694
 40
0.7128570698
 40
1.0
 40
1.0
 40
1.0
 40
1.0
 10
165.476345753
 20
171.9240461402
 30
0.0
 10
165.490351313
 20
171.9242905337
 30
0.0
 10
165.520284929
 20
171.9338382799
 30
0.0
 10
165.5546121388
 20
171.9687617247
 30
0.0
 10
165.5769243259
 20
172.0175644179
 30
0.0
 10
165.5822442282
 20
172.0548263437
 30
0.0
 10
165.5824117702
 20
172.0740232945
 30
0.0
  0
SPLINE
  5
3ED
100
AcDbEntity
  8
2
100
AcDbSpline
 62
7
  6
CONTINUOUS
 70
0
 71
3
 72
11
 73
7
 74
0
 42
0.0000001
 43
0.0000001
 44
0.0000000001
 40
0.0
 40
0.0
 40
0.0
 40
0.0
 40
0.2854913729
 40
0.5526454174
 40
0.789619928
 40
1.0
 40
1.0
 40
1.0
 40
1.0
 10
168.5344537369
 20
172.0224952103
 30
0.0
 10
168.5342914581
 20
172.0039013216
 30
0.0
 10
168.5292779678
 20
171.9677443079
 30
0.0
 10
168.5082493425
 20
171.9200109977
 30
0.0
 10
168.4758834503
 20
171.8850127507
 30
0.0
 10
168.4473452771
 20
171.8740237679
 30
0.0
 10
168.4336973682
 20
171.8728023544
 30
0.0
  0
SPLINE
  5
3EE
100
AcDbEntity
  8
2
100
AcDbSpline
 62
7
  6
CONTINUOUS
 70
0
 71
3
 72
11
 73
7
 74
0
 42
0.0000001
 43
0.0000001
 44
0.0000000001
 40
0.0
 40
0.0
 40
0.0
 40
0.0
 40
0.2871261899
 40
0.5546014119
 40
0.7904761079
 40
1.0
 40
1.0
 40
1.0
 40
1.0
 10
165.5824117702
 20
266.3792141156
 30
0.0
 10
165.582244238
 20
266.3984099425
 30
0.0
 10
165.5769249994
 20
266.4356705742
 30
0.0
 10
165.5546139124
 20
266.4844730987
 30
0.0
 10
165.5202867061
 20
266.5193981335
 30
0.0
 10
165.490351878
 20
266.5289468665
 30
0.0
 10
165.476345753
 20
266.5291912698
 30
0.0
  0
SPLINE
  5
3EF
100
AcDbEntity
  8
2
100
AcDbSpline
 62
7
  6
CONTINUOUS
 70
0
 71
3
 72
11
 73
7
 74
0
 42
0.0000001
 43
0.0000001
 44
0.0000000001
 40
0.0
 40
0.0
 40
0.0
 40
0.0
 40
0.210380072
 40
0.4473545826
 40
0.7145086271
 40
1.0
 40
1.0
 40
1.0
 40
1.0
 10
168.4336973682
 20
266.5804350556
 30
0.0
 10
168.4473452771
 20
266.5792136421
 30
0.0
 10
168.4758834503
 20
266.5682246593
 30
0.0
 10
168.5082493425
 20
266.5332264124
 30
0.0
 10
168.5292779678
 20
266.4854931022
 30
0.0
 10
168.5342914581
 20
266.4493360885
 30
0.0
 10
168.5344537369
 20
266.4307421998
 30
0.0
  0
SPLINE
  5
3F0
100
AcDbEntity
  8
2
100
AcDbSpline
 62
7
  6
CONTINUOUS
 70
0
 71
3
 72
11
 73
7
 74
0
 42
0.0000001
 43
0.0000001
 44
0.0000000001
 40
0.0
 40
0.0
 40
0.0
 40
0.0
 40
0.2095153874
 40
0.4453794694
 40
0.7128570698
 40
1.0
 40
1.0
 40
1.0
 40
1.0
 10
165.476345753
 20
221.9240461402
 30
0.0
 10
165.490351313
 20
221.9242905337
 30
0.0
 10
165.520284929
 20
221.9338382799
 30
0.0
 10
165.5546121388
 20
221.9687617247
 30
0.0
 10
165.5769243259
 20
222.0175644179
 30
0.0
 10
165.5822442282
 20
222.0548263437
 30
0.0
 10
165.5824117702
 20
222.0740232945
 30
0.0
  0
SPLINE
  5
3F1
100
AcDbEntity
  8
2
100
AcDbSpline
 62
7
  6
CONTINUOUS
 70
0
 71
3
 72
11
 73
7
 74
0
 42
0.0000001
 43
0.0000001
 44
0.0000000001
 40
0.0
 40
0.0
 40
0.0
 40
0.0
 40
0.2854913729
 40
0.5526454174
 40
0.789619928
 40
1.0
 40
1.0
 40
1.0
 40
1.0
 10
168.5344537369
 20
222.0224952103
 30
0.0
 10
168.5342914581
 20
222.0039013216
 30
0.0
 10
168.5292779678
 20
221.9677443079
 30
0.0
 10
168.5082493425
 20
221.9200109977
 30
0.0
 10
168.4758834503
 20
221.8850127507
 30
0.0
 10
168.4473452771
 20
221.8740237679
 30
0.0
 10
168.4336973682
 20
221.8728023544
 30
0.0
  0
SPLINE
  5
3F2
100
AcDbEntity
  8
2
100
AcDbSpline
 62
7
  6
CONTINUOUS
 70
0
 71
3
 72
11
 73
7
 74
0
 42
0.0000001
 43
0.0000001
 44
0.0000000001
 40
0.0
 40
0.0
 40
0.0
 40
0.0
 40
0.2871261899
 40
0.5546014119
 40
0.7904761079
 40
1.0
 40
1.0
 40
1.0
 40
1.0
 10
165.5824117702
 20
166.3792141156
 30
0.0
 10
165.582244238
 20
166.3984099425
 30
0.0
 10
165.5769249994
 20
166.4356705742
 30
0.0
 10
165.5546139124
 20
166.4844730987
 30
0.0
 10
165.5202867061
 20
166.5193981335
 30
0.0
 10
165.490351878
 20
166.5289468665
 30
0.0
 10
165.476345753
 20
166.5291912698
 30
0.0
  0
SPLINE
  5
3F3
100
AcDbEntity
  8
2
100
AcDbSpline
 62
7
  6
CONTINUOUS
 70
0
 71
3
 72
11
 73
7
 74
0
 42
0.0000001
 43
0.0000001
 44
0.0000000001
 40
0.0
 40
0.0
 40
0.0
 40
0.0
 40
0.210380072
 40
0.4473545826
 40
0.7145086271
 40
1.0
 40
1.0
 40
1.0
 40
1.0
 10
168.4336973682
 20
166.5804350556
 30
0.0
 10
168.4473452771
 20
166.5792136421
 30
0.0
 10
168.4758834503
 20
166.5682246593
 30
0.0
 10
168.5082493425
 20
166.5332264124
 30
0.0
 10
168.5292779678
 20
166.4854931022
 30
0.0
 10
168.5342914581
 20
166.4493360885
 30
0.0
 10
168.5344537369
 20
166.4307421998
 30
0.0
  0
SPLINE
  5
3F4
100
AcDbEntity
  8
2
100
AcDbSpline
 62
7
  6
CONTINUOUS
 70
0
 71
3
 72
11
 73
7
 74
0
 42
0.0000001
 43
0.0000001
 44
0.0000000001
 40
0.0
 40
0.0
 40
0.0
 40
0.0
 40
0.2095153874
 40
0.4453794694
 40
0.7128570698
 40
1.0
 40
1.0
 40
1.0
 40
1.0
 10
165.476345753
 20
121.9240461402
 30
0.0
 10
165.490351313
 20
121.9242905337
 30
0.0
 10
165.520284929
 20
121.9338382799
 30
0.0
 10
165.5546121388
 20
121.9687617247
 30
0.0
 10
165.5769243259
 20
122.0175644179
 30
0.0
 10
165.5822442282
 20
122.0548263437
 30
0.0
 10
165.5824117702
 20
122.0740232945
 30
0.0
  0
SPLINE
  5
3F5
100
AcDbEntity
  8
2
100
AcDbSpline
 62
7
  6
CONTINUOUS
 70
0
 71
3
 72
11
 73
7
 74
0
 42
0.0000001
 43
0.0000001
 44
0.0000000001
 40
0.0
 40
0.0
 40
0.0
 40
0.0
 40
0.2854913729
 40
0.5526454174
 40
0.789619928
 40
1.0
 40
1.0
 40
1.0
 40
1.0
 10
168.5344537369
 20
122.0224952103
 30
0.0
 10
168.5342914581
 20
122.0039013216
 30
0.0
 10
168.5292779678
 20
121.9677443079
 30
0.0
 10
168.5082493425
 20
121.9200109977
 30
0.0
 10
168.4758834503
 20
121.8850127507
 30
0.0
 10
168.4473452771
 20
121.8740237679
 30
0.0
 10
168.4336973682
 20
121.8728023544
 30
0.0
  0
ENDSEC
  0
SECTION
  2
OBJECTS
  0
DICTIONARY
  5
C
100
AcDbDictionary
280
0
281
1
  3
ACAD_GROUP
350
D
  3
ACAD_MLINESTYLE
350
17
  3
ACAD_LAYOUT
350
1A
  3
ACAD_PLOTSETTINGS
350
19
  3
ACAD_PLOTSTYLENAME
350
E
  0
DICTIONARY
  5
D
102
{ACAD_REACTORS
330
C
102
}
100
AcDbDictionary
280
0
281
1
  0
ACDBDICTIONARYWDFLT
  5
E
102
{ACAD_REACTORS
330
C
102
}
100
AcDbDictionary
281
1
  3
Normal
350
F
100
AcDbDictionaryWithDefault
340
F
  0
DICTIONARY
  5
17
102
{ACAD_REACTORS
330
C
102
}
100
AcDbDictionary
280
0
281
1
  3
Standard
350
18
  0
DICTIONARY
  5
19
102
{ACAD_REACTORS
330
C
102
}
100
AcDbDictionary
281
1
  0
DICTIONARY
  5
1A
102
{ACAD_REACTORS
330
C
102
}
100
AcDbDictionary
281
1
  3
Model
350
3F6
  3
Layout1
350
3F7
  0
ACDBPLACEHOLDER
  5
F
102
{ACAD_REACTORS
330
E
102
}
  0
MLINESTYLE
  5
18
102
{ACAD_REACTORS
330
17
102
}
100
AcDbMlineStyle
  2
STANDARD
 70
0
  3

 62
256
 51
90.0
 52
90.0
 71
2
 49
0.5
 62
256
  6
BYLAYER
 49
-0.5
 62
256
  6
BYLAYER
  0
LAYOUT
  5
3F6
102
{ACAD_REACTORS
330
1A
102
}
100
AcDbPlotSettings
  1

  2
none_device
  4

  6

 40
0.0
 41
0.0
 42
0.0
 43
0.0
 44
210.0
 45
297.0
 46
0.0
 47
0.0
 48
0.0
 49
0.0
140
0.0
141
0.0
142
1.0
143
1.0
 70
1024
 72
1
 73
0
 74
0
  7

 75
0
147
1.0
148
0.0
149
0.0
100
AcDbLayout
  1
Model
 70
0
 71
0
 10
0.0
 20
0.0
 11
210.0
 21
297.0
 12
0.0
 22
0.0
 32
0.0
 14
0.0
 24
0.0
 34
0.0
 15
0.0
 25
0.0
 35
0.0
146
0.0
 13
0.0
 23
0.0
 33
0.0
 16
1.0
 26
0.0
 36
0.0
 17
0.0
 27
1.0
 37
0.0
 76
0
330
212
345
0
346
0
  0
LAYOUT
  5
3F7
102
{ACAD_REACTORS
330
1A
102
}
100
AcDbPlotSettings
  1

  2
none_device
  4

  6

 40
0.0
 41
0.0
 42
0.0
 43
0.0
 44
210.0
 45
297.0
 46
0.0
 47
0.0
 48
0.0
 49
0.0
140
0.0
141
0.0
142
1.0
143
1.0
 70
0
 72
1
 73
0
 74
0
  7

 75
0
147
1.0
148
0.0
149
0.0
100
AcDbLayout
  1
Layout1
 70
0
 71
1
 10
0.0
 20
0.0
 11
210.0
 21
297.0
 12
0.0
 22
0.0
 32
0.0
 14
0.0
 24
0.0
 34
0.0
 15
0.0
 25
0.0
 35
0.0
146
0.0
 13
0.0
 23
0.0
 33
0.0
 16
1.0
 26
0.0
 36
0.0
 17
0.0
 27
1.0
 37
0.0
 76
0
330
213
345
0
346
0
  0
ENDSEC
  0
EOF
