999
DXF file: C:\Users\sesa63760\Dev\_Creo\CAD\MCADID0005533_3D-CAD\drw0001_6.dxf
999
Pro/ENGINEER 2019471 by Parametric Technology Corporation
  0
SECTION
  2
HEADER
  9
$ACADVER
  1
AC1024
  9
$DWGCODEPAGE
  3
ANSI_1252
  9
$EXTMAX
 10
91.9719538374
 20
130.0746204272
 30
0.0
  9
$EXTMIN
 10
0.0
 20
0.0
 30
0.0
  9
$LIMMIN
 10
0.0
 20
0.0
  9
$LIMMAX
 10
91.9719538374
 20
130.0746204272
  9
$VIEWCTR
 10
45.9859769187
 20
65.0373102136
  9
$VIEWSIZE
 40
130.0746204272
  9
$CLAYER
  8
0
  9
$LTSCALE
 40
8.4789382204
  9
$CELTYPE
  6
BYLAYER
  9
$DIMSCALE
 40
1.0
  9
$DIMASZ
 40
1.0949042124
  9
$DIMEXO
 40
1.0
  9
$DIMDLI
 40
5.8581754978
  9
$DIMEXE
 40
1.0
  9
$DIMCEN
 40
1.3874626179
  9
$DIMLFAC
 40
1.0
  9
$DIMBLK
  1
_FILLED
  9
$DIMALT
 70
0
  9
$DIMALTF
 40
0.0393700787
  9
$DIMTXT
 40
1.5328658973
  9
$DIMTOL
 70
1
  9
$DIMLIM
 70
0
  9
$DIMTFAC
 40
1.0
  9
$DIMTP
 40
0.01
  9
$DIMTM
 40
0.01
  9
$DIMGAP
 40
0.625
  9
$DIMDSEP
 70
46
  9
$AUNITS
 70
0
  9
$PDMODE
 70
3
  9
$PDSIZE
 40
0.3125
  9
$HANDSEED
  5
2C0
  9
$TILEMODE
 70
1
  9
$MEASUREMENT
 70
1
  9
$INSUNITS
 70
4
  0
ENDSEC
  0
SECTION
  2
CLASSES
  0
CLASS
  1
ACDBDICTIONARYWDFLT
  2
AcDbDictionaryWithDefault
  3
AutoCAD 2000
 90
0
 91
1
280
0
281
0
  0
CLASS
  1
ACDBPLACEHOLDER
  2
AcDbPlaceHolder
  3
AutoCAD 2000
 90
0
 91
1
280
0
281
0
  0
CLASS
  1
LAYOUT
  2
AcDbLayout
  3
AutoCAD 2000
 90
0
 91
0
280
0
281
0
  0
ENDSEC
  0
SECTION
  2
TABLES
  0
TABLE
  2
VPORT
  5
8
100
AcDbSymbolTable
 70
2
  0
VPORT
  5
1F4
100
AcDbSymbolTableRecord
100
AcDbViewportTableRecord
  2
*ACTIVE
 70
0
 10
0.0
 20
0.0
 11
1.0
 21
1.0
 12
45.9859769187
 22
65.0373102136
 13
0.0
 23
0.0
 14
1.0
 24
1.0
 15
0.0
 25
0.0
 16
0.0
 26
0.0
 36
1.0
 17
0.0
 27
0.0
 37
0.0
 40
130.0746204272
 41
0.7070707071
 42
50.0
 43
0.0
 44
0.0
 50
0.0
 51
0.0
 71
0
 72
100
 73
1
 74
1
 75
0
 76
0
 77
0
 78
0
  0
ENDTAB
  0
TABLE
  2
LTYPE
  5
5
100
AcDbSymbolTable
 70
6
  0
LTYPE
  5
14
100
AcDbSymbolTableRecord
100
AcDbLinetypeTableRecord
  2
BYBLOCK
 70
0
  3

 72
65
 73
0
 40
0.0
  0
LTYPE
  5
15
100
AcDbSymbolTableRecord
100
AcDbLinetypeTableRecord
  2
BYLAYER
 70
0
  3

 72
65
 73
0
 40
0.0
  0
LTYPE
  5
16
100
AcDbSymbolTableRecord
100
AcDbLinetypeTableRecord
  2
CONTINUOUS
 70
64
  3
Solid line
 72
65
 73
0
 40
0.0
  0
LTYPE
  5
1F5
100
AcDbSymbolTableRecord
100
AcDbLinetypeTableRecord
  2
CENTER
 70
64
  3
____ _ ____ _ ____ _ ____ _ ____ _ ____ _ ____
 72
65
 73
4
 40
0.6
 49
0.375
 74
0
 49
-0.075
 74
0
 49
0.075
 74
0
 49
-0.075
 74
0
  0
LTYPE
  5
1F6
100
AcDbSymbolTableRecord
100
AcDbLinetypeTableRecord
  2
HIDDEN
 70
64
  3
- - - - - - - - - - - - - - - - - - - -
 72
65
 73
2
 40
0.2
 49
0.1
 74
0
 49
-0.1
 74
0
  0
LTYPE
  5
1F7
100
AcDbSymbolTableRecord
100
AcDbLinetypeTableRecord
  2
PHANTOM
 70
64
  3
_____ _ _ _____ _ _ _____ _ _ _____
 72
65
 73
6
 40
0.8
 49
0.45
 74
0
 49
-0.05
 74
0
 49
0.1
 74
0
 49
-0.05
 74
0
 49
0.1
 74
0
 49
-0.05
 74
0
  0
LTYPE
  5
1F8
100
AcDbSymbolTableRecord
100
AcDbLinetypeTableRecord
  2
DOT
 70
64
  3
. . . . . . . . . . . . . . . . . . . .
 72
65
 73
2
 40
0.2
 49
0.1
 74
0
 49
-0.1
 74
0
  0
LTYPE
  5
1F9
100
AcDbSymbolTableRecord
100
AcDbLinetypeTableRecord
  2
DASHED
 70
64
  3
- - - - - - - - - - - - - - - - - - - -
 72
65
 73
2
 40
0.2
 49
0.1
 74
0
 49
-0.1
 74
0
  0
ENDTAB
  0
TABLE
  2
LAYER
  5
2
100
AcDbSymbolTable
 70
36
  0
LAYER
  5
10
100
AcDbSymbolTableRecord
100
AcDbLayerTableRecord
  2
0
 70
0
 62
7
  6
CONTINUOUS
370
-3
390
F
  0
LAYER
  5
1FA
100
AcDbSymbolTableRecord
100
AcDbLayerTableRecord
  2
DEFAULT_1
 70
0
 62
7
  6
CENTER
370
-3
390
F
  0
LAYER
  5
1FB
100
AcDbSymbolTableRecord
100
AcDbLayerTableRecord
  2
DEFAULT_2
 70
0
 62
7
  6
HIDDEN
370
-3
390
F
  0
LAYER
  5
1FC
100
AcDbSymbolTableRecord
100
AcDbLayerTableRecord
  2
DEFAULT_3
 70
0
 62
7
  6
PHANTOM
370
-3
390
F
  0
LAYER
  5
1FD
100
AcDbSymbolTableRecord
100
AcDbLayerTableRecord
  2
00_COMPONENTS
 70
0
 62
7
  6
CONTINUOUS
370
-3
390
F
  0
LAYER
  5
1FE
100
AcDbSymbolTableRecord
100
AcDbLayerTableRecord
  2
01_1_DEFAULT_DATUMS
 70
0
 62
7
  6
CONTINUOUS
370
-3
390
F
  0
LAYER
  5
1FF
100
AcDbSymbolTableRecord
100
AcDbLayerTableRecord
  2
01_PLANES
 70
0
 62
7
  6
CONTINUOUS
370
-3
390
F
  0
LAYER
  5
200
100
AcDbSymbolTableRecord
100
AcDbLayerTableRecord
  2
02_COORD_SYS
 70
0
 62
7
  6
CONTINUOUS
370
-3
390
F
  0
LAYER
  5
201
100
AcDbSymbolTableRecord
100
AcDbLayerTableRecord
  2
03_AXES
 70
0
 62
7
  6
CONTINUOUS
370
-3
390
F
  0
LAYER
  5
202
100
AcDbSymbolTableRecord
100
AcDbLayerTableRecord
  2
04_POINTS
 70
0
 62
7
  6
CONTINUOUS
370
-3
390
F
  0
LAYER
  5
203
100
AcDbSymbolTableRecord
100
AcDbLayerTableRecord
  2
05_CURVES
 70
0
 62
7
  6
CONTINUOUS
370
-3
390
F
  0
LAYER
  5
204
100
AcDbSymbolTableRecord
100
AcDbLayerTableRecord
  2
06_SURFS
 70
0
 62
7
  6
CONTINUOUS
370
-3
390
F
  0
LAYER
  5
205
100
AcDbSymbolTableRecord
100
AcDbLayerTableRecord
  2
07_COSMETICS
 70
0
 62
7
  6
CONTINUOUS
370
-3
390
F
  0
LAYER
  5
206
100
AcDbSymbolTableRecord
100
AcDbLayerTableRecord
  2
10_NOTES
 70
0
 62
7
  6
CONTINUOUS
370
-3
390
F
  0
LAYER
  5
207
100
AcDbSymbolTableRecord
100
AcDbLayerTableRecord
  2
11_NOTES_PUB
 70
0
 62
7
  6
CONTINUOUS
370
-3
390
F
  0
LAYER
  5
208
100
AcDbSymbolTableRecord
100
AcDbLayerTableRecord
  2
13_REF_GTOL
 70
0
 62
7
  6
CONTINUOUS
370
-3
390
F
  0
LAYER
  5
209
100
AcDbSymbolTableRecord
100
AcDbLayerTableRecord
  2
16_MISC
 70
0
 62
7
  6
CONTINUOUS
370
-3
390
F
  0
LAYER
  5
20A
100
AcDbSymbolTableRecord
100
AcDbLayerTableRecord
  2
17_NO_PRINT
 70
0
 62
7
  6
CONTINUOUS
370
-3
390
F
  0
LAYER
  5
20B
100
AcDbSymbolTableRecord
100
AcDbLayerTableRecord
  2
18_DATUM_CAMS_JOINTS
 70
0
 62
7
  6
CONTINUOUS
370
-3
390
F
  0
LAYER
  5
20C
100
AcDbSymbolTableRecord
100
AcDbLayerTableRecord
  2
19_DATUM_FUNCTIONAL
 70
0
 62
7
  6
CONTINUOUS
370
-3
390
F
  0
LAYER
  5
20D
100
AcDbSymbolTableRecord
100
AcDbLayerTableRecord
  2
20_DATUM_KINEMATIC_SCHEME
 70
0
 62
7
  6
CONTINUOUS
370
-3
390
F
  0
ENDTAB
  0
TABLE
  2
STYLE
  5
3
100
AcDbSymbolTable
 70
1
  0
STYLE
  5
11
100
AcDbSymbolTableRecord
100
AcDbTextStyleTableRecord
  2
STANDARD
 70
0
 40
0.0
 41
1.0
 50
0.0
 71
0
 42
0.2
  3
ARIAL.TTF
  4

  0
STYLE
  5
20E
100
AcDbSymbolTableRecord
100
AcDbTextStyleTableRecord
  2
TEXTSTYLE_1
 70
0
 40
0.0
 41
0.8
 50
0.0
 71
0
 42
0.2
  3
gdt
  4

  0
ENDTAB
  0
TABLE
  2
VIEW
  5
6
100
AcDbSymbolTable
 70
0
  0
ENDTAB
  0
TABLE
  2
UCS
  5
7
100
AcDbSymbolTable
 70
0
  0
ENDTAB
  0
TABLE
  2
APPID
  5
9
100
AcDbSymbolTable
 70
1
  0
APPID
  5
20F
100
AcDbSymbolTableRecord
100
AcDbRegAppTableRecord
  2
ACAD
 70
0
  0
ENDTAB
  0
TABLE
  2
BLOCK_RECORD
  5
1
100
AcDbSymbolTable
 70
0
  0
BLOCK_RECORD
  5
210
100
AcDbSymbolTableRecord
100
AcDbBlockTableRecord
  2
*Model_Space
  0
BLOCK_RECORD
  5
211
100
AcDbSymbolTableRecord
100
AcDbBlockTableRecord
  2
*Paper_Space
  0
BLOCK_RECORD
  5
212
100
AcDbSymbolTableRecord
100
AcDbBlockTableRecord
  2
_FILLED
  0
ENDTAB
  0
TABLE
  2
DIMSTYLE
  5
A
100
AcDbSymbolTable
 70
1
100
AcDbDimStyleTable
 71
0
  0
DIMSTYLE
105
213
100
AcDbSymbolTableRecord
100
AcDbDimStyleTableRecord
  2
STANDARD
 70
0
  3

  4

 40
1.0
 41
1.0949042124
 42
1.0
 43
0.38
 44
1.0
 45
0.0
 46
0.0
 47
0.01
 48
0.01
140
1.5328658973
141
0.09
142
0.0
143
25.4
144
1.0
145
0.0
146
1.0
147
0.625
 71
1
 72
0
 73
0
 74
0
 75
0
 76
0
 77
1
 78
8
 79
2
170
0
171
1
172
0
173
0
174
0
175
0
176
0
177
0
178
0
270
2
179
2
271
2
272
2
273
2
274
2
275
0
280
0
281
0
282
0
283
1
284
8
285
0
286
0
287
3
288
0
340
11
278
46
341
212
342
212
343
212
344
212
  0
ENDTAB
  0
ENDSEC
  0
SECTION
  2
BLOCKS
  0
BLOCK
  5
20
100
AcDbEntity
  8
0
100
AcDbBlockBegin
  2
*Model_Space
 70
0
 10
0.0
 20
0.0
 30
0.0
  3
*Model_Space
  1

  0
ENDBLK
  5
21
100
AcDbEntity
  8
0
100
AcDbBlockEnd
  0
BLOCK
  5
1C
100
AcDbEntity
  8
0
100
AcDbBlockBegin
  2
*Paper_Space
 70
0
 10
0.0
 20
0.0
 30
0.0
  3
*Paper_Space
  1

  0
ENDBLK
  5
1D
100
AcDbEntity
  8
0
100
AcDbBlockEnd
  0
BLOCK
  5
214
100
AcDbEntity
  8
0
100
AcDbBlockBegin
  2
_FILLED
 70
64
 10
0.0
 20
0.0
  3
_FILLED
  1

  0
SOLID
  5
215
100
AcDbEntity
  8
0
  6
BYBLOCK
 62
0
100
AcDbTrace
 10
0.0
 20
0.0
 11
-1.0
 21
0.25
 12
-1.0
 22
-0.25
 13
-1.0
 23
-0.25
  0
ENDBLK
  5
216
100
AcDbEntity
  8
0
  6
BYBLOCK
 62
0
100
AcDbBlockEnd
  0
ENDSEC
  0
SECTION
  2
ENTITIES
  0
LINE
  5
217
100
AcDbEntity
  8
0
100
AcDbLine
 62
7
  6
BYLAYER
 10
10.4025261895
 20
65.0447480623
 11
10.4025261895
 21
67.5196217965
  0
LINE
  5
218
100
AcDbEntity
  8
0
100
AcDbLine
 62
7
  6
BYLAYER
 10
11.4284372007
 20
74.6444941387
 11
10.4025310765
 21
67.5196217965
  0
LINE
  5
219
100
AcDbEntity
  8
0
100
AcDbLine
 62
7
  6
BYLAYER
 10
11.4340504834
 20
60.375486757
 11
11.4340504834
 21
57.9006130229
  0
LINE
  5
21A
100
AcDbEntity
  8
0
100
AcDbLine
 62
7
  6
BYLAYER
 10
11.9157312488
 20
57.6029583311
 11
11.9157312488
 21
60.0778320653
  0
LINE
  5
21B
100
AcDbEntity
  8
0
100
AcDbLine
 62
7
  6
BYLAYER
 10
11.4340504834
 20
57.9006130229
 11
10.4025310765
 21
65.0447480623
  0
LINE
  5
21C
100
AcDbEntity
  8
0
100
AcDbLine
 62
7
  6
BYLAYER
 10
10.4025310765
 20
67.5196217965
 11
11.4340504834
 21
60.375486757
  0
LINE
  5
21D
100
AcDbEntity
  8
0
100
AcDbLine
 62
7
  6
BYLAYER
 10
26.0046595641
 20
59.8169575182
 11
26.0046595641
 21
57.342083784
  0
LINE
  5
21E
100
AcDbEntity
  8
0
100
AcDbLine
 62
7
  6
BYLAYER
 10
27.1779180286
 20
57.6730700596
 11
27.1779180286
 21
60.1479437938
  0
LINE
  5
21F
100
AcDbEntity
  8
0
100
AcDbLine
 62
7
  6
BYLAYER
 10
30.1027657013
 20
62.3375185594
 11
30.1025263309
 21
62.3489994371
  0
LINE
  5
220
100
AcDbEntity
  8
0
100
AcDbLine
 62
7
  6
BYLAYER
 10
29.9560790931
 20
62.1124007129
 11
29.9560790931
 21
59.6375269787
  0
LINE
  5
221
100
AcDbEntity
  8
0
100
AcDbLine
 62
7
  6
BYLAYER
 10
30.1025263309
 20
62.3489994371
 11
30.1025263309
 21
72.676109265
  0
LINE
  5
222
100
AcDbEntity
  8
0
100
AcDbLine
 62
7
  6
BYLAYER
 10
30.1028412764
 20
59.8626446642
 11
30.1028412764
 21
62.3375183984
  0
LINE
  5
223
100
AcDbEntity
  8
0
100
AcDbLine
 62
7
  6
BYLAYER
 10
35.2643403464
 20
73.1380175305
 11
36.1419363599
 21
78.1151116365
  0
LINE
  5
224
100
AcDbEntity
  8
0
100
AcDbLine
 62
7
  6
BYLAYER
 10
63.062526126
 20
50.7873102099
 11
53.1764505077
 21
50.7873102099
  0
LINE
  5
225
100
AcDbEntity
  8
0
100
AcDbLine
 62
7
  6
BYLAYER
 10
64.3125263309
 20
51.4623104565
 11
63.062526126
 21
51.4623104565
  0
LINE
  5
226
100
AcDbEntity
  8
0
100
AcDbLine
 62
7
  6
BYLAYER
 10
39.7643404167
 20
51.7130171386
 11
36.4373805087
 21
51.7130171386
  0
LINE
  5
227
100
AcDbEntity
  8
0
100
AcDbLine
 62
7
  6
BYLAYER
 10
40.3916625392
 20
51.6505412263
 11
52.9527892028
 21
51.5383879616
  0
LINE
  5
228
100
AcDbEntity
  8
0
100
AcDbLine
 62
7
  6
BYLAYER
 10
35.2643403464
 20
56.9380171103
 11
36.1419363599
 21
51.9609230042
  0
LINE
  5
229
100
AcDbEntity
  8
0
100
AcDbLine
 62
7
  6
BYLAYER
 10
34.9143403464
 20
57.4881811948
 11
34.9143403464
 21
72.5878534459
  0
LINE
  5
22A
100
AcDbEntity
  8
0
100
AcDbLine
 62
7
  6
BYLAYER
 10
35.2643403464
 20
56.9382139441
 11
35.2643403464
 21
73.1379082469
  0
LINE
  5
22B
100
AcDbEntity
  8
0
100
AcDbLine
 62
7
  6
BYLAYER
 10
36.141936384
 20
78.1151117737
 11
36.141936384
 21
51.960922867
  0
LINE
  5
22C
100
AcDbEntity
  8
0
100
AcDbLine
 62
7
  6
BYLAYER
 10
36.4373805087
 20
51.7130171386
 11
36.4373805087
 21
78.3630175022
  0
LINE
  5
22D
100
AcDbEntity
  8
0
100
AcDbLine
 62
7
  6
BYLAYER
 10
40.0943403464
 20
53.6380171281
 11
39.7643404167
 21
53.6380171281
  0
LINE
  5
22E
100
AcDbEntity
  8
0
100
AcDbLine
 62
7
  6
BYLAYER
 10
67.0115263309
 20
54.1623102136
 11
64.3125263309
 21
54.1623102136
  0
LINE
  5
22F
100
AcDbEntity
  8
0
100
AcDbLine
 62
7
  6
BYLAYER
 10
67.2725263309
 20
54.5373102136
 11
67.2615263309
 21
54.5373102136
  0
LINE
  5
230
100
AcDbEntity
  8
0
100
AcDbLine
 62
7
  6
BYLAYER
 10
67.2725263309
 20
54.8973102136
 11
75.8725263309
 21
54.8973102136
  0
LINE
  5
231
100
AcDbEntity
  8
0
100
AcDbLine
 62
7
  6
BYLAYER
 10
78.7605263309
 20
55.9373102136
 11
75.8725263309
 21
55.9373102136
  0
LINE
  5
232
100
AcDbEntity
  8
0
100
AcDbLine
 62
7
  6
BYLAYER
 10
26.0046595641
 20
57.342083784
 11
11.9157312488
 21
57.6029583311
  0
LINE
  5
233
100
AcDbEntity
  8
0
100
AcDbLine
 62
7
  6
BYLAYER
 10
39.7643404167
 20
78.3631782092
 11
39.7643404167
 21
51.7131107424
  0
LINE
  5
234
100
AcDbEntity
  8
0
100
AcDbLine
 62
7
  6
BYLAYER
 10
40.0943403464
 20
51.9505388757
 11
40.0943403464
 21
78.125495765
  0
LINE
  5
235
100
AcDbEntity
  8
0
100
AcDbLine
 62
7
  6
BYLAYER
 10
40.3916625392
 20
51.6505412263
 11
40.3916625392
 21
78.4254934144
  0
LINE
  5
236
100
AcDbEntity
  8
0
100
AcDbLine
 62
7
  6
BYLAYER
 10
27.1779180286
 20
60.1479437938
 11
29.9560790931
 21
62.1124007129
  0
LINE
  5
237
100
AcDbEntity
  8
0
100
AcDbLine
 62
7
  6
BYLAYER
 10
29.9560790931
 20
59.6375269787
 11
27.1779180286
 21
57.6730700596
  0
LINE
  5
238
100
AcDbEntity
  8
0
100
AcDbLine
 62
7
  6
BYLAYER
 10
64.3125263309
 20
57.8237242584
 11
65.0971768069
 21
57.8237647227
  0
LINE
  5
239
100
AcDbEntity
  8
0
100
AcDbLine
 62
7
  6
BYLAYER
 10
67.6725263309
 20
58.2373102136
 11
81.9615263309
 21
58.2373102136
  0
LINE
  5
23A
100
AcDbEntity
  8
0
100
AcDbLine
 62
7
  6
BYLAYER
 10
78.5615263309
 20
58.3251454897
 11
75.8725263309
 21
58.3251454897
  0
LINE
  5
23B
100
AcDbEntity
  8
0
100
AcDbLine
 62
7
  6
BYLAYER
 10
78.5615263309
 20
58.3522459315
 11
81.9615263309
 21
58.3522459315
  0
LINE
  5
23C
100
AcDbEntity
  8
0
100
AcDbLine
 62
7
  6
BYLAYER
 10
67.6725263309
 20
58.3958007796
 11
75.8725263309
 21
58.3958007796
  0
LINE
  5
23D
100
AcDbEntity
  8
0
100
AcDbLine
 62
7
  6
BYLAYER
 10
64.3125263309
 20
59.9855166306
 11
63.0625263309
 21
59.9855166306
  0
LINE
  5
23E
100
AcDbEntity
  8
0
100
AcDbLine
 62
7
  6
BYLAYER
 10
11.9157312488
 20
60.0778320653
 11
26.0046595641
 21
59.8169575182
  0
LINE
  5
23F
100
AcDbEntity
  8
0
100
AcDbLine
 62
7
  6
BYLAYER
 10
78.5615263309
 20
61.2290758348
 11
79.5697607097
 21
61.2290758348
  0
LINE
  5
240
100
AcDbEntity
  8
0
100
AcDbLine
 62
7
  6
BYLAYER
 10
78.8597952698
 20
61.8373102136
 11
78.5615263309
 21
61.8373102136
  0
LINE
  5
241
100
AcDbEntity
  8
0
100
AcDbLine
 62
7
  6
BYLAYER
 10
75.8725263309
 20
61.8373104111
 11
67.6725263309
 21
61.8373104111
  0
LINE
  5
242
100
AcDbEntity
  8
0
100
AcDbLine
 62
7
  6
BYLAYER
 10
75.8725263309
 20
62.5373102136
 11
67.6725263309
 21
62.5373102136
  0
LINE
  5
243
100
AcDbEntity
  8
0
100
AcDbLine
 62
7
  6
BYLAYER
 10
65.0971768069
 20
61.5961903778
 11
64.3125263309
 21
61.5962416715
  0
LINE
  5
244
100
AcDbEntity
  8
0
100
AcDbLine
 62
7
  6
BYLAYER
 10
29.9560797215
 20
72.9261092651
 11
27.1779140507
 21
74.8905691723
  0
LINE
  5
245
100
AcDbEntity
  8
0
100
AcDbLine
 62
7
  6
BYLAYER
 10
61.8625263309
 20
66.0873102136
 11
63.0625263309
 21
66.1923102136
  0
LINE
  5
246
100
AcDbEntity
  8
0
100
AcDbLine
 62
7
  6
BYLAYER
 10
30.1025263309
 20
62.7922461833
 11
34.9143403464
 21
62.7922461833
  0
LINE
  5
247
100
AcDbEntity
  8
0
100
AcDbLine
 62
7
  6
BYLAYER
 10
34.9143403464
 20
64.1711044066
 11
30.1025263309
 21
64.1711044066
  0
LINE
  5
248
100
AcDbEntity
  8
0
100
AcDbLine
 62
7
  6
BYLAYER
 10
80.7615263309
 20
64.2373102136
 11
76.6615263309
 21
64.2373102136
  0
LINE
  5
249
100
AcDbEntity
  8
0
100
AcDbLine
 62
7
  6
BYLAYER
 10
63.0625263309
 20
63.8823102136
 11
61.8625263309
 21
63.9873102136
  0
LINE
  5
24A
100
AcDbEntity
  8
0
100
AcDbLine
 62
7
  6
BYLAYER
 10
52.9532704127
 20
78.5378484364
 11
53.1764505077
 21
79.2873102136
  0
LINE
  5
24B
100
AcDbEntity
  8
0
100
AcDbLine
 62
7
  6
BYLAYER
 10
76.6615263309
 20
65.8373102136
 11
80.7615263309
 21
65.8373102136
  0
LINE
  5
24C
100
AcDbEntity
  8
0
100
AcDbLine
 62
7
  6
BYLAYER
 10
67.6725263309
 20
67.5373102136
 11
70.3165327514
 21
67.5373102136
  0
LINE
  5
24D
100
AcDbEntity
  8
0
100
AcDbLine
 62
7
  6
BYLAYER
 10
72.8085199103
 20
67.5373102136
 11
75.8725263309
 21
67.5373102136
  0
LINE
  5
24E
100
AcDbEntity
  8
0
100
AcDbLine
 62
7
  6
BYLAYER
 10
75.8725263309
 20
67.7056430264
 11
81.7615263309
 21
67.7056430264
  0
LINE
  5
24F
100
AcDbEntity
  8
0
100
AcDbLine
 62
7
  6
BYLAYER
 10
53.1764505077
 20
50.7873102136
 11
52.9527891922
 21
51.5383879787
  0
LINE
  5
250
100
AcDbEntity
  8
0
100
AcDbLine
 62
7
  6
BYLAYER
 10
81.9615263309
 20
68.8373102136
 11
83.1615263309
 21
68.8582562915
  0
LINE
  5
251
100
AcDbEntity
  8
0
100
AcDbLine
 62
7
  6
BYLAYER
 10
30.1025263309
 20
69.8986693343
 11
34.9143403464
 21
69.8986693343
  0
LINE
  5
252
100
AcDbEntity
  8
0
100
AcDbLine
 62
7
  6
BYLAYER
 10
63.0625263309
 20
70.0891037966
 11
64.3125263309
 21
70.0891037966
  0
LINE
  5
253
100
AcDbEntity
  8
0
100
AcDbLine
 62
7
  6
BYLAYER
 10
52.9529108276
 20
51.5383868942
 11
52.9530898251
 21
78.5376493448
  0
LINE
  5
254
100
AcDbEntity
  8
0
100
AcDbLine
 62
7
  6
BYLAYER
 10
53.1764505077
 20
50.7873102099
 11
53.1764505077
 21
79.2873102173
  0
LINE
  5
255
100
AcDbEntity
  8
0
100
AcDbLine
 62
7
  6
BYLAYER
 10
81.7615263309
 20
70.8519469176
 11
78.5615263309
 21
70.8519469176
  0
LINE
  5
256
100
AcDbEntity
  8
0
100
AcDbLine
 62
7
  6
BYLAYER
 10
64.3125263309
 20
72.0923424723
 11
65.0971768069
 21
72.0923836217
  0
LINE
  5
257
100
AcDbEntity
  8
0
100
AcDbLine
 62
7
  6
BYLAYER
 10
78.5615263309
 20
72.6825707647
 11
80.4957167197
 21
72.6825707647
  0
LINE
  5
258
100
AcDbEntity
  8
0
100
AcDbLine
 62
7
  6
BYLAYER
 10
75.8725263309
 20
72.8635482057
 11
67.6725263309
 21
72.8635482057
  0
LINE
  5
259
100
AcDbEntity
  8
0
100
AcDbLine
 62
7
  6
BYLAYER
 10
78.5615263309
 20
72.985352756
 11
80.3615263309
 21
72.985352756
  0
LINE
  5
25A
100
AcDbEntity
  8
0
100
AcDbLine
 62
7
  6
BYLAYER
 10
83.1615263309
 20
71.0163641357
 11
81.9615263309
 21
71.0373102136
  0
LINE
  5
25B
100
AcDbEntity
  8
0
100
AcDbLine
 62
7
  6
BYLAYER
 10
26.0046596493
 20
75.2215525145
 11
11.9020221805
 21
74.9604249395
  0
LINE
  5
25C
100
AcDbEntity
  8
0
100
AcDbLine
 62
7
  6
BYLAYER
 10
65.0971768069
 20
74.8171154792
 11
65.1076991033
 21
74.8172254612
  0
LINE
  5
25D
100
AcDbEntity
  8
0
100
AcDbLine
 62
7
  6
BYLAYER
 10
67.6725263309
 20
73.3318866387
 11
75.8725263309
 21
73.3318866387
  0
LINE
  5
25E
100
AcDbEntity
  8
0
100
AcDbLine
 62
7
  6
BYLAYER
 10
67.6725263309
 20
73.6448896433
 11
75.8725263309
 21
73.6448896433
  0
LINE
  5
25F
100
AcDbEntity
  8
0
100
AcDbLine
 62
7
  6
BYLAYER
 10
78.5615263309
 20
74.1373102136
 11
75.8725263309
 21
74.1373102136
  0
LINE
  5
260
100
AcDbEntity
  8
0
100
AcDbLine
 62
7
  6
BYLAYER
 10
80.7615263309
 20
75.1373102136
 11
78.5615263309
 21
75.1373102136
  0
LINE
  5
261
100
AcDbEntity
  8
0
100
AcDbLine
 62
7
  6
BYLAYER
 10
75.8725263309
 20
75.1373102136
 11
67.6725263309
 21
75.1373102136
  0
LINE
  5
262
100
AcDbEntity
  8
0
100
AcDbLine
 62
7
  6
BYLAYER
 10
72.6859540546
 20
75.5373102136
 11
67.2615263309
 21
75.5373102136
  0
LINE
  5
263
100
AcDbEntity
  8
0
100
AcDbLine
 62
7
  6
BYLAYER
 10
66.5625263309
 20
75.6770059329
 11
64.3125263309
 21
75.6770059329
  0
LINE
  5
264
100
AcDbEntity
  8
0
100
AcDbLine
 62
7
  6
BYLAYER
 10
65.0971768069
 20
74.8171154792
 11
64.3125263309
 21
74.8172433949
  0
LINE
  5
265
100
AcDbEntity
  8
0
100
AcDbLine
 62
7
  6
BYLAYER
 10
67.0115263309
 20
75.9123102136
 11
66.5625263309
 21
75.9123102136
  0
LINE
  5
266
100
AcDbEntity
  8
0
100
AcDbLine
 62
7
  6
BYLAYER
 10
40.0943403464
 20
76.4380175126
 11
39.7643404167
 21
76.4380175126
  0
LINE
  5
267
100
AcDbEntity
  8
0
100
AcDbLine
 62
7
  6
BYLAYER
 10
39.7643404167
 20
78.3630175022
 11
36.4373805087
 21
78.3630175022
  0
LINE
  5
268
100
AcDbEntity
  8
0
100
AcDbLine
 62
7
  6
BYLAYER
 10
65.1076991033
 20
74.8172254612
 11
65.296229021
 21
74.7805891565
  0
LINE
  5
269
100
AcDbEntity
  8
0
100
AcDbLine
 62
7
  6
BYLAYER
 10
61.8625263309
 20
66.0873102136
 11
61.8625263309
 21
63.9873102136
  0
LINE
  5
26A
100
AcDbEntity
  8
0
100
AcDbLine
 62
7
  6
BYLAYER
 10
40.3916625392
 20
78.4254934144
 11
52.9532114602
 21
78.5376504493
  0
LINE
  5
26B
100
AcDbEntity
  8
0
100
AcDbLine
 62
7
  6
BYLAYER
 10
63.062526126
 20
78.6123099707
 11
64.3125263309
 21
78.6123099707
  0
LINE
  5
26C
100
AcDbEntity
  8
0
100
AcDbLine
 62
7
  6
BYLAYER
 10
53.1764505077
 20
79.2873102173
 11
63.062526126
 21
79.2873102173
  0
LINE
  5
26D
100
AcDbEntity
  8
0
100
AcDbLine
 62
7
  6
BYLAYER
 10
63.062526126
 20
50.7873102061
 11
63.062526126
 21
79.287310221
  0
LINE
  5
26E
100
AcDbEntity
  8
0
100
AcDbLine
 62
7
  6
BYLAYER
 10
64.3125263309
 20
51.4623104565
 11
64.3125263309
 21
78.6123099707
  0
LINE
  5
26F
100
AcDbEntity
  8
0
100
AcDbLine
 62
7
  6
BYLAYER
 10
65.0971768069
 20
74.8171154792
 11
65.0971768069
 21
72.0924247807
  0
LINE
  5
270
100
AcDbEntity
  8
0
100
AcDbLine
 62
7
  6
BYLAYER
 10
65.0971768069
 20
61.5961390747
 11
65.0971768069
 21
57.8238051891
  0
LINE
  5
271
100
AcDbEntity
  8
0
100
AcDbLine
 62
7
  6
BYLAYER
 10
65.296229021
 20
57.8705111454
 11
65.296229021
 21
61.5371532742
  0
LINE
  5
272
100
AcDbEntity
  8
0
100
AcDbLine
 62
7
  6
BYLAYER
 10
65.296229021
 20
72.1396698144
 11
65.296229021
 21
74.7805891565
  0
LINE
  5
273
100
AcDbEntity
  8
0
100
AcDbLine
 62
7
  6
BYLAYER
 10
80.7615263309
 20
65.8373102136
 11
81.9615263309
 21
66.5301305366
  0
LINE
  5
274
100
AcDbEntity
  8
0
100
AcDbLine
 62
7
  6
BYLAYER
 10
65.9245144213
 20
74.508736353
 11
65.296229021
 21
74.7805891565
  0
LINE
  5
275
100
AcDbEntity
  8
0
100
AcDbLine
 62
7
  6
BYLAYER
 10
81.9615263309
 20
63.5444898906
 11
80.7615263309
 21
64.2373102136
  0
LINE
  5
276
100
AcDbEntity
  8
0
100
AcDbLine
 62
7
  6
BYLAYER
 10
66.5625263309
 20
75.6770059329
 11
66.5625263309
 21
75.9122103433
  0
LINE
  5
277
100
AcDbEntity
  8
0
100
AcDbLine
 62
7
  6
BYLAYER
 10
66.9215263304
 20
59.4546720409
 11
66.9215263304
 21
59.7462547807
  0
LINE
  5
278
100
AcDbEntity
  8
0
100
AcDbLine
 62
7
  6
BYLAYER
 10
66.9215263304
 20
73.5022577762
 11
66.9215263304
 21
73.7095452301
  0
LINE
  5
279
100
AcDbEntity
  8
0
100
AcDbLine
 62
7
  6
BYLAYER
 10
67.0115263309
 20
75.9123102136
 11
67.0115263309
 21
54.1623102136
  0
LINE
  5
27A
100
AcDbEntity
  8
0
100
AcDbLine
 62
7
  6
BYLAYER
 10
67.2615263309
 20
75.6623102136
 11
67.2615263309
 21
54.4123102136
  0
LINE
  5
27B
100
AcDbEntity
  8
0
100
AcDbLine
 62
7
  6
BYLAYER
 10
67.2725263309
 20
54.8973102136
 11
67.2725263309
 21
54.5375531312
  0
LINE
  5
27C
100
AcDbEntity
  8
0
100
AcDbLine
 62
7
  6
BYLAYER
 10
67.6725263309
 20
67.5373102136
 11
67.6725263309
 21
62.5373102136
  0
LINE
  5
27D
100
AcDbEntity
  8
0
100
AcDbLine
 62
7
  6
BYLAYER
 10
67.6725263309
 20
58.2373102629
 11
67.6725263309
 21
61.8373104111
  0
LINE
  5
27E
100
AcDbEntity
  8
0
100
AcDbLine
 62
7
  6
BYLAYER
 10
67.6725263309
 20
72.8635482057
 11
67.6725263309
 21
75.1373102136
  0
LINE
  5
27F
100
AcDbEntity
  8
0
100
AcDbLine
 62
7
  6
BYLAYER
 10
79.0448757508
 20
61.7539607937
 11
81.9615263309
 21
58.8373102136
  0
LINE
  5
280
100
AcDbEntity
  8
0
100
AcDbLine
 62
7
  6
BYLAYER
 10
68.8625263309
 20
75.3450742776
 11
68.8625263309
 21
75.1373102136
  0
LINE
  5
281
100
AcDbEntity
  8
0
100
AcDbLine
 62
7
  6
BYLAYER
 10
72.6859938965
 20
75.5337498118
 11
72.6859938965
 21
75.1373102136
  0
LINE
  5
282
100
AcDbEntity
  8
0
100
AcDbLine
 62
7
  6
BYLAYER
 10
72.8616341151
 20
75.1373102136
 11
72.8616341151
 21
75.5373085533
  0
LINE
  5
283
100
AcDbEntity
  8
0
100
AcDbLine
 62
7
  6
BYLAYER
 10
75.8725263309
 20
58.2373102629
 11
75.8725263309
 21
54.8973102136
  0
LINE
  5
284
100
AcDbEntity
  8
0
100
AcDbLine
 62
7
  6
BYLAYER
 10
75.8725263309
 20
58.3251787758
 11
75.8725263309
 21
75.1373102136
  0
LINE
  5
285
100
AcDbEntity
  8
0
100
AcDbLine
 62
7
  6
BYLAYER
 10
76.6615263309
 20
64.2373102136
 11
76.6615263309
 21
65.8373102136
  0
LINE
  5
286
100
AcDbEntity
  8
0
100
AcDbLine
 62
7
  6
BYLAYER
 10
81.6615263309
 20
74.2373102136
 11
80.7615263309
 21
75.1373102136
  0
LINE
  5
287
100
AcDbEntity
  8
0
100
AcDbLine
 62
7
  6
BYLAYER
 10
78.5615263309
 20
58.3251935977
 11
78.5615263309
 21
61.8373102136
  0
LINE
  5
288
100
AcDbEntity
  8
0
100
AcDbLine
 62
7
  6
BYLAYER
 10
78.5615263309
 20
70.8519469176
 11
78.5615263309
 21
75.1373102136
  0
LINE
  5
289
100
AcDbEntity
  8
0
100
AcDbLine
 62
7
  6
BYLAYER
 10
78.5915263309
 20
65.8373102136
 11
78.5915263309
 21
64.2373102136
  0
LINE
  5
28A
100
AcDbEntity
  8
0
100
AcDbLine
 62
7
  6
BYLAYER
 10
78.7605263309
 20
56.6373103277
 11
78.7605263309
 21
55.9374489527
  0
LINE
  5
28B
100
AcDbEntity
  8
0
100
AcDbLine
 62
7
  6
BYLAYER
 10
80.3615263309
 20
75.1373102136
 11
80.3615263309
 21
72.985352756
  0
LINE
  5
28C
100
AcDbEntity
  8
0
100
AcDbLine
 62
7
  6
BYLAYER
 10
81.6615255312
 20
57.6489840869
 11
81.9615263309
 21
58.1678124154
  0
LINE
  5
28D
100
AcDbEntity
  8
0
100
AcDbLine
 62
7
  6
BYLAYER
 10
81.6615263309
 20
74.2373034591
 11
81.6615263309
 21
73.1705752406
  0
LINE
  5
28E
100
AcDbEntity
  8
0
100
AcDbLine
 62
7
  6
BYLAYER
 10
81.7615263309
 20
70.8519469176
 11
81.7615263309
 21
67.7056430264
  0
LINE
  5
28F
100
AcDbEntity
  8
0
100
AcDbLine
 62
7
  6
BYLAYER
 10
81.9615263309
 20
58.1678124154
 11
81.9615263309
 21
63.5444898906
  0
LINE
  5
290
100
AcDbEntity
  8
0
100
AcDbLine
 62
7
  6
BYLAYER
 10
81.9615263309
 20
66.5301305366
 11
81.9615263309
 21
72.8296141091
  0
LINE
  5
291
100
AcDbEntity
  8
0
100
AcDbLine
 62
7
  6
BYLAYER
 10
83.1615263309
 20
71.0163641357
 11
83.1615263309
 21
68.8582562915
  0
ARC
  5
292
100
AcDbEntity
  8
0
100
AcDbCircle
 62
7
  6
BYLAYER
 10
73.9961555362
 20
75.0292764707
 40
18.9990433357
100
AcDbArc
 50
284.5230213534
 51
289.8813675571
  0
ARC
  5
293
100
AcDbEntity
  8
0
100
AcDbCircle
 62
7
  6
BYLAYER
 10
74.9560488389
 20
72.5782996856
 40
16.3656481091
100
AcDbArc
 50
293.6610595149
 51
294.1839494421
  0
ARC
  5
294
100
AcDbEntity
  8
0
100
AcDbCircle
 62
7
  6
BYLAYER
 10
71.6366676676
 20
64.7280674851
 40
10.5536116593
100
AcDbArc
 50
11.951105034
 51
16.3878524663
  0
ARC
  5
295
100
AcDbEntity
  8
0
100
AcDbCircle
 62
7
  6
BYLAYER
 10
26.046541286
 20
72.9595366484
 40
2.262403556
100
AcDbArc
 50
89.9999659236
 51
91.0607206183
  0
ARC
  5
296
100
AcDbEntity
  8
0
100
AcDbCircle
 62
7
  6
BYLAYER
 10
26.046541421
 20
59.6040985781
 40
2.2624024882
100
AcDbArc
 50
268.9392733029
 51
270.0000340769
  0
ARC
  5
297
100
AcDbEntity
  8
0
100
AcDbCircle
 62
7
  6
BYLAYER
 10
26.046541421
 20
62.0789723123
 40
2.2624024883
100
AcDbArc
 50
268.9392733029
 51
270.0000340769
  0
CIRCLE
  5
298
100
AcDbEntity
  8
0
100
AcDbCircle
 62
7
  6
BYLAYER
 10
71.5625263309
 20
67.4373102136
 40
1.25
  0
ARC
  5
299
100
AcDbEntity
  8
0
100
AcDbCircle
 62
7
  6
BYLAYER
 10
35.3143403464
 20
57.4880173204
 40
0.4
100
AcDbArc
 50
180.0
 51
262.8192442191
  0
ARC
  5
29A
100
AcDbEntity
  8
0
100
AcDbCircle
 62
7
  6
BYLAYER
 10
35.3143403464
 20
72.5880173204
 40
0.4
100
AcDbArc
 50
97.1807557809
 51
180.0
  0
ARC
  5
29B
100
AcDbEntity
  8
0
100
AcDbCircle
 62
7
  6
BYLAYER
 10
36.437379068
 20
78.0630171136
 40
0.3000003885
100
AcDbArc
 50
90.0
 51
169.9999729873
  0
ARC
  5
29C
100
AcDbEntity
  8
0
100
AcDbCircle
 62
7
  6
BYLAYER
 10
36.437379068
 20
52.0130175271
 40
0.3000003885
100
AcDbArc
 50
190.0000270127
 51
270.0
  0
ARC
  5
29D
100
AcDbEntity
  8
0
100
AcDbCircle
 62
7
  6
BYLAYER
 10
40.3943403517
 20
78.1255053605
 40
0.3000000053
100
AcDbArc
 50
90.5115574542
 51
179.9999995852
  0
ARC
  5
29E
100
AcDbEntity
  8
0
100
AcDbCircle
 62
7
  6
BYLAYER
 10
40.3943403517
 20
51.9505292802
 40
0.3000000053
100
AcDbArc
 50
180.0000004148
 51
269.4884425458
  0
ARC
  5
29F
100
AcDbEntity
  8
0
100
AcDbCircle
 62
7
  6
BYLAYER
 10
67.0115263309
 20
75.6623102136
 40
0.25
100
AcDbArc
 50
0.0
 51
90.0
  0
ARC
  5
2A0
100
AcDbEntity
  8
0
100
AcDbCircle
 62
7
  6
BYLAYER
 10
67.0115263309
 20
54.4123102136
 40
0.25
100
AcDbArc
 50
270.0
 51
360.0
  0
ARC
  5
2A1
100
AcDbEntity
  8
0
100
AcDbCircle
 62
7
  6
BYLAYER
 10
78.858884112
 20
61.5881232045
 40
0.2491886749
100
AcDbArc
 50
41.7214736212
 51
89.7904976448
  0
SPLINE
  5
2A2
100
AcDbEntity
  8
0
100
AcDbSpline
 62
7
  6
BYLAYER
 70
0
 71
3
 72
11
 73
7
 74
0
 42
0.0000001
 43
0.0000001
 44
0.0000000001
 40
0.0
 40
0.0
 40
0.0
 40
0.0
 40
0.229036569
 40
0.4679705796
 40
0.7240852928
 40
1.0
 40
1.0
 40
1.0
 40
1.0
 10
30.1028371628
 20
59.8626448031
 30
0.0
 10
30.1028238691
 20
59.8412453191
 30
0.0
 10
30.0959325201
 20
59.7972651657
 30
0.0
 10
30.0660229542
 20
59.7356355278
 30
0.0
 10
30.0184514196
 20
59.6806357407
 30
0.0
 10
29.9781460984
 20
59.6508546409
 30
0.0
 10
29.9560790931
 20
59.6375269787
 30
0.0
  0
LINE
  5
2A3
100
AcDbEntity
  8
0
100
AcDbLine
 62
7
  6
BYLAYER
 10
81.9615263309
 20
72.8296141091
 11
81.6615263309
 21
73.1705752406
  0
SPLINE
  5
2A4
100
AcDbEntity
  8
0
100
AcDbSpline
 62
7
  6
BYLAYER
 70
0
 71
3
 72
9
 73
5
 74
0
 42
0.0000001
 43
0.0000001
 44
0.0000000001
 40
0.0
 40
0.0
 40
0.0
 40
0.0
 40
0.4991954446
 40
1.0
 40
1.0
 40
1.0
 40
1.0
 10
80.4572315048
 20
57.1625995272
 30
0.0
 10
80.6369723719
 20
57.2276562324
 30
0.0
 10
80.9947944391
 20
57.3641992382
 30
0.0
 10
81.3483784721
 20
57.5113965926
 30
0.0
 10
81.523998511
 20
57.5884205955
 30
0.0
  0
SPLINE
  5
2A5
100
AcDbEntity
  8
0
100
AcDbSpline
 62
7
  6
BYLAYER
 70
0
 71
3
 72
11
 73
7
 74
0
 42
0.0000001
 43
0.0000001
 44
0.0000000001
 40
0.0
 40
0.0
 40
0.0
 40
0.0
 40
0.2464087364
 40
0.5001867995
 40
0.7538669577
 40
1.0
 40
1.0
 40
1.0
 40
1.0
 10
17.3417254853
 20
66.2929487689
 30
0.0
 10
17.1935960391
 20
66.3486423569
 30
0.0
 10
16.881098624
 20
66.4320100103
 30
0.0
 10
16.3963196992
 20
66.4725975236
 30
0.0
 10
15.9118991398
 20
66.4299026882
 30
0.0
 10
15.6000127898
 20
66.3451520225
 30
0.0
 10
15.452328639
 20
66.2887827897
 30
0.0
  0
SPLINE
  5
2A6
100
AcDbEntity
  8
0
100
AcDbSpline
 62
7
  6
BYLAYER
 70
0
 71
3
 72
9
 73
5
 74
0
 42
0.0000001
 43
0.0000001
 44
0.0000000001
 40
0.0
 40
0.0
 40
0.0
 40
0.0
 40
0.235616425
 40
1.0
 40
1.0
 40
1.0
 40
1.0
 10
27.1779180286
 20
57.6730700596
 30
0.0
 10
27.101642643
 20
57.6191347966
 30
0.0
 10
26.7563264128
 20
57.4211727529
 30
0.0
 10
26.3496085833
 20
57.3416960899
 30
0.0
 10
26.0465427666
 20
57.3416960899
 30
0.0
  0
SPLINE
  5
2A7
100
AcDbEntity
  8
0
100
AcDbSpline
 62
7
  6
BYLAYER
 70
0
 71
3
 72
11
 73
7
 74
0
 42
0.0000001
 43
0.0000001
 44
0.0000000001
 40
0.0
 40
0.0
 40
0.0
 40
0.0
 40
0.2829570419
 40
0.5487867264
 40
0.7874039575
 40
1.0
 40
1.0
 40
1.0
 40
1.0
 10
11.9157312488
 20
57.6029583311
 30
0.0
 10
11.8587700567
 20
57.6039930308
 30
0.0
 10
11.7480025846
 20
57.6192543439
 30
0.0
 10
11.5997748745
 20
57.6807534077
 30
0.0
 10
11.4868216318
 20
57.7749719362
 30
0.0
 10
11.4435775124
 20
57.858882617
 30
0.0
 10
11.4340504834
 20
57.9006130229
 30
0.0
  0
SPLINE
  5
2A8
100
AcDbEntity
  8
0
100
AcDbSpline
 62
7
  6
BYLAYER
 70
0
 71
3
 72
19
 73
15
 74
0
 42
0.0000001
 43
0.0000001
 44
0.0000000001
 40
0.0
 40
0.0
 40
0.0
 40
0.0
 40
0.0517128511
 40
0.1053430644
 40
0.1622487636
 40
0.223216063
 40
0.3564715866
 40
0.4999915195
 40
0.6435117143
 40
0.7767725198
 40
0.8377441258
 40
0.8946534192
 40
0.9482865794
 40
1.0
 40
1.0
 40
1.0
 40
1.0
 10
18.4025263309
 20
67.5192550156
 30
0.0
 10
18.4025263309
 20
67.4264288358
 30
0.0
 10
18.3755144901
 20
67.2363856886
 30
0.0
 10
18.2576928745
 20
66.966680597
 30
0.0
 10
18.0684606643
 20
66.7204157603
 30
0.0
 10
17.722844982
 20
66.4267824596
 30
0.0
 10
17.1592036014
 20
66.1721825576
 30
0.0
 10
16.4025730265
 20
66.0702448461
 30
0.0
 10
15.6459291071
 20
66.1721590885
 30
0.0
 10
15.0822647501
 20
66.4267502077
 30
0.0
 10
14.7366187072
 20
66.7203850475
 30
0.0
 10
14.5473706546
 20
66.9666629492
 30
0.0
 10
14.4295401384
 20
67.2363783124
 30
0.0
 10
14.4025263309
 20
67.4264278135
 30
0.0
 10
14.4025263309
 20
67.5192550156
 30
0.0
  0
SPLINE
  5
2A9
100
AcDbEntity
  8
0
100
AcDbSpline
 62
7
  6
BYLAYER
 70
0
 71
3
 72
10
 73
6
 74
0
 42
0.0000001
 43
0.0000001
 44
0.0000000001
 40
0.0
 40
0.0
 40
0.0
 40
0.0
 40
0.2323663516
 40
0.4732915223
 40
1.0
 40
1.0
 40
1.0
 40
1.0
 10
30.1025263309
 20
72.676109265
 30
0.0
 10
30.1025263309
 20
72.699316321
 30
0.0
 10
30.0957516717
 20
72.7468350949
 30
0.0
 10
30.0554725164
 20
72.8392380824
 30
0.0
 10
29.9990305444
 20
72.8957384469
 30
0.0
 10
29.9560797215
 20
72.9261092651
 30
0.0
  0
SPLINE
  5
2AA
100
AcDbEntity
  8
0
100
AcDbSpline
 62
7
  6
BYLAYER
 70
0
 71
3
 72
9
 73
5
 74
0
 42
0.0000001
 43
0.0000001
 44
0.0000000001
 40
0.0
 40
0.0
 40
0.0
 40
0.0
 40
0.2356165518
 40
1.0
 40
1.0
 40
1.0
 40
1.0
 10
27.1779140507
 20
74.8905691723
 30
0.0
 10
27.1016387276
 20
74.9445039741
 30
0.0
 10
26.7563233029
 20
75.1424642195
 30
0.0
 10
26.3496072056
 20
75.2219402044
 30
0.0
 10
26.0465426315
 20
75.2219402044
 30
0.0
  0
SPLINE
  5
2AB
100
AcDbEntity
  8
0
100
AcDbSpline
 62
7
  6
BYLAYER
 70
0
 71
3
 72
11
 73
7
 74
0
 42
0.0000001
 43
0.0000001
 44
0.0000000001
 40
0.0
 40
0.0
 40
0.0
 40
0.0
 40
0.284591287
 40
0.5503432921
 40
0.7878531952
 40
1.0
 40
1.0
 40
1.0
 40
1.0
 10
11.9020221805
 20
74.9604249395
 30
0.0
 10
11.8442081733
 20
74.9580765127
 30
0.0
 10
11.7323851809
 20
74.9400091688
 30
0.0
 10
11.5843782076
 20
74.8735319387
 30
0.0
 10
11.4742111542
 20
74.7740334458
 30
0.0
 10
11.4354257021
 20
74.6870568556
 30
0.0
 10
11.4284372007
 20
74.6444941387
 30
0.0
  0
LINE
  5
2AC
100
AcDbEntity
  8
0
100
AcDbLine
 62
7
  6
BYLAYER
 10
65.1076991033
 20
61.5963155911
 11
65.0971768069
 21
61.5961903778
  0
LINE
  5
2AD
100
AcDbEntity
  8
0
100
AcDbLine
 62
7
  6
BYLAYER
 10
65.0971768069
 20
57.8237647227
 11
65.1076991033
 21
57.8236659457
  0
SPLINE
  5
2AE
100
AcDbEntity
  8
0
100
AcDbSpline
 62
7
  6
BYLAYER
 70
0
 71
3
 72
8
 73
4
 74
0
 42
0.0000001
 43
0.0000001
 44
0.0000000001
 40
0.0
 40
0.0
 40
0.0
 40
0.0
 40
1.0
 40
1.0
 40
1.0
 40
1.0
 10
80.4957167197
 20
72.6825707647
 30
0.0
 10
80.9360709838
 20
72.0855177483
 30
0.0
 10
81.362070248
 20
71.4771021146
 30
0.0
 10
81.7615263309
 20
70.8519469176
 30
0.0
  0
SPLINE
  5
2AF
100
AcDbEntity
  8
0
100
AcDbSpline
 62
7
  6
BYLAYER
 70
0
 71
3
 72
12
 73
8
 74
0
 42
0.0000001
 43
0.0000001
 44
0.0000000001
 40
0.0
 40
0.0
 40
0.0
 40
0.0
 40
0.0694024814
 40
0.1546040681
 40
0.2715505433
 40
0.5907673111
 40
1.0
 40
1.0
 40
1.0
 40
1.0
 10
72.861634115
 20
75.5373085534
 30
0.0
 10
72.8575893465
 20
75.5369119583
 30
0.0
 10
72.8485116482
 20
75.5370955433
 30
0.0
 10
72.8326295377
 20
75.5364498334
 30
0.0
 10
72.8021007195
 20
75.5358023954
 30
0.0
 10
72.7526113313
 20
75.5346625813
 30
0.0
 10
72.7099566047
 20
75.5340353114
 30
0.0
 10
72.6859938965
 20
75.53374995
 30
0.0
  0
SPLINE
  5
2B0
100
AcDbEntity
  8
0
100
AcDbSpline
 62
7
  6
BYLAYER
 70
0
 71
3
 72
9
 73
5
 74
0
 42
0.0000001
 43
0.0000001
 44
0.0000000001
 40
0.0
 40
0.0
 40
0.0
 40
0.0
 40
0.5097914285
 40
1.0
 40
1.0
 40
1.0
 40
1.0
 10
65.1076991033
 20
72.0922831716
 30
0.0
 10
65.1410034199
 20
72.0922831716
 30
0.0
 10
65.2066044846
 20
72.1007679143
 30
0.0
 10
65.2680187639
 20
72.1248498372
 30
0.0
 10
65.2963669595
 20
72.1397488068
 30
0.0
  0
SPLINE
  5
2B1
100
AcDbEntity
  8
0
100
AcDbSpline
 62
7
  6
BYLAYER
 70
0
 71
3
 72
13
 73
9
 74
0
 42
0.0000001
 43
0.0000001
 44
0.0000000001
 40
0.0
 40
0.0
 40
0.0
 40
0.0
 40
0.106510058
 40
0.2187393883
 40
0.3374766286
 40
0.4621222733
 40
0.72487304
 40
1.0
 40
1.0
 40
1.0
 40
1.0
 10
66.9215263304
 20
73.7095452301
 30
0.0
 10
66.9108946371
 20
73.7550402494
 30
0.0
 10
66.8742048118
 20
73.8452536433
 30
0.0
 10
66.7873660456
 20
73.9662273701
 30
0.0
 10
66.6758493071
 20
74.076071931
 30
0.0
 10
66.5001876489
 20
74.2123945869
 30
0.0
 10
66.24900669
 20
74.3604507058
 30
0.0
 10
66.035309293
 20
74.4608260531
 30
0.0
 10
65.9245523456
 20
74.5087605025
 30
0.0
  0
SPLINE
  5
2B2
100
AcDbEntity
  8
0
100
AcDbSpline
 62
7
  6
BYLAYER
 70
0
 71
3
 72
14
 73
10
 74
0
 42
0.0000001
 43
0.0000001
 44
0.0000000001
 40
0.0
 40
0.0
 40
0.0
 40
0.0
 40
0.27429296
 40
0.4083774299
 40
0.5394748088
 40
0.6663583489
 40
0.7871196118
 40
0.8990849185
 40
1.0
 40
1.0
 40
1.0
 40
1.0
 10
65.2963669595
 20
72.1397488068
 30
0.0
 10
65.4686517484
 20
72.2367486958
 30
0.0
 10
65.723212728
 20
72.3848023589
 30
0.0
 10
66.0509981451
 20
72.5941270083
 30
0.0
 10
66.2831879395
 20
72.7554164377
 30
0.0
 10
66.4983750768
 20
72.9237229002
 30
0.0
 10
66.6882553793
 20
73.1010349564
 30
0.0
 10
66.8398891281
 20
73.288908815
 30
0.0
 10
66.9055855895
 20
73.4312848053
 30
0.0
 10
66.9215263304
 20
73.5022577762
 30
0.0
  0
SPLINE
  5
2B3
100
AcDbEntity
  8
0
100
AcDbSpline
 62
7
  6
BYLAYER
 70
0
 71
3
 72
10
 73
6
 74
0
 42
0.0000001
 43
0.0000001
 44
0.0000000001
 40
0.0
 40
0.0
 40
0.0
 40
0.0
 40
0.5468148588
 40
0.7933705042
 40
1.0
 40
1.0
 40
1.0
 40
1.0
 10
80.4957258639
 20
72.682570183
 30
0.0
 10
80.4594560588
 20
72.7317464901
 30
0.0
 10
80.4116843307
 20
72.807478845
 30
0.0
 10
80.3708434611
 20
72.911734804
 30
0.0
 10
80.3615263309
 20
72.96226254
 30
0.0
 10
80.3615263309
 20
72.985352756
 30
0.0
  0
LINE
  5
2B4
100
AcDbEntity
  8
0
100
AcDbLine
 62
7
  6
BYLAYER
 10
65.0971768069
 20
72.0923836217
 11
65.1076991033
 21
72.0922831716
  0
SPLINE
  5
2B5
100
AcDbEntity
  8
0
100
AcDbSpline
 62
7
  6
BYLAYER
 70
0
 71
3
 72
19
 73
15
 74
0
 42
0.0000001
 43
0.0000001
 44
0.0000000001
 40
0.0
 40
0.0
 40
0.0
 40
0.0
 40
0.0517128511
 40
0.1053430644
 40
0.1622487636
 40
0.223216063
 40
0.3564715866
 40
0.4999915195
 40
0.6435117143
 40
0.7767725198
 40
0.8377441258
 40
0.8946534192
 40
0.9482865794
 40
1.0
 40
1.0
 40
1.0
 40
1.0
 10
14.4025263309
 20
67.5192550156
 30
0.0
 10
14.4025263309
 20
67.6120811953
 30
0.0
 10
14.4295381716
 20
67.8021243426
 30
0.0
 10
14.5473597872
 20
68.0718294342
 30
0.0
 10
14.7365919974
 20
68.3180942708
 30
0.0
 10
15.0822076798
 20
68.6117275715
 30
0.0
 10
15.6458490604
 20
68.8663274736
 30
0.0
 10
16.4024796353
 20
68.968265185
 30
0.0
 10
17.1591235547
 20
68.8663509426
 30
0.0
 10
17.7227879116
 20
68.6117598234
 30
0.0
 10
18.0684339546
 20
68.3181249836
 30
0.0
 10
18.2576820071
 20
68.0718470819
 30
0.0
 10
18.3755125234
 20
67.8021317187
 30
0.0
 10
18.4025263309
 20
67.6120822177
 30
0.0
 10
18.4025263309
 20
67.5192550156
 30
0.0
  0
SPLINE
  5
2B6
100
AcDbEntity
  8
0
100
AcDbSpline
 62
7
  6
BYLAYER
 70
0
 71
3
 72
14
 73
10
 74
0
 42
0.0000001
 43
0.0000001
 44
0.0000000001
 40
0.0
 40
0.0
 40
0.0
 40
0.0
 40
0.2558165818
 40
0.3829366142
 40
0.5092372315
 40
0.6343925646
 40
0.7579899674
 40
0.8797385718
 40
1.0
 40
1.0
 40
1.0
 40
1.0
 10
65.2963669595
 20
57.8705743925
 30
0.0
 10
65.4700854928
 20
57.9677176993
 30
0.0
 10
65.7263731122
 20
58.12031941
 30
0.0
 10
66.0529003714
 20
58.344978352
 30
0.0
 10
66.2858188311
 20
58.5256269452
 30
0.0
 10
66.5021276762
 20
58.7220586733
 30
0.0
 10
66.6935554481
 20
58.9387337259
 30
0.0
 10
66.8459384337
 20
59.1808595381
 30
0.0
 10
66.9063561485
 20
59.3623420276
 30
0.0
 10
66.9215263304
 20
59.4546720409
 30
0.0
  0
SPLINE
  5
2B7
100
AcDbEntity
  8
0
100
AcDbSpline
 62
7
  6
BYLAYER
 70
0
 71
3
 72
14
 73
10
 74
0
 42
0.0000001
 43
0.0000001
 44
0.0000000001
 40
0.0
 40
0.0
 40
0.0
 40
0.0
 40
0.117250947
 40
0.2381093317
 40
0.3617655142
 40
0.4873820784
 40
0.61434159
 40
0.7422509246
 40
1.0
 40
1.0
 40
1.0
 40
1.0
 10
66.9215263304
 20
59.7462547807
 30
0.0
 10
66.9061411679
 20
59.8415803336
 30
0.0
 10
66.8447344098
 20
60.0306859726
 30
0.0
 10
66.6928892755
 20
60.2885281981
 30
0.0
 10
66.5018195632
 20
60.5269363742
 30
0.0
 10
66.2856585612
 20
60.7493257496
 30
0.0
 10
66.0527945925
 20
60.9592254208
 30
0.0
 10
65.726113403
 20
61.2267698647
 30
0.0
 10
65.4699388749
 20
61.4148794118
 30
0.0
 10
65.296366633
 20
61.5370604692
 30
0.0
  0
SPLINE
  5
2B8
100
AcDbEntity
  8
0
100
AcDbSpline
 62
7
  6
BYLAYER
 70
0
 71
3
 72
11
 73
7
 74
0
 42
0.0000001
 43
0.0000001
 44
0.0000000001
 40
0.0
 40
0.0
 40
0.0
 40
0.0
 40
0.2125960425
 40
0.4512132736
 40
0.7170429581
 40
1.0
 40
1.0
 40
1.0
 40
1.0
 10
11.4340504834
 20
60.375486757
 30
0.0
 10
11.4435775124
 20
60.3337563512
 30
0.0
 10
11.4868216318
 20
60.2498456704
 30
0.0
 10
11.5997748745
 20
60.1556271418
 30
0.0
 10
11.7480025846
 20
60.094128078
 30
0.0
 10
11.8587700567
 20
60.0788667649
 30
0.0
 10
11.9157312488
 20
60.0778320653
 30
0.0
  0
SPLINE
  5
2B9
100
AcDbEntity
  8
0
100
AcDbSpline
 62
7
  6
BYLAYER
 70
0
 71
3
 72
9
 73
5
 74
0
 42
0.0000001
 43
0.0000001
 44
0.0000000001
 40
0.0
 40
0.0
 40
0.0
 40
0.0
 40
0.2631565341
 40
1.0
 40
1.0
 40
1.0
 40
1.0
 10
26.0465427666
 20
59.8165698241
 30
0.0
 10
26.1508126682
 20
59.8165698241
 30
0.0
 10
26.5457537037
 20
59.8435934412
 30
0.0
 10
26.9395361247
 20
59.9793810183
 30
0.0
 10
27.1779180286
 20
60.1479437938
 30
0.0
  0
SPLINE
  5
2BA
100
AcDbEntity
  8
0
100
AcDbSpline
 62
7
  6
BYLAYER
 70
0
 71
3
 72
11
 73
7
 74
0
 42
0.0000001
 43
0.0000001
 44
0.0000000001
 40
0.0
 40
0.0
 40
0.0
 40
0.0
 40
0.2759147072
 40
0.5320294204
 40
0.770963431
 40
1.0
 40
1.0
 40
1.0
 40
1.0
 10
29.9560790931
 20
62.1124007129
 30
0.0
 10
29.9781460984
 20
62.1257283751
 30
0.0
 10
30.0184514196
 20
62.1555094748
 30
0.0
 10
30.0660229542
 20
62.2105092619
 30
0.0
 10
30.0959325201
 20
62.2721388999
 30
0.0
 10
30.1028238691
 20
62.3161190533
 30
0.0
 10
30.1028371628
 20
62.3375185372
 30
0.0
  0
SPLINE
  5
2BB
100
AcDbEntity
  8
0
100
AcDbSpline
 62
7
  6
BYLAYER
 70
0
 71
3
 72
9
 73
5
 74
0
 42
0.0000001
 43
0.0000001
 44
0.0000000001
 40
0.0
 40
0.0
 40
0.0
 40
0.0
 40
0.5100692088
 40
1.0
 40
1.0
 40
1.0
 40
1.0
 10
65.1076991033
 20
57.8236659457
 30
0.0
 10
65.1409952102
 20
57.8236659457
 30
0.0
 10
65.2065394744
 20
57.8319801619
 30
0.0
 10
65.2680157015
 20
57.8557749425
 30
0.0
 10
65.2963669595
 20
57.8705743925
 30
0.0
  0
SPLINE
  5
2BC
100
AcDbEntity
  8
0
100
AcDbSpline
 62
7
  6
BYLAYER
 70
0
 71
3
 72
9
 73
5
 74
0
 42
0.0000001
 43
0.0000001
 44
0.0000000001
 40
0.0
 40
0.0
 40
0.0
 40
0.0
 40
0.4979321214
 40
1.0
 40
1.0
 40
1.0
 40
1.0
 10
65.296366633
 20
61.5370604692
 30
0.0
 10
65.2686393479
 20
61.5552800116
 30
0.0
 10
65.2081777037
 20
61.5853185702
 30
0.0
 10
65.1411522861
 20
61.5963155911
 30
0.0
 10
65.1076991033
 20
61.5963155911
 30
0.0
  0
ELLIPSE
  5
2BD
100
AcDbEntity
  8
0
100
AcDbEllipse
 62
7
  6
BYLAYER
 10
73.2914627083
 20
65.0373102136
 30
0.0
 11
23.2519159813
 21
-0.0
 31
0.0
 40
0.4515756899
 41
1.5968387939
 42
1.7624435218
  0
ENDSEC
  0
SECTION
  2
OBJECTS
  0
DICTIONARY
  5
C
100
AcDbDictionary
280
0
281
1
  3
ACAD_GROUP
350
D
  3
ACAD_MLINESTYLE
350
17
  3
ACAD_LAYOUT
350
1A
  3
ACAD_PLOTSETTINGS
350
19
  3
ACAD_PLOTSTYLENAME
350
E
  0
DICTIONARY
  5
D
102
{ACAD_REACTORS
330
C
102
}
100
AcDbDictionary
280
0
281
1
  0
ACDBDICTIONARYWDFLT
  5
E
102
{ACAD_REACTORS
330
C
102
}
100
AcDbDictionary
281
1
  3
Normal
350
F
100
AcDbDictionaryWithDefault
340
F
  0
DICTIONARY
  5
17
102
{ACAD_REACTORS
330
C
102
}
100
AcDbDictionary
280
0
281
1
  3
Standard
350
18
  0
DICTIONARY
  5
19
102
{ACAD_REACTORS
330
C
102
}
100
AcDbDictionary
281
1
  0
DICTIONARY
  5
1A
102
{ACAD_REACTORS
330
C
102
}
100
AcDbDictionary
281
1
  3
Model
350
2BE
  3
Layout1
350
2BF
  0
ACDBPLACEHOLDER
  5
F
102
{ACAD_REACTORS
330
E
102
}
  0
MLINESTYLE
  5
18
102
{ACAD_REACTORS
330
17
102
}
100
AcDbMlineStyle
  2
STANDARD
 70
0
  3

 62
256
 51
90.0
 52
90.0
 71
2
 49
0.5
 62
256
  6
BYLAYER
 49
-0.5
 62
256
  6
BYLAYER
  0
LAYOUT
  5
2BE
102
{ACAD_REACTORS
330
1A
102
}
100
AcDbPlotSettings
  1

  2
none_device
  4

  6

 40
0.0
 41
0.0
 42
0.0
 43
0.0
 44
210.0
 45
297.0
 46
0.0
 47
0.0
 48
0.0
 49
0.0
140
0.0
141
0.0
142
1.0
143
1.0
 70
1024
 72
1
 73
0
 74
0
  7

 75
0
147
1.0
148
0.0
149
0.0
100
AcDbLayout
  1
Model
 70
0
 71
0
 10
0.0
 20
0.0
 11
210.0
 21
297.0
 12
0.0
 22
0.0
 32
0.0
 14
0.0
 24
0.0
 34
0.0
 15
0.0
 25
0.0
 35
0.0
146
0.0
 13
0.0
 23
0.0
 33
0.0
 16
1.0
 26
0.0
 36
0.0
 17
0.0
 27
1.0
 37
0.0
 76
0
330
210
345
0
346
0
  0
LAYOUT
  5
2BF
102
{ACAD_REACTORS
330
1A
102
}
100
AcDbPlotSettings
  1

  2
none_device
  4

  6

 40
0.0
 41
0.0
 42
0.0
 43
0.0
 44
210.0
 45
297.0
 46
0.0
 47
0.0
 48
0.0
 49
0.0
140
0.0
141
0.0
142
1.0
143
1.0
 70
0
 72
1
 73
0
 74
0
  7

 75
0
147
1.0
148
0.0
149
0.0
100
AcDbLayout
  1
Layout1
 70
0
 71
1
 10
0.0
 20
0.0
 11
210.0
 21
297.0
 12
0.0
 22
0.0
 32
0.0
 14
0.0
 24
0.0
 34
0.0
 15
0.0
 25
0.0
 35
0.0
146
0.0
 13
0.0
 23
0.0
 33
0.0
 16
1.0
 26
0.0
 36
0.0
 17
0.0
 27
1.0
 37
0.0
 76
0
330
211
345
0
346
0
  0
ENDSEC
  0
EOF
