999
DXF file: C:\Users\sesa63760\Dev\_Creo\CAD\MCADID0001925_3D-CAD\drw0001_1.dxf
999
Pro/ENGINEER 2019471 by Parametric Technology Corporation
  0
SECTION
  2
HEADER
  9
$ACADVER
  1
AC1024
  9
$DWGCODEPAGE
  3
ANSI_1252
  9
$EXTMAX
 10
35.8969266913
 20
50.7685106063
 30
0.0
  9
$EXTMIN
 10
0.0
 20
0.0
 30
0.0
  9
$LIMMIN
 10
0.0
 20
0.0
  9
$LIMMAX
 10
35.8969266913
 20
50.7685106063
  9
$VIEWCTR
 10
17.9484633457
 20
25.3842553031
  9
$VIEWSIZE
 40
50.7685106063
  9
$CLAYER
  8
0
  9
$LTSCALE
 40
3.3093547654
  9
$CELTYPE
  6
BYLAYER
  9
$DIMSCALE
 40
1.0
  9
$DIMASZ
 40
0.4273443654
  9
$DIMEXO
 40
1.0
  9
$DIMDLI
 40
2.2864632925
  9
$DIMEXE
 40
1.0
  9
$DIMCEN
 40
0.5415307798
  9
$DIMLFAC
 40
1.0
  9
$DIMBLK
  1
_FILLED
  9
$DIMALT
 70
0
  9
$DIMALTF
 40
0.0393700787
  9
$DIMTXT
 40
0.5982821115
  9
$DIMTOL
 70
1
  9
$DIMLIM
 70
0
  9
$DIMTFAC
 40
1.0
  9
$DIMTP
 40
0.01
  9
$DIMTM
 40
0.01
  9
$DIMGAP
 40
0.625
  9
$DIMDSEP
 70
46
  9
$AUNITS
 70
0
  9
$PDMODE
 70
3
  9
$PDSIZE
 40
0.3125
  9
$HANDSEED
  5
24D
  9
$TILEMODE
 70
1
  9
$MEASUREMENT
 70
1
  9
$INSUNITS
 70
4
  0
ENDSEC
  0
SECTION
  2
CLASSES
  0
CLASS
  1
ACDBDICTIONARYWDFLT
  2
AcDbDictionaryWithDefault
  3
AutoCAD 2000
 90
0
 91
1
280
0
281
0
  0
CLASS
  1
ACDBPLACEHOLDER
  2
AcDbPlaceHolder
  3
AutoCAD 2000
 90
0
 91
1
280
0
281
0
  0
CLASS
  1
LAYOUT
  2
AcDbLayout
  3
AutoCAD 2000
 90
0
 91
0
280
0
281
0
  0
ENDSEC
  0
SECTION
  2
TABLES
  0
TABLE
  2
VPORT
  5
8
100
AcDbSymbolTable
 70
2
  0
VPORT
  5
1F4
100
AcDbSymbolTableRecord
100
AcDbViewportTableRecord
  2
*ACTIVE
 70
0
 10
0.0
 20
0.0
 11
1.0
 21
1.0
 12
17.9484633457
 22
25.3842553031
 13
0.0
 23
0.0
 14
1.0
 24
1.0
 15
0.0
 25
0.0
 16
0.0
 26
0.0
 36
1.0
 17
0.0
 27
0.0
 37
0.0
 40
50.7685106063
 41
0.7070707071
 42
50.0
 43
0.0
 44
0.0
 50
0.0
 51
0.0
 71
0
 72
100
 73
1
 74
1
 75
0
 76
0
 77
0
 78
0
  0
ENDTAB
  0
TABLE
  2
LTYPE
  5
5
100
AcDbSymbolTable
 70
6
  0
LTYPE
  5
14
100
AcDbSymbolTableRecord
100
AcDbLinetypeTableRecord
  2
BYBLOCK
 70
0
  3

 72
65
 73
0
 40
0.0
  0
LTYPE
  5
15
100
AcDbSymbolTableRecord
100
AcDbLinetypeTableRecord
  2
BYLAYER
 70
0
  3

 72
65
 73
0
 40
0.0
  0
LTYPE
  5
16
100
AcDbSymbolTableRecord
100
AcDbLinetypeTableRecord
  2
CONTINUOUS
 70
64
  3
Solid line
 72
65
 73
0
 40
0.0
  0
LTYPE
  5
1F5
100
AcDbSymbolTableRecord
100
AcDbLinetypeTableRecord
  2
CENTER
 70
64
  3
____ _ ____ _ ____ _ ____ _ ____ _ ____ _ ____
 72
65
 73
4
 40
0.6
 49
0.375
 74
0
 49
-0.075
 74
0
 49
0.075
 74
0
 49
-0.075
 74
0
  0
LTYPE
  5
1F6
100
AcDbSymbolTableRecord
100
AcDbLinetypeTableRecord
  2
HIDDEN
 70
64
  3
- - - - - - - - - - - - - - - - - - - -
 72
65
 73
2
 40
0.2
 49
0.1
 74
0
 49
-0.1
 74
0
  0
LTYPE
  5
1F7
100
AcDbSymbolTableRecord
100
AcDbLinetypeTableRecord
  2
PHANTOM
 70
64
  3
_____ _ _ _____ _ _ _____ _ _ _____
 72
65
 73
6
 40
0.8
 49
0.45
 74
0
 49
-0.05
 74
0
 49
0.1
 74
0
 49
-0.05
 74
0
 49
0.1
 74
0
 49
-0.05
 74
0
  0
LTYPE
  5
1F8
100
AcDbSymbolTableRecord
100
AcDbLinetypeTableRecord
  2
DOT
 70
64
  3
. . . . . . . . . . . . . . . . . . . .
 72
65
 73
2
 40
0.2
 49
0.1
 74
0
 49
-0.1
 74
0
  0
LTYPE
  5
1F9
100
AcDbSymbolTableRecord
100
AcDbLinetypeTableRecord
  2
DASHED
 70
64
  3
- - - - - - - - - - - - - - - - - - - -
 72
65
 73
2
 40
0.2
 49
0.1
 74
0
 49
-0.1
 74
0
  0
ENDTAB
  0
TABLE
  2
LAYER
  5
2
100
AcDbSymbolTable
 70
36
  0
LAYER
  5
10
100
AcDbSymbolTableRecord
100
AcDbLayerTableRecord
  2
0
 70
0
 62
7
  6
CONTINUOUS
370
-3
390
F
  0
LAYER
  5
1FA
100
AcDbSymbolTableRecord
100
AcDbLayerTableRecord
  2
DEFAULT_1
 70
0
 62
7
  6
CENTER
370
-3
390
F
  0
LAYER
  5
1FB
100
AcDbSymbolTableRecord
100
AcDbLayerTableRecord
  2
DEFAULT_2
 70
0
 62
8
  6
HIDDEN
370
-3
390
F
  0
LAYER
  5
1FC
100
AcDbSymbolTableRecord
100
AcDbLayerTableRecord
  2
DEFAULT_3
 70
0
 62
7
  6
PHANTOM
370
-3
390
F
  0
LAYER
  5
1FD
100
AcDbSymbolTableRecord
100
AcDbLayerTableRecord
  2
00_COMPONENTS
 70
0
 62
7
  6
CONTINUOUS
370
-3
390
F
  0
LAYER
  5
1FE
100
AcDbSymbolTableRecord
100
AcDbLayerTableRecord
  2
01_1_DEFAULT_DATUMS
 70
0
 62
7
  6
CONTINUOUS
370
-3
390
F
  0
LAYER
  5
1FF
100
AcDbSymbolTableRecord
100
AcDbLayerTableRecord
  2
01_PLANES
 70
0
 62
7
  6
CONTINUOUS
370
-3
390
F
  0
LAYER
  5
200
100
AcDbSymbolTableRecord
100
AcDbLayerTableRecord
  2
02_COORD_SYS
 70
0
 62
7
  6
CONTINUOUS
370
-3
390
F
  0
LAYER
  5
201
100
AcDbSymbolTableRecord
100
AcDbLayerTableRecord
  2
03_AXES
 70
0
 62
7
  6
CONTINUOUS
370
-3
390
F
  0
LAYER
  5
202
100
AcDbSymbolTableRecord
100
AcDbLayerTableRecord
  2
04_POINTS
 70
0
 62
7
  6
CONTINUOUS
370
-3
390
F
  0
LAYER
  5
203
100
AcDbSymbolTableRecord
100
AcDbLayerTableRecord
  2
05_CURVES
 70
0
 62
7
  6
CONTINUOUS
370
-3
390
F
  0
LAYER
  5
204
100
AcDbSymbolTableRecord
100
AcDbLayerTableRecord
  2
06_SURFS
 70
0
 62
7
  6
CONTINUOUS
370
-3
390
F
  0
LAYER
  5
205
100
AcDbSymbolTableRecord
100
AcDbLayerTableRecord
  2
07_COSMETICS
 70
0
 62
7
  6
CONTINUOUS
370
-3
390
F
  0
LAYER
  5
206
100
AcDbSymbolTableRecord
100
AcDbLayerTableRecord
  2
10_NOTES
 70
0
 62
7
  6
CONTINUOUS
370
-3
390
F
  0
LAYER
  5
207
100
AcDbSymbolTableRecord
100
AcDbLayerTableRecord
  2
11_NOTES_PUB
 70
0
 62
7
  6
CONTINUOUS
370
-3
390
F
  0
LAYER
  5
208
100
AcDbSymbolTableRecord
100
AcDbLayerTableRecord
  2
13_REF_GTOL
 70
0
 62
7
  6
CONTINUOUS
370
-3
390
F
  0
LAYER
  5
209
100
AcDbSymbolTableRecord
100
AcDbLayerTableRecord
  2
16_MISC
 70
0
 62
7
  6
CONTINUOUS
370
-3
390
F
  0
LAYER
  5
20A
100
AcDbSymbolTableRecord
100
AcDbLayerTableRecord
  2
17_NO_PRINT
 70
0
 62
7
  6
CONTINUOUS
370
-3
390
F
  0
LAYER
  5
20B
100
AcDbSymbolTableRecord
100
AcDbLayerTableRecord
  2
18_DATUM_CAMS_JOINTS
 70
0
 62
7
  6
CONTINUOUS
370
-3
390
F
  0
LAYER
  5
20C
100
AcDbSymbolTableRecord
100
AcDbLayerTableRecord
  2
19_DATUM_FUNCTIONAL
 70
0
 62
7
  6
CONTINUOUS
370
-3
390
F
  0
LAYER
  5
20D
100
AcDbSymbolTableRecord
100
AcDbLayerTableRecord
  2
20_DATUM_KINEMATIC_SCHEME
 70
0
 62
7
  6
CONTINUOUS
370
-3
390
F
  0
ENDTAB
  0
TABLE
  2
STYLE
  5
3
100
AcDbSymbolTable
 70
1
  0
STYLE
  5
11
100
AcDbSymbolTableRecord
100
AcDbTextStyleTableRecord
  2
STANDARD
 70
0
 40
0.0
 41
0.8
 50
0.0
 71
0
 42
0.2
  3
txt
  4

  0
STYLE
  5
20E
100
AcDbSymbolTableRecord
100
AcDbTextStyleTableRecord
  2
TEXTSTYLE_1
 70
0
 40
0.0
 41
0.8
 50
0.0
 71
0
 42
0.2
  3
gdt
  4

  0
ENDTAB
  0
TABLE
  2
VIEW
  5
6
100
AcDbSymbolTable
 70
0
  0
ENDTAB
  0
TABLE
  2
UCS
  5
7
100
AcDbSymbolTable
 70
0
  0
ENDTAB
  0
TABLE
  2
APPID
  5
9
100
AcDbSymbolTable
 70
1
  0
APPID
  5
20F
100
AcDbSymbolTableRecord
100
AcDbRegAppTableRecord
  2
ACAD
 70
0
  0
ENDTAB
  0
TABLE
  2
BLOCK_RECORD
  5
1
100
AcDbSymbolTable
 70
0
  0
BLOCK_RECORD
  5
210
100
AcDbSymbolTableRecord
100
AcDbBlockTableRecord
  2
*Model_Space
  0
BLOCK_RECORD
  5
211
100
AcDbSymbolTableRecord
100
AcDbBlockTableRecord
  2
*Paper_Space
  0
BLOCK_RECORD
  5
212
100
AcDbSymbolTableRecord
100
AcDbBlockTableRecord
  2
_FILLED
  0
ENDTAB
  0
TABLE
  2
DIMSTYLE
  5
A
100
AcDbSymbolTable
 70
1
100
AcDbDimStyleTable
 71
0
  0
DIMSTYLE
105
213
100
AcDbSymbolTableRecord
100
AcDbDimStyleTableRecord
  2
STANDARD
 70
0
  3

  4

 40
1.0
 41
0.4273443654
 42
1.0
 43
0.38
 44
1.0
 45
0.0
 46
0.0
 47
0.01
 48
0.01
140
0.5982821115
141
0.09
142
0.0
143
25.4
144
1.0
145
0.0
146
1.0
147
0.625
 71
1
 72
0
 73
0
 74
0
 75
0
 76
0
 77
1
 78
8
 79
2
170
0
171
1
172
0
173
0
174
0
175
0
176
0
177
0
178
0
270
2
179
2
271
2
272
2
273
2
274
2
275
0
280
0
281
0
282
0
283
1
284
8
285
0
286
0
287
3
288
0
340
11
278
46
341
212
342
212
343
212
344
212
  0
ENDTAB
  0
ENDSEC
  0
SECTION
  2
BLOCKS
  0
BLOCK
  5
20
100
AcDbEntity
  8
0
100
AcDbBlockBegin
  2
*Model_Space
 70
0
 10
0.0
 20
0.0
 30
0.0
  3
*Model_Space
  1

  0
ENDBLK
  5
21
100
AcDbEntity
  8
0
100
AcDbBlockEnd
  0
BLOCK
  5
1C
100
AcDbEntity
  8
0
100
AcDbBlockBegin
  2
*Paper_Space
 70
0
 10
0.0
 20
0.0
 30
0.0
  3
*Paper_Space
  1

  0
ENDBLK
  5
1D
100
AcDbEntity
  8
0
100
AcDbBlockEnd
  0
BLOCK
  5
214
100
AcDbEntity
  8
0
100
AcDbBlockBegin
  2
_FILLED
 70
64
 10
0.0
 20
0.0
  3
_FILLED
  1

  0
SOLID
  5
215
100
AcDbEntity
  8
0
  6
BYBLOCK
 62
0
100
AcDbTrace
 10
0.0
 20
0.0
 11
-1.0
 21
0.25
 12
-1.0
 22
-0.25
 13
-1.0
 23
-0.25
  0
ENDBLK
  5
216
100
AcDbEntity
  8
0
  6
BYBLOCK
 62
0
100
AcDbBlockEnd
  0
ENDSEC
  0
SECTION
  2
ENTITIES
  0
LINE
  5
217
100
AcDbEntity
  8
0
100
AcDbLine
 62
7
  6
CONTINUOUS
 10
4.1644565001
 20
27.4817840056
 11
4.1644565001
 21
26.7559133568
  0
LINE
  5
218
100
AcDbEntity
  8
0
100
AcDbLine
 62
7
  6
CONTINUOUS
 10
14.2821815698
 20
34.4639029764
 11
14.8808628187
 21
34.8095496934
  0
LINE
  5
219
100
AcDbEntity
  8
0
100
AcDbLine
 62
7
  6
CONTINUOUS
 10
4.1644565001
 20
27.4817840056
 11
12.2466533595
 21
32.1480146843
  0
LINE
  5
21A
100
AcDbEntity
  8
0
100
AcDbLine
 62
7
  6
CONTINUOUS
 10
15.9584980398
 20
34.1873907835
 11
15.359816791
 21
33.8417440665
  0
LINE
  5
21B
100
AcDbEntity
  8
0
100
AcDbLine
 62
7
  6
CONTINUOUS
 10
15.3897669507
 20
30.3333782589
 11
16.5571792886
 21
31.0073800633
  0
LINE
  5
21C
100
AcDbEntity
  8
0
100
AcDbLine
 62
7
  6
CONTINUOUS
 10
4.1644565001
 20
26.7559133568
 11
23.20267874
 21
15.764439282
  0
LINE
  5
21D
100
AcDbEntity
  8
0
100
AcDbLine
 62
7
  6
CONTINUOUS
 10
13.683500321
 20
31.3184694711
 11
13.683500321
 21
33.4269508796
  0
LINE
  5
21E
100
AcDbEntity
  8
0
100
AcDbLine
 62
7
  6
CONTINUOUS
 10
23.20267874
 20
16.4903099309
 11
4.1644565001
 21
27.4817840056
  0
LINE
  5
21F
100
AcDbEntity
  8
0
100
AcDbLine
 62
7
  6
CONTINUOUS
 10
14.7611355421
 20
32.8047919698
 11
14.7611355421
 21
30.6963105613
  0
LINE
  5
220
100
AcDbEntity
  8
0
100
AcDbLine
 62
7
  6
CONTINUOUS
 10
16.5571792886
 20
31.0073800633
 11
16.5571792886
 21
33.8417321206
  0
LINE
  5
221
100
AcDbEntity
  8
0
100
AcDbLine
 62
7
  6
CONTINUOUS
 10
12.2466533595
 20
32.1480146843
 11
31.2848755994
 21
21.1565406096
  0
LINE
  5
222
100
AcDbEntity
  8
0
100
AcDbLine
 62
7
  6
CONTINUOUS
 10
13.683500321
 20
33.4269508796
 11
14.7611355421
 21
32.8047919698
  0
LINE
  5
223
100
AcDbEntity
  8
0
100
AcDbLine
 62
7
  6
CONTINUOUS
 10
28.7703934167
 20
24.7167261412
 11
29.8480286379
 21
24.0945672313
  0
LINE
  5
224
100
AcDbEntity
  8
0
100
AcDbLine
 62
7
  6
CONTINUOUS
 10
31.2720686061
 20
23.3415785595
 11
30.4510131995
 21
23.8156043956
  0
LINE
  5
225
100
AcDbEntity
  8
0
100
AcDbLine
 62
7
  6
CONTINUOUS
 10
13.4654294761
 20
33.6220138801
 11
13.6895927768
 21
33.4925960659
  0
LINE
  5
226
100
AcDbEntity
  8
0
100
AcDbLine
 62
7
  6
CONTINUOUS
 10
23.20267874
 20
16.4903099309
 11
23.20267874
 21
15.764439282
  0
LINE
  5
227
100
AcDbEntity
  8
0
100
AcDbLine
 62
7
  6
CONTINUOUS
 10
29.3690746656
 20
25.753678238
 11
29.9677559144
 21
26.0993249549
  0
LINE
  5
228
100
AcDbEntity
  8
0
100
AcDbLine
 62
7
  6
CONTINUOUS
 10
30.4467098867
 20
25.1315193281
 11
29.3690746656
 21
25.753678238
  0
LINE
  5
229
100
AcDbEntity
  8
0
100
AcDbLine
 62
7
  6
CONTINUOUS
 10
15.359816791
 20
33.8417440665
 11
14.2821815698
 21
34.4639029764
  0
LINE
  5
22A
100
AcDbEntity
  8
0
100
AcDbLine
 62
7
  6
CONTINUOUS
 10
31.0453911355
 20
25.477166045
 11
30.4467098867
 21
25.1315193281
  0
LINE
  5
22B
100
AcDbEntity
  8
0
100
AcDbLine
 62
7
  6
CONTINUOUS
 10
32.1187209074
 20
24.8080565371
 11
31.2976655008
 21
25.2820823732
  0
LINE
  5
22C
100
AcDbEntity
  8
0
100
AcDbLine
 62
7
  6
CONTINUOUS
 10
14.3120817773
 20
35.0884918576
 11
14.83804912
 21
34.7848313405
  0
LINE
  5
22D
100
AcDbEntity
  8
0
100
AcDbLine
 62
7
  6
CONTINUOUS
 10
14.8808628187
 20
34.8095496934
 11
15.9584980398
 21
34.1873907835
  0
LINE
  5
22E
100
AcDbEntity
  8
0
100
AcDbLine
 62
7
  6
CONTINUOUS
 10
29.9677559144
 20
26.0993249549
 11
31.0453911355
 21
25.477166045
  0
LINE
  5
22F
100
AcDbEntity
  8
0
100
AcDbLine
 62
7
  6
CONTINUOUS
 10
31.4687172862
 20
25.519099654
 11
30.391082065
 21
26.1412585639
  0
LINE
  5
230
100
AcDbEntity
  8
0
100
AcDbLine
 62
7
  6
CONTINUOUS
 10
16.3818241904
 20
34.2293243924
 11
15.3041889693
 21
34.8514833023
  0
LINE
  5
231
100
AcDbEntity
  8
0
100
AcDbLine
 62
7
  6
CONTINUOUS
 10
30.4766600464
 20
21.6231535205
 11
31.6440723844
 21
22.2971553248
  0
LINE
  5
232
100
AcDbEntity
  8
0
100
AcDbLine
 62
7
  6
CONTINUOUS
 10
31.2848755994
 20
21.1565406096
 11
23.20267874
 21
16.4903099309
  0
LINE
  5
233
100
AcDbEntity
  8
0
100
AcDbLine
 62
7
  6
CONTINUOUS
 10
28.7703934167
 20
22.6082447327
 11
28.7703934167
 21
24.7167261412
  0
LINE
  5
234
100
AcDbEntity
  8
0
100
AcDbLine
 62
7
  6
CONTINUOUS
 10
23.20267874
 20
15.764439282
 11
31.2848755994
 21
20.4306699608
  0
LINE
  5
235
100
AcDbEntity
  8
0
100
AcDbLine
 62
7
  6
CONTINUOUS
 10
29.8480286379
 20
24.0945672313
 11
29.8480286379
 21
21.9860858228
  0
LINE
  5
236
100
AcDbEntity
  8
0
100
AcDbLine
 62
7
  6
CONTINUOUS
 10
31.2848755994
 20
21.1565406096
 11
31.2848755994
 21
20.4306699608
  0
LINE
  5
237
100
AcDbEntity
  8
0
100
AcDbLine
 62
7
  6
CONTINUOUS
 10
31.6440723844
 20
22.2971553248
 11
31.6440723844
 21
23.3686455936
  0
LINE
  5
238
100
AcDbEntity
  8
0
100
AcDbLine
 62
7
  6
CONTINUOUS
 10
31.6440723844
 20
25.0820887901
 11
31.6440723844
 21
25.1315073821
  0
SPLINE
  5
239
100
AcDbEntity
  8
0
100
AcDbSpline
 62
7
  6
CONTINUOUS
 70
0
 71
3
 72
22
 73
18
 74
0
 42
0.0000001
 43
0.0000001
 44
0.0000000001
 40
0.0
 40
0.0
 40
0.0
 40
0.0
 40
0.0623741775
 40
0.1287740794
 40
0.1983840333
 40
0.2703768273
 40
0.4173946281
 40
0.4904363823
 40
0.5617442822
 40
0.6303605383
 40
0.6954685713
 40
0.7564337323
 40
0.8128868904
 40
0.8648045609
 40
0.912592247
 40
0.9571801329
 40
1.0
 40
1.0
 40
1.0
 40
1.0
 10
31.6953947567
 20
23.3835121685
 30
0.0
 10
31.7258005852
 20
23.4010668769
 30
0.0
 10
31.7862261791
 20
23.4414711648
 30
0.0
 10
31.8718236819
 20
23.5134687419
 30
0.0
 10
31.9536417896
 20
23.5974844881
 30
0.0
 10
32.0559842812
 20
23.7238640176
 30
0.0
 10
32.1425809402
 20
23.8647290559
 30
0.0
 10
32.2101921852
 20
24.0143137874
 30
0.0
 10
32.249840313
 20
24.1276275955
 30
0.0
 10
32.2776422257
 20
24.2398241023
 30
0.0
 10
32.2930405744
 20
24.348541117
 30
0.0
 10
32.29565547
 20
24.4515096478
 30
0.0
 10
32.285393996
 20
24.546601304
 30
0.0
 10
32.2623661157
 20
24.6318692108
 30
0.0
 10
32.2267689284
 20
24.7054977839
 30
0.0
 10
32.1791644109
 20
24.7657193771
 30
0.0
 10
32.1395900334
 20
24.7959974819
 30
0.0
 10
32.1187184331
 20
24.8080522479
 30
0.0
  0
SPLINE
  5
23A
100
AcDbEntity
  8
0
100
AcDbSpline
 62
7
  6
CONTINUOUS
 70
0
 71
3
 72
22
 73
18
 74
0
 42
0.0000001
 43
0.0000001
 44
0.0000000001
 40
0.0
 40
0.0
 40
0.0
 40
0.0
 40
0.0428197277
 40
0.0874078882
 40
0.1351955973
 40
0.1871132179
 40
0.2435669101
 40
0.3045317684
 40
0.3696368029
 40
0.4382490327
 40
0.5095540844
 40
0.5825958046
 40
0.729619383
 40
0.8016153921
 40
0.8712278286
 40
0.9376272915
 40
1.0
 40
1.0
 40
1.0
 40
1.0
 10
13.4654320595
 20
33.6220183404
 30
0.0
 10
13.4445606008
 20
33.6340731943
 30
0.0
 10
13.4049852765
 20
33.6643501742
 30
0.0
 10
13.3573815262
 20
33.7245727349
 30
0.0
 10
13.321784394
 20
33.7982012972
 30
0.0
 10
13.2987556778
 20
33.8834693644
 30
0.0
 10
13.2884956433
 20
33.9785612979
 30
0.0
 10
13.2911097689
 20
34.0815281849
 30
0.0
 10
13.3065066848
 20
34.1902413102
 30
0.0
 10
13.3343081316
 20
34.3024321328
 30
0.0
 10
13.3739521233
 20
34.415743242
 30
0.0
 10
13.4415642986
 20
34.5653294058
 30
0.0
 10
13.5281615479
 20
34.7061999235
 30
0.0
 10
13.6305076324
 20
34.8325849671
 30
0.0
 10
13.7123280769
 20
34.9166025401
 30
0.0
 10
13.7979254271
 20
34.9886008362
 30
0.0
 10
13.8583505146
 20
35.0290039538
 30
0.0
 10
13.8887556267
 20
35.0465582487
 30
0.0
  0
SPLINE
  5
23B
100
AcDbEntity
  8
0
100
AcDbSpline
 62
7
  6
CONTINUOUS
 70
0
 71
3
 72
14
 73
10
 74
0
 42
0.0000001
 43
0.0000001
 44
0.0000000001
 40
0.0
 40
0.0
 40
0.0
 40
0.0
 40
0.2892484383
 40
0.422572185
 40
0.5485194239
 40
0.6678937481
 40
0.7818658678
 40
0.8919548143
 40
1.0
 40
1.0
 40
1.0
 40
1.0
 10
31.6440723844
 20
25.1315073821
 30
0.0
 10
31.6440723844
 20
25.1744177046
 30
0.0
 10
31.6390540914
 20
25.2374135354
 30
0.0
 10
31.619697419
 20
25.3165943339
 30
0.0
 10
31.5999912382
 20
25.3693566087
 30
0.0
 10
31.5748781966
 20
25.4165629579
 30
0.0
 10
31.5445442291
 20
25.4577461369
 30
0.0
 10
31.5092903966
 20
25.4924635578
 30
0.0
 10
31.482595446
 20
25.5110800887
 30
0.0
 10
31.4687141744
 20
25.5190942641
 30
0.0
  0
SPLINE
  5
23C
100
AcDbEntity
  8
0
100
AcDbSpline
 62
7
  6
CONTINUOUS
 70
0
 71
3
 72
14
 73
10
 74
0
 42
0.0000001
 43
0.0000001
 44
0.0000000001
 40
0.0
 40
0.0
 40
0.0
 40
0.0
 40
0.28924699
 40
0.4225703404
 40
0.5485174524
 40
0.6678919341
 40
0.781864477
 40
0.8919540619
 40
1.0
 40
1.0
 40
1.0
 40
1.0
 10
14.8808628187
 20
34.8095496934
 30
0.0
 10
14.9180226421
 20
34.8310037994
 30
0.0
 10
14.9750853159
 20
34.8581544187
 30
0.0
 10
15.0533328545
 20
34.8809804237
 30
0.0
 10
15.1088771417
 20
34.8902951884
 30
0.0
 10
15.1623134928
 20
34.8921499526
 30
0.0
 10
15.2131443467
 20
34.886472108
 30
0.0
 10
15.2608359372
 20
34.8733011061
 30
0.0
 10
15.2903050403
 20
34.8594918254
 30
0.0
 10
15.3041858575
 20
34.8514779124
 30
0.0
  0
SPLINE
  5
23D
100
AcDbEntity
  8
0
100
AcDbSpline
 62
7
  6
CONTINUOUS
 70
0
 71
3
 72
15
 73
11
 74
0
 42
0.0000001
 43
0.0000001
 44
0.0000000001
 40
0.0
 40
0.0
 40
0.0
 40
0.0
 40
0.1141475829
 40
0.2373370756
 40
0.3669780685
 40
0.5000016033
 40
0.6330249151
 40
0.7626652568
 40
0.8858537231
 40
1.0
 40
1.0
 40
1.0
 40
1.0
 10
13.683500321
 20
33.4269508796
 30
0.0
 10
13.683500321
 20
33.4742728034
 30
0.0
 10
13.692174177
 20
33.5727562485
 30
0.0
 10
13.7267211785
 20
33.7213271248
 30
0.0
 10
13.7820896763
 20
33.871814299
 30
0.0
 10
13.8561688728
 20
34.018563014
 30
0.0
 10
13.9462165682
 20
34.1560920545
 30
0.0
 10
14.0488570236
 20
34.2792859922
 30
0.0
 10
14.1602485161
 20
34.3834894537
 30
0.0
 10
14.2411999894
 20
34.4402423912
 30
0.0
 10
14.2821815698
 20
34.4639029764
 30
0.0
  0
SPLINE
  5
23E
100
AcDbEntity
  8
0
100
AcDbSpline
 62
7
  6
CONTINUOUS
 70
0
 71
3
 72
14
 73
10
 74
0
 42
0.0000001
 43
0.0000001
 44
0.0000000001
 40
0.0
 40
0.0
 40
0.0
 40
0.0
 40
0.108046845
 40
0.2181393401
 40
0.3321020194
 40
0.4514748052
 40
0.5774324259
 40
0.710789082
 40
1.0
 40
1.0
 40
1.0
 40
1.0
 10
31.2720710803
 20
23.3415828486
 30
0.0
 10
31.2859505934
 20
23.3335664876
 30
0.0
 10
31.3154258507
 20
23.3197678453
 30
0.0
 10
31.3631140839
 20
23.3065947787
 30
0.0
 10
31.4139429557
 20
23.3009044401
 30
0.0
 10
31.4673787647
 20
23.3027696606
 30
0.0
 10
31.5229301182
 20
23.3120782621
 30
0.0
 10
31.6011746879
 20
23.3349191496
 30
0.0
 10
31.6582396595
 20
23.3620607911
 30
0.0
 10
31.6953947567
 20
23.3835121685
 30
0.0
  0
SPLINE
  5
23F
100
AcDbEntity
  8
0
100
AcDbSpline
 62
7
  6
CONTINUOUS
 70
0
 71
3
 72
14
 73
10
 74
0
 42
0.0000001
 43
0.0000001
 44
0.0000000001
 40
0.0
 40
0.0
 40
0.0
 40
0.0
 40
0.289218863
 40
0.4225747306
 40
0.5485305245
 40
0.6679015145
 40
0.7818635899
 40
0.8919547618
 40
1.0
 40
1.0
 40
1.0
 40
1.0
 10
13.8887556267
 20
35.0465582487
 30
0.0
 10
13.9259117776
 20
35.0680102343
 30
0.0
 10
13.9829777534
 20
35.0951525476
 30
0.0
 10
14.0612233652
 20
35.1179928542
 30
0.0
 10
14.1167741038
 20
35.127301571
 30
0.0
 10
14.1702093939
 20
35.1291656767
 30
0.0
 10
14.2210376502
 20
35.1234757394
 30
0.0
 10
14.2687259817
 20
35.1103041731
 30
0.0
 10
14.2982000117
 20
35.0965038689
 30
0.0
 10
14.3120793847
 20
35.0884877133
 30
0.0
  0
SPLINE
  5
240
100
AcDbEntity
  8
0
100
AcDbSpline
 62
7
  6
CONTINUOUS
 70
0
 71
3
 72
14
 73
10
 74
0
 42
0.0000001
 43
0.0000001
 44
0.0000000001
 40
0.0
 40
0.0
 40
0.0
 40
0.0
 40
0.2892484383
 40
0.422572185
 40
0.5485194239
 40
0.6678937481
 40
0.7818658678
 40
0.8919548143
 40
1.0
 40
1.0
 40
1.0
 40
1.0
 10
16.5571792886
 20
33.8417321206
 30
0.0
 10
16.5571792886
 20
33.884642443
 30
0.0
 10
16.5521609956
 20
33.9476382738
 30
0.0
 10
16.5328043233
 20
34.0268190723
 30
0.0
 10
16.5130981425
 20
34.0795813471
 30
0.0
 10
16.4879851008
 20
34.1267876963
 30
0.0
 10
16.4576511334
 20
34.1679708754
 30
0.0
 10
16.4223973008
 20
34.2026882962
 30
0.0
 10
16.3957023503
 20
34.2213048272
 30
0.0
 10
16.3818210786
 20
34.2293190025
 30
0.0
  0
SPLINE
  5
241
100
AcDbEntity
  8
0
100
AcDbSpline
 62
7
  6
CONTINUOUS
 70
0
 71
3
 72
14
 73
10
 74
0
 42
0.0000001
 43
0.0000001
 44
0.0000000001
 40
0.0
 40
0.0
 40
0.0
 40
0.0
 40
0.28924699
 40
0.4225703404
 40
0.5485174524
 40
0.6678919341
 40
0.781864477
 40
0.8919540619
 40
1.0
 40
1.0
 40
1.0
 40
1.0
 10
29.9677559144
 20
26.0993249549
 30
0.0
 10
30.0049157379
 20
26.1207790609
 30
0.0
 10
30.0619784117
 20
26.1479296802
 30
0.0
 10
30.1402259502
 20
26.1707556853
 30
0.0
 10
30.1957702375
 20
26.18007045
 30
0.0
 10
30.2492065885
 20
26.1819252142
 30
0.0
 10
30.3000374424
 20
26.1762473696
 30
0.0
 10
30.347729033
 20
26.1630763677
 30
0.0
 10
30.377198136
 20
26.149267087
 30
0.0
 10
30.3910789533
 20
26.141253174
 30
0.0
  0
SPLINE
  5
242
100
AcDbEntity
  8
0
100
AcDbSpline
 62
7
  6
CONTINUOUS
 70
0
 71
3
 72
15
 73
11
 74
0
 42
0.0000001
 43
0.0000001
 44
0.0000000001
 40
0.0
 40
0.0
 40
0.0
 40
0.0
 40
0.1141475829
 40
0.2373370756
 40
0.3669780685
 40
0.5000016033
 40
0.6330249151
 40
0.7626652568
 40
0.8858537231
 40
1.0
 40
1.0
 40
1.0
 40
1.0
 10
28.7703934167
 20
24.7167261412
 30
0.0
 10
28.7703934167
 20
24.764048065
 30
0.0
 10
28.7790672727
 20
24.8625315101
 30
0.0
 10
28.8136142743
 20
25.0111023864
 30
0.0
 10
28.868982772
 20
25.1615895606
 30
0.0
 10
28.9430619685
 20
25.3083382756
 30
0.0
 10
29.0331096639
 20
25.4458673161
 30
0.0
 10
29.1357501194
 20
25.5690612538
 30
0.0
 10
29.2471416118
 20
25.6732647152
 30
0.0
 10
29.3280930851
 20
25.7300176527
 30
0.0
 10
29.3690746656
 20
25.753678238
 30
0.0
  0
SPLINE
  5
243
100
AcDbEntity
  8
0
100
AcDbSpline
 62
7
  6
CONTINUOUS
 70
0
 71
3
 72
22
 73
18
 74
0
 42
0.0000001
 43
0.0000001
 44
0.0000000001
 40
0.0
 40
0.0
 40
0.0
 40
0.0
 40
0.0623741775
 40
0.1287740794
 40
0.1983840333
 40
0.2703768273
 40
0.4173946281
 40
0.4904363823
 40
0.5617442822
 40
0.6303605383
 40
0.6954685713
 40
0.7564337323
 40
0.8128868904
 40
0.8648045609
 40
0.912592247
 40
0.9571801329
 40
1.0
 40
1.0
 40
1.0
 40
1.0
 10
31.6953947567
 20
24.7661229281
 30
0.0
 10
31.6649889282
 20
24.7485682197
 30
0.0
 10
31.6045633344
 20
24.7081639318
 30
0.0
 10
31.5189658316
 20
24.6361663547
 30
0.0
 10
31.4371477239
 20
24.5521506085
 30
0.0
 10
31.3348052322
 20
24.425771079
 30
0.0
 10
31.2482085733
 20
24.2849060407
 30
0.0
 10
31.1805973283
 20
24.1353213091
 30
0.0
 10
31.1409492004
 20
24.0220075011
 30
0.0
 10
31.1131472878
 20
23.9098109943
 30
0.0
 10
31.0977489391
 20
23.8010939796
 30
0.0
 10
31.0951340434
 20
23.6981254488
 30
0.0
 10
31.1053955175
 20
23.6030337926
 30
0.0
 10
31.1284233977
 20
23.5177658858
 30
0.0
 10
31.164020585
 20
23.4441373127
 30
0.0
 10
31.2116251026
 20
23.3839157195
 30
0.0
 10
31.25119948
 20
23.3536376147
 30
0.0
 10
31.2720710803
 20
23.3415828486
 30
0.0
  0
SPLINE
  5
244
100
AcDbEntity
  8
0
100
AcDbSpline
 62
7
  6
CONTINUOUS
 70
0
 71
3
 72
14
 73
10
 74
0
 42
0.0000001
 43
0.0000001
 44
0.0000000001
 40
0.0
 40
0.0
 40
0.0
 40
0.0
 40
0.108046845
 40
0.2181393401
 40
0.3321020194
 40
0.4514748052
 40
0.5774324259
 40
0.710789082
 40
1.0
 40
1.0
 40
1.0
 40
1.0
 10
32.1187184331
 20
24.8080522479
 30
0.0
 10
32.10483892
 20
24.816068609
 30
0.0
 10
32.0753636627
 20
24.8298672513
 30
0.0
 10
32.0276754296
 20
24.8430403179
 30
0.0
 10
31.9768465577
 20
24.8487306565
 30
0.0
 10
31.9234107487
 20
24.846865436
 30
0.0
 10
31.8678593952
 20
24.8375568345
 30
0.0
 10
31.7896148255
 20
24.814715947
 30
0.0
 10
31.7325498539
 20
24.7875743055
 30
0.0
 10
31.6953947567
 20
24.7661229281
 30
0.0
  0
SPLINE
  5
245
100
AcDbEntity
  8
0
100
AcDbSpline
 62
7
  6
CONTINUOUS
 70
0
 71
3
 72
14
 73
10
 74
0
 42
0.0000001
 43
0.0000001
 44
0.0000000001
 40
0.0
 40
0.0
 40
0.0
 40
0.0
 40
0.1080459381
 40
0.218135523
 40
0.3321080659
 40
0.4514825476
 40
0.5774296596
 40
0.71075301
 40
1.0
 40
1.0
 40
1.0
 40
1.0
 10
16.3818210786
 20
34.2293190025
 30
0.0
 10
16.3679402614
 20
34.2373329155
 30
0.0
 10
16.3384711584
 20
34.2511421962
 30
0.0
 10
16.2907795678
 20
34.2643131981
 30
0.0
 10
16.2399487139
 20
34.2699910427
 30
0.0
 10
16.1865123628
 20
34.2681362786
 30
0.0
 10
16.1309680756
 20
34.2588215138
 30
0.0
 10
16.0527205371
 20
34.2359955088
 30
0.0
 10
15.9956578633
 20
34.2088448895
 30
0.0
 10
15.9584980398
 20
34.1873907835
 30
0.0
  0
SPLINE
  5
246
100
AcDbEntity
  8
0
100
AcDbSpline
 62
7
  6
CONTINUOUS
 70
0
 71
3
 72
14
 73
10
 74
0
 42
0.0000001
 43
0.0000001
 44
0.0000000001
 40
0.0
 40
0.0
 40
0.0
 40
0.0
 40
0.289218863
 40
0.4225747306
 40
0.5485305245
 40
0.6679015145
 40
0.7818635899
 40
0.8919547618
 40
1.0
 40
1.0
 40
1.0
 40
1.0
 10
30.8743393502
 20
25.2401487642
 30
0.0
 10
30.911495501
 20
25.2616007499
 30
0.0
 10
30.9685614769
 20
25.2887430631
 30
0.0
 10
31.0468070886
 20
25.3115833697
 30
0.0
 10
31.1023578272
 20
25.3208920865
 30
0.0
 10
31.1557931173
 20
25.3227561923
 30
0.0
 10
31.2066213736
 20
25.317066255
 30
0.0
 10
31.2543097051
 20
25.3038946886
 30
0.0
 10
31.2837837352
 20
25.2900943844
 30
0.0
 10
31.2976631081
 20
25.2820782288
 30
0.0
  0
SPLINE
  5
247
100
AcDbEntity
  8
0
100
AcDbSpline
 62
7
  6
CONTINUOUS
 70
0
 71
3
 72
15
 73
11
 74
0
 42
0.0000001
 43
0.0000001
 44
0.0000000001
 40
0.0
 40
0.0
 40
0.0
 40
0.0
 40
0.1141462769
 40
0.2373347432
 40
0.3669750849
 40
0.4999983967
 40
0.6330219315
 40
0.7626629244
 40
0.8858524171
 40
1.0
 40
1.0
 40
1.0
 40
1.0
 10
15.359816791
 20
33.8417440665
 30
0.0
 10
15.3188352105
 20
33.8180834813
 30
0.0
 10
15.2378837372
 20
33.7613305438
 30
0.0
 10
15.1264922448
 20
33.6571270823
 30
0.0
 10
15.0238517893
 20
33.5339331446
 30
0.0
 10
14.9338040939
 20
33.3964041041
 30
0.0
 10
14.8597248974
 20
33.2496553891
 30
0.0
 10
14.8043563996
 20
33.099168215
 30
0.0
 10
14.7698093981
 20
32.9505973386
 30
0.0
 10
14.7611355421
 20
32.8521138935
 30
0.0
 10
14.7611355421
 20
32.8047919698
 30
0.0
  0
SPLINE
  5
248
100
AcDbEntity
  8
0
100
AcDbSpline
 62
7
  6
CONTINUOUS
 70
0
 71
3
 72
15
 73
11
 74
0
 42
0.0000001
 43
0.0000001
 44
0.0000000001
 40
0.0
 40
0.0
 40
0.0
 40
0.0
 40
0.1141462769
 40
0.2373347432
 40
0.3669750849
 40
0.4999983967
 40
0.6330219315
 40
0.7626629244
 40
0.8858524171
 40
1.0
 40
1.0
 40
1.0
 40
1.0
 10
30.4467098867
 20
25.1315193281
 30
0.0
 10
30.4057283063
 20
25.1078587428
 30
0.0
 10
30.3247768329
 20
25.0511058053
 30
0.0
 10
30.2133853405
 20
24.9469023439
 30
0.0
 10
30.110744885
 20
24.8237084062
 30
0.0
 10
30.0206971897
 20
24.6861793657
 30
0.0
 10
29.9466179931
 20
24.5394306507
 30
0.0
 10
29.8912494954
 20
24.3889434765
 30
0.0
 10
29.8567024938
 20
24.2403726002
 30
0.0
 10
29.8480286379
 20
24.1418891551
 30
0.0
 10
29.8480286379
 20
24.0945672313
 30
0.0
  0
SPLINE
  5
249
100
AcDbEntity
  8
0
100
AcDbSpline
 62
7
  6
CONTINUOUS
 70
0
 71
3
 72
14
 73
10
 74
0
 42
0.0000001
 43
0.0000001
 44
0.0000000001
 40
0.0
 40
0.0
 40
0.0
 40
0.0
 40
0.1080459381
 40
0.218135523
 40
0.3321080659
 40
0.4514825476
 40
0.5774296596
 40
0.71075301
 40
1.0
 40
1.0
 40
1.0
 40
1.0
 10
31.4687141744
 20
25.5190942641
 30
0.0
 10
31.4548333571
 20
25.5271081771
 30
0.0
 10
31.4253642541
 20
25.5409174578
 30
0.0
 10
31.3776726635
 20
25.5540884597
 30
0.0
 10
31.3268418096
 20
25.5597663043
 30
0.0
 10
31.2734054586
 20
25.5579115401
 30
0.0
 10
31.2178611713
 20
25.5485967754
 30
0.0
 10
31.1396136328
 20
25.5257707703
 30
0.0
 10
31.082550959
 20
25.4986201511
 30
0.0
 10
31.0453911355
 20
25.477166045
 30
0.0
  0
SPLINE
  5
24A
100
AcDbEntity
  8
0
100
AcDbSpline
 62
7
  6
CONTINUOUS
 70
0
 71
3
 72
22
 73
18
 74
0
 42
0.0000001
 43
0.0000001
 44
0.0000000001
 40
0.0
 40
0.0
 40
0.0
 40
0.0
 40
0.0428197277
 40
0.0874078882
 40
0.1351955973
 40
0.1871132179
 40
0.2435669101
 40
0.3045317684
 40
0.3696368029
 40
0.4382490327
 40
0.5095540844
 40
0.5825958046
 40
0.729619383
 40
0.8016153921
 40
0.8712278286
 40
0.9376272915
 40
1.0
 40
1.0
 40
1.0
 40
1.0
 10
30.4510157829
 20
23.815608856
 30
0.0
 10
30.4301443242
 20
23.8276637098
 30
0.0
 10
30.3905689999
 20
23.8579406897
 30
0.0
 10
30.3429652496
 20
23.9181632505
 30
0.0
 10
30.3073681175
 20
23.9917918128
 30
0.0
 10
30.2843394012
 20
24.0770598799
 30
0.0
 10
30.2740793668
 20
24.1721518134
 30
0.0
 10
30.2766934923
 20
24.2751187004
 30
0.0
 10
30.2920904082
 20
24.3838318258
 30
0.0
 10
30.3198918551
 20
24.4960226484
 30
0.0
 10
30.3595358467
 20
24.6093337576
 30
0.0
 10
30.4271480221
 20
24.7589199214
 30
0.0
 10
30.5137452713
 20
24.8997904391
 30
0.0
 10
30.6160913558
 20
25.0261754827
 30
0.0
 10
30.6979118003
 20
25.1101930556
 30
0.0
 10
30.7835091506
 20
25.1821913517
 30
0.0
 10
30.843934238
 20
25.2225944693
 30
0.0
 10
30.8743393502
 20
25.2401487642
 30
0.0
  0
ENDSEC
  0
SECTION
  2
OBJECTS
  0
DICTIONARY
  5
C
100
AcDbDictionary
280
0
281
1
  3
ACAD_GROUP
350
D
  3
ACAD_MLINESTYLE
350
17
  3
ACAD_LAYOUT
350
1A
  3
ACAD_PLOTSETTINGS
350
19
  3
ACAD_PLOTSTYLENAME
350
E
  0
DICTIONARY
  5
D
102
{ACAD_REACTORS
330
C
102
}
100
AcDbDictionary
280
0
281
1
  0
ACDBDICTIONARYWDFLT
  5
E
102
{ACAD_REACTORS
330
C
102
}
100
AcDbDictionary
281
1
  3
Normal
350
F
100
AcDbDictionaryWithDefault
340
F
  0
DICTIONARY
  5
17
102
{ACAD_REACTORS
330
C
102
}
100
AcDbDictionary
280
0
281
1
  3
Standard
350
18
  0
DICTIONARY
  5
19
102
{ACAD_REACTORS
330
C
102
}
100
AcDbDictionary
281
1
  0
DICTIONARY
  5
1A
102
{ACAD_REACTORS
330
C
102
}
100
AcDbDictionary
281
1
  3
Model
350
24B
  3
Layout1
350
24C
  0
ACDBPLACEHOLDER
  5
F
102
{ACAD_REACTORS
330
E
102
}
  0
MLINESTYLE
  5
18
102
{ACAD_REACTORS
330
17
102
}
100
AcDbMlineStyle
  2
STANDARD
 70
0
  3

 62
256
 51
90.0
 52
90.0
 71
2
 49
0.5
 62
256
  6
BYLAYER
 49
-0.5
 62
256
  6
BYLAYER
  0
LAYOUT
  5
24B
102
{ACAD_REACTORS
330
1A
102
}
100
AcDbPlotSettings
  1

  2
none_device
  4

  6

 40
0.0
 41
0.0
 42
0.0
 43
0.0
 44
210.0
 45
297.0
 46
0.0
 47
0.0
 48
0.0
 49
0.0
140
0.0
141
0.0
142
1.0
143
1.0
 70
1024
 72
1
 73
0
 74
0
  7

 75
0
147
1.0
148
0.0
149
0.0
100
AcDbLayout
  1
Model
 70
0
 71
0
 10
0.0
 20
0.0
 11
210.0
 21
297.0
 12
0.0
 22
0.0
 32
0.0
 14
0.0
 24
0.0
 34
0.0
 15
0.0
 25
0.0
 35
0.0
146
0.0
 13
0.0
 23
0.0
 33
0.0
 16
1.0
 26
0.0
 36
0.0
 17
0.0
 27
1.0
 37
0.0
 76
0
330
210
345
0
346
0
  0
LAYOUT
  5
24C
102
{ACAD_REACTORS
330
1A
102
}
100
AcDbPlotSettings
  1

  2
none_device
  4

  6

 40
0.0
 41
0.0
 42
0.0
 43
0.0
 44
210.0
 45
297.0
 46
0.0
 47
0.0
 48
0.0
 49
0.0
140
0.0
141
0.0
142
1.0
143
1.0
 70
0
 72
1
 73
0
 74
0
  7

 75
0
147
1.0
148
0.0
149
0.0
100
AcDbLayout
  1
Layout1
 70
0
 71
1
 10
0.0
 20
0.0
 11
210.0
 21
297.0
 12
0.0
 22
0.0
 32
0.0
 14
0.0
 24
0.0
 34
0.0
 15
0.0
 25
0.0
 35
0.0
146
0.0
 13
0.0
 23
0.0
 33
0.0
 16
1.0
 26
0.0
 36
0.0
 17
0.0
 27
1.0
 37
0.0
 76
0
330
211
345
0
346
0
  0
ENDSEC
  0
EOF
