999
DXF file: C:\Users\sesa63760\Dev\_Creo\CAD\MCADID0001739_3D-CAD\drw0001_3.dxf
999
Pro/ENGINEER 2019471 by Parametric Technology Corporation
  0
SECTION
  2
HEADER
  9
$ACADVER
  1
AC1024
  9
$DWGCODEPAGE
  3
ANSI_1252
  9
$EXTMAX
 10
90.9956766107
 20
128.6938854922
 30
0.0
  9
$EXTMIN
 10
0.0
 20
0.0
 30
0.0
  9
$LIMMIN
 10
0.0
 20
0.0
  9
$LIMMAX
 10
90.9956766107
 20
128.6938854922
  9
$VIEWCTR
 10
45.4978383053
 20
64.3469427461
  9
$VIEWSIZE
 40
128.6938854922
  9
$CLAYER
  8
0
  9
$LTSCALE
 40
8.388934758
  9
$CELTYPE
  6
BYLAYER
  9
$DIMSCALE
 40
1.0
  9
$DIMASZ
 40
1.0832818644
  9
$DIMEXO
 40
1.0
  9
$DIMDLI
 40
5.7959912874
  9
$DIMEXE
 40
1.0
  9
$DIMCEN
 40
1.3727347786
  9
$DIMLFAC
 40
1.0
  9
$DIMBLK
  1
_FILLED
  9
$DIMALT
 70
0
  9
$DIMALTF
 40
0.0393700787
  9
$DIMTXT
 40
1.5165946102
  9
$DIMTOL
 70
1
  9
$DIMLIM
 70
0
  9
$DIMTFAC
 40
1.0
  9
$DIMTP
 40
0.01
  9
$DIMTM
 40
0.01
  9
$DIMGAP
 40
0.625
  9
$DIMDSEP
 70
46
  9
$AUNITS
 70
0
  9
$PDMODE
 70
3
  9
$PDSIZE
 40
0.3125
  9
$HANDSEED
  5
369
  9
$TILEMODE
 70
1
  9
$MEASUREMENT
 70
1
  9
$INSUNITS
 70
4
  0
ENDSEC
  0
SECTION
  2
CLASSES
  0
CLASS
  1
ACDBDICTIONARYWDFLT
  2
AcDbDictionaryWithDefault
  3
AutoCAD 2000
 90
0
 91
1
280
0
281
0
  0
CLASS
  1
ACDBPLACEHOLDER
  2
AcDbPlaceHolder
  3
AutoCAD 2000
 90
0
 91
1
280
0
281
0
  0
CLASS
  1
LAYOUT
  2
AcDbLayout
  3
AutoCAD 2000
 90
0
 91
0
280
0
281
0
  0
ENDSEC
  0
SECTION
  2
TABLES
  0
TABLE
  2
VPORT
  5
8
100
AcDbSymbolTable
 70
2
  0
VPORT
  5
1F4
100
AcDbSymbolTableRecord
100
AcDbViewportTableRecord
  2
*ACTIVE
 70
0
 10
0.0
 20
0.0
 11
1.0
 21
1.0
 12
45.4978383053
 22
64.3469427461
 13
0.0
 23
0.0
 14
1.0
 24
1.0
 15
0.0
 25
0.0
 16
0.0
 26
0.0
 36
1.0
 17
0.0
 27
0.0
 37
0.0
 40
128.6938854922
 41
0.7070707071
 42
50.0
 43
0.0
 44
0.0
 50
0.0
 51
0.0
 71
0
 72
100
 73
1
 74
1
 75
0
 76
0
 77
0
 78
0
  0
ENDTAB
  0
TABLE
  2
LTYPE
  5
5
100
AcDbSymbolTable
 70
6
  0
LTYPE
  5
14
100
AcDbSymbolTableRecord
100
AcDbLinetypeTableRecord
  2
BYBLOCK
 70
0
  3

 72
65
 73
0
 40
0.0
  0
LTYPE
  5
15
100
AcDbSymbolTableRecord
100
AcDbLinetypeTableRecord
  2
BYLAYER
 70
0
  3

 72
65
 73
0
 40
0.0
  0
LTYPE
  5
16
100
AcDbSymbolTableRecord
100
AcDbLinetypeTableRecord
  2
CONTINUOUS
 70
64
  3
Solid line
 72
65
 73
0
 40
0.0
  0
LTYPE
  5
1F5
100
AcDbSymbolTableRecord
100
AcDbLinetypeTableRecord
  2
CENTER
 70
64
  3
____ _ ____ _ ____ _ ____ _ ____ _ ____ _ ____
 72
65
 73
4
 40
0.6
 49
0.375
 74
0
 49
-0.075
 74
0
 49
0.075
 74
0
 49
-0.075
 74
0
  0
LTYPE
  5
1F6
100
AcDbSymbolTableRecord
100
AcDbLinetypeTableRecord
  2
HIDDEN
 70
64
  3
- - - - - - - - - - - - - - - - - - - -
 72
65
 73
2
 40
0.2
 49
0.1
 74
0
 49
-0.1
 74
0
  0
LTYPE
  5
1F7
100
AcDbSymbolTableRecord
100
AcDbLinetypeTableRecord
  2
PHANTOM
 70
64
  3
_____ _ _ _____ _ _ _____ _ _ _____
 72
65
 73
6
 40
0.8
 49
0.45
 74
0
 49
-0.05
 74
0
 49
0.1
 74
0
 49
-0.05
 74
0
 49
0.1
 74
0
 49
-0.05
 74
0
  0
LTYPE
  5
1F8
100
AcDbSymbolTableRecord
100
AcDbLinetypeTableRecord
  2
DOT
 70
64
  3
. . . . . . . . . . . . . . . . . . . .
 72
65
 73
2
 40
0.2
 49
0.1
 74
0
 49
-0.1
 74
0
  0
LTYPE
  5
1F9
100
AcDbSymbolTableRecord
100
AcDbLinetypeTableRecord
  2
DASHED
 70
64
  3
- - - - - - - - - - - - - - - - - - - -
 72
65
 73
2
 40
0.2
 49
0.1
 74
0
 49
-0.1
 74
0
  0
ENDTAB
  0
TABLE
  2
LAYER
  5
2
100
AcDbSymbolTable
 70
36
  0
LAYER
  5
10
100
AcDbSymbolTableRecord
100
AcDbLayerTableRecord
  2
0
 70
0
 62
7
  6
CONTINUOUS
370
-3
390
F
  0
LAYER
  5
1FA
100
AcDbSymbolTableRecord
100
AcDbLayerTableRecord
  2
DEFAULT_1
 70
0
 62
7
  6
CENTER
370
-3
390
F
  0
LAYER
  5
1FB
100
AcDbSymbolTableRecord
100
AcDbLayerTableRecord
  2
DEFAULT_2
 70
0
 62
8
  6
HIDDEN
370
-3
390
F
  0
LAYER
  5
1FC
100
AcDbSymbolTableRecord
100
AcDbLayerTableRecord
  2
DEFAULT_3
 70
0
 62
7
  6
PHANTOM
370
-3
390
F
  0
LAYER
  5
1FD
100
AcDbSymbolTableRecord
100
AcDbLayerTableRecord
  2
00_COMPONENTS
 70
0
 62
7
  6
CONTINUOUS
370
-3
390
F
  0
LAYER
  5
1FE
100
AcDbSymbolTableRecord
100
AcDbLayerTableRecord
  2
01_1_DEFAULT_DATUMS
 70
0
 62
7
  6
CONTINUOUS
370
-3
390
F
  0
LAYER
  5
1FF
100
AcDbSymbolTableRecord
100
AcDbLayerTableRecord
  2
01_PLANES
 70
0
 62
7
  6
CONTINUOUS
370
-3
390
F
  0
LAYER
  5
200
100
AcDbSymbolTableRecord
100
AcDbLayerTableRecord
  2
02_COORD_SYS
 70
0
 62
7
  6
CONTINUOUS
370
-3
390
F
  0
LAYER
  5
201
100
AcDbSymbolTableRecord
100
AcDbLayerTableRecord
  2
03_AXES
 70
0
 62
7
  6
CONTINUOUS
370
-3
390
F
  0
LAYER
  5
202
100
AcDbSymbolTableRecord
100
AcDbLayerTableRecord
  2
04_POINTS
 70
0
 62
7
  6
CONTINUOUS
370
-3
390
F
  0
LAYER
  5
203
100
AcDbSymbolTableRecord
100
AcDbLayerTableRecord
  2
05_CURVES
 70
0
 62
7
  6
CONTINUOUS
370
-3
390
F
  0
LAYER
  5
204
100
AcDbSymbolTableRecord
100
AcDbLayerTableRecord
  2
06_SURFS
 70
0
 62
7
  6
CONTINUOUS
370
-3
390
F
  0
LAYER
  5
205
100
AcDbSymbolTableRecord
100
AcDbLayerTableRecord
  2
07_COSMETICS
 70
0
 62
7
  6
CONTINUOUS
370
-3
390
F
  0
LAYER
  5
206
100
AcDbSymbolTableRecord
100
AcDbLayerTableRecord
  2
10_NOTES
 70
0
 62
7
  6
CONTINUOUS
370
-3
390
F
  0
LAYER
  5
207
100
AcDbSymbolTableRecord
100
AcDbLayerTableRecord
  2
11_NOTES_PUB
 70
0
 62
7
  6
CONTINUOUS
370
-3
390
F
  0
LAYER
  5
208
100
AcDbSymbolTableRecord
100
AcDbLayerTableRecord
  2
13_REF_GTOL
 70
0
 62
7
  6
CONTINUOUS
370
-3
390
F
  0
LAYER
  5
209
100
AcDbSymbolTableRecord
100
AcDbLayerTableRecord
  2
16_MISC
 70
0
 62
7
  6
CONTINUOUS
370
-3
390
F
  0
LAYER
  5
20A
100
AcDbSymbolTableRecord
100
AcDbLayerTableRecord
  2
17_NO_PRINT
 70
0
 62
7
  6
CONTINUOUS
370
-3
390
F
  0
LAYER
  5
20B
100
AcDbSymbolTableRecord
100
AcDbLayerTableRecord
  2
18_DATUM_CAMS_JOINTS
 70
0
 62
7
  6
CONTINUOUS
370
-3
390
F
  0
LAYER
  5
20C
100
AcDbSymbolTableRecord
100
AcDbLayerTableRecord
  2
19_DATUM_FUNCTIONAL
 70
0
 62
7
  6
CONTINUOUS
370
-3
390
F
  0
LAYER
  5
20D
100
AcDbSymbolTableRecord
100
AcDbLayerTableRecord
  2
20_DATUM_KINEMATIC_SCHEME
 70
0
 62
7
  6
CONTINUOUS
370
-3
390
F
  0
ENDTAB
  0
TABLE
  2
STYLE
  5
3
100
AcDbSymbolTable
 70
1
  0
STYLE
  5
11
100
AcDbSymbolTableRecord
100
AcDbTextStyleTableRecord
  2
STANDARD
 70
0
 40
0.0
 41
0.8
 50
0.0
 71
0
 42
0.2
  3
txt
  4

  0
STYLE
  5
20E
100
AcDbSymbolTableRecord
100
AcDbTextStyleTableRecord
  2
TEXTSTYLE_1
 70
0
 40
0.0
 41
0.8
 50
0.0
 71
0
 42
0.2
  3
gdt
  4

  0
ENDTAB
  0
TABLE
  2
VIEW
  5
6
100
AcDbSymbolTable
 70
0
  0
ENDTAB
  0
TABLE
  2
UCS
  5
7
100
AcDbSymbolTable
 70
0
  0
ENDTAB
  0
TABLE
  2
APPID
  5
9
100
AcDbSymbolTable
 70
1
  0
APPID
  5
20F
100
AcDbSymbolTableRecord
100
AcDbRegAppTableRecord
  2
ACAD
 70
0
  0
ENDTAB
  0
TABLE
  2
BLOCK_RECORD
  5
1
100
AcDbSymbolTable
 70
0
  0
BLOCK_RECORD
  5
210
100
AcDbSymbolTableRecord
100
AcDbBlockTableRecord
  2
*Model_Space
  0
BLOCK_RECORD
  5
211
100
AcDbSymbolTableRecord
100
AcDbBlockTableRecord
  2
*Paper_Space
  0
BLOCK_RECORD
  5
212
100
AcDbSymbolTableRecord
100
AcDbBlockTableRecord
  2
_FILLED
  0
ENDTAB
  0
TABLE
  2
DIMSTYLE
  5
A
100
AcDbSymbolTable
 70
1
100
AcDbDimStyleTable
 71
0
  0
DIMSTYLE
105
213
100
AcDbSymbolTableRecord
100
AcDbDimStyleTableRecord
  2
STANDARD
 70
0
  3

  4

 40
1.0
 41
1.0832818644
 42
1.0
 43
0.38
 44
1.0
 45
0.0
 46
0.0
 47
0.01
 48
0.01
140
1.5165946102
141
0.09
142
0.0
143
25.4
144
1.0
145
0.0
146
1.0
147
0.625
 71
1
 72
0
 73
0
 74
0
 75
0
 76
0
 77
1
 78
8
 79
2
170
0
171
1
172
0
173
0
174
0
175
0
176
0
177
0
178
0
270
2
179
2
271
2
272
2
273
2
274
2
275
0
280
0
281
0
282
0
283
1
284
8
285
0
286
0
287
3
288
0
340
11
278
46
341
212
342
212
343
212
344
212
  0
ENDTAB
  0
ENDSEC
  0
SECTION
  2
BLOCKS
  0
BLOCK
  5
20
100
AcDbEntity
  8
0
100
AcDbBlockBegin
  2
*Model_Space
 70
0
 10
0.0
 20
0.0
 30
0.0
  3
*Model_Space
  1

  0
ENDBLK
  5
21
100
AcDbEntity
  8
0
100
AcDbBlockEnd
  0
BLOCK
  5
1C
100
AcDbEntity
  8
0
100
AcDbBlockBegin
  2
*Paper_Space
 70
0
 10
0.0
 20
0.0
 30
0.0
  3
*Paper_Space
  1

  0
ENDBLK
  5
1D
100
AcDbEntity
  8
0
100
AcDbBlockEnd
  0
BLOCK
  5
214
100
AcDbEntity
  8
0
100
AcDbBlockBegin
  2
_FILLED
 70
64
 10
0.0
 20
0.0
  3
_FILLED
  1

  0
SOLID
  5
215
100
AcDbEntity
  8
0
  6
BYBLOCK
 62
0
100
AcDbTrace
 10
0.0
 20
0.0
 11
-1.0
 21
0.25
 12
-1.0
 22
-0.25
 13
-1.0
 23
-0.25
  0
ENDBLK
  5
216
100
AcDbEntity
  8
0
  6
BYBLOCK
 62
0
100
AcDbBlockEnd
  0
ENDSEC
  0
SECTION
  2
ENTITIES
  0
LINE
  5
217
100
AcDbEntity
  8
0
100
AcDbLine
 62
7
  6
CONTINUOUS
 10
11.2013314741
 20
56.2119828575
 11
11.2013314741
 21
56.811982862
  0
LINE
  5
218
100
AcDbEntity
  8
0
100
AcDbLine
 62
7
  6
CONTINUOUS
 10
11.2013314741
 20
72.5119828419
 11
11.2013314741
 21
73.1119828575
  0
LINE
  5
219
100
AcDbEntity
  8
0
100
AcDbLine
 62
7
  6
CONTINUOUS
 10
12.2513314741
 20
60.5969828451
 11
12.2513314741
 21
58.7969828575
  0
LINE
  5
21A
100
AcDbEntity
  8
0
100
AcDbLine
 62
7
  6
CONTINUOUS
 10
12.295265457
 20
58.7969828575
 11
12.295265457
 21
60.5969828453
  0
LINE
  5
21B
100
AcDbEntity
  8
0
100
AcDbLine
 62
7
  6
CONTINUOUS
 10
12.4577367927
 20
55.7969828575
 11
12.4577367927
 21
56.2969828575
  0
LINE
  5
21C
100
AcDbEntity
  8
0
100
AcDbLine
 62
7
  6
CONTINUOUS
 10
12.4577367927
 20
72.9969828575
 11
12.4577367927
 21
73.4969828575
  0
LINE
  5
21D
100
AcDbEntity
  8
0
100
AcDbLine
 62
7
  6
CONTINUOUS
 10
12.7073974913
 20
60.5969828468
 11
12.7073974913
 21
58.7969828575
  0
LINE
  5
21E
100
AcDbEntity
  8
0
100
AcDbLine
 62
7
  6
CONTINUOUS
 10
12.8134635085
 20
58.7969828575
 11
12.8134635085
 21
60.5969828473
  0
LINE
  5
21F
100
AcDbEntity
  8
0
100
AcDbLine
 62
7
  6
CONTINUOUS
 10
13.6513314741
 20
58.7969828575
 11
13.6513314741
 21
60.4619828575
  0
LINE
  5
220
100
AcDbEntity
  8
0
100
AcDbLine
 62
7
  6
CONTINUOUS
 10
15.4013314741
 20
58.7969828575
 11
15.4013314741
 21
60.5714441839
  0
LINE
  5
221
100
AcDbEntity
  8
0
100
AcDbLine
 62
7
  6
CONTINUOUS
 10
15.4513314741
 20
60.5969828575
 11
15.4513314741
 21
58.7969828575
  0
LINE
  5
222
100
AcDbEntity
  8
0
100
AcDbLine
 62
7
  6
CONTINUOUS
 10
16.0513314741
 20
67.6469828575
 11
16.0513314741
 21
61.6469828575
  0
LINE
  5
223
100
AcDbEntity
  8
0
100
AcDbLine
 62
7
  6
CONTINUOUS
 10
17.2513314741
 20
73.4969828575
 11
17.2513314741
 21
55.7969828575
  0
LINE
  5
224
100
AcDbEntity
  8
0
100
AcDbLine
 62
7
  6
CONTINUOUS
 10
17.7513314741
 20
55.7119828575
 11
17.7513314741
 21
73.6119828575
  0
LINE
  5
225
100
AcDbEntity
  8
0
100
AcDbLine
 62
7
  6
CONTINUOUS
 10
17.9513314741
 20
66.7619828575
 11
17.9513314741
 21
62.5619828575
  0
LINE
  5
226
100
AcDbEntity
  8
0
100
AcDbLine
 62
7
  6
CONTINUOUS
 10
19.2513314741
 20
55.7119828575
 11
19.2513314741
 21
73.6119828575
  0
LINE
  5
227
100
AcDbEntity
  8
0
100
AcDbLine
 62
7
  6
CONTINUOUS
 10
24.7513314741
 20
73.6119828575
 11
24.7513314741
 21
72.0119828575
  0
LINE
  5
228
100
AcDbEntity
  8
0
100
AcDbLine
 62
7
  6
CONTINUOUS
 10
25.0013314741
 20
72.0119828575
 11
25.0013314741
 21
73.5119828575
  0
LINE
  5
229
100
AcDbEntity
  8
0
100
AcDbLine
 62
7
  6
CONTINUOUS
 10
26.5013314741
 20
70.6119828575
 11
26.5013314741
 21
72.2119828575
  0
LINE
  5
22A
100
AcDbEntity
  8
0
100
AcDbLine
 62
7
  6
CONTINUOUS
 10
26.7513314741
 20
70.6119828575
 11
26.7513314741
 21
72.0119828575
  0
LINE
  5
22B
100
AcDbEntity
  8
0
100
AcDbLine
 62
7
  6
CONTINUOUS
 10
29.7513314741
 20
70.6119828575
 11
29.7513314741
 21
72.0119828575
  0
LINE
  5
22C
100
AcDbEntity
  8
0
100
AcDbLine
 62
7
  6
CONTINUOUS
 10
30.0013314741
 20
72.2119828575
 11
30.0013314741
 21
70.6119828575
  0
LINE
  5
22D
100
AcDbEntity
  8
0
100
AcDbLine
 62
7
  6
CONTINUOUS
 10
31.5013314741
 20
72.0119828575
 11
31.5013314741
 21
73.5119828575
  0
LINE
  5
22E
100
AcDbEntity
  8
0
100
AcDbLine
 62
7
  6
CONTINUOUS
 10
31.7513314741
 20
72.0119828575
 11
31.7513314741
 21
73.6119828575
  0
LINE
  5
22F
100
AcDbEntity
  8
0
100
AcDbLine
 62
7
  6
CONTINUOUS
 10
34.4513314741
 20
73.6119828575
 11
34.4513314741
 21
73.1119828575
  0
LINE
  5
230
100
AcDbEntity
  8
0
100
AcDbLine
 62
7
  6
CONTINUOUS
 10
34.4513314741
 20
55.7119828575
 11
34.4513314741
 21
56.2119828575
  0
LINE
  5
231
100
AcDbEntity
  8
0
100
AcDbLine
 62
7
  6
CONTINUOUS
 10
34.5513314741
 20
72.8419828575
 11
34.5513314741
 21
72.0119828575
  0
LINE
  5
232
100
AcDbEntity
  8
0
100
AcDbLine
 62
7
  6
CONTINUOUS
 10
34.5513314741
 20
56.4819828575
 11
34.5513314741
 21
71.6119828575
  0
LINE
  5
233
100
AcDbEntity
  8
0
100
AcDbLine
 62
7
  6
CONTINUOUS
 10
34.8013314741
 20
56.5869832485
 11
34.8013314741
 21
72.686982465
  0
LWPOLYLINE
  5
234
100
AcDbEntity
  8
0
100
AcDbPolyline
 62
7
  6
CONTINUOUS
 90
6
 70
0
 10
38.8350095229
 20
57.920300809
 10
38.8434307072
 20
57.4260763649
 10
38.7809813125
 20
56.9581583509
 10
38.7294261019
 20
56.7773506976
 10
38.6216501692
 20
56.567957227
 10
38.588807356
 20
56.5369836991
  0
LWPOLYLINE
  5
235
100
AcDbEntity
  8
0
100
AcDbPolyline
 62
7
  6
CONTINUOUS
 90
5
 70
0
 10
38.6358890748
 20
68.3465889786
 10
38.56629483
 20
67.8123968952
 10
38.4026056815
 20
67.3160616456
 10
38.1988756371
 20
67.0112049876
 10
38.0676887703
 20
66.9369949378
  0
LINE
  5
236
100
AcDbEntity
  8
0
100
AcDbLine
 62
7
  6
CONTINUOUS
 10
41.4513314741
 20
71.4369828575
 11
41.9513314741
 21
71.6369828575
  0
LINE
  5
237
100
AcDbEntity
  8
0
100
AcDbLine
 62
7
  6
CONTINUOUS
 10
41.9513314741
 20
71.5369828575
 11
41.4513314741
 21
71.3369828575
  0
LINE
  5
238
100
AcDbEntity
  8
0
100
AcDbLine
 62
7
  6
CONTINUOUS
 10
40.3628676745
 20
56.2119272295
 11
39.9518198657
 21
56.1819688569
  0
LINE
  5
239
100
AcDbEntity
  8
0
100
AcDbLine
 62
7
  6
CONTINUOUS
 10
11.7013411901
 20
55.7119828575
 11
82.7513314741
 21
55.7119828575
  0
LINE
  5
23A
100
AcDbEntity
  8
0
100
AcDbLine
 62
7
  6
CONTINUOUS
 10
12.4577367927
 20
55.7969828575
 11
17.2513314741
 21
55.7969828575
  0
LINE
  5
23B
100
AcDbEntity
  8
0
100
AcDbLine
 62
7
  6
CONTINUOUS
 10
82.7513314741
 20
56.2119828575
 11
73.3513314741
 21
56.2119828575
  0
LINE
  5
23C
100
AcDbEntity
  8
0
100
AcDbLine
 62
7
  6
CONTINUOUS
 10
34.4513314741
 20
56.2119828575
 11
17.2513314741
 21
56.2119828575
  0
LINE
  5
23D
100
AcDbEntity
  8
0
100
AcDbLine
 62
7
  6
CONTINUOUS
 10
11.9624275739
 20
56.2119828575
 11
11.2013314741
 21
56.2119828575
  0
LINE
  5
23E
100
AcDbEntity
  8
0
100
AcDbLine
 62
7
  6
CONTINUOUS
 10
73.2513314741
 20
56.2119828544
 11
59.0653139708
 21
56.2119840641
  0
LINE
  5
23F
100
AcDbEntity
  8
0
100
AcDbLine
 62
7
  6
CONTINUOUS
 10
52.5513314741
 20
56.2119828575
 11
40.3628080271
 21
56.2119491559
  0
LINE
  5
240
100
AcDbEntity
  8
0
100
AcDbLine
 62
7
  6
CONTINUOUS
 10
17.2513314741
 20
56.2969828575
 11
12.4577367942
 21
56.2969828575
  0
LINE
  5
241
100
AcDbEntity
  8
0
100
AcDbLine
 62
7
  6
CONTINUOUS
 10
36.4783471073
 20
56.4819828575
 11
34.5513314741
 21
56.4819828575
  0
LINE
  5
242
100
AcDbEntity
  8
0
100
AcDbLine
 62
7
  6
CONTINUOUS
 10
52.5513314741
 20
56.5419828575
 11
53.8369721202
 21
56.5419828575
  0
LINE
  5
243
100
AcDbEntity
  8
0
100
AcDbLine
 62
7
  6
CONTINUOUS
 10
73.3513314741
 20
56.5419828575
 11
74.6369721202
 21
56.5419828575
  0
LINE
  5
244
100
AcDbEntity
  8
0
100
AcDbLine
 62
7
  6
CONTINUOUS
 10
74.6369721202
 20
56.5619828575
 11
73.2513314741
 21
56.5619828575
  0
LINE
  5
245
100
AcDbEntity
  8
0
100
AcDbLine
 62
7
  6
CONTINUOUS
 10
36.4506859453
 20
56.5869828575
 11
34.8013314741
 21
56.5869828575
  0
LINE
  5
246
100
AcDbEntity
  8
0
100
AcDbLine
 62
7
  6
CONTINUOUS
 10
41.9513314741
 20
57.6369828575
 11
41.4513314741
 21
57.8369828575
  0
LINE
  5
247
100
AcDbEntity
  8
0
100
AcDbLine
 62
7
  6
CONTINUOUS
 10
41.4513314741
 20
57.9369828575
 11
41.9513314741
 21
57.7369828575
  0
LINE
  5
248
100
AcDbEntity
  8
0
100
AcDbLine
 62
7
  6
CONTINUOUS
 10
40.3628332905
 20
73.062029143
 11
40.3628332905
 21
73.5619828575
  0
LINE
  5
249
100
AcDbEntity
  8
0
100
AcDbLine
 62
7
  6
CONTINUOUS
 10
40.3628660056
 20
55.7119828581
 11
40.3628660052
 21
56.2119828575
  0
LINE
  5
24A
100
AcDbEntity
  8
0
100
AcDbLine
 62
7
  6
CONTINUOUS
 10
41.4513314741
 20
71.4369828575
 11
41.4513314741
 21
57.8369828575
  0
LINE
  5
24B
100
AcDbEntity
  8
0
100
AcDbLine
 62
7
  6
CONTINUOUS
 10
37.8396734109
 20
57.936984017
 11
37.6508396836
 21
57.9120321292
  0
LINE
  5
24C
100
AcDbEntity
  8
0
100
AcDbLine
 62
7
  6
CONTINUOUS
 10
38.8517500844
 20
57.921393338
 11
38.8350359557
 21
57.9199658331
  0
LINE
  5
24D
100
AcDbEntity
  8
0
100
AcDbLine
 62
7
  6
CONTINUOUS
 10
35.9726116541
 20
59.2630278244
 11
36.6346434182
 21
59.2675053684
  0
LINE
  5
24E
100
AcDbEntity
  8
0
100
AcDbLine
 62
7
  6
CONTINUOUS
 10
36.6031862493
 20
59.568661779
 11
35.9241505034
 21
59.5643941228
  0
LINE
  5
24F
100
AcDbEntity
  8
0
100
AcDbLine
 62
7
  6
CONTINUOUS
 10
41.9513314741
 20
57.6369828575
 11
42.9513314741
 21
57.6369828575
  0
LINE
  5
250
100
AcDbEntity
  8
0
100
AcDbLine
 62
7
  6
CONTINUOUS
 10
11.4424857473
 20
57.7119828575
 11
11.5663637201
 21
57.7119828575
  0
LINE
  5
251
100
AcDbEntity
  8
0
100
AcDbLine
 62
7
  6
CONTINUOUS
 10
42.9513314741
 20
57.7369828575
 11
41.9513314741
 21
57.7369828575
  0
LINE
  5
252
100
AcDbEntity
  8
0
100
AcDbLine
 62
7
  6
CONTINUOUS
 10
80.6013314741
 20
58.3119828575
 11
77.4513314741
 21
58.3119828575
  0
LINE
  5
253
100
AcDbEntity
  8
0
100
AcDbLine
 62
7
  6
CONTINUOUS
 10
77.4913314741
 20
58.4119828575
 11
80.75990705
 21
58.4119828575
  0
LINE
  5
254
100
AcDbEntity
  8
0
100
AcDbLine
 62
7
  6
CONTINUOUS
 10
42.7944638428
 20
58.7369828575
 11
53.0513314741
 21
58.7369828575
  0
LINE
  5
255
100
AcDbEntity
  8
0
100
AcDbLine
 62
7
  6
CONTINUOUS
 10
44.5774702506
 20
58.7445517098
 11
44.6513314741
 21
58.7445517098
  0
LINE
  5
256
100
AcDbEntity
  8
0
100
AcDbLine
 62
7
  6
CONTINUOUS
 10
11.3272342068
 20
58.7969828575
 11
15.4513314741
 21
58.7969828575
  0
LINE
  5
257
100
AcDbEntity
  8
0
100
AcDbLine
 62
7
  6
CONTINUOUS
 10
44.0575492568
 20
58.8869828575
 11
42.9513314741
 21
58.8869828575
  0
LINE
  5
258
100
AcDbEntity
  8
0
100
AcDbLine
 62
7
  6
CONTINUOUS
 10
77.4913314741
 20
58.9119828575
 11
80.7913314741
 21
58.9119828575
  0
LINE
  5
259
100
AcDbEntity
  8
0
100
AcDbLine
 62
7
  6
CONTINUOUS
 10
36.6537696939
 20
59.1369828575
 11
36.1237797268
 21
59.1369828575
  0
LINE
  5
25A
100
AcDbEntity
  8
0
100
AcDbLine
 62
7
  6
CONTINUOUS
 10
44.5513314741
 20
59.3869828583
 11
44.6513314741
 21
59.3869828583
  0
LINE
  5
25B
100
AcDbEntity
  8
0
100
AcDbLine
 62
7
  6
CONTINUOUS
 10
44.6513314741
 20
59.4869828583
 11
44.5513314741
 21
59.4869828583
  0
LINE
  5
25C
100
AcDbEntity
  8
0
100
AcDbLine
 62
7
  6
CONTINUOUS
 10
36.0756620878
 20
59.7369828575
 11
36.5841155573
 21
59.7369828575
  0
LINE
  5
25D
100
AcDbEntity
  8
0
100
AcDbLine
 62
7
  6
CONTINUOUS
 10
38.8350377175
 20
57.9367943191
 11
37.8396853926
 21
57.9368996688
  0
LWPOLYLINE
  5
25E
100
AcDbEntity
  8
0
100
AcDbPolyline
 62
7
  6
CONTINUOUS
 90
5
 70
0
 10
38.0676789077
 20
62.336970695
 10
38.1985556252
 20
62.2630616565
 10
38.4020466946
 20
61.9590780321
 10
38.5658196729
 20
61.4637146297
 10
38.6358835292
 20
60.9274163538
  0
LINE
  5
25F
100
AcDbEntity
  8
0
100
AcDbLine
 62
7
  6
CONTINUOUS
 10
44.5774702506
 20
58.7445517098
 11
44.5604807299
 21
59.3869828583
  0
LINE
  5
260
100
AcDbEntity
  8
0
100
AcDbLine
 62
7
  6
CONTINUOUS
 10
42.7944638428
 20
58.7369828575
 11
42.7944638428
 21
60.5369828575
  0
LINE
  5
261
100
AcDbEntity
  8
0
100
AcDbLine
 62
7
  6
CONTINUOUS
 10
42.7944638428
 20
68.7369828575
 11
42.7944638428
 21
70.5369828575
  0
LINE
  5
262
100
AcDbEntity
  8
0
100
AcDbLine
 62
7
  6
CONTINUOUS
 10
42.8513314741
 20
58.7369828575
 11
42.8513314741
 21
60.5369828575
  0
LINE
  5
263
100
AcDbEntity
  8
0
100
AcDbLine
 62
7
  6
CONTINUOUS
 10
42.8513314741
 20
68.7369828575
 11
42.8513314741
 21
70.5369828575
  0
LINE
  5
264
100
AcDbEntity
  8
0
100
AcDbLine
 62
7
  6
CONTINUOUS
 10
42.9513314741
 20
73.5619828574
 11
42.9513314741
 21
71.5369828575
  0
LINE
  5
265
100
AcDbEntity
  8
0
100
AcDbLine
 62
7
  6
CONTINUOUS
 10
42.9513314741
 20
57.7369828575
 11
42.9513314741
 21
55.7119828576
  0
LINE
  5
266
100
AcDbEntity
  8
0
100
AcDbLine
 62
7
  6
CONTINUOUS
 10
42.9513314741
 20
58.8869828575
 11
42.9513314741
 21
60.3869828575
  0
LINE
  5
267
100
AcDbEntity
  8
0
100
AcDbLine
 62
7
  6
CONTINUOUS
 10
42.9513314741
 20
68.8869828575
 11
42.9513314741
 21
70.3869828575
  0
LINE
  5
268
100
AcDbEntity
  8
0
100
AcDbLine
 62
7
  6
CONTINUOUS
 10
43.4513314741
 20
58.8869828575
 11
43.4513314741
 21
60.3869828575
  0
LINE
  5
269
100
AcDbEntity
  8
0
100
AcDbLine
 62
7
  6
CONTINUOUS
 10
43.4513314741
 20
68.8869828575
 11
43.4513314741
 21
70.3869828575
  0
LINE
  5
26A
100
AcDbEntity
  8
0
100
AcDbLine
 62
7
  6
CONTINUOUS
 10
44.0575492568
 20
70.5369828575
 11
44.0575492568
 21
70.3869828575
  0
LINE
  5
26B
100
AcDbEntity
  8
0
100
AcDbLine
 62
7
  6
CONTINUOUS
 10
44.0575492568
 20
68.8869828575
 11
44.0575492568
 21
68.7369828575
  0
LINE
  5
26C
100
AcDbEntity
  8
0
100
AcDbLine
 62
7
  6
CONTINUOUS
 10
44.0575492568
 20
60.5369828575
 11
44.0575492568
 21
60.3869828575
  0
LINE
  5
26D
100
AcDbEntity
  8
0
100
AcDbLine
 62
7
  6
CONTINUOUS
 10
44.0575492568
 20
58.8869828575
 11
44.0575492568
 21
58.7369828575
  0
LINE
  5
26E
100
AcDbEntity
  8
0
100
AcDbLine
 62
7
  6
CONTINUOUS
 10
44.5513314741
 20
60.5369828575
 11
44.5513314741
 21
58.7369828575
  0
LINE
  5
26F
100
AcDbEntity
  8
0
100
AcDbLine
 62
7
  6
CONTINUOUS
 10
44.5513314741
 20
68.7369828575
 11
44.5513314741
 21
70.5369828575
  0
LINE
  5
270
100
AcDbEntity
  8
0
100
AcDbLine
 62
7
  6
CONTINUOUS
 10
44.5768316778
 20
69.8869828575
 11
44.5768316778
 21
69.7869828575
  0
LINE
  5
271
100
AcDbEntity
  8
0
100
AcDbLine
 62
7
  6
CONTINUOUS
 10
44.5768316778
 20
59.4869828583
 11
44.5768316778
 21
59.3869828583
  0
LINE
  5
272
100
AcDbEntity
  8
0
100
AcDbLine
 62
7
  6
CONTINUOUS
 10
44.5604807299
 20
69.8869828575
 11
44.5774702506
 21
70.529414006
  0
LINE
  5
273
100
AcDbEntity
  8
0
100
AcDbLine
 62
7
  6
CONTINUOUS
 10
37.3449786071
 20
60.9233543133
 11
37.5330168768
 21
60.9369834999
  0
LINE
  5
274
100
AcDbEntity
  8
0
100
AcDbLine
 62
7
  6
CONTINUOUS
 10
38.6358738993
 20
60.9275815884
 11
38.6550676893
 21
60.9284852285
  0
LINE
  5
275
100
AcDbEntity
  8
0
100
AcDbLine
 62
7
  6
CONTINUOUS
 10
37.5330149755
 20
60.9370139666
 11
38.6358778315
 21
60.9376292524
  0
LINE
  5
276
100
AcDbEntity
  8
0
100
AcDbLine
 62
7
  6
CONTINUOUS
 10
77.4913314741
 20
60.0814302175
 11
80.0653608764
 21
60.0814302175
  0
LINE
  5
277
100
AcDbEntity
  8
0
100
AcDbLine
 62
7
  6
CONTINUOUS
 10
44.6513314741
 20
60.1294140069
 11
44.5774702506
 21
60.1294140069
  0
LINE
  5
278
100
AcDbEntity
  8
0
100
AcDbLine
 62
7
  6
CONTINUOUS
 10
44.6510365441
 20
60.3119828583
 11
44.6376952739
 21
60.3119828583
  0
LINE
  5
279
100
AcDbEntity
  8
0
100
AcDbLine
 62
7
  6
CONTINUOUS
 10
42.9513314741
 20
60.3869828575
 11
44.0575492568
 21
60.3869828575
  0
LINE
  5
27A
100
AcDbEntity
  8
0
100
AcDbLine
 62
7
  6
CONTINUOUS
 10
53.0513314741
 20
60.5369828575
 11
42.7944638428
 21
60.5369828575
  0
LINE
  5
27B
100
AcDbEntity
  8
0
100
AcDbLine
 62
7
  6
CONTINUOUS
 10
11.0259635202
 20
60.5969828575
 11
15.4513314741
 21
60.5969828575
  0
LINE
  5
27C
100
AcDbEntity
  8
0
100
AcDbLine
 62
7
  6
CONTINUOUS
 10
75.6924857473
 20
61.0119828575
 11
77.2513314741
 21
61.0119828575
  0
LINE
  5
27D
100
AcDbEntity
  8
0
100
AcDbLine
 62
7
  6
CONTINUOUS
 10
79.8913314741
 20
61.4909691487
 11
77.4913314741
 21
61.4909691487
  0
LINE
  5
27E
100
AcDbEntity
  8
0
100
AcDbLine
 62
7
  6
CONTINUOUS
 10
17.2513314741
 20
61.6469828575
 11
16.0513314741
 21
61.6469828575
  0
LINE
  5
27F
100
AcDbEntity
  8
0
100
AcDbLine
 62
7
  6
CONTINUOUS
 10
80.1558219452
 20
61.6619828575
 11
80.4203124163
 21
61.6619828575
  0
LWPOLYLINE
  5
280
100
AcDbEntity
  8
0
100
AcDbPolyline
 62
7
  6
CONTINUOUS
 90
9
 70
0
 10
38.0511896211
 20
66.0369738052
 10
38.179997822
 20
65.9606899642
 10
38.3606736358
 20
65.6676362075
 10
38.4990105547
 20
65.1936803353
 10
38.5486894699
 20
64.6389109985
 10
38.4996015172
 20
64.0834989346
 10
38.3616591265
 20
63.6086331687
 10
38.1808387495
 20
63.3141484885
 10
38.0510916696
 20
63.2369943165
  0
LINE
  5
281
100
AcDbEntity
  8
0
100
AcDbLine
 62
7
  6
CONTINUOUS
 10
34.5513314741
 20
71.6119828575
 11
34.1513314741
 21
72.0119828575
  0
LINE
  5
282
100
AcDbEntity
  8
0
100
AcDbLine
 62
7
  6
CONTINUOUS
 10
44.5774702506
 20
69.1445517089
 11
44.5604807299
 21
69.7869828575
  0
LINE
  5
283
100
AcDbEntity
  8
0
100
AcDbLine
 62
7
  6
CONTINUOUS
 10
44.6513314741
 20
58.7369828575
 11
44.6513314741
 21
60.5369828575
  0
LINE
  5
284
100
AcDbEntity
  8
0
100
AcDbLine
 62
7
  6
CONTINUOUS
 10
44.6513314741
 20
68.7369828575
 11
44.6513314741
 21
70.5369828575
  0
LINE
  5
285
100
AcDbEntity
  8
0
100
AcDbLine
 62
7
  6
CONTINUOUS
 10
44.5604807299
 20
59.4869828583
 11
44.5774702506
 21
60.1294140069
  0
LINE
  5
286
100
AcDbEntity
  8
0
100
AcDbLine
 62
7
  6
CONTINUOUS
 10
12.4577367927
 20
56.2969828332
 11
11.9781843404
 21
56.1554574338
  0
LINE
  5
287
100
AcDbEntity
  8
0
100
AcDbLine
 62
7
  6
CONTINUOUS
 10
38.0499802176
 20
63.2369828575
 11
38.0511635716
 21
63.2369850092
  0
LINE
  5
288
100
AcDbEntity
  8
0
100
AcDbLine
 62
7
  6
CONTINUOUS
 10
19.2513314741
 20
62.5619828575
 11
17.9513314741
 21
62.5619828575
  0
LINE
  5
289
100
AcDbEntity
  8
0
100
AcDbLine
 62
7
  6
CONTINUOUS
 10
80.1558219452
 20
62.5619828575
 11
80.7200682835
 21
62.5619828575
  0
LINE
  5
28A
100
AcDbEntity
  8
0
100
AcDbLine
 62
7
  6
CONTINUOUS
 10
80.8013314741
 20
62.7119828575
 11
82.7513314741
 21
62.7119828575
  0
LINE
  5
28B
100
AcDbEntity
  8
0
100
AcDbLine
 62
7
  6
CONTINUOUS
 10
11.9781843404
 20
73.1385082812
 11
12.4577367927
 21
72.9969828575
  0
LWPOLYLINE
  5
28C
100
AcDbEntity
  8
0
100
AcDbPolyline
 62
7
  6
CONTINUOUS
 90
6
 70
0
 10
38.5888169307
 20
72.7369822011
 10
38.6214698217
 20
72.7062348349
 10
38.7291175112
 20
72.4975261923
 10
38.7806846221
 20
72.317150561
 10
38.8433125027
 20
71.850263035
 10
38.8350111819
 20
71.3535797263
  0
LINE
  5
28D
100
AcDbEntity
  8
0
100
AcDbLine
 62
7
  6
CONTINUOUS
 10
77.2513314741
 20
66.1619828575
 11
77.4913314741
 21
66.1619828575
  0
LINE
  5
28E
100
AcDbEntity
  8
0
100
AcDbLine
 62
7
  6
CONTINUOUS
 10
80.7513314741
 20
66.6119828575
 11
82.7513314741
 21
66.6119828575
  0
LINE
  5
28F
100
AcDbEntity
  8
0
100
AcDbLine
 62
7
  6
CONTINUOUS
 10
80.7200682835
 20
66.7619828575
 11
80.1558219452
 21
66.7619828575
  0
LINE
  5
290
100
AcDbEntity
  8
0
100
AcDbLine
 62
7
  6
CONTINUOUS
 10
19.2513314741
 20
66.7619828575
 11
17.9513314741
 21
66.7619828575
  0
LINE
  5
291
100
AcDbEntity
  8
0
100
AcDbLine
 62
7
  6
CONTINUOUS
 10
38.0512696741
 20
66.0369803103
 11
38.049982102
 21
66.0369828575
  0
LINE
  5
292
100
AcDbEntity
  8
0
100
AcDbLine
 62
7
  6
CONTINUOUS
 10
17.2513314741
 20
67.6469828575
 11
16.0513314741
 21
67.6469828575
  0
LINE
  5
293
100
AcDbEntity
  8
0
100
AcDbLine
 62
7
  6
CONTINUOUS
 10
80.4203124163
 20
67.6619828575
 11
80.1558219452
 21
67.6619828575
  0
LINE
  5
294
100
AcDbEntity
  8
0
100
AcDbLine
 62
7
  6
CONTINUOUS
 10
77.4913314741
 20
67.8329965662
 11
79.8913314741
 21
67.8329965662
  0
LINE
  5
295
100
AcDbEntity
  8
0
100
AcDbLine
 62
7
  6
CONTINUOUS
 10
77.2513314741
 20
68.6619828575
 11
77.4913314741
 21
68.6619828575
  0
LINE
  5
296
100
AcDbEntity
  8
0
100
AcDbLine
 62
7
  6
CONTINUOUS
 10
42.7944638428
 20
68.7369828575
 11
53.0513314741
 21
68.7369828575
  0
LINE
  5
297
100
AcDbEntity
  8
0
100
AcDbLine
 62
7
  6
CONTINUOUS
 10
44.0575492568
 20
68.8869828575
 11
42.9513314741
 21
68.8869828575
  0
LINE
  5
298
100
AcDbEntity
  8
0
100
AcDbLine
 62
7
  6
CONTINUOUS
 10
44.6376952739
 20
68.9619828575
 11
44.6510365441
 21
68.9619828575
  0
LINE
  5
299
100
AcDbEntity
  8
0
100
AcDbLine
 62
7
  6
CONTINUOUS
 10
44.5774702506
 20
69.1445517089
 11
44.6513314741
 21
69.1445517089
  0
LINE
  5
29A
100
AcDbEntity
  8
0
100
AcDbLine
 62
7
  6
CONTINUOUS
 10
80.0653608764
 20
69.2425354974
 11
77.4913314741
 21
69.2425354974
  0
LINE
  5
29B
100
AcDbEntity
  8
0
100
AcDbLine
 62
7
  6
CONTINUOUS
 10
36.5841192462
 20
69.5369828575
 11
36.0756987865
 21
69.5369828575
  0
LINE
  5
29C
100
AcDbEntity
  8
0
100
AcDbLine
 62
7
  6
CONTINUOUS
 10
44.5513314741
 20
69.7869828575
 11
44.6513314741
 21
69.7869828575
  0
LINE
  5
29D
100
AcDbEntity
  8
0
100
AcDbLine
 62
7
  6
CONTINUOUS
 10
44.6513314741
 20
69.8869828575
 11
44.5513314741
 21
69.8869828575
  0
LINE
  5
29E
100
AcDbEntity
  8
0
100
AcDbLine
 62
7
  6
CONTINUOUS
 10
38.6358848262
 20
68.3367924593
 11
37.5330112956
 21
68.336899163
  0
LINE
  5
29F
100
AcDbEntity
  8
0
100
AcDbLine
 62
7
  6
CONTINUOUS
 10
35.9241514874
 20
69.709564314
 11
36.6031905383
 21
69.7053045054
  0
LINE
  5
2A0
100
AcDbEntity
  8
0
100
AcDbLine
 62
7
  6
CONTINUOUS
 10
36.6346479538
 20
70.0064601785
 11
35.9726092765
 21
70.0109297303
  0
LINE
  5
2A1
100
AcDbEntity
  8
0
100
AcDbLine
 62
7
  6
CONTINUOUS
 10
38.6550769983
 20
68.3454797343
 11
38.6358857541
 21
68.3463829423
  0
LINE
  5
2A2
100
AcDbEntity
  8
0
100
AcDbLine
 62
7
  6
CONTINUOUS
 10
37.5330164787
 20
68.3369820425
 11
37.344977612
 21
68.3506112391
  0
LINE
  5
2A3
100
AcDbEntity
  8
0
100
AcDbLine
 62
7
  6
CONTINUOUS
 10
52.5513314741
 20
55.7119828575
 11
52.5513314741
 21
56.5419828575
  0
LINE
  5
2A4
100
AcDbEntity
  8
0
100
AcDbLine
 62
7
  6
CONTINUOUS
 10
52.5513314741
 20
72.7369828575
 11
52.5513314741
 21
73.6119828575
  0
LINE
  5
2A5
100
AcDbEntity
  8
0
100
AcDbLine
 62
7
  6
CONTINUOUS
 10
53.0513314741
 20
58.7369828575
 11
53.0513314741
 21
60.5369828575
  0
LINE
  5
2A6
100
AcDbEntity
  8
0
100
AcDbLine
 62
7
  6
CONTINUOUS
 10
53.0513314741
 20
68.7369828575
 11
53.0513314741
 21
70.5369828575
  0
LINE
  5
2A7
100
AcDbEntity
  8
0
100
AcDbLine
 62
7
  6
CONTINUOUS
 10
54.0513314741
 20
72.0119828575
 11
54.0513314741
 21
57.3419828575
  0
LINE
  5
2A8
100
AcDbEntity
  8
0
100
AcDbLine
 62
7
  6
CONTINUOUS
 10
54.9658252299
 20
71.9794877213
 11
54.9748200457
 21
72.0175701755
  0
LINE
  5
2A9
100
AcDbEntity
  8
0
100
AcDbLine
 62
7
  6
CONTINUOUS
 10
54.9893731901
 20
71.9739411415
 11
54.9984108969
 21
72.0119828575
  0
LINE
  5
2AA
100
AcDbEntity
  8
0
100
AcDbLine
 62
7
  6
CONTINUOUS
 10
37.8396769544
 20
71.3370138474
 11
38.8350654032
 21
71.337620638
  0
LINE
  5
2AB
100
AcDbEntity
  8
0
100
AcDbLine
 62
7
  6
CONTINUOUS
 10
36.123727479
 20
70.1369828575
 11
36.653774028
 21
70.1369828575
  0
LINE
  5
2AC
100
AcDbEntity
  8
0
100
AcDbLine
 62
7
  6
CONTINUOUS
 10
42.9513314741
 20
70.3869828575
 11
44.0575492568
 21
70.3869828575
  0
LINE
  5
2AD
100
AcDbEntity
  8
0
100
AcDbLine
 62
7
  6
CONTINUOUS
 10
77.4913314741
 20
70.4119828575
 11
80.7513314741
 21
70.4119828575
  0
LINE
  5
2AE
100
AcDbEntity
  8
0
100
AcDbLine
 62
7
  6
CONTINUOUS
 10
44.6513314741
 20
70.529414006
 11
44.5774702506
 21
70.529414006
  0
LINE
  5
2AF
100
AcDbEntity
  8
0
100
AcDbLine
 62
7
  6
CONTINUOUS
 10
53.0513314741
 20
70.5369828575
 11
42.7944638428
 21
70.5369828575
  0
LINE
  5
2B0
100
AcDbEntity
  8
0
100
AcDbLine
 62
7
  6
CONTINUOUS
 10
30.0013314741
 20
70.6119828575
 11
26.5013314741
 21
70.6119828575
  0
LINE
  5
2B1
100
AcDbEntity
  8
0
100
AcDbLine
 62
7
  6
CONTINUOUS
 10
30.0013314741
 20
70.7119828575
 11
29.7513314741
 21
70.7119828575
  0
LINE
  5
2B2
100
AcDbEntity
  8
0
100
AcDbLine
 62
7
  6
CONTINUOUS
 10
26.7513314741
 20
70.7119828575
 11
26.5013314741
 21
70.7119828575
  0
LINE
  5
2B3
100
AcDbEntity
  8
0
100
AcDbLine
 62
7
  6
CONTINUOUS
 10
77.4913314741
 20
70.9119828575
 11
80.70990705
 21
70.9119828575
  0
LINE
  5
2B4
100
AcDbEntity
  8
0
100
AcDbLine
 62
7
  6
CONTINUOUS
 10
80.5513314741
 20
71.0119828575
 11
77.4013314741
 21
71.0119828575
  0
LINE
  5
2B5
100
AcDbEntity
  8
0
100
AcDbLine
 62
7
  6
CONTINUOUS
 10
30.0013314741
 20
71.4048031805
 11
29.7513314741
 21
71.4048031805
  0
LINE
  5
2B6
100
AcDbEntity
  8
0
100
AcDbLine
 62
7
  6
CONTINUOUS
 10
26.7513314741
 20
71.4048031805
 11
26.5013314741
 21
71.4048031805
  0
LINE
  5
2B7
100
AcDbEntity
  8
0
100
AcDbLine
 62
7
  6
CONTINUOUS
 10
42.9513314741
 20
71.5369828575
 11
41.9513314741
 21
71.5369828575
  0
LINE
  5
2B8
100
AcDbEntity
  8
0
100
AcDbLine
 62
7
  6
CONTINUOUS
 10
34.8013314741
 20
71.6119828575
 11
34.5513314741
 21
71.6119828575
  0
LINE
  5
2B9
100
AcDbEntity
  8
0
100
AcDbLine
 62
7
  6
CONTINUOUS
 10
11.6982313674
 20
71.6119828575
 11
11.4424857473
 21
71.6119828575
  0
LINE
  5
2BA
100
AcDbEntity
  8
0
100
AcDbLine
 62
7
  6
CONTINUOUS
 10
26.7513314741
 20
71.6119828575
 11
29.7513314741
 21
71.6119828575
  0
LINE
  5
2BB
100
AcDbEntity
  8
0
100
AcDbLine
 62
7
  6
CONTINUOUS
 10
42.9513314741
 20
71.6369828575
 11
41.9513314741
 21
71.6369828575
  0
LINE
  5
2BC
100
AcDbEntity
  8
0
100
AcDbLine
 62
7
  6
CONTINUOUS
 10
19.2513314741
 20
72.0119828575
 11
25.0013314741
 21
72.0119828575
  0
LINE
  5
2BD
100
AcDbEntity
  8
0
100
AcDbLine
 62
7
  6
CONTINUOUS
 10
26.7513314741
 20
72.0119828575
 11
29.7513314741
 21
72.0119828575
  0
LINE
  5
2BE
100
AcDbEntity
  8
0
100
AcDbLine
 62
7
  6
CONTINUOUS
 10
31.5013314741
 20
72.0119828575
 11
34.8013314741
 21
72.0119828575
  0
LINE
  5
2BF
100
AcDbEntity
  8
0
100
AcDbLine
 62
7
  6
CONTINUOUS
 10
54.0513314741
 20
72.0119828575
 11
54.9513314741
 21
72.0119828575
  0
LINE
  5
2C0
100
AcDbEntity
  8
0
100
AcDbLine
 62
7
  6
CONTINUOUS
 10
74.8513314741
 20
72.0119828575
 11
77.4013314741
 21
72.0119828575
  0
LINE
  5
2C1
100
AcDbEntity
  8
0
100
AcDbLine
 62
7
  6
CONTINUOUS
 10
26.5013314741
 20
72.2119828575
 11
30.0013314741
 21
72.2119828575
  0
LINE
  5
2C2
100
AcDbEntity
  8
0
100
AcDbLine
 62
7
  6
CONTINUOUS
 10
38.8350554181
 20
71.3540002635
 11
38.8517663539
 21
71.3525726697
  0
LINE
  5
2C3
100
AcDbEntity
  8
0
100
AcDbLine
 62
7
  6
CONTINUOUS
 10
37.6508408678
 20
71.3619336903
 11
37.8396730616
 21
71.3369819757
  0
LINE
  5
2C4
100
AcDbEntity
  8
0
100
AcDbLine
 62
7
  6
CONTINUOUS
 10
54.0513314741
 20
57.3419828575
 11
53.8369721202
 21
56.5419828575
  0
LINE
  5
2C5
100
AcDbEntity
  8
0
100
AcDbLine
 62
7
  6
CONTINUOUS
 10
34.8013314741
 20
72.6869828575
 11
36.4506847239
 21
72.6869828575
  0
LINE
  5
2C6
100
AcDbEntity
  8
0
100
AcDbLine
 62
7
  6
CONTINUOUS
 10
52.5513314741
 20
72.7369828575
 11
53.8794661393
 21
72.7369828575
  0
LINE
  5
2C7
100
AcDbEntity
  8
0
100
AcDbLine
 62
7
  6
CONTINUOUS
 10
74.6727674095
 20
72.7619828575
 11
73.2513314741
 21
72.7619828575
  0
LINE
  5
2C8
100
AcDbEntity
  8
0
100
AcDbLine
 62
7
  6
CONTINUOUS
 10
36.4915172747
 20
72.8419828575
 11
34.5513314741
 21
72.8419828575
  0
LINE
  5
2C9
100
AcDbEntity
  8
0
100
AcDbLine
 62
7
  6
CONTINUOUS
 10
52.5513314741
 20
72.8419828575
 11
53.8513314741
 21
72.8419828575
  0
LINE
  5
2CA
100
AcDbEntity
  8
0
100
AcDbLine
 62
7
  6
CONTINUOUS
 10
73.3513314741
 20
72.8419828575
 11
74.6513314741
 21
72.8419828575
  0
LINE
  5
2CB
100
AcDbEntity
  8
0
100
AcDbLine
 62
7
  6
CONTINUOUS
 10
12.4577368134
 20
72.9969828575
 11
17.2513314741
 21
72.9969828575
  0
LINE
  5
2CC
100
AcDbEntity
  8
0
100
AcDbLine
 62
7
  6
CONTINUOUS
 10
25.0013314741
 20
73.0119828575
 11
31.5013314741
 21
73.0119828575
  0
LINE
  5
2CD
100
AcDbEntity
  8
0
100
AcDbLine
 62
7
  6
CONTINUOUS
 10
40.3627679582
 20
73.0620435783
 11
52.5513314741
 21
73.0619828575
  0
LINE
  5
2CE
100
AcDbEntity
  8
0
100
AcDbLine
 62
7
  6
CONTINUOUS
 10
59.0653124244
 20
73.1119811497
 11
73.2513314741
 21
73.1119828609
  0
LINE
  5
2CF
100
AcDbEntity
  8
0
100
AcDbLine
 62
7
  6
CONTINUOUS
 10
11.2013314741
 20
73.1119828575
 11
11.9781843404
 21
73.1119828575
  0
LINE
  5
2D0
100
AcDbEntity
  8
0
100
AcDbLine
 62
7
  6
CONTINUOUS
 10
17.2513314741
 20
73.1119828575
 11
24.7513314741
 21
73.1119828575
  0
LINE
  5
2D1
100
AcDbEntity
  8
0
100
AcDbLine
 62
7
  6
CONTINUOUS
 10
31.7513314741
 20
73.1119828575
 11
34.4513314741
 21
73.1119828575
  0
LINE
  5
2D2
100
AcDbEntity
  8
0
100
AcDbLine
 62
7
  6
CONTINUOUS
 10
73.3513314741
 20
73.1119828575
 11
82.7513314741
 21
73.1119828575
  0
LINE
  5
2D3
100
AcDbEntity
  8
0
100
AcDbLine
 62
7
  6
CONTINUOUS
 10
17.2513314741
 20
73.4969828575
 11
12.4577367927
 21
73.4969828575
  0
LINE
  5
2D4
100
AcDbEntity
  8
0
100
AcDbLine
 62
7
  6
CONTINUOUS
 10
31.5013314741
 20
73.5119828575
 11
25.0013314741
 21
73.5119828575
  0
LINE
  5
2D5
100
AcDbEntity
  8
0
100
AcDbLine
 62
7
  6
CONTINUOUS
 10
37.074753428
 20
73.5619828575
 11
52.5513314741
 21
73.5619828575
  0
LINE
  5
2D6
100
AcDbEntity
  8
0
100
AcDbLine
 62
7
  6
CONTINUOUS
 10
11.7013314741
 20
73.6119828575
 11
82.7513314741
 21
73.6119828575
  0
LINE
  5
2D7
100
AcDbEntity
  8
0
100
AcDbLine
 62
7
  6
CONTINUOUS
 10
39.9513415817
 20
73.0920630177
 11
40.3628354481
 21
73.0620541459
  0
LINE
  5
2D8
100
AcDbEntity
  8
0
100
AcDbLine
 62
7
  6
CONTINUOUS
 10
58.6534763574
 20
73.1421738394
 11
59.0653122968
 21
73.1119788203
  0
LINE
  5
2D9
100
AcDbEntity
  8
0
100
AcDbLine
 62
7
  6
CONTINUOUS
 10
54.0513314741
 20
71.9369828575
 11
53.8369721202
 21
72.7369828575
  0
LINE
  5
2DA
100
AcDbEntity
  8
0
100
AcDbLine
 62
7
  6
CONTINUOUS
 10
53.8513314741
 20
72.8419828575
 11
54.0737293039
 21
72.0119828575
  0
LINE
  5
2DB
100
AcDbEntity
  8
0
100
AcDbLine
 62
7
  6
CONTINUOUS
 10
59.0653342199
 20
55.7119828589
 11
59.0653342199
 21
56.2119828575
  0
LINE
  5
2DC
100
AcDbEntity
  8
0
100
AcDbLine
 62
7
  6
CONTINUOUS
 10
59.065333404
 20
73.1119828575
 11
59.065333404
 21
73.6119828559
  0
LINE
  5
2DD
100
AcDbEntity
  8
0
100
AcDbLine
 62
7
  6
CONTINUOUS
 10
54.9893731901
 20
71.9739411415
 11
54.9513314741
 21
72.0119828575
  0
LINE
  5
2DE
100
AcDbEntity
  8
0
100
AcDbLine
 62
7
  6
CONTINUOUS
 10
73.2513314741
 20
73.611982857
 11
73.2513314741
 21
72.7619828575
  0
LINE
  5
2DF
100
AcDbEntity
  8
0
100
AcDbLine
 62
7
  6
CONTINUOUS
 10
73.2513314741
 20
55.711982858
 11
73.2513314741
 21
56.5619828575
  0
LINE
  5
2E0
100
AcDbEntity
  8
0
100
AcDbLine
 62
7
  6
CONTINUOUS
 10
73.3513314741
 20
55.7119828575
 11
73.3513314741
 21
56.5619828575
  0
LINE
  5
2E1
100
AcDbEntity
  8
0
100
AcDbLine
 62
7
  6
CONTINUOUS
 10
73.3513314741
 20
72.7619828575
 11
73.3513314741
 21
73.6119828575
  0
LINE
  5
2E2
100
AcDbEntity
  8
0
100
AcDbLine
 62
7
  6
CONTINUOUS
 10
74.7513314741
 20
71.9619828575
 11
74.7513314741
 21
57.3619828575
  0
LINE
  5
2E3
100
AcDbEntity
  8
0
100
AcDbLine
 62
7
  6
CONTINUOUS
 10
74.8513314741
 20
72.0119828575
 11
74.8513314741
 21
57.3419828575
  0
LINE
  5
2E4
100
AcDbEntity
  8
0
100
AcDbLine
 62
7
  6
CONTINUOUS
 10
75.6924857473
 20
72.0119828575
 11
75.6924857473
 21
61.0119828575
  0
LINE
  5
2E5
100
AcDbEntity
  8
0
100
AcDbLine
 62
7
  6
CONTINUOUS
 10
74.5369721202
 20
56.5619828575
 11
74.7513314741
 21
57.3619828575
  0
LINE
  5
2E6
100
AcDbEntity
  8
0
100
AcDbLine
 62
7
  6
CONTINUOUS
 10
74.8513314741
 20
57.3419828575
 11
74.6369721202
 21
56.5419828575
  0
LINE
  5
2E7
100
AcDbEntity
  8
0
100
AcDbLine
 62
7
  6
CONTINUOUS
 10
80.6319047931
 20
70.4119828575
 11
80.0653608764
 21
69.2425354974
  0
LINE
  5
2E8
100
AcDbEntity
  8
0
100
AcDbLine
 62
7
  6
CONTINUOUS
 10
80.0653608764
 20
60.0814302175
 11
80.6319047931
 21
58.9119828575
  0
LINE
  5
2E9
100
AcDbEntity
  8
0
100
AcDbLine
 62
7
  6
CONTINUOUS
 10
74.7513314741
 20
71.9619828575
 11
74.5369721202
 21
72.7619828575
  0
LINE
  5
2EA
100
AcDbEntity
  8
0
100
AcDbLine
 62
7
  6
CONTINUOUS
 10
74.6513314741
 20
72.8419828575
 11
74.8737293039
 21
72.0119828575
  0
LINE
  5
2EB
100
AcDbEntity
  8
0
100
AcDbLine
 62
7
  6
CONTINUOUS
 10
77.2513314741
 20
58.5119828575
 11
77.2513314741
 21
72.0119828575
  0
LINE
  5
2EC
100
AcDbEntity
  8
0
100
AcDbLine
 62
7
  6
CONTINUOUS
 10
77.4013314741
 20
72.0119828575
 11
77.4013314741
 21
71.0119828575
  0
LINE
  5
2ED
100
AcDbEntity
  8
0
100
AcDbLine
 62
7
  6
CONTINUOUS
 10
77.4913314741
 20
58.4119828575
 11
77.4913314741
 21
70.9119828575
  0
LINE
  5
2EE
100
AcDbEntity
  8
0
100
AcDbLine
 62
7
  6
CONTINUOUS
 10
78.0513314741
 20
58.3119828575
 11
78.0513314741
 21
58.4119828575
  0
LINE
  5
2EF
100
AcDbEntity
  8
0
100
AcDbLine
 62
7
  6
CONTINUOUS
 10
78.0513314741
 20
70.9119828575
 11
78.0513314741
 21
71.0119828575
  0
LINE
  5
2F0
100
AcDbEntity
  8
0
100
AcDbLine
 62
7
  6
CONTINUOUS
 10
79.8913314741
 20
67.8329965662
 11
79.8913314741
 21
61.4909691487
  0
LINE
  5
2F1
100
AcDbEntity
  8
0
100
AcDbLine
 62
7
  6
CONTINUOUS
 10
79.9712439224
 20
58.3119828575
 11
79.9712439224
 21
58.4119828575
  0
LINE
  5
2F2
100
AcDbEntity
  8
0
100
AcDbLine
 62
7
  6
CONTINUOUS
 10
79.9712439224
 20
70.9119828575
 11
79.9712439224
 21
71.0119828575
  0
LINE
  5
2F3
100
AcDbEntity
  8
0
100
AcDbLine
 62
7
  6
CONTINUOUS
 10
80.1558219452
 20
67.6619828575
 11
80.1558219452
 21
61.6619828575
  0
LINE
  5
2F4
100
AcDbEntity
  8
0
100
AcDbLine
 62
7
  6
CONTINUOUS
 10
80.2712439224
 20
58.3119828575
 11
80.2712439224
 21
58.4119828575
  0
LINE
  5
2F5
100
AcDbEntity
  8
0
100
AcDbLine
 62
7
  6
CONTINUOUS
 10
80.2712439224
 20
70.9119828575
 11
80.2712439224
 21
71.0119828575
  0
LINE
  5
2F6
100
AcDbEntity
  8
0
100
AcDbLine
 62
7
  6
CONTINUOUS
 10
80.4203124163
 20
61.6619828575
 11
80.4203124163
 21
62.5619828575
  0
LINE
  5
2F7
100
AcDbEntity
  8
0
100
AcDbLine
 62
7
  6
CONTINUOUS
 10
80.4203124163
 20
66.7619828575
 11
80.4203124163
 21
67.6619828575
  0
LINE
  5
2F8
100
AcDbEntity
  8
0
100
AcDbLine
 62
7
  6
CONTINUOUS
 10
80.7513314741
 20
66.6119828575
 11
80.7513314741
 21
70.8119828575
  0
LINE
  5
2F9
100
AcDbEntity
  8
0
100
AcDbLine
 62
7
  6
CONTINUOUS
 10
80.7913314741
 20
66.6119828575
 11
80.7913314741
 21
62.7119828575
  0
LINE
  5
2FA
100
AcDbEntity
  8
0
100
AcDbLine
 62
7
  6
CONTINUOUS
 10
80.8013314741
 20
58.5119828575
 11
80.8013314741
 21
62.7119828575
  0
LINE
  5
2FB
100
AcDbEntity
  8
0
100
AcDbLine
 62
7
  6
CONTINUOUS
 10
81.9913314741
 20
66.6119828575
 11
81.9913314741
 21
62.7119828575
  0
LINE
  5
2FC
100
AcDbEntity
  8
0
100
AcDbLine
 62
7
  6
CONTINUOUS
 10
82.4913314741
 20
66.6119828575
 11
82.4913314741
 21
62.7119828575
  0
LINE
  5
2FD
100
AcDbEntity
  8
0
100
AcDbLine
 62
7
  6
CONTINUOUS
 10
82.7513314741
 20
55.7119828575
 11
82.7513314741
 21
73.6119828575
  0
ARC
  5
2FE
100
AcDbEntity
  8
0
100
AcDbCircle
 62
7
  6
CONTINUOUS
 10
39.3020922949
 20
-221.7430884591
 40
284.8775962024
100
AcDbArc
 50
90.6007458574
 51
90.751263112
  0
ARC
  5
2FF
100
AcDbEntity
  8
0
100
AcDbCircle
 62
7
  6
CONTINUOUS
 10
89.218627363
 20
-107.4338623957
 40
171.9661280803
100
AcDbArc
 50
107.63666363
 51
107.8146942807
  0
ARC
  5
300
100
AcDbEntity
  8
0
100
AcDbCircle
 62
7
  6
CONTINUOUS
 10
38.6776440289
 20
-101.3528984814
 40
163.8668026377
100
AcDbArc
 50
90.816353995
 51
91.0755022741
  0
ARC
  5
301
100
AcDbEntity
  8
0
100
AcDbCircle
 62
7
  6
CONTINUOUS
 10
40.7513314741
 20
64.6469828575
 40
30.0
100
AcDbArc
 50
163.5576264737
 51
196.4423735263
  0
ARC
  5
302
100
AcDbEntity
  8
0
100
AcDbCircle
 62
7
  6
CONTINUOUS
 10
40.7513314741
 20
64.6469828575
 40
29.5
100
AcDbArc
 50
191.4378624702
 51
196.4423735271
  0
ARC
  5
303
100
AcDbEntity
  8
0
100
AcDbCircle
 62
7
  6
CONTINUOUS
 10
40.7513314741
 20
64.6469828575
 40
29.5
100
AcDbArc
 50
163.5576264623
 51
187.8909526051
  0
ARC
  5
304
100
AcDbEntity
  8
0
100
AcDbCircle
 62
7
  6
CONTINUOUS
 10
45.2244925381
 20
70.5123054988
 40
0.6472484387
100
AcDbArc
 50
177.794717132
 51
178.4853428994
  0
ARC
  5
305
100
AcDbEntity
  8
0
100
AcDbCircle
 62
7
  6
CONTINUOUS
 10
45.2244916957
 20
58.7616601952
 40
0.6472475961
100
AcDbArc
 50
181.5146571416
 51
182.2052851581
  0
ARC
  5
306
100
AcDbEntity
  8
0
100
AcDbCircle
 62
7
  6
CONTINUOUS
 10
40.5528751993
 20
73.0621952105
 40
0.602257275
100
AcDbArc
 50
170.0480463744
 51
177.157358311
  0
ARC
  5
307
100
AcDbEntity
  8
0
100
AcDbCircle
 62
7
  6
CONTINUOUS
 10
12.4577367927
 20
56.2969828575
 40
0.5
100
AcDbArc
 50
196.4423735263
 51
270.0
  0
ARC
  5
308
100
AcDbEntity
  8
0
100
AcDbCircle
 62
7
  6
CONTINUOUS
 10
12.4577367927
 20
72.9969828575
 40
0.5
100
AcDbArc
 50
90.0
 51
163.5576264737
  0
ARC
  5
309
100
AcDbEntity
  8
0
100
AcDbCircle
 62
7
  6
CONTINUOUS
 10
11.7013314741
 20
56.2119828575
 40
0.5
100
AcDbArc
 50
180.0
 51
270.0
  0
ARC
  5
30A
100
AcDbEntity
  8
0
100
AcDbCircle
 62
7
  6
CONTINUOUS
 10
11.7013314741
 20
73.1119828575
 40
0.5
100
AcDbArc
 50
90.0
 51
180.0
  0
ARC
  5
30B
100
AcDbEntity
  8
0
100
AcDbCircle
 62
7
  6
CONTINUOUS
 10
17.7513314741
 20
73.1119828575
 40
0.5
100
AcDbArc
 50
90.0
 51
180.0
  0
ARC
  5
30C
100
AcDbEntity
  8
0
100
AcDbCircle
 62
7
  6
CONTINUOUS
 10
17.7513314741
 20
56.2119828575
 40
0.5
100
AcDbArc
 50
180.0
 51
270.0
  0
ARC
  5
30D
100
AcDbEntity
  8
0
100
AcDbCircle
 62
7
  6
CONTINUOUS
 10
36.3363314741
 20
72.6419828575
 40
0.2
100
AcDbArc
 50
45.478055978
 51
89.9964939714
  0
ARC
  5
30E
100
AcDbEntity
  8
0
100
AcDbCircle
 62
7
  6
CONTINUOUS
 10
36.3363314741
 20
56.6819828575
 40
0.2
100
AcDbArc
 50
278.391409481
 51
312.8720972611
  0
ARC
  5
30F
100
AcDbEntity
  8
0
100
AcDbCircle
 62
7
  6
CONTINUOUS
 10
15.3013314741
 20
60.4619828575
 40
0.15
100
AcDbArc
 50
0.0
 51
60.8990995376
  0
ARC
  5
310
100
AcDbEntity
  8
0
100
AcDbCircle
 62
7
  6
CONTINUOUS
 10
13.8013314741
 20
60.4619828575
 40
0.15
100
AcDbArc
 50
105.690324699
 51
180.0
  0
ARC
  5
311
100
AcDbEntity
  8
0
100
AcDbCircle
 62
7
  6
CONTINUOUS
 10
38.6869094825
 20
298.830215515
 40
232.6872186039
100
AcDbArc
 50
269.2317155685
 51
269.4159899462
  0
ARC
  5
312
100
AcDbEntity
  8
0
100
AcDbCircle
 62
7
  6
CONTINUOUS
 10
39.2745096319
 20
266.7488081171
 40
199.9936586008
100
AcDbArc
 50
268.9477739876
 51
269.1601100579
  0
ARC
  5
313
100
AcDbEntity
  8
0
100
AcDbCircle
 62
7
  6
CONTINUOUS
 10
88.8691200156
 20
64.6368735752
 40
51.6580847882
100
AcDbArc
 50
172.5197450732
 51
175.877386967
  0
ARC
  5
314
100
AcDbEntity
  8
0
100
AcDbCircle
 62
7
  6
CONTINUOUS
 10
88.7933745817
 20
64.6293883459
 40
51.5819806964
100
AcDbArc
 50
184.1201268996
 51
187.4827235087
  0
ARC
  5
315
100
AcDbEntity
  8
0
100
AcDbCircle
 62
7
  6
CONTINUOUS
 10
88.5006515682
 20
64.6311643507
 40
51.1013381252
100
AcDbArc
 50
184.1455668868
 51
187.527370421
  0
ARC
  5
316
100
AcDbEntity
  8
0
100
AcDbCircle
 62
7
  6
CONTINUOUS
 10
88.5003811423
 20
64.6428289746
 40
51.1010667955
100
AcDbArc
 50
172.4726798111
 51
175.8545011745
  0
ARC
  5
317
100
AcDbEntity
  8
0
100
AcDbCircle
 62
7
  6
CONTINUOUS
 10
77.0877857347
 20
64.6369752554
 40
40.8010287193
100
AcDbArc
 50
177.8668916818
 51
182.1330691884
  0
ARC
  5
318
100
AcDbEntity
  8
0
100
AcDbCircle
 62
7
  6
CONTINUOUS
 10
76.926589524
 20
64.627853024
 40
40.6395406926
100
AcDbArc
 50
183.0062096477
 51
187.1512691152
  0
ARC
  5
319
100
AcDbEntity
  8
0
100
AcDbCircle
 62
7
  6
CONTINUOUS
 10
76.839400219
 20
64.6538504571
 40
40.5520623085
100
AcDbArc
 50
172.8442411757
 51
176.9982674356
  0
ARC
  5
31A
100
AcDbEntity
  8
0
100
AcDbCircle
 62
7
  6
CONTINUOUS
 10
68.5309815807
 20
64.6324290769
 40
32.999734181
100
AcDbArc
 50
171.1496656873
 51
176.2541366799
  0
ARC
  5
31B
100
AcDbEntity
  8
0
100
AcDbCircle
 62
7
  6
CONTINUOUS
 10
68.5154518832
 20
64.6388697012
 40
32.9839928058
100
AcDbArc
 50
183.7430554507
 51
188.8498958689
  0
ARC
  5
31C
100
AcDbEntity
  8
0
100
AcDbCircle
 62
7
  6
CONTINUOUS
 10
68.4861312443
 20
64.635991859
 40
32.9546910965
100
AcDbArc
 50
177.3433372767
 51
182.6531769745
  0
ARC
  5
31D
100
AcDbEntity
  8
0
100
AcDbCircle
 62
7
  6
CONTINUOUS
 10
68.3628520025
 20
64.614813155
 40
32.8293965229
100
AcDbArc
 50
189.3821145522
 51
194.6953926497
  0
ARC
  5
31E
100
AcDbEntity
  8
0
100
AcDbCircle
 62
7
  6
CONTINUOUS
 10
68.3276919297
 20
64.6666531081
 40
32.7934851172
100
AcDbArc
 50
165.3015947622
 51
170.6208154117
  0
ARC
  5
31F
100
AcDbEntity
  8
0
100
AcDbCircle
 62
7
  6
CONTINUOUS
 10
67.2407027404
 20
64.604332463
 40
31.8166705302
100
AcDbArc
 50
194.595029475
 51
194.7905715068
  0
ARC
  5
320
100
AcDbEntity
  8
0
100
AcDbCircle
 62
7
  6
CONTINUOUS
 10
67.2405290212
 20
64.6696814478
 40
31.81649108
100
AcDbArc
 50
165.1163202677
 51
165.4049760665
  0
ARC
  5
321
100
AcDbEntity
  8
0
100
AcDbCircle
 62
7
  6
CONTINUOUS
 10
67.2376009307
 20
64.6035074483
 40
31.8134608824
100
AcDbArc
 50
194.7905610114
 51
195.5420583254
  0
ARC
  5
322
100
AcDbEntity
  8
0
100
AcDbCircle
 62
7
  6
CONTINUOUS
 10
67.2371264971
 20
64.6705905597
 40
31.8129692008
100
AcDbArc
 50
164.4579169103
 51
165.1163286365
  0
ARC
  5
323
100
AcDbEntity
  8
0
100
AcDbCircle
 62
7
  6
CONTINUOUS
 10
85.9216636608
 20
64.6880878007
 40
31.8029627805
100
AcDbArc
 50
164.3933060735
 51
166.6755269725
  0
ARC
  5
324
100
AcDbEntity
  8
0
100
AcDbCircle
 62
7
  6
CONTINUOUS
 10
80.5513314741
 20
70.8119828575
 40
0.2
100
AcDbArc
 50
0.0
 51
90.0
  0
ARC
  5
325
100
AcDbEntity
  8
0
100
AcDbCircle
 62
7
  6
CONTINUOUS
 10
80.6013314741
 20
58.5119828575
 40
0.2
100
AcDbArc
 50
270.0
 51
360.0
  0
ARC
  5
326
100
AcDbEntity
  8
0
100
AcDbCircle
 62
7
  6
CONTINUOUS
 10
77.4513314741
 20
58.5119828575
 40
0.2
100
AcDbArc
 50
180.0
 51
270.0
  0
ARC
  5
327
100
AcDbEntity
  8
0
100
AcDbCircle
 62
7
  6
CONTINUOUS
 10
90.4046029875
 20
240.4244977529
 40
175.8673640402
100
AcDbArc
 50
252.1878997682
 51
252.3619821628
  0
ARC
  5
328
100
AcDbEntity
  8
0
100
AcDbCircle
 62
7
  6
CONTINUOUS
 10
174.6820675739
 20
64.6619932563
 40
115.9251325542
100
AcDbArc
 50
175.8199021103
 51
184.1801084443
  0
ARC
  5
329
100
AcDbEntity
  8
0
100
AcDbCircle
 62
7
  6
CONTINUOUS
 10
155.9666860609
 20
64.637271439
 40
115.910493969
100
AcDbArc
 50
175.8318708327
 51
184.1684018296
  0
ARC
  5
32A
100
AcDbEntity
  8
0
100
AcDbCircle
 62
7
  6
CONTINUOUS
 10
118.46552906
 20
64.6386046075
 40
79.8966503054
100
AcDbArc
 50
182.6615715753
 51
184.822764188
  0
ARC
  5
32B
100
AcDbEntity
  8
0
100
AcDbCircle
 62
7
  6
CONTINUOUS
 10
118.4184162088
 20
64.6382605961
 40
79.8494443046
100
AcDbArc
 50
175.176465603
 51
177.338937112
  0
ARC
  5
32C
100
AcDbEntity
  8
0
100
AcDbCircle
 62
7
  6
CONTINUOUS
 10
117.5521319649
 20
64.6429548674
 40
79.0036694444
100
AcDbArc
 50
182.6954919231
 51
184.8816127968
  0
ARC
  5
32D
100
AcDbEntity
  8
0
100
AcDbCircle
 62
7
  6
CONTINUOUS
 10
117.4743943188
 20
64.6359627584
 40
78.9257730445
100
AcDbArc
 50
175.1171651893
 51
177.3054454335
  0
SPLINE
  5
32E
100
AcDbEntity
  8
0
100
AcDbSpline
 62
7
  6
CONTINUOUS
 70
0
 71
3
 72
17
 73
13
 74
0
 42
0.0000001
 43
0.0000001
 44
0.0000000001
 40
0.0
 40
0.0
 40
0.0
 40
0.0
 40
0.0280107417
 40
0.0583068709
 40
0.0925838667
 40
0.1319392964
 40
0.227758276
 40
0.3470718874
 40
0.4879670268
 40
0.6468610872
 40
0.8193552415
 40
1.0
 40
1.0
 40
1.0
 40
1.0
 10
44.6376952739
 20
68.9619828575
 30
0.0
 10
44.6358096684
 20
68.9619828575
 30
0.0
 10
44.6318642006
 20
68.962619093
 30
0.0
 10
44.6261875835
 20
68.9653466242
 30
0.0
 10
44.6206929702
 20
68.9697528363
 30
0.0
 10
44.6131409582
 20
68.9783574313
 30
0.0
 10
44.6045788656
 20
68.9933584955
 30
0.0
 10
44.5959560302
 20
69.0157652728
 30
0.0
 10
44.5886695247
 20
69.0430681551
 30
0.0
 10
44.5829715931
 20
69.0743725214
 30
0.0
 10
44.5790791439
 20
69.1086429089
 30
0.0
 10
44.5777917309
 20
69.1323954549
 30
0.0
 10
44.5774702506
 20
69.1445517089
 30
0.0
  0
SPLINE
  5
32F
100
AcDbEntity
  8
0
100
AcDbSpline
 62
7
  6
CONTINUOUS
 70
0
 71
3
 72
17
 73
13
 74
0
 42
0.0000001
 43
0.0000001
 44
0.0000000001
 40
0.0
 40
0.0
 40
0.0
 40
0.0
 40
0.1806447187
 40
0.3531388048
 40
0.5120328563
 40
0.652928007
 40
0.772241643
 40
0.8680606505
 40
0.9074161
 40
0.9416931118
 40
0.971989254
 40
1.0
 40
1.0
 40
1.0
 40
1.0
 10
44.5774702506
 20
60.1294140069
 30
0.0
 10
44.5777917308
 20
60.1415702582
 30
0.0
 10
44.5790791423
 20
60.1653227969
 30
0.0
 10
44.5829715908
 20
60.1995931765
 30
0.0
 10
44.5886695199
 20
60.2308975386
 30
0.0
 10
44.5959560239
 20
60.258200423
 30
0.0
 10
44.6045788581
 20
60.2806072054
 30
0.0
 10
44.6131409516
 20
60.2956082744
 30
0.0
 10
44.6206929644
 20
60.3042128746
 30
0.0
 10
44.626187581
 20
60.3086190878
 30
0.0
 10
44.6318641992
 20
60.3113466214
 30
0.0
 10
44.6358096681
 20
60.3119828583
 30
0.0
 10
44.6376952739
 20
60.3119828583
 30
0.0
  0
SPLINE
  5
330
100
AcDbEntity
  8
0
100
AcDbSpline
 62
7
  6
CONTINUOUS
 70
0
 71
3
 72
12
 73
8
 74
0
 42
0.0000001
 43
0.0000001
 44
0.0000000001
 40
0.0
 40
0.0
 40
0.0
 40
0.0
 40
0.1899713464
 40
0.3728367295
 40
0.6927840781
 40
0.9170289529
 40
1.0
 40
1.0
 40
1.0
 40
1.0
 10
11.4424857473
 20
71.6119828575
 30
0.0
 10
11.4424857473
 20
71.6715000988
 30
0.0
 10
11.4357208926
 20
71.7884191628
 30
0.0
 10
11.3996951672
 20
72.0027879977
 30
0.0
 10
11.3325282284
 20
72.2214391541
 30
0.0
 10
11.2550257266
 20
72.4021521556
 30
0.0
 10
11.2129571902
 20
72.4887342316
 30
0.0
 10
11.2013314822
 20
72.5119828575
 30
0.0
  0
SPLINE
  5
331
100
AcDbEntity
  8
0
100
AcDbSpline
 62
7
  6
CONTINUOUS
 70
0
 71
3
 72
11
 73
7
 74
0
 42
0.0000001
 43
0.0000001
 44
0.0000000001
 40
0.0
 40
0.0
 40
0.0
 40
0.0
 40
0.0829867394
 40
0.3073275599
 40
0.6274528539
 40
1.0
 40
1.0
 40
1.0
 40
1.0
 10
11.2013314773
 20
56.8119828575
 30
0.0
 10
11.212958865
 20
56.8352178097
 30
0.0
 10
11.2550170824
 20
56.9217878757
 30
0.0
 10
11.3324114714
 20
57.1025712256
 30
0.0
 10
11.4172948044
 20
57.3778112701
 30
0.0
 10
11.4424857473
 20
57.5953291768
 30
0.0
 10
11.4424857473
 20
57.7119828575
 30
0.0
  0
SPLINE
  5
332
100
AcDbEntity
  8
0
100
AcDbSpline
 62
7
  6
CONTINUOUS
 70
0
 71
3
 72
12
 73
8
 74
0
 42
0.0000001
 43
0.0000001
 44
0.0000000001
 40
0.0
 40
0.0
 40
0.0
 40
0.0
 40
0.3525552689
 40
0.6316116485
 40
0.7443453993
 40
0.841086627
 40
1.0
 40
1.0
 40
1.0
 40
1.0
 10
12.5831709934
 20
73.4997409867
 30
0.0
 10
12.588354202
 20
73.516057126
 30
0.0
 10
12.5989493834
 20
73.5448903275
 30
0.0
 10
12.6160897074
 20
73.5769997839
 30
0.0
 10
12.6312463832
 20
73.5954036957
 30
0.0
 10
12.6447326153
 20
73.6071516699
 30
0.0
 10
12.6571501425
 20
73.6119828721
 30
0.0
 10
12.6648667756
 20
73.6119828575
 30
0.0
  0
SPLINE
  5
333
100
AcDbEntity
  8
0
100
AcDbSpline
 62
7
  6
CONTINUOUS
 70
0
 71
3
 72
11
 73
7
 74
0
 42
0.0000001
 43
0.0000001
 44
0.0000000001
 40
0.0
 40
0.0
 40
0.0
 40
0.0
 40
0.1732976768
 40
0.3863952332
 40
0.6597945463
 40
1.0
 40
1.0
 40
1.0
 40
1.0
 10
12.6648667163
 20
55.7119828575
 30
0.0
 10
12.658609466
 20
55.7119828575
 30
0.0
 10
12.6446169972
 20
55.7163398869
 30
0.0
 10
12.6266694201
 20
55.7326006373
 30
0.0
 10
12.6099221437
 20
55.7575012731
 30
0.0
 10
12.6005233521
 20
55.7776424011
 30
0.0
 10
12.5958574479
 20
55.7890055261
 30
0.0
  0
SPLINE
  5
334
100
AcDbEntity
  8
0
100
AcDbSpline
 62
7
  6
CONTINUOUS
 70
0
 71
3
 72
9
 73
5
 74
0
 42
0.0000001
 43
0.0000001
 44
0.0000000001
 40
0.0
 40
0.0
 40
0.0
 40
0.0
 40
0.2520274403
 40
1.0
 40
1.0
 40
1.0
 40
1.0
 10
17.2433573567
 20
73.3901589368
 30
0.0
 10
17.2475864189
 20
73.3953273787
 30
0.0
 10
17.2647782849
 20
73.4154958942
 30
0.0
 10
17.2835325975
 20
73.4343212743
 30
0.0
 10
17.2982462914
 20
73.4475999337
 30
0.0
  0
SPLINE
  5
335
100
AcDbEntity
  8
0
100
AcDbSpline
 62
7
  6
CONTINUOUS
 70
0
 71
3
 72
9
 73
5
 74
0
 42
0.0000001
 43
0.0000001
 44
0.0000000001
 40
0.0
 40
0.0
 40
0.0
 40
0.0
 40
0.5069170103
 40
1.0
 40
1.0
 40
1.0
 40
1.0
 10
17.2982462914
 20
73.4475999337
 30
0.0
 10
17.3597102875
 20
73.5030693133
 30
0.0
 10
17.5064328492
 20
73.585768516
 30
0.0
 10
17.6707982678
 20
73.6119828892
 30
0.0
 10
17.75133177
 20
73.6119828575
 30
0.0
  0
SPLINE
  5
336
100
AcDbEntity
  8
0
100
AcDbSpline
 62
7
  6
CONTINUOUS
 70
0
 71
3
 72
9
 73
5
 74
0
 42
0.0000001
 43
0.0000001
 44
0.0000000001
 40
0.0
 40
0.0
 40
0.0
 40
0.0
 40
0.4936372535
 40
1.0
 40
1.0
 40
1.0
 40
1.0
 10
17.7513314741
 20
55.7119828575
 30
0.0
 10
17.6740015523
 20
55.7119828575
 30
0.0
 10
17.516435774
 20
55.7361653816
 30
0.0
 10
17.3743972926
 20
55.8119908578
 30
0.0
 10
17.3136302254
 20
55.8629768103
 30
0.0
  0
SPLINE
  5
337
100
AcDbEntity
  8
0
100
AcDbSpline
 62
7
  6
CONTINUOUS
 70
0
 71
3
 72
9
 73
5
 74
0
 42
0.0000001
 43
0.0000001
 44
0.0000000001
 40
0.0
 40
0.0
 40
0.0
 40
0.0
 40
0.2476076673
 40
1.0
 40
1.0
 40
1.0
 40
1.0
 10
17.3136302254
 20
55.8629768103
 30
0.0
 10
17.3073229882
 20
55.8682688297
 30
0.0
 10
17.2823167313
 20
55.8901875725
 30
0.0
 10
17.259268182
 20
55.9143693453
 30
0.0
 10
17.2434210031
 20
55.933728249
 30
0.0
  0
SPLINE
  5
338
100
AcDbEntity
  8
0
100
AcDbSpline
 62
7
  6
CONTINUOUS
 70
0
 71
3
 72
9
 73
5
 74
0
 42
0.0000001
 43
0.0000001
 44
0.0000000001
 40
0.0
 40
0.0
 40
0.0
 40
0.0
 40
0.2500168988
 40
1.0
 40
1.0
 40
1.0
 40
1.0
 10
37.1412307855
 20
72.9501339725
 30
0.0
 10
37.0897986235
 20
72.7065426144
 30
0.0
 10
36.8933513669
 20
71.7303076489
 30
0.0
 10
36.7337113218
 20
70.7466791065
 30
0.0
 10
36.6346479538
 20
70.0064601785
 30
0.0
  0
SPLINE
  5
339
100
AcDbEntity
  8
0
100
AcDbSpline
 62
7
  6
CONTINUOUS
 70
0
 71
3
 72
9
 73
5
 74
0
 42
0.0000001
 43
0.0000001
 44
0.0000000001
 40
0.0
 40
0.0
 40
0.0
 40
0.0
 40
0.250025379
 40
1.0
 40
1.0
 40
1.0
 40
1.0
 10
36.6346434182
 20
59.2675053684
 30
0.0
 10
36.667668371
 20
59.0207361206
 30
0.0
 10
36.8089287076
 20
58.0350105935
 30
0.0
 10
36.9869432309
 20
57.0545376275
 30
0.0
 10
37.1412225922
 20
56.3238405179
 30
0.0
  0
SPLINE
  5
33A
100
AcDbEntity
  8
0
100
AcDbSpline
 62
7
  6
CONTINUOUS
 70
0
 71
3
 72
11
 73
7
 74
0
 42
0.0000001
 43
0.0000001
 44
0.0000000001
 40
0.0
 40
0.0
 40
0.0
 40
0.0
 40
0.250038553
 40
0.5000346522
 40
0.7500042883
 40
1.0
 40
1.0
 40
1.0
 40
1.0
 10
37.074753428
 20
73.5619828396
 30
0.0
 10
37.0203801222
 20
73.5619593352
 30
0.0
 10
36.9108453165
 20
73.5443339464
 30
0.0
 10
36.763915337
 20
73.4673885558
 30
0.0
 10
36.6489647846
 20
73.3477716633
 30
0.0
 10
36.6020249628
 20
73.2471200511
 30
0.0
 10
36.5874430137
 20
73.1947482011
 30
0.0
  0
SPLINE
  5
33B
100
AcDbEntity
  8
0
100
AcDbSpline
 62
7
  6
CONTINUOUS
 70
0
 71
3
 72
11
 73
7
 74
0
 42
0.0000001
 43
0.0000001
 44
0.0000000001
 40
0.0
 40
0.0
 40
0.0
 40
0.0
 40
0.2499987104
 40
0.499964999
 40
0.7499580495
 40
1.0
 40
1.0
 40
1.0
 40
1.0
 10
36.5874424391
 20
56.079231972
 30
0.0
 10
36.6020233917
 20
56.0268576359
 30
0.0
 10
36.6489659407
 20
55.9262038777
 30
0.0
 10
36.7639155596
 20
55.8065815277
 30
0.0
 10
36.9108485895
 20
55.7296329989
 30
0.0
 10
37.0203863837
 20
55.712006316
 30
0.0
 10
37.0747619043
 20
55.7119828752
 30
0.0
  0
SPLINE
  5
33C
100
AcDbEntity
  8
0
100
AcDbSpline
 62
7
  6
CONTINUOUS
 70
0
 71
3
 72
19
 73
15
 74
0
 42
0.0000001
 43
0.0000001
 44
0.0000000001
 40
0.0
 40
0.0
 40
0.0
 40
0.0
 40
0.1732619109
 40
0.3399427963
 40
0.4945820153
 40
0.6330399442
 40
0.6953099333
 40
0.7526180325
 40
0.8048601564
 40
0.852082892
 40
0.8945365929
 40
0.9327194743
 40
0.9674672759
 40
1.0
 40
1.0
 40
1.0
 40
1.0
 10
37.8396859472
 20
57.9368996687
 30
0.0
 10
37.8541554288
 20
57.8416310621
 30
0.0
 10
37.8900209183
 20
57.6557646838
 30
0.0
 10
37.9629710853
 20
57.3902727677
 30
0.0
 10
38.0499391687
 20
57.1495208775
 30
0.0
 10
38.1335574293
 20
56.9700198373
 30
0.0
 10
38.205266906
 20
56.8456157261
 30
0.0
 10
38.2583887275
 20
56.7660833633
 30
0.0
 10
38.312423675
 20
56.6975178361
 30
0.0
 10
38.3670992744
 20
56.6403873428
 30
0.0
 10
38.422193019
 20
56.5950988917
 30
0.0
 10
38.4775696986
 20
56.56207579
 30
0.0
 10
38.533001182
 20
56.541740473
 30
0.0
 10
38.5705396317
 20
56.5369862763
 30
0.0
 10
38.588632997
 20
56.5369864829
 30
0.0
  0
SPLINE
  5
33D
100
AcDbEntity
  8
0
100
AcDbSpline
 62
7
  6
CONTINUOUS
 70
0
 71
3
 72
9
 73
5
 74
0
 42
0.0000001
 43
0.0000001
 44
0.0000000001
 40
0.0
 40
0.0
 40
0.0
 40
0.0
 40
0.4597931456
 40
1.0
 40
1.0
 40
1.0
 40
1.0
 10
36.6073765935
 20
72.9873658852
 30
0.0
 10
36.6891090572
 20
72.980493312
 30
0.0
 10
36.8670132296
 20
72.9672829479
 30
0.0
 10
37.0450389865
 20
72.9559193559
 30
0.0
 10
37.1412307855
 20
72.9501339725
 30
0.0
  0
SPLINE
  5
33E
100
AcDbEntity
  8
0
100
AcDbSpline
 62
7
  6
CONTINUOUS
 70
0
 71
3
 72
9
 73
5
 74
0
 42
0.0000001
 43
0.0000001
 44
0.0000000001
 40
0.0
 40
0.0
 40
0.0
 40
0.0
 40
0.5402115099
 40
1.0
 40
1.0
 40
1.0
 40
1.0
 10
37.1412225922
 20
56.3238405179
 30
0.0
 10
37.0450306952
 20
56.3180399155
 30
0.0
 10
36.867012005
 20
56.3065765849
 30
0.0
 10
36.6890929644
 20
56.293554318
 30
0.0
 10
36.6073634577
 20
56.2866546927
 30
0.0
  0
SPLINE
  5
33F
100
AcDbEntity
  8
0
100
AcDbSpline
 62
7
  6
CONTINUOUS
 70
0
 71
3
 72
14
 73
10
 74
0
 42
0.0000001
 43
0.0000001
 44
0.0000000001
 40
0.0
 40
0.0
 40
0.0
 40
0.0
 40
0.3028855509
 40
0.4467357056
 40
0.58194746
 40
0.7061581212
 40
0.8178409246
 40
0.9159492027
 40
1.0
 40
1.0
 40
1.0
 40
1.0
 10
38.8517614422
 20
71.3525736122
 30
0.0
 10
38.864340127
 20
71.5013141205
 30
0.0
 10
38.8701855821
 20
71.7220930556
 30
0.0
 10
38.851952885
 20
72.0084306374
 30
0.0
 10
38.8272823573
 20
72.205785609
 30
0.0
 10
38.7922762921
 20
72.3854535289
 30
0.0
 10
38.748452082
 20
72.5443194275
 30
0.0
 10
38.6973570952
 20
72.6800614017
 30
0.0
 10
38.6556482385
 20
72.7599622624
 30
0.0
 10
38.6334284628
 20
72.794921299
 30
0.0
  0
SPLINE
  5
340
100
AcDbEntity
  8
0
100
AcDbSpline
 62
7
  6
CONTINUOUS
 70
0
 71
3
 72
25
 73
21
 74
0
 42
0.0000001
 43
0.0000001
 44
0.0000000001
 40
0.0
 40
0.0
 40
0.0
 40
0.0
 40
0.0460576869
 40
0.0664189692
 40
0.0851509565
 40
0.1025176559
 40
0.118970094
 40
0.1350467305
 40
0.151236805
 40
0.1854492907
 40
0.2246091921
 40
0.270880144
 40
0.3254875218
 40
0.3884029243
 40
0.4585661756
 40
0.535785643
 40
0.6200636614
 40
0.7099626954
 40
0.8040452916
 40
1.0
 40
1.0
 40
1.0
 40
1.0
 10
38.6334284628
 20
72.794921299
 30
0.0
 10
38.6157330297
 20
72.8227620523
 30
0.0
 10
38.5874557899
 20
72.8614242048
 30
0.0
 10
38.5441533499
 20
72.9045323391
 30
0.0
 10
38.5119982597
 20
72.9292825691
 30
0.0
 10
38.4787511057
 20
72.9473282717
 30
0.0
 10
38.4445477983
 20
72.9583916289
 30
0.0
 10
38.4097283543
 20
72.9627831467
 30
0.0
 10
38.3619656233
 20
72.9602085576
 30
0.0
 10
38.2997203993
 20
72.9407089147
 30
0.0
 10
38.2273074217
 20
72.8934708427
 30
0.0
 10
38.1556673868
 20
72.8225537675
 30
0.0
 10
38.0854532559
 20
72.7281802341
 30
0.0
 10
38.0168851154
 20
72.6123739727
 30
0.0
 10
37.9494125825
 20
72.4775912188
 30
0.0
 10
37.8849823822
 20
72.3245554883
 30
0.0
 10
37.8255831728
 20
72.1544769029
 30
0.0
 10
37.7710500991
 20
71.9701689545
 30
0.0
 10
37.7053993982
 20
71.706018235
 30
0.0
 10
37.669116346
 20
71.5010885062
 30
0.0
 10
37.6508394307
 20
71.3619327638
 30
0.0
  0
SPLINE
  5
341
100
AcDbEntity
  8
0
100
AcDbSpline
 62
7
  6
CONTINUOUS
 70
0
 71
3
 72
20
 73
16
 74
0
 42
0.0000001
 43
0.0000001
 44
0.0000000001
 40
0.0
 40
0.0
 40
0.0
 40
0.0
 40
0.1732143444
 40
0.3392909602
 40
0.4922175662
 40
0.5623498124
 40
0.6277304496
 40
0.6881555576
 40
0.74370282
 40
0.7946022711
 40
0.8412101841
 40
0.8840832105
 40
0.9240990761
 40
0.9623405337
 40
1.0
 40
1.0
 40
1.0
 40
1.0
 10
37.5330412924
 20
68.3368968083
 30
0.0
 10
37.5252728896
 20
68.2429905514
 30
0.0
 10
37.5181289167
 20
68.0582491151
 30
0.0
 10
37.5330960128
 20
67.7905105565
 30
0.0
 10
37.5673859473
 20
67.5810532134
 30
0.0
 10
37.6079914896
 20
67.4293732451
 30
0.0
 10
37.6430002095
 20
67.3285827473
 30
0.0
 10
37.6830606084
 20
67.2382868339
 30
0.0
 10
37.7276612064
 20
67.1590422989
 30
0.0
 10
37.7763106327
 20
67.0912363186
 30
0.0
 10
37.8285750393
 20
67.0352170049
 30
0.0
 10
37.8841212813
 20
66.9913865416
 30
0.0
 10
37.9424727847
 20
66.9599743892
 30
0.0
 10
38.0030590306
 20
66.941117452
 30
0.0
 10
38.0444723294
 20
66.9369868255
 30
0.0
 10
38.0649587368
 20
66.9369837685
 30
0.0
  0
SPLINE
  5
342
100
AcDbEntity
  8
0
100
AcDbSpline
 62
7
  6
CONTINUOUS
 70
0
 71
3
 72
19
 73
15
 74
0
 42
0.0000001
 43
0.0000001
 44
0.0000000001
 40
0.0
 40
0.0
 40
0.0
 40
0.0
 40
0.0325284848
 40
0.0672731209
 40
0.1054541439
 40
0.1479068576
 40
0.195127085
 40
0.2473677588
 40
0.3046708551
 40
0.3669473033
 40
0.5054243141
 40
0.6600666757
 40
0.8267487544
 40
1.0
 40
1.0
 40
1.0
 40
1.0
 10
38.5886366923
 20
72.7369811591
 30
0.0
 10
38.5705450172
 20
72.7369818538
 30
0.0
 10
38.5330104803
 20
72.732220257
 30
0.0
 10
38.4775790975
 20
72.7118962324
 30
0.0
 10
38.4222014736
 20
72.6788749512
 30
0.0
 10
38.3671075723
 20
72.6335880909
 30
0.0
 10
38.3124232689
 20
72.5764653768
 30
0.0
 10
38.2583968342
 20
72.5078947563
 30
0.0
 10
38.2052779201
 20
72.4283568344
 30
0.0
 10
38.1335414584
 20
72.3039494212
 30
0.0
 10
38.0498854355
 20
72.1244389847
 30
0.0
 10
37.9629522934
 20
71.8836470521
 30
0.0
 10
37.8900522355
 20
71.6181425256
 30
0.0
 10
37.8540533374
 20
71.4322941763
 30
0.0
 10
37.83967717
 20
71.3370138475
 30
0.0
  0
SPLINE
  5
343
100
AcDbEntity
  8
0
100
AcDbSpline
 62
7
  6
CONTINUOUS
 70
0
 71
3
 72
15
 73
11
 74
0
 42
0.0000001
 43
0.0000001
 44
0.0000000001
 40
0.0
 40
0.0
 40
0.0
 40
0.0
 40
0.1513320236
 40
0.2998061679
 40
0.442521469
 40
0.5771494978
 40
0.7016285753
 40
0.8141975423
 40
0.9137596811
 40
1.0
 40
1.0
 40
1.0
 40
1.0
 10
38.8517537619
 20
57.9214027774
 30
0.0
 10
38.8583433321
 20
57.848507292
 30
0.0
 10
38.8660600399
 20
57.7035906326
 30
0.0
 10
38.8656206537
 20
57.4894715392
 30
0.0
 10
38.853611553
 20
57.2837479675
 30
0.0
 10
38.8304224858
 20
57.090669173
 30
0.0
 10
38.7978510215
 20
56.913748681
 30
0.0
 10
38.7567094426
 20
56.7560413456
 30
0.0
 10
38.7081330413
 20
56.6199464489
 30
0.0
 10
38.6688110265
 20
56.5388250352
 30
0.0
 10
38.6478293925
 20
56.5027757232
 30
0.0
  0
SPLINE
  5
344
100
AcDbEntity
  8
0
100
AcDbSpline
 62
7
  6
CONTINUOUS
 70
0
 71
3
 72
25
 73
21
 74
0
 42
0.0000001
 43
0.0000001
 44
0.0000000001
 40
0.0
 40
0.0
 40
0.0
 40
0.0
 40
0.0481150259
 40
0.0692971408
 40
0.0887234976
 40
0.1233867104
 40
0.139603017
 40
0.1557116808
 40
0.1894002669
 40
0.2277357298
 40
0.2731301812
 40
0.32676214
 40
0.3887126177
 40
0.4583520972
 40
0.5353193307
 40
0.619357074
 40
0.7091698601
 40
0.8033822718
 40
0.9009079006
 40
1.0
 40
1.0
 40
1.0
 40
1.0
 10
38.6478293925
 20
56.5027757232
 30
0.0
 10
38.6302617455
 20
56.4725921072
 30
0.0
 10
38.6021780136
 20
56.4304909402
 30
0.0
 10
38.5586586779
 20
56.3828326445
 30
0.0
 10
38.5172038659
 20
56.3471402492
 30
0.0
 10
38.4713854917
 20
56.3222219703
 30
0.0
 10
38.423588636
 20
56.3119040461
 30
0.0
 10
38.375418593
 20
56.3107669044
 30
0.0
 10
38.3122517213
 20
56.3270056227
 30
0.0
 10
38.2384331534
 20
56.3712713365
 30
0.0
 10
38.1657370545
 20
56.4403461123
 30
0.0
 10
38.0941432829
 20
56.53307404
 30
0.0
 10
38.02402635
 20
56.6480037238
 30
0.0
 10
37.9554130876
 20
56.7830744451
 30
0.0
 10
37.8897512498
 20
56.9372033837
 30
0.0
 10
37.828979776
 20
57.1089167538
 30
0.0
 10
37.7731459461
 20
57.2953707916
 30
0.0
 10
37.7233771908
 20
57.4936625327
 30
0.0
 10
37.6823654603
 20
57.7008173997
 30
0.0
 10
37.6605309723
 20
57.841887218
 30
0.0
 10
37.6506940316
 20
57.9131363803
 30
0.0
  0
SPLINE
  5
345
100
AcDbEntity
  8
0
100
AcDbSpline
 62
7
  6
CONTINUOUS
 70
0
 71
3
 72
33
 73
29
 74
0
 42
0.0000001
 43
0.0000001
 44
0.0000000001
 40
0.0
 40
0.0
 40
0.0
 40
0.0
 40
0.0877026642
 40
0.1717539758
 40
0.2488905152
 40
0.2840771098
 40
0.3167206701
 40
0.3466937866
 40
0.3739433735
 40
0.3985425367
 40
0.4206741969
 40
0.4406630135
 40
0.4589666206
 40
0.4761705165
 40
0.4929892849
 40
0.5101929325
 40
0.5284645135
 40
0.5483315288
 40
0.5701638483
 40
0.5942034623
 40
0.6205981312
 40
0.649431158
 40
0.6806950699
 40
0.7143241693
 40
0.7502104989
 40
0.8280765297
 40
0.9122870286
 40
1.0
 40
1.0
 40
1.0
 40
1.0
 10
37.3450661933
 20
60.9221516614
 30
0.0
 10
37.3375275218
 20
61.0307346022
 30
0.0
 10
37.3301659265
 20
61.2440257046
 30
0.0
 10
37.3456784446
 20
61.5528890264
 30
0.0
 10
37.3806375864
 20
61.7945918483
 30
0.0
 10
37.422163716
 20
61.9697552891
 30
0.0
 10
37.4578580709
 20
62.0858720913
 30
0.0
 10
37.4985986504
 20
62.1898273853
 30
0.0
 10
37.5440265507
 20
62.2808239673
 30
0.0
 10
37.5936416012
 20
62.3583235837
 30
0.0
 10
37.6470140096
 20
62.4219856807
 30
0.0
 10
37.7037234914
 20
62.4715896381
 30
0.0
 10
37.7633467222
 20
62.5069554626
 30
0.0
 10
37.8254697566
 20
62.5276986666
 30
0.0
 10
37.8894051761
 20
62.5332483964
 30
0.0
 10
37.9541366443
 20
62.5236561326
 30
0.0
 10
38.0189077085
 20
62.4995558874
 30
0.0
 10
38.0832541739
 20
62.4615136722
 30
0.0
 10
38.1468211468
 20
62.4099872816
 30
0.0
 10
38.209226116
 20
62.3453129789
 30
0.0
 10
38.2699775414
 20
62.2677482036
 30
0.0
 10
38.3284890164
 20
62.1776124437
 30
0.0
 10
38.3842543178
 20
62.0754210431
 30
0.0
 10
38.4367297817
 20
61.9617936654
 30
0.0
 10
38.5032292797
 20
61.7913032307
 30
0.0
 10
38.5726768693
 20
61.5550858761
 30
0.0
 10
38.6300314776
 20
61.2500315911
 30
0.0
 10
38.6504475612
 20
61.0372359723
 30
0.0
 10
38.6550716701
 20
60.9284771151
 30
0.0
  0
SPLINE
  5
346
100
AcDbEntity
  8
0
100
AcDbSpline
 62
7
  6
CONTINUOUS
 70
0
 71
3
 72
35
 73
31
 74
0
 42
0.0000001
 43
0.0000001
 44
0.0000000001
 40
0.0
 40
0.0
 40
0.0
 40
0.0
 40
0.0440638855
 40
0.0877212271
 40
0.1304575218
 40
0.1719296207
 40
0.2118253889
 40
0.2498391507
 40
0.3193221019
 40
0.3505677108
 40
0.3793824827
 40
0.4057803546
 40
0.4298432583
 40
0.4516894421
 40
0.4715240097
 40
0.4897540089
 40
0.5069590211
 40
0.52377146
 40
0.540936145
 40
0.5592540542
 40
0.5793089084
 40
0.6014807425
 40
0.6260693035
 40
0.6532980837
 40
0.6832463141
 40
0.7158928394
 40
0.7511005323
 40
0.8282438375
 40
0.9122966911
 40
1.0
 40
1.0
 40
1.0
 40
1.0
 10
38.6550740917
 20
68.345472247
 30
0.0
 10
38.6531555342
 20
68.2908172582
 30
0.0
 10
38.6455199354
 20
68.1821310307
 30
0.0
 10
38.625912439
 20
68.0213637117
 30
0.0
 10
38.600054433
 20
67.8647316558
 30
0.0
 10
38.567618697
 20
67.7140938792
 30
0.0
 10
38.5290941633
 20
67.5709438228
 30
0.0
 10
38.472319793
 20
67.3970010531
 30
0.0
 10
38.405687282
 20
67.2376490048
 30
0.0
 10
38.3285521451
 20
67.0964418101
 30
0.0
 10
38.2700037907
 20
67.006371813
 30
0.0
 10
38.2092767417
 20
66.928774583
 30
0.0
 10
38.1469494065
 20
66.8639558293
 30
0.0
 10
38.083480835
 20
66.812285045
 30
0.0
 10
38.0190956675
 20
66.7743936656
 30
0.0
 10
37.9542109881
 20
66.7508344525
 30
0.0
 10
37.889582664
 20
66.74137113
 30
0.0
 10
37.8256701214
 20
66.7460700722
 30
0.0
 10
37.763325727
 20
66.7662212711
 30
0.0
 10
37.7037715615
 20
66.8018950249
 30
0.0
 10
37.6472347253
 20
66.8519028828
 30
0.0
 10
37.5938686053
 20
66.9157124704
 30
0.0
 10
37.5441697325
 20
66.9931740452
 30
0.0
 10
37.4986897779
 20
67.0840719328
 30
0.0
 10
37.4578399472
 20
67.1879343107
 30
0.0
 10
37.4221489868
 20
67.304061302
 30
0.0
 10
37.3806952661
 20
67.4792887208
 30
0.0
 10
37.3456608195
 20
67.7210266626
 30
0.0
 10
37.3301834992
 20
68.0299211202
 30
0.0
 10
37.3375224158
 20
68.243224974
 30
0.0
 10
37.3450651791
 20
68.3518138177
 30
0.0
  0
SPLINE
  5
347
100
AcDbEntity
  8
0
100
AcDbSpline
 62
7
  6
CONTINUOUS
 70
0
 71
3
 72
11
 73
7
 74
0
 42
0.0000001
 43
0.0000001
 44
0.0000000001
 40
0.0
 40
0.0
 40
0.0
 40
0.0
 40
0.249962067
 40
0.4999250429
 40
0.7499479186
 40
1.0
 40
1.0
 40
1.0
 40
1.0
 10
35.9725739784
 20
70.0109321643
 30
0.0
 10
35.975467206
 20
70.0284352253
 30
0.0
 10
35.9876926628
 20
70.0627317628
 30
0.0
 10
36.0230126402
 20
70.104006191
 30
0.0
 10
36.0701831804
 20
70.1308319514
 30
0.0
 10
36.105980522
 20
70.1369707381
 30
0.0
 10
36.123727479
 20
70.1369827884
 30
0.0
  0
SPLINE
  5
348
100
AcDbEntity
  8
0
100
AcDbSpline
 62
7
  6
CONTINUOUS
 70
0
 71
3
 72
15
 73
11
 74
0
 42
0.0000001
 43
0.0000001
 44
0.0000000001
 40
0.0
 40
0.0
 40
0.0
 40
0.0
 40
0.2026518145
 40
0.3642274319
 40
0.5046667676
 40
0.6297783947
 40
0.7419868739
 40
0.8417202444
 40
0.9285289634
 40
1.0
 40
1.0
 40
1.0
 40
1.0
 10
39.9518026838
 20
56.1824339893
 30
0.0
 10
39.7244740371
 20
56.1775576311
 30
0.0
 10
39.31588367
 20
56.1693085633
 30
0.0
 10
38.7497912189
 20
56.1558991121
 30
0.0
 10
38.2707155395
 20
56.1430277177
 30
0.0
 10
37.8470486406
 20
56.130325037
 30
0.0
 10
37.4690745475
 20
56.117725146
 30
0.0
 10
37.1341001973
 20
56.1052171631
 30
0.0
 10
36.8448596276
 20
56.0930034271
 30
0.0
 10
36.6674870715
 20
56.084009064
 30
0.0
 10
36.5874389247
 20
56.079199901
 30
0.0
  0
SPLINE
  5
349
100
AcDbEntity
  8
0
100
AcDbSpline
 62
7
  6
CONTINUOUS
 70
0
 71
3
 72
14
 73
10
 74
0
 42
0.0000001
 43
0.0000001
 44
0.0000000001
 40
0.0
 40
0.0
 40
0.0
 40
0.0
 40
0.2709320492
 40
0.4025045602
 40
0.5299246736
 40
0.6527895478
 40
0.7713495948
 40
0.8866313399
 40
1.0
 40
1.0
 40
1.0
 40
1.0
 10
39.9518198657
 20
56.1819688569
 30
0.0
 10
39.9548798692
 20
56.1200797622
 30
0.0
 10
39.9737603386
 20
56.0278681876
 30
0.0
 10
40.0266044873
 20
55.918324534
 30
0.0
 10
40.0778598571
 20
55.8469927403
 30
0.0
 10
40.1393736727
 20
55.7885044305
 30
0.0
 10
40.209062212
 20
55.7449339015
 30
0.0
 10
40.2844566191
 20
55.7180759123
 30
0.0
 10
40.3369388135
 20
55.7119897037
 30
0.0
 10
40.3628672869
 20
55.7119828575
 30
0.0
  0
SPLINE
  5
34A
100
AcDbEntity
  8
0
100
AcDbSpline
 62
7
  6
CONTINUOUS
 70
0
 71
3
 72
20
 73
16
 74
0
 42
0.0000001
 43
0.0000001
 44
0.0000000001
 40
0.0
 40
0.0
 40
0.0
 40
0.0
 40
0.0376589165
 40
0.0758999057
 40
0.1159153933
 40
0.1587881342
 40
0.2053957825
 40
0.2562949733
 40
0.3118420295
 40
0.3722670382
 40
0.4376476133
 40
0.5077797501
 40
0.6607060678
 40
0.8267804025
 40
1.0
 40
1.0
 40
1.0
 40
1.0
 10
38.0649555476
 20
62.336981672
 30
0.0
 10
38.0444688063
 20
62.3369785885
 30
0.0
 10
38.0030547833
 20
62.332847722
 30
0.0
 10
37.9424675448
 20
62.3139898945
 30
0.0
 10
37.8841151578
 20
62.2825763388
 30
0.0
 10
37.8285682739
 20
62.2387439672
 30
0.0
 10
37.7763034334
 20
62.1827224279
 30
0.0
 10
37.727653793
 20
62.1149139177
 30
0.0
 10
37.6830532182
 20
62.0356664977
 30
0.0
 10
37.6429931127
 20
61.9453673351
 30
0.0
 10
37.6079848564
 20
61.8445733471
 30
0.0
 10
37.5673802959
 20
61.6928883444
 30
0.0
 10
37.5330928365
 20
61.4834254707
 30
0.0
 10
37.5181275357
 20
61.2156770238
 30
0.0
 10
37.5252758246
 20
61.0309283785
 30
0.0
 10
37.5330460951
 20
60.937016487
 30
0.0
  0
SPLINE
  5
34B
100
AcDbEntity
  8
0
100
AcDbSpline
 62
7
  6
CONTINUOUS
 70
0
 71
3
 72
13
 73
9
 74
0
 42
0.0000001
 43
0.0000001
 44
0.0000000001
 40
0.0
 40
0.0
 40
0.0
 40
0.0
 40
0.1248386612
 40
0.2498427977
 40
0.5000000036
 40
0.7501572076
 40
0.875161342
 40
1.0
 40
1.0
 40
1.0
 40
1.0
 10
36.4507182345
 20
56.5870081799
 30
0.0
 10
36.280132467
 20
57.2421305901
 30
0.0
 10
35.9805486894
 20
58.5645917611
 30
0.0
 10
35.5508466074
 20
61.2431506905
 30
0.0
 10
35.334151293
 20
64.6369828456
 30
0.0
 10
35.5508462733
 20
68.0308150102
 30
0.0
 10
35.9805480918
 20
70.7093739428
 30
0.0
 10
36.2801317372
 20
72.031835114
 30
0.0
 10
36.4507174387
 20
72.686957524
 30
0.0
  0
SPLINE
  5
34C
100
AcDbEntity
  8
0
100
AcDbSpline
 62
7
  6
CONTINUOUS
 70
0
 71
3
 72
11
 73
7
 74
0
 42
0.0000001
 43
0.0000001
 44
0.0000000001
 40
0.0
 40
0.0
 40
0.0
 40
0.0
 40
0.250054349
 40
0.5000884979
 40
0.7500536339
 40
1.0
 40
1.0
 40
1.0
 40
1.0
 10
36.1237797268
 20
59.1369829096
 30
0.0
 10
36.1060325566
 20
59.13699493
 30
0.0
 10
36.0702355396
 20
59.1431398742
 30
0.0
 10
36.0230623421
 20
59.1699667212
 30
0.0
 10
35.9877539865
 20
59.2112440012
 30
0.0
 10
35.9754935254
 20
59.245527313
 30
0.0
 10
35.9726004643
 20
59.263029325
 30
0.0
  0
SPLINE
  5
34D
100
AcDbEntity
  8
0
100
AcDbSpline
 62
7
  6
CONTINUOUS
 70
0
 71
3
 72
13
 73
9
 74
0
 42
0.0000001
 43
0.0000001
 44
0.0000000001
 40
0.0
 40
0.0
 40
0.0
 40
0.0
 40
0.270641958
 40
0.5273798023
 40
0.6500753784
 40
0.7690706303
 40
0.8853651477
 40
1.0
 40
1.0
 40
1.0
 40
1.0
 10
39.9596976058
 20
73.1662786868
 30
0.0
 10
39.9692486416
 20
73.2206147397
 30
0.0
 10
40.0027164869
 20
73.32458865
 30
0.0
 10
40.0808790241
 20
73.4347110166
 30
0.0
 10
40.1595735438
 20
73.4997659663
 30
0.0
 10
40.2238384891
 20
73.5353052814
 30
0.0
 10
40.2922541431
 20
73.5570465307
 30
0.0
 10
40.3394634421
 20
73.56197749
 30
0.0
 10
40.3628312185
 20
73.5619828545
 30
0.0
  0
SPLINE
  5
34E
100
AcDbEntity
  8
0
100
AcDbSpline
 62
7
  6
CONTINUOUS
 70
0
 71
3
 72
11
 73
7
 74
0
 42
0.0000001
 43
0.0000001
 44
0.0000000001
 40
0.0
 40
0.0
 40
0.0
 40
0.0
 40
0.2499999974
 40
0.5000001351
 40
0.7499999989
 40
1.0
 40
1.0
 40
1.0
 40
1.0
 10
36.3524669707
 20
62.3497009115
 30
0.0
 10
36.2899264026
 20
62.3611001615
 30
0.0
 10
36.1648389383
 20
62.3838640427
 30
0.0
 10
35.9772337896
 20
62.4181530697
 30
0.0
 10
35.7895394879
 20
62.4519509188
 30
0.0
 10
35.6643726618
 20
62.4742748621
 30
0.0
 10
35.6018191089
 20
62.4856026465
 30
0.0
  0
SPLINE
  5
34F
100
AcDbEntity
  8
0
100
AcDbSpline
 62
7
  6
CONTINUOUS
 70
0
 71
3
 72
11
 73
7
 74
0
 42
0.0000001
 43
0.0000001
 44
0.0000000001
 40
0.0
 40
0.0
 40
0.0
 40
0.0
 40
0.2499375943
 40
0.4998540665
 40
0.7498194088
 40
1.0
 40
1.0
 40
1.0
 40
1.0
 10
35.9241407863
 20
59.5644020054
 30
0.0
 10
35.9208213608
 20
59.5857079665
 30
0.0
 10
35.9237961941
 20
59.6304362576
 30
0.0
 10
35.9565538288
 20
59.688562124
 30
0.0
 10
36.0103867057
 20
59.7278149648
 30
0.0
 10
36.0540781381
 20
59.7369678786
 30
0.0
 10
36.0756620878
 20
59.7369827855
 30
0.0
  0
SPLINE
  5
350
100
AcDbEntity
  8
0
100
AcDbSpline
 62
7
  6
CONTINUOUS
 70
0
 71
3
 72
16
 73
12
 74
0
 42
0.0000001
 43
0.0000001
 44
0.0000000001
 40
0.0
 40
0.0
 40
0.0
 40
0.0
 40
0.0714795765
 40
0.1582922128
 40
0.2580283265
 40
0.3702414561
 40
0.4953600038
 40
0.6358052104
 40
0.7973774883
 40
0.8910093459
 40
1.0
 40
1.0
 40
1.0
 40
1.0
 10
36.5874427905
 20
73.1947830077
 30
0.0
 10
36.6674884704
 20
73.1899686028
 30
0.0
 10
36.8448492265
 20
73.1809771126
 30
0.0
 10
37.1340644419
 20
73.1687634233
 30
0.0
 10
37.4690023706
 20
73.1562534793
 30
0.0
 10
37.8469371935
 20
73.1436536341
 30
0.0
 10
38.2705616299
 20
73.130950901
 30
0.0
 10
38.7495776271
 20
73.118070935
 30
0.0
 10
39.1933192948
 20
73.1075912509
 30
0.0
 10
39.6018022542
 20
73.0988297176
 30
0.0
 10
39.8290707032
 20
73.0942325095
 30
0.0
 10
39.9513140448
 20
73.0915558181
 30
0.0
  0
SPLINE
  5
351
100
AcDbEntity
  8
0
100
AcDbSpline
 62
7
  6
CONTINUOUS
 70
0
 71
3
 72
11
 73
7
 74
0
 42
0.0000001
 43
0.0000001
 44
0.0000000001
 40
0.0
 40
0.0
 40
0.0
 40
0.0
 40
0.2501852467
 40
0.5001707446
 40
0.7500912771
 40
1.0
 40
1.0
 40
1.0
 40
1.0
 10
36.0756987865
 20
69.5369829133
 30
0.0
 10
36.0541136892
 20
69.536997089
 30
0.0
 10
36.0104184501
 20
69.5461496878
 30
0.0
 10
35.9565811654
 20
69.5854087187
 30
0.0
 10
35.9238342651
 20
69.6435382856
 30
0.0
 10
35.9208379635
 20
69.688263534
 30
0.0
 10
35.9241553639
 20
69.7095680433
 30
0.0
  0
SPLINE
  5
352
100
AcDbEntity
  8
0
100
AcDbSpline
 62
7
  6
CONTINUOUS
 70
0
 71
3
 72
10
 73
6
 74
0
 42
0.0000001
 43
0.0000001
 44
0.0000000001
 40
0.0
 40
0.0
 40
0.0
 40
0.0
 40
0.2499999882
 40
0.4999999666
 40
1.0
 40
1.0
 40
1.0
 40
1.0
 10
35.6017466241
 20
66.7883375143
 30
0.0
 10
35.6643069781
 20
66.7996650079
 30
0.0
 10
35.7894670399
 20
66.8221019329
 30
0.0
 10
36.0397467007
 20
66.8672005772
 30
0.0
 10
36.227378962
 20
66.9014524394
 30
0.0
 10
36.3524708762
 20
66.9242659596
 30
0.0
  0
SPLINE
  5
353
100
AcDbEntity
  8
0
100
AcDbSpline
 62
7
  6
CONTINUOUS
 70
0
 71
3
 72
9
 73
5
 74
0
 42
0.0000001
 43
0.0000001
 44
0.0000000001
 40
0.0
 40
0.0
 40
0.0
 40
0.0
 40
0.5000000286
 40
1.0
 40
1.0
 40
1.0
 40
1.0
 10
36.3101601753
 20
65.9584909614
 30
0.0
 10
36.1862279219
 20
65.9924773406
 30
0.0
 10
35.9383296682
 20
66.0603286592
 30
0.0
 10
35.6907382079
 20
66.1292914948
 30
0.0
 10
35.5668592067
 20
66.1634714115
 30
0.0
  0
SPLINE
  5
354
100
AcDbEntity
  8
0
100
AcDbSpline
 62
7
  6
CONTINUOUS
 70
0
 71
3
 72
9
 73
5
 74
0
 42
0.0000001
 43
0.0000001
 44
0.0000000001
 40
0.0
 40
0.0
 40
0.0
 40
0.0
 40
0.4999999661
 40
1.0
 40
1.0
 40
1.0
 40
1.0
 10
35.5667663392
 20
63.1105150453
 30
0.0
 10
35.690662629
 20
63.1446962533
 30
0.0
 10
35.9383121461
 20
63.2135768049
 30
0.0
 10
36.1862252452
 20
63.2815022661
 30
0.0
 10
36.3101689369
 20
63.3155112559
 30
0.0
  0
SPLINE
  5
355
100
AcDbEntity
  8
0
100
AcDbSpline
 62
7
  6
CONTINUOUS
 70
0
 71
3
 72
11
 73
7
 74
0
 42
0.0000001
 43
0.0000001
 44
0.0000000001
 40
0.0
 40
0.0
 40
0.0
 40
0.0
 40
0.2499989661
 40
0.4999999406
 40
0.7500009438
 40
1.0
 40
1.0
 40
1.0
 40
1.0
 10
39.9512436594
 20
73.0920493724
 30
0.0
 10
39.8543714299
 20
71.6851727487
 30
0.0
 10
39.7091419451
 20
68.8678271155
 30
0.0
 10
39.6369120247
 20
64.6369983794
 30
0.0
 10
39.7094169015
 20
60.4061744645
 30
0.0
 10
39.8547908913
 20
57.5888356897
 30
0.0
 10
39.951745174
 20
56.1819642091
 30
0.0
  0
SPLINE
  5
356
100
AcDbEntity
  8
0
100
AcDbSpline
 62
7
  6
CONTINUOUS
 70
0
 71
3
 72
33
 73
29
 74
0
 42
0.0000001
 43
0.0000001
 44
0.0000000001
 40
0.0
 40
0.0
 40
0.0
 40
0.0
 40
0.017005063
 40
0.0346679649
 40
0.0536296292
 40
0.0744129138
 40
0.0974027561
 40
0.122838358
 40
0.1508504296
 40
0.1814774253
 40
0.2503006984
 40
0.327815123
 40
0.41208442
 40
0.4999842273
 40
0.5878792999
 40
0.6721897673
 40
0.7118852533
 40
0.7496473195
 40
0.7853066186
 40
0.8185561367
 40
0.8491777596
 40
0.8771670975
 40
0.9025875152
 40
0.9255750271
 40
0.9463653669
 40
0.9653323764
 40
0.9829957626
 40
1.0
 40
1.0
 40
1.0
 40
1.0
 10
37.8653479224
 20
66.2417577868
 30
0.0
 10
37.8443257516
 20
66.2417669448
 30
0.0
 10
37.8013182261
 20
66.2368383869
 30
0.0
 10
37.7382873991
 20
66.2148035137
 30
0.0
 10
37.6769152671
 20
66.1783569165
 30
0.0
 10
37.6176326429
 20
66.1278844067
 30
0.0
 10
37.5607344567
 20
66.0636804568
 30
0.0
 10
37.5065348103
 20
65.9860646211
 30
0.0
 10
37.4554276532
 20
65.8954066587
 30
0.0
 10
37.3894866478
 20
65.7521301886
 30
0.0
 10
37.320235142
 20
65.5439555821
 30
0.0
 10
37.258221865
 20
65.2652993028
 30
0.0
 10
37.2200596708
 20
64.9585457128
 30
0.0
 10
37.2077941504
 20
64.6369370332
 30
0.0
 10
37.2202875002
 20
64.3153216697
 30
0.0
 10
37.2522375586
 20
64.0549000443
 30
0.0
 10
37.2915923957
 20
63.8587491031
 30
0.0
 10
37.3259001025
 20
63.7231251877
 30
0.0
 10
37.3646614986
 20
63.597014332
 30
0.0
 10
37.4078547136
 20
63.4817039562
 30
0.0
 10
37.4553976433
 20
63.3784481461
 30
0.0
 10
37.5065511975
 20
63.2878785176
 30
0.0
 10
37.560763137
 20
63.2103334004
 30
0.0
 10
37.61765532
 20
63.1461447747
 30
0.0
 10
37.6769122726
 20
63.0956262302
 30
0.0
 10
37.7382727223
 20
63.0591249063
 30
0.0
 10
37.8013123122
 20
63.037085849
 30
0.0
 10
37.844324102
 20
63.0321822942
 30
0.0
 10
37.8653452382
 20
63.0322081221
 30
0.0
  0
SPLINE
  5
357
100
AcDbEntity
  8
0
100
AcDbSpline
 62
7
  6
CONTINUOUS
 70
0
 71
3
 72
13
 73
9
 74
0
 42
0.0000001
 43
0.0000001
 44
0.0000000001
 40
0.0
 40
0.0
 40
0.0
 40
0.0
 40
0.2479103516
 40
0.3800357495
 40
0.5129888226
 40
0.6437339539
 40
0.769888264
 40
1.0
 40
1.0
 40
1.0
 40
1.0
 10
37.8653452382
 20
63.0322081221
 30
0.0
 10
37.8647872223
 20
63.0574745844
 30
0.0
 10
37.8708019323
 20
63.0968465086
 30
0.0
 10
37.8928310812
 20
63.1445361466
 30
0.0
 10
37.9165872485
 20
63.1775240953
 30
0.0
 10
37.9464677071
 20
63.2042094313
 30
0.0
 10
37.9896609705
 20
63.2292166667
 30
0.0
 10
38.0265220998
 20
63.2369890133
 30
0.0
 10
38.0499802864
 20
63.2369890085
 30
0.0
  0
SPLINE
  5
358
100
AcDbEntity
  8
0
100
AcDbSpline
 62
7
  6
CONTINUOUS
 70
0
 71
3
 72
35
 73
31
 74
0
 42
0.0000001
 43
0.0000001
 44
0.0000000001
 40
0.0
 40
0.0
 40
0.0
 40
0.0
 40
0.0170123678
 40
0.0348609316
 40
0.0541383012
 40
0.0752889356
 40
0.0986109735
 40
0.1242886419
 40
0.152428298
 40
0.1830779621
 40
0.2162476042
 40
0.2518125816
 40
0.2894597593
 40
0.3289168922
 40
0.3700645395
 40
0.4126278498
 40
0.5000510103
 40
0.5874691984
 40
0.6712495581
 40
0.7481812203
 40
0.7837461909
 40
0.8169557872
 40
0.8475961791
 40
0.8757221918
 40
0.9014035233
 40
0.9247234315
 40
0.9458636287
 40
0.965136002
 40
0.9829863732
 40
1.0
 40
1.0
 40
1.0
 40
1.0
 10
37.8653460749
 20
63.0322081431
 30
0.0
 10
37.8866082491
 20
63.0322131614
 30
0.0
 10
37.9303150725
 20
63.0373551009
 30
0.0
 10
37.994629356
 20
63.0597848781
 30
0.0
 10
38.0579155156
 20
63.0965968388
 30
0.0
 10
38.1197501521
 20
63.1472748263
 30
0.0
 10
38.1798489582
 20
63.2113943503
 30
0.0
 10
38.2378125317
 20
63.2886336841
 30
0.0
 10
38.2931762885
 20
63.3786700347
 30
0.0
 10
38.3453461053
 20
63.4812052892
 30
0.0
 10
38.393397959
 20
63.595855215
 30
0.0
 10
38.4367654939
 20
63.7216219196
 30
0.0
 10
38.4754581037
 20
63.8570772689
 30
0.0
 10
38.508975365
 20
64.0010857849
 30
0.0
 10
38.5357032877
 20
64.1527643422
 30
0.0
 10
38.5615117276
 20
64.3651745388
 30
0.0
 10
38.5734407895
 20
64.6370847932
 30
0.0
 10
38.5587156812
 20
64.9603841845
 30
0.0
 10
38.5148185966
 20
65.2679973946
 30
0.0
 10
38.4524986538
 20
65.5057951815
 30
0.0
 10
38.3931558198
 20
65.6780291969
 30
0.0
 10
38.3453727877
 20
65.7928400346
 30
0.0
 10
38.2931708742
 20
65.8953905714
 30
0.0
 10
38.2377360037
 20
65.9853513323
 30
0.0
 10
38.179839755
 20
66.0626177301
 30
0.0
 10
38.1197795785
 20
66.1267634642
 30
0.0
 10
38.0579223078
 20
66.1773847159
 30
0.0
 10
37.9946222111
 20
66.2141329153
 30
0.0
 10
37.9303185357
 20
66.2365727964
 30
0.0
 10
37.8866111047
 20
66.2417428731
 30
0.0
 10
37.8653473615
 20
66.241757801
 30
0.0
  0
SPLINE
  5
359
100
AcDbEntity
  8
0
100
AcDbSpline
 62
7
  6
CONTINUOUS
 70
0
 71
3
 72
12
 73
8
 74
0
 42
0.0000001
 43
0.0000001
 44
0.0000000001
 40
0.0
 40
0.0
 40
0.0
 40
0.0
 40
0.2662834824
 40
0.4031947002
 40
0.5375011404
 40
0.7857128393
 40
1.0
 40
1.0
 40
1.0
 40
1.0
 10
37.8653473615
 20
66.241757801
 30
0.0
 10
37.8647487667
 20
66.2146544865
 30
0.0
 10
37.8716709775
 20
66.1728453551
 30
0.0
 10
37.8962803701
 20
66.1236475431
 30
0.0
 10
37.9289222377
 20
66.0816298099
 30
0.0
 10
37.980661456
 20
66.0462549486
 30
0.0
 10
38.0281658791
 20
66.0369767908
 30
0.0
 10
38.0499821351
 20
66.0369767584
 30
0.0
  0
SPLINE
  5
35A
100
AcDbEntity
  8
0
100
AcDbSpline
 62
7
  6
CONTINUOUS
 70
0
 71
3
 72
31
 73
27
 74
0
 42
0.0000001
 43
0.0000001
 44
0.0000000001
 40
0.0
 40
0.0
 40
0.0
 40
0.0
 40
0.0187074124
 40
0.0378038336
 40
0.0579588001
 40
0.0796643747
 40
0.1288837678
 40
0.1871896897
 40
0.2548866814
 40
0.3310659998
 40
0.4137395486
 40
0.4999715952
 40
0.543332822
 40
0.5862264901
 40
0.6282181257
 40
0.6689087255
 40
0.7079677876
 40
0.7451027502
 40
0.8127742698
 40
0.843132298
 40
0.8711289336
 40
0.9203406121
 40
0.942042032
 40
0.9621979123
 40
0.9812986193
 40
1.0
 40
1.0
 40
1.0
 40
1.0
 10
38.0499821141
 20
66.0369828575
 30
0.0
 10
38.0292159134
 20
66.0369828575
 30
0.0
 10
37.9871304942
 20
66.0328369028
 30
0.0
 10
37.925234107
 20
66.0139644629
 30
0.0
 10
37.864839793
 20
65.9827180552
 30
0.0
 10
37.7832550372
 20
65.9224007313
 30
0.0
 10
37.6875439521
 20
65.8134710189
 30
0.0
 10
37.5903210966
 20
65.6440398511
 30
0.0
 10
37.5087958817
 20
65.4341862724
 30
0.0
 10
37.4468412186
 20
65.1899129422
 30
0.0
 10
37.4080594419
 20
64.920183031
 30
0.0
 10
37.3970274764
 20
64.6844294083
 30
0.0
 10
37.4015889249
 20
64.4929569588
 30
0.0
 10
37.411665056
 20
64.3508978909
 30
0.0
 10
37.4282765812
 20
64.2124354197
 30
0.0
 10
37.4513616281
 20
64.079221092
 30
0.0
 10
37.480340322
 20
63.9526736659
 30
0.0
 10
37.5246151375
 20
63.7991957235
 30
0.0
 10
37.5789732095
 20
63.6587382307
 30
0.0
 10
37.6448037884
 20
63.5350904298
 30
0.0
 10
37.7099842466
 20
63.4349921111
 30
0.0
 10
37.7832844087
 20
63.3515609956
 30
0.0
 10
37.8648420598
 20
63.2912442232
 30
0.0
 10
37.9252415122
 20
63.2599996848
 30
0.0
 10
37.9871378923
 20
63.2411338804
 30
0.0
 10
38.0292207128
 20
63.2369828575
 30
0.0
 10
38.049980218
 20
63.2369828575
 30
0.0
  0
SPLINE
  5
35B
100
AcDbEntity
  8
0
100
AcDbSpline
 62
7
  6
CONTINUOUS
 70
0
 71
3
 72
11
 73
7
 74
0
 42
0.0000001
 43
0.0000001
 44
0.0000000001
 40
0.0
 40
0.0
 40
0.0
 40
0.0
 40
0.2500335394
 40
0.5000279423
 40
0.7499957249
 40
1.0
 40
1.0
 40
1.0
 40
1.0
 10
55.7788109706
 20
73.6119828575
 30
0.0
 10
55.7243771671
 20
73.6119815368
 30
0.0
 10
55.6147170796
 20
73.5943190012
 30
0.0
 10
55.4676335332
 20
73.5172388954
 30
0.0
 10
55.3527044786
 20
73.3973368188
 30
0.0
 10
55.3057413939
 20
73.2965736547
 30
0.0
 10
55.2911392579
 20
73.2441415745
 30
0.0
  0
SPLINE
  5
35C
100
AcDbEntity
  8
0
100
AcDbSpline
 62
7
  6
CONTINUOUS
 70
0
 71
3
 72
15
 73
11
 74
0
 42
0.0000001
 43
0.0000001
 44
0.0000000001
 40
0.0
 40
0.0
 40
0.0
 40
0.0
 40
0.124752683
 40
0.2496824732
 40
0.3747373293
 40
0.4998616806
 40
0.6250022427
 40
0.7501086881
 40
0.8751261696
 40
1.0
 40
1.0
 40
1.0
 40
1.0
 10
55.2912390079
 20
56.079855053
 30
0.0
 10
55.1114580051
 20
56.72345021
 30
0.0
 10
54.7921605839
 20
58.0232724707
 30
0.0
 10
54.4370339998
 20
60.0001628583
 30
0.0
 10
54.2066764899
 20
61.9975176725
 30
0.0
 10
54.1019547799
 20
64.0065008737
 30
0.0
 10
54.1241119751
 20
66.0183744969
 30
0.0
 10
54.2727486202
 20
68.0243041804
 30
0.0
 10
54.5466540726
 20
70.0154746022
 30
0.0
 10
54.8124707317
 20
71.3284224277
 30
0.0
 10
54.9658252299
 20
71.9794877213
 30
0.0
  0
SPLINE
  5
35D
100
AcDbEntity
  8
0
100
AcDbSpline
 62
7
  6
CONTINUOUS
 70
0
 71
3
 72
11
 73
7
 74
0
 42
0.0000001
 43
0.0000001
 44
0.0000000001
 40
0.0
 40
0.0
 40
0.0
 40
0.0
 40
0.2500043488
 40
0.4999676987
 40
0.749958922
 40
1.0
 40
1.0
 40
1.0
 40
1.0
 10
55.2911388222
 20
56.0798270673
 30
0.0
 10
55.305740816
 20
56.0273944196
 30
0.0
 10
55.3527043108
 20
55.9266313481
 30
0.0
 10
55.4676325717
 20
55.8067289273
 30
0.0
 10
55.6147169259
 20
55.7296474147
 30
0.0
 10
55.7243790546
 20
55.7119837283
 30
0.0
 10
55.7788149919
 20
55.7119828575
 30
0.0
  0
SPLINE
  5
35E
100
AcDbEntity
  8
0
100
AcDbSpline
 62
7
  6
CONTINUOUS
 70
0
 71
3
 72
14
 73
10
 74
0
 42
0.0000001
 43
0.0000001
 44
0.0000000001
 40
0.0
 40
0.0
 40
0.0
 40
0.0
 40
0.27068489
 40
0.4021687028
 40
0.5295450661
 40
0.6524247602
 40
0.7710599818
 40
0.8864716528
 40
1.0
 40
1.0
 40
1.0
 40
1.0
 10
58.653480779
 20
56.1818164977
 30
0.0
 10
58.6565411942
 20
56.1199363628
 30
0.0
 10
58.675428917
 20
56.0277245402
 30
0.0
 10
58.7283675858
 20
55.918216404
 30
0.0
 10
58.7797229813
 20
55.8469056077
 30
0.0
 10
58.8413649541
 20
55.7884408454
 30
0.0
 10
58.9112045146
 20
55.7448987219
 30
0.0
 10
58.986756903
 20
55.7180604469
 30
0.0
 10
59.0393468624
 20
55.7119793234
 30
0.0
 10
59.065331822
 20
55.7119828682
 30
0.0
  0
SPLINE
  5
35F
100
AcDbEntity
  8
0
100
AcDbSpline
 62
7
  6
CONTINUOUS
 70
0
 71
3
 72
14
 73
10
 74
0
 42
0.0000001
 43
0.0000001
 44
0.0000000001
 40
0.0
 40
0.0
 40
0.0
 40
0.0
 40
0.0712735065
 40
0.1578952643
 40
0.2576011719
 40
0.3697430944
 40
0.4948763623
 40
0.6354021192
 40
1.0
 40
1.0
 40
1.0
 40
1.0
 10
55.291479046
 20
73.2447947125
 30
0.0
 10
55.371246234
 20
73.2403229576
 30
0.0
 10
55.5480223122
 20
73.2315782556
 30
0.0
 10
55.836508709
 20
73.2191663711
 30
0.0
 10
56.170841265
 20
73.2067145399
 30
0.0
 10
56.5483638546
 20
73.1941357598
 30
0.0
 10
56.9716642412
 20
73.1815278059
 30
0.0
 10
57.6778789767
 20
73.1624012426
 30
0.0
 10
58.2439668699
 20
73.150580939
 30
0.0
 10
58.652568908
 20
73.1422093544
 30
0.0
  0
SPLINE
  5
360
100
AcDbEntity
  8
0
100
AcDbSpline
 62
7
  6
CONTINUOUS
 70
0
 71
3
 72
20
 73
16
 74
0
 42
0.0000001
 43
0.0000001
 44
0.0000000001
 40
0.0
 40
0.0
 40
0.0
 40
0.0
 40
0.0712799048
 40
0.1578648087
 40
0.2061393003
 40
0.2575431077
 40
0.3120364327
 40
0.3696449031
 40
0.4304829926
 40
0.4947411697
 40
0.5628250873
 40
0.6352133597
 40
0.7127615509
 40
0.7968833412
 40
1.0
 40
1.0
 40
1.0
 40
1.0
 10
55.2914327143
 20
56.079161637
 30
0.0
 10
55.3712259233
 20
56.0836991266
 30
0.0
 10
55.5480244408
 20
56.0923186898
 30
0.0
 10
55.7789370599
 20
56.1024056286
 30
0.0
 10
55.9876324395
 20
56.1103591877
 30
0.0
 10
56.1603807167
 20
56.1166789136
 30
0.0
 10
56.3435988425
 20
56.1230789725
 30
0.0
 10
56.5374106581
 20
56.129180483
 30
0.0
 10
56.7421636631
 20
56.1356924794
 30
0.0
 10
56.9586751076
 20
56.1419640171
 30
0.0
 10
57.1881417836
 20
56.1482432188
 30
0.0
 10
57.4325105913
 20
56.1546951085
 30
0.0
 10
57.6948671322
 20
56.1611712782
 30
0.0
 10
58.1037778123
 20
56.1703965748
 30
0.0
 10
58.4257699219
 20
56.1772213902
 30
0.0
 10
58.6534667656
 20
56.1818162583
 30
0.0
  0
SPLINE
  5
361
100
AcDbEntity
  8
0
100
AcDbSpline
 62
7
  6
CONTINUOUS
 70
0
 71
3
 72
13
 73
9
 74
0
 42
0.0000001
 43
0.0000001
 44
0.0000000001
 40
0.0
 40
0.0
 40
0.0
 40
0.0
 40
0.1369161964
 40
0.2719714042
 40
0.5302061446
 40
0.7707894205
 40
0.8865060052
 40
1.0
 40
1.0
 40
1.0
 40
1.0
 10
58.6534763574
 20
73.1421738394
 30
0.0
 10
58.6549338135
 20
73.1734310686
 30
0.0
 10
58.6629814002
 20
73.2354063207
 30
0.0
 10
58.6972739244
 20
73.3519929227
 30
0.0
 10
58.7714418168
 20
73.4799398569
 30
0.0
 10
58.8848661112
 20
73.5697896211
 30
0.0
 10
58.9868209503
 20
73.6058519693
 30
0.0
 10
59.0393919089
 20
73.6119856129
 30
0.0
 10
59.0653301266
 20
73.6119828509
 30
0.0
  0
SPLINE
  5
362
100
AcDbEntity
  8
0
100
AcDbSpline
 62
7
  6
CONTINUOUS
 70
0
 71
3
 72
11
 73
7
 74
0
 42
0.0000001
 43
0.0000001
 44
0.0000000001
 40
0.0
 40
0.0
 40
0.0
 40
0.0
 40
0.1935972316
 40
0.4345654019
 40
0.7087355848
 40
1.0
 40
1.0
 40
1.0
 40
1.0
 10
58.6533970899
 20
56.1818103306
 30
0.0
 10
58.6799742491
 20
56.1838228503
 30
0.0
 10
58.7396388195
 20
56.1882471395
 30
0.0
 10
58.8369820655
 20
56.1949667285
 30
0.0
 10
58.9476615613
 20
56.2036775121
 30
0.0
 10
59.0253213422
 20
56.2090597874
 30
0.0
 10
59.0653141255
 20
56.2119826704
 30
0.0
  0
SPLINE
  5
363
100
AcDbEntity
  8
0
100
AcDbSpline
 62
7
  6
CONTINUOUS
 70
0
 71
3
 72
9
 73
5
 74
0
 42
0.0000001
 43
0.0000001
 44
0.0000000001
 40
0.0
 40
0.0
 40
0.0
 40
0.0
 40
0.5000000006
 40
1.0
 40
1.0
 40
1.0
 40
1.0
 10
58.6533970899
 20
56.1818103306
 30
0.0
 10
58.459700796
 20
59.0035523264
 30
0.0
 10
58.2668139591
 20
64.6619949799
 30
0.0
 10
58.459695556
 20
70.320438032
 30
0.0
 10
58.6533924295
 20
73.1421799811
 30
0.0
  0
ELLIPSE
  5
364
100
AcDbEntity
  8
0
100
AcDbEllipse
 62
7
  6
CONTINUOUS
 10
80.7200682835
 20
64.6619828575
 30
0.0
 11
-0.0
 21
2.1
 31
0.0
 40
0.1763269807
 41
-3.1415926536
 42
-2.9479302531
  0
ELLIPSE
  5
365
100
AcDbEntity
  8
0
100
AcDbEllipse
 62
7
  6
CONTINUOUS
 10
80.1558219452
 20
61.4909691487
 30
0.0
 11
0.0
 21
1.5
 31
0.0
 40
0.1763269807
 41
-4.7123889804
 42
-3.490658504
  0
ELLIPSE
  5
366
100
AcDbEntity
  8
0
100
AcDbEllipse
 62
7
  6
CONTINUOUS
 10
80.1558219452
 20
67.8329965662
 30
0.0
 11
-0.0
 21
1.5
 31
0.0
 40
0.1763269807
 41
0.3490658504
 42
1.5707963268
  0
ENDSEC
  0
SECTION
  2
OBJECTS
  0
DICTIONARY
  5
C
100
AcDbDictionary
280
0
281
1
  3
ACAD_GROUP
350
D
  3
ACAD_MLINESTYLE
350
17
  3
ACAD_LAYOUT
350
1A
  3
ACAD_PLOTSETTINGS
350
19
  3
ACAD_PLOTSTYLENAME
350
E
  0
DICTIONARY
  5
D
102
{ACAD_REACTORS
330
C
102
}
100
AcDbDictionary
280
0
281
1
  0
ACDBDICTIONARYWDFLT
  5
E
102
{ACAD_REACTORS
330
C
102
}
100
AcDbDictionary
281
1
  3
Normal
350
F
100
AcDbDictionaryWithDefault
340
F
  0
DICTIONARY
  5
17
102
{ACAD_REACTORS
330
C
102
}
100
AcDbDictionary
280
0
281
1
  3
Standard
350
18
  0
DICTIONARY
  5
19
102
{ACAD_REACTORS
330
C
102
}
100
AcDbDictionary
281
1
  0
DICTIONARY
  5
1A
102
{ACAD_REACTORS
330
C
102
}
100
AcDbDictionary
281
1
  3
Model
350
367
  3
Layout1
350
368
  0
ACDBPLACEHOLDER
  5
F
102
{ACAD_REACTORS
330
E
102
}
  0
MLINESTYLE
  5
18
102
{ACAD_REACTORS
330
17
102
}
100
AcDbMlineStyle
  2
STANDARD
 70
0
  3

 62
256
 51
90.0
 52
90.0
 71
2
 49
0.5
 62
256
  6
BYLAYER
 49
-0.5
 62
256
  6
BYLAYER
  0
LAYOUT
  5
367
102
{ACAD_REACTORS
330
1A
102
}
100
AcDbPlotSettings
  1

  2
none_device
  4

  6

 40
0.0
 41
0.0
 42
0.0
 43
0.0
 44
210.0
 45
297.0
 46
0.0
 47
0.0
 48
0.0
 49
0.0
140
0.0
141
0.0
142
1.0
143
1.0
 70
1024
 72
1
 73
0
 74
0
  7

 75
0
147
1.0
148
0.0
149
0.0
100
AcDbLayout
  1
Model
 70
0
 71
0
 10
0.0
 20
0.0
 11
210.0
 21
297.0
 12
0.0
 22
0.0
 32
0.0
 14
0.0
 24
0.0
 34
0.0
 15
0.0
 25
0.0
 35
0.0
146
0.0
 13
0.0
 23
0.0
 33
0.0
 16
1.0
 26
0.0
 36
0.0
 17
0.0
 27
1.0
 37
0.0
 76
0
330
210
345
0
346
0
  0
LAYOUT
  5
368
102
{ACAD_REACTORS
330
1A
102
}
100
AcDbPlotSettings
  1

  2
none_device
  4

  6

 40
0.0
 41
0.0
 42
0.0
 43
0.0
 44
210.0
 45
297.0
 46
0.0
 47
0.0
 48
0.0
 49
0.0
140
0.0
141
0.0
142
1.0
143
1.0
 70
0
 72
1
 73
0
 74
0
  7

 75
0
147
1.0
148
0.0
149
0.0
100
AcDbLayout
  1
Layout1
 70
0
 71
1
 10
0.0
 20
0.0
 11
210.0
 21
297.0
 12
0.0
 22
0.0
 32
0.0
 14
0.0
 24
0.0
 34
0.0
 15
0.0
 25
0.0
 35
0.0
146
0.0
 13
0.0
 23
0.0
 33
0.0
 16
1.0
 26
0.0
 36
0.0
 17
0.0
 27
1.0
 37
0.0
 76
0
330
211
345
0
346
0
  0
ENDSEC
  0
EOF
