999
DXF file: C:\Users\sesa63760\Dev\_Creo\CAD\MCADID0005459_3D-CAD\drw0001_1.dxf
999
Pro/ENGINEER 2019471 by Parametric Technology Corporation
  0
SECTION
  2
HEADER
  9
$ACADVER
  1
AC1024
  9
$DWGCODEPAGE
  3
ANSI_1252
  9
$EXTMAX
 10
87.4227773918
 20
123.6407851684
 30
0.0
  9
$EXTMIN
 10
0.0
 20
0.0
 30
0.0
  9
$LIMMIN
 10
0.0
 20
0.0
  9
$LIMMAX
 10
87.4227773918
 20
123.6407851684
  9
$VIEWCTR
 10
43.7113886959
 20
61.8203925842
  9
$VIEWSIZE
 40
123.6407851684
  9
$CLAYER
  8
0
  9
$LTSCALE
 40
8.0595474776
  9
$CELTYPE
  6
BYLAYER
  9
$DIMSCALE
 40
1.0
  9
$DIMASZ
 40
1.0407473499
  9
$DIMEXO
 40
1.0
  9
$DIMDLI
 40
5.5684146209
  9
$DIMEXE
 40
1.0
  9
$DIMCEN
 40
1.3188350418
  9
$DIMLFAC
 40
1.0
  9
$DIMBLK
  1
_FILLED
  9
$DIMALT
 70
0
  9
$DIMALTF
 40
0.0393700787
  9
$DIMTXT
 40
1.4570462899
  9
$DIMTOL
 70
1
  9
$DIMLIM
 70
0
  9
$DIMTFAC
 40
1.0
  9
$DIMTP
 40
0.01
  9
$DIMTM
 40
0.01
  9
$DIMGAP
 40
0.625
  9
$DIMDSEP
 70
46
  9
$AUNITS
 70
0
  9
$PDMODE
 70
3
  9
$PDSIZE
 40
0.3125
  9
$HANDSEED
  5
33C
  9
$TILEMODE
 70
1
  9
$MEASUREMENT
 70
1
  9
$INSUNITS
 70
4
  0
ENDSEC
  0
SECTION
  2
CLASSES
  0
CLASS
  1
ACDBDICTIONARYWDFLT
  2
AcDbDictionaryWithDefault
  3
AutoCAD 2000
 90
0
 91
1
280
0
281
0
  0
CLASS
  1
ACDBPLACEHOLDER
  2
AcDbPlaceHolder
  3
AutoCAD 2000
 90
0
 91
1
280
0
281
0
  0
CLASS
  1
LAYOUT
  2
AcDbLayout
  3
AutoCAD 2000
 90
0
 91
0
280
0
281
0
  0
ENDSEC
  0
SECTION
  2
TABLES
  0
TABLE
  2
VPORT
  5
8
100
AcDbSymbolTable
 70
2
  0
VPORT
  5
1F4
100
AcDbSymbolTableRecord
100
AcDbViewportTableRecord
  2
*ACTIVE
 70
0
 10
0.0
 20
0.0
 11
1.0
 21
1.0
 12
43.7113886959
 22
61.8203925842
 13
0.0
 23
0.0
 14
1.0
 24
1.0
 15
0.0
 25
0.0
 16
0.0
 26
0.0
 36
1.0
 17
0.0
 27
0.0
 37
0.0
 40
123.6407851684
 41
0.7070707071
 42
50.0
 43
0.0
 44
0.0
 50
0.0
 51
0.0
 71
0
 72
100
 73
1
 74
1
 75
0
 76
0
 77
0
 78
0
  0
ENDTAB
  0
TABLE
  2
LTYPE
  5
5
100
AcDbSymbolTable
 70
6
  0
LTYPE
  5
14
100
AcDbSymbolTableRecord
100
AcDbLinetypeTableRecord
  2
BYBLOCK
 70
0
  3

 72
65
 73
0
 40
0.0
  0
LTYPE
  5
15
100
AcDbSymbolTableRecord
100
AcDbLinetypeTableRecord
  2
BYLAYER
 70
0
  3

 72
65
 73
0
 40
0.0
  0
LTYPE
  5
16
100
AcDbSymbolTableRecord
100
AcDbLinetypeTableRecord
  2
CONTINUOUS
 70
64
  3
Solid line
 72
65
 73
0
 40
0.0
  0
LTYPE
  5
1F5
100
AcDbSymbolTableRecord
100
AcDbLinetypeTableRecord
  2
CENTER
 70
64
  3
____ _ ____ _ ____ _ ____ _ ____ _ ____ _ ____
 72
65
 73
4
 40
0.6
 49
0.375
 74
0
 49
-0.075
 74
0
 49
0.075
 74
0
 49
-0.075
 74
0
  0
LTYPE
  5
1F6
100
AcDbSymbolTableRecord
100
AcDbLinetypeTableRecord
  2
HIDDEN
 70
64
  3
- - - - - - - - - - - - - - - - - - - -
 72
65
 73
2
 40
0.2
 49
0.1
 74
0
 49
-0.1
 74
0
  0
LTYPE
  5
1F7
100
AcDbSymbolTableRecord
100
AcDbLinetypeTableRecord
  2
PHANTOM
 70
64
  3
_____ _ _ _____ _ _ _____ _ _ _____
 72
65
 73
6
 40
0.8
 49
0.45
 74
0
 49
-0.05
 74
0
 49
0.1
 74
0
 49
-0.05
 74
0
 49
0.1
 74
0
 49
-0.05
 74
0
  0
LTYPE
  5
1F8
100
AcDbSymbolTableRecord
100
AcDbLinetypeTableRecord
  2
DOT
 70
64
  3
. . . . . . . . . . . . . . . . . . . .
 72
65
 73
2
 40
0.2
 49
0.1
 74
0
 49
-0.1
 74
0
  0
LTYPE
  5
1F9
100
AcDbSymbolTableRecord
100
AcDbLinetypeTableRecord
  2
DASHED
 70
64
  3
- - - - - - - - - - - - - - - - - - - -
 72
65
 73
2
 40
0.2
 49
0.1
 74
0
 49
-0.1
 74
0
  0
ENDTAB
  0
TABLE
  2
LAYER
  5
2
100
AcDbSymbolTable
 70
36
  0
LAYER
  5
10
100
AcDbSymbolTableRecord
100
AcDbLayerTableRecord
  2
0
 70
0
 62
7
  6
CONTINUOUS
370
-3
390
F
  0
LAYER
  5
1FA
100
AcDbSymbolTableRecord
100
AcDbLayerTableRecord
  2
DEFAULT_1
 70
0
 62
7
  6
CENTER
370
-3
390
F
  0
LAYER
  5
1FB
100
AcDbSymbolTableRecord
100
AcDbLayerTableRecord
  2
DEFAULT_2
 70
0
 62
7
  6
HIDDEN
370
-3
390
F
  0
LAYER
  5
1FC
100
AcDbSymbolTableRecord
100
AcDbLayerTableRecord
  2
DEFAULT_3
 70
0
 62
7
  6
PHANTOM
370
-3
390
F
  0
LAYER
  5
1FD
100
AcDbSymbolTableRecord
100
AcDbLayerTableRecord
  2
00_COMPONENTS
 70
0
 62
7
  6
CONTINUOUS
370
-3
390
F
  0
LAYER
  5
1FE
100
AcDbSymbolTableRecord
100
AcDbLayerTableRecord
  2
01_1_DEFAULT_DATUMS
 70
0
 62
7
  6
CONTINUOUS
370
-3
390
F
  0
LAYER
  5
1FF
100
AcDbSymbolTableRecord
100
AcDbLayerTableRecord
  2
01_PLANES
 70
0
 62
7
  6
CONTINUOUS
370
-3
390
F
  0
LAYER
  5
200
100
AcDbSymbolTableRecord
100
AcDbLayerTableRecord
  2
02_COORD_SYS
 70
0
 62
7
  6
CONTINUOUS
370
-3
390
F
  0
LAYER
  5
201
100
AcDbSymbolTableRecord
100
AcDbLayerTableRecord
  2
03_AXES
 70
0
 62
7
  6
CONTINUOUS
370
-3
390
F
  0
LAYER
  5
202
100
AcDbSymbolTableRecord
100
AcDbLayerTableRecord
  2
04_POINTS
 70
0
 62
7
  6
CONTINUOUS
370
-3
390
F
  0
LAYER
  5
203
100
AcDbSymbolTableRecord
100
AcDbLayerTableRecord
  2
05_CURVES
 70
0
 62
7
  6
CONTINUOUS
370
-3
390
F
  0
LAYER
  5
204
100
AcDbSymbolTableRecord
100
AcDbLayerTableRecord
  2
06_SURFS
 70
0
 62
7
  6
CONTINUOUS
370
-3
390
F
  0
LAYER
  5
205
100
AcDbSymbolTableRecord
100
AcDbLayerTableRecord
  2
07_COSMETICS
 70
0
 62
7
  6
CONTINUOUS
370
-3
390
F
  0
LAYER
  5
206
100
AcDbSymbolTableRecord
100
AcDbLayerTableRecord
  2
10_NOTES
 70
0
 62
7
  6
CONTINUOUS
370
-3
390
F
  0
LAYER
  5
207
100
AcDbSymbolTableRecord
100
AcDbLayerTableRecord
  2
11_NOTES_PUB
 70
0
 62
7
  6
CONTINUOUS
370
-3
390
F
  0
LAYER
  5
208
100
AcDbSymbolTableRecord
100
AcDbLayerTableRecord
  2
13_REF_GTOL
 70
0
 62
7
  6
CONTINUOUS
370
-3
390
F
  0
LAYER
  5
209
100
AcDbSymbolTableRecord
100
AcDbLayerTableRecord
  2
16_MISC
 70
0
 62
7
  6
CONTINUOUS
370
-3
390
F
  0
LAYER
  5
20A
100
AcDbSymbolTableRecord
100
AcDbLayerTableRecord
  2
17_NO_PRINT
 70
0
 62
7
  6
CONTINUOUS
370
-3
390
F
  0
LAYER
  5
20B
100
AcDbSymbolTableRecord
100
AcDbLayerTableRecord
  2
18_DATUM_CAMS_JOINTS
 70
0
 62
7
  6
CONTINUOUS
370
-3
390
F
  0
LAYER
  5
20C
100
AcDbSymbolTableRecord
100
AcDbLayerTableRecord
  2
19_DATUM_FUNCTIONAL
 70
0
 62
7
  6
CONTINUOUS
370
-3
390
F
  0
LAYER
  5
20D
100
AcDbSymbolTableRecord
100
AcDbLayerTableRecord
  2
20_DATUM_KINEMATIC_SCHEME
 70
0
 62
7
  6
CONTINUOUS
370
-3
390
F
  0
ENDTAB
  0
TABLE
  2
STYLE
  5
3
100
AcDbSymbolTable
 70
1
  0
STYLE
  5
11
100
AcDbSymbolTableRecord
100
AcDbTextStyleTableRecord
  2
STANDARD
 70
0
 40
0.0
 41
1.0
 50
0.0
 71
0
 42
0.2
  3
ARIAL.TTF
  4

  0
STYLE
  5
20E
100
AcDbSymbolTableRecord
100
AcDbTextStyleTableRecord
  2
TEXTSTYLE_1
 70
0
 40
0.0
 41
0.8
 50
0.0
 71
0
 42
0.2
  3
gdt
  4

  0
ENDTAB
  0
TABLE
  2
VIEW
  5
6
100
AcDbSymbolTable
 70
0
  0
ENDTAB
  0
TABLE
  2
UCS
  5
7
100
AcDbSymbolTable
 70
0
  0
ENDTAB
  0
TABLE
  2
APPID
  5
9
100
AcDbSymbolTable
 70
1
  0
APPID
  5
20F
100
AcDbSymbolTableRecord
100
AcDbRegAppTableRecord
  2
ACAD
 70
0
  0
ENDTAB
  0
TABLE
  2
BLOCK_RECORD
  5
1
100
AcDbSymbolTable
 70
0
  0
BLOCK_RECORD
  5
210
100
AcDbSymbolTableRecord
100
AcDbBlockTableRecord
  2
*Model_Space
  0
BLOCK_RECORD
  5
211
100
AcDbSymbolTableRecord
100
AcDbBlockTableRecord
  2
*Paper_Space
  0
BLOCK_RECORD
  5
212
100
AcDbSymbolTableRecord
100
AcDbBlockTableRecord
  2
_FILLED
  0
ENDTAB
  0
TABLE
  2
DIMSTYLE
  5
A
100
AcDbSymbolTable
 70
1
100
AcDbDimStyleTable
 71
0
  0
DIMSTYLE
105
213
100
AcDbSymbolTableRecord
100
AcDbDimStyleTableRecord
  2
STANDARD
 70
0
  3

  4

 40
1.0
 41
1.0407473499
 42
1.0
 43
0.38
 44
1.0
 45
0.0
 46
0.0
 47
0.01
 48
0.01
140
1.4570462899
141
0.09
142
0.0
143
25.4
144
1.0
145
0.0
146
1.0
147
0.625
 71
1
 72
0
 73
0
 74
0
 75
0
 76
0
 77
1
 78
8
 79
2
170
0
171
1
172
0
173
0
174
0
175
0
176
0
177
0
178
0
270
2
179
2
271
2
272
2
273
2
274
2
275
0
280
0
281
0
282
0
283
1
284
8
285
0
286
0
287
3
288
0
340
11
278
46
341
212
342
212
343
212
344
212
  0
ENDTAB
  0
ENDSEC
  0
SECTION
  2
BLOCKS
  0
BLOCK
  5
20
100
AcDbEntity
  8
0
100
AcDbBlockBegin
  2
*Model_Space
 70
0
 10
0.0
 20
0.0
 30
0.0
  3
*Model_Space
  1

  0
ENDBLK
  5
21
100
AcDbEntity
  8
0
100
AcDbBlockEnd
  0
BLOCK
  5
1C
100
AcDbEntity
  8
0
100
AcDbBlockBegin
  2
*Paper_Space
 70
0
 10
0.0
 20
0.0
 30
0.0
  3
*Paper_Space
  1

  0
ENDBLK
  5
1D
100
AcDbEntity
  8
0
100
AcDbBlockEnd
  0
BLOCK
  5
214
100
AcDbEntity
  8
0
100
AcDbBlockBegin
  2
_FILLED
 70
64
 10
0.0
 20
0.0
  3
_FILLED
  1

  0
SOLID
  5
215
100
AcDbEntity
  8
0
  6
BYBLOCK
 62
0
100
AcDbTrace
 10
0.0
 20
0.0
 11
-1.0
 21
0.25
 12
-1.0
 22
-0.25
 13
-1.0
 23
-0.25
  0
ENDBLK
  5
216
100
AcDbEntity
  8
0
  6
BYBLOCK
 62
0
100
AcDbBlockEnd
  0
ENDSEC
  0
SECTION
  2
ENTITIES
  0
LINE
  5
217
100
AcDbEntity
  8
0
100
AcDbLine
 62
7
  6
BYLAYER
 10
36.3428935012
 20
86.050928725
 11
32.1003781236
 21
83.6015259506
  0
LINE
  5
218
100
AcDbEntity
  8
0
100
AcDbLine
 62
7
  6
BYLAYER
 10
37.8031803741
 20
85.6162179208
 11
38.8638361299
 21
86.2285841516
  0
LINE
  5
219
100
AcDbEntity
  8
0
100
AcDbLine
 62
7
  6
BYLAYER
 10
38.110667814
 20
85.0303268387
 11
33.8681524364
 21
82.5809240643
  0
LINE
  5
21A
100
AcDbEntity
  8
0
100
AcDbLine
 62
7
  6
BYLAYER
 10
43.0560900604
 20
84.3983307329
 11
54.7790119933
 21
91.1665224659
  0
LINE
  5
21B
100
AcDbEntity
  8
0
100
AcDbLine
 62
7
  6
BYLAYER
 10
39.7695070755
 20
82.1382073982
 11
40.5648443465
 21
82.5973927158
  0
LINE
  5
21C
100
AcDbEntity
  8
0
100
AcDbLine
 62
7
  6
BYLAYER
 10
42.045838725
 20
83.1667733937
 11
43.1064944808
 21
83.7791396245
  0
LINE
  5
21D
100
AcDbEntity
  8
0
100
AcDbLine
 62
7
  6
BYLAYER
 10
55.6628991498
 20
90.6562215227
 11
51.8312563952
 21
88.4440347519
  0
LINE
  5
21E
100
AcDbEntity
  8
0
100
AcDbLine
 62
7
  6
BYLAYER
 10
44.3995985381
 20
83.6226732993
 11
51.824189184
 21
87.9092371199
  0
LINE
  5
21F
100
AcDbEntity
  8
0
100
AcDbLine
 62
7
  6
BYLAYER
 10
44.0855597184
 20
83.0787384124
 11
44.0601890514
 21
83.0640907425
  0
LINE
  5
220
100
AcDbEntity
  8
0
100
AcDbLine
 62
7
  6
BYLAYER
 10
40.2726776729
 20
41.1936126283
 11
44.9450262808
 21
38.4960919278
  0
LINE
  5
221
100
AcDbEntity
  8
0
100
AcDbLine
 62
7
  6
BYLAYER
 10
45.4753585747
 20
40.1984964503
 11
42.0121882528
 21
42.197913535
  0
LINE
  5
222
100
AcDbEntity
  8
0
100
AcDbLine
 62
7
  6
BYLAYER
 10
39.7695070755
 20
82.1382073179
 11
39.0154859547
 21
81.2001887225
  0
LINE
  5
223
100
AcDbEntity
  8
0
100
AcDbLine
 62
7
  6
BYLAYER
 10
57.4032346324
 20
89.211491433
 11
53.9526222283
 21
87.2192913245
  0
LINE
  5
224
100
AcDbEntity
  8
0
100
AcDbLine
 62
7
  6
BYLAYER
 10
42.045838725
 20
79.912277728
 11
43.1064944808
 21
80.5246439589
  0
LINE
  5
225
100
AcDbEntity
  8
0
100
AcDbLine
 62
7
  6
BYLAYER
 10
51.824189184
 20
85.4597298685
 11
45.867507441
 21
82.0206585893
  0
LINE
  5
226
100
AcDbEntity
  8
0
100
AcDbLine
 62
7
  6
BYLAYER
 10
40.701507319
 20
78.3489197987
 11
36.3182888116
 21
75.8182825195
  0
LINE
  5
227
100
AcDbEntity
  8
0
100
AcDbLine
 62
7
  6
BYLAYER
 10
48.4301239715
 20
81.2957009985
 11
55.8547146173
 21
85.5822648192
  0
LINE
  5
228
100
AcDbEntity
  8
0
100
AcDbLine
 62
7
  6
BYLAYER
 10
32.1003781236
 20
83.6015259506
 11
32.1003781236
 21
68.6388001656
  0
LINE
  5
229
100
AcDbEntity
  8
0
100
AcDbLine
 62
7
  6
BYLAYER
 10
43.0560900604
 20
84.3983307329
 11
42.8005731223
 21
83.9557594076
  0
LINE
  5
22A
100
AcDbEntity
  8
0
100
AcDbLine
 62
7
  6
BYLAYER
 10
48.1160851517
 20
80.7517661123
 11
48.0907144847
 21
80.737118441
  0
LINE
  5
22B
100
AcDbEntity
  8
0
100
AcDbLine
 62
7
  6
BYLAYER
 10
60.6126672258
 20
87.7985362411
 11
56.7810244712
 21
85.5863494703
  0
LINE
  5
22C
100
AcDbEntity
  8
0
100
AcDbLine
 62
7
  6
BYLAYER
 10
44.1124639409
 20
77.9319154345
 11
43.0518081851
 21
77.3195492037
  0
LINE
  5
22D
100
AcDbEntity
  8
0
100
AcDbLine
 62
7
  6
BYLAYER
 10
33.755016058
 20
71.7167191053
 11
36.3182888116
 21
73.1966676322
  0
LINE
  5
22E
100
AcDbEntity
  8
0
100
AcDbLine
 62
7
  6
BYLAYER
 10
60.6787564123
 20
87.1408476258
 11
55.2769054216
 21
84.0221061186
  0
LINE
  5
22F
100
AcDbEntity
  8
0
100
AcDbLine
 62
7
  6
BYLAYER
 10
49.879698908
 20
80.4588074517
 11
55.6642309771
 21
83.7984886638
  0
LINE
  5
230
100
AcDbEntity
  8
0
100
AcDbLine
 62
7
  6
BYLAYER
 10
61.0660819678
 20
86.917230171
 11
61.602620841
 21
87.2269991848
  0
LINE
  5
231
100
AcDbEntity
  8
0
100
AcDbLine
 62
7
  6
BYLAYER
 10
50.0211208531
 20
80.3771593008
 11
55.8056529222
 21
83.7168405129
  0
LINE
  5
232
100
AcDbEntity
  8
0
100
AcDbLine
 62
7
  6
BYLAYER
 10
61.2075039129
 20
86.8355820201
 11
61.744042786
 21
87.1453510339
  0
LINE
  5
233
100
AcDbEntity
  8
0
100
AcDbLine
 62
7
  6
BYLAYER
 10
49.5656601572
 20
79.9148726046
 11
46.5931159231
 21
78.1986841171
  0
LINE
  5
234
100
AcDbEntity
  8
0
100
AcDbLine
 62
7
  6
BYLAYER
 10
49.7070821023
 20
79.833224534
 11
46.7345378682
 21
78.1170358858
  0
LINE
  5
235
100
AcDbEntity
  8
0
100
AcDbLine
 62
7
  6
BYLAYER
 10
56.2652742435
 20
83.4514840224
 11
61.6671252342
 21
86.5702255296
  0
LINE
  5
236
100
AcDbEntity
  8
0
100
AcDbLine
 62
7
  6
BYLAYER
 10
29.9703223111
 20
68.1544967261
 11
22.0507593343
 21
63.5821622027
  0
LINE
  5
237
100
AcDbEntity
  8
0
100
AcDbLine
 62
7
  6
BYLAYER
 10
22.0580315502
 20
63.5695662802
 11
11.5928947594
 21
57.5275528029
  0
LINE
  5
238
100
AcDbEntity
  8
0
100
AcDbLine
 62
7
  6
BYLAYER
 10
23.5646500108
 20
64.130716673
 11
13.09951322
 21
58.0887031957
  0
LINE
  5
239
100
AcDbEntity
  8
0
100
AcDbLine
 62
7
  6
BYLAYER
 10
62.7339964012
 20
86.5738139775
 11
58.9023536466
 21
84.3616272067
  0
LINE
  5
23A
100
AcDbEntity
  8
0
100
AcDbLine
 62
7
  6
BYLAYER
 10
71.5682278135
 20
50.6092159762
 11
64.6370732212
 21
49.8411601868
  0
LINE
  5
23B
100
AcDbEntity
  8
0
100
AcDbLine
 62
7
  6
BYLAYER
 10
47.2431328876
 20
45.5466134176
 11
50.1528894066
 21
43.8667027128
  0
LINE
  5
23C
100
AcDbEntity
  8
0
100
AcDbLine
 62
7
  6
BYLAYER
 10
33.755016058
 20
71.7167191053
 11
33.755016058
 21
68.6040153718
  0
LINE
  5
23D
100
AcDbEntity
  8
0
100
AcDbLine
 62
7
  6
BYLAYER
 10
33.8681524364
 20
71.7820402914
 11
33.8681524364
 21
82.5809240643
  0
LINE
  5
23E
100
AcDbEntity
  8
0
100
AcDbLine
 62
7
  6
BYLAYER
 10
44.0855597184
 20
83.078738413
 11
44.3995985381
 21
83.6226732993
  0
LINE
  5
23F
100
AcDbEntity
  8
0
100
AcDbLine
 62
7
  6
BYLAYER
 10
25.2998940257
 20
62.7780255337
 11
14.8347572349
 21
56.7360120564
  0
LINE
  5
240
100
AcDbEntity
  8
0
100
AcDbLine
 62
7
  6
BYLAYER
 10
64.4743318839
 20
85.1290838878
 11
61.0237194798
 21
83.1368837793
  0
LINE
  5
241
100
AcDbEntity
  8
0
100
AcDbLine
 62
7
  6
BYLAYER
 10
36.8912458184
 20
68.2531614231
 11
36.2608302198
 21
67.8891929802
  0
LINE
  5
242
100
AcDbEntity
  8
0
100
AcDbLine
 62
7
  6
BYLAYER
 10
50.3650223241
 20
45.7854865292
 11
48.1623755303
 21
47.0571564796
  0
LINE
  5
243
100
AcDbEntity
  8
0
100
AcDbLine
 62
7
  6
BYLAYER
 10
55.1964977917
 20
44.8720486913
 11
54.6583250375
 21
45.1827553472
  0
LINE
  5
244
100
AcDbEntity
  8
0
100
AcDbLine
 62
7
  6
BYLAYER
 10
48.365716048
 20
48.8177201738
 11
50.9024268928
 21
47.3531826169
  0
LINE
  5
245
100
AcDbEntity
  8
0
100
AcDbLine
 62
7
  6
BYLAYER
 10
36.3182888116
 20
75.8182825195
 11
36.3182888116
 21
73.1966676322
  0
LINE
  5
246
100
AcDbEntity
  8
0
100
AcDbLine
 62
7
  6
BYLAYER
 10
37.8031803741
 20
85.6162179208
 11
37.8031803741
 21
85.2079750755
  0
LINE
  5
247
100
AcDbEntity
  8
0
100
AcDbLine
 62
7
  6
BYLAYER
 10
38.1099142944
 20
76.8526717998
 11
38.1107754597
 21
85.0303889876
  0
LINE
  5
248
100
AcDbEntity
  8
0
100
AcDbLine
 62
7
  6
BYLAYER
 10
48.4301239715
 20
81.2957009985
 11
48.1160851517
 21
80.7517661123
  0
LINE
  5
249
100
AcDbEntity
  8
0
100
AcDbLine
 62
7
  6
BYLAYER
 10
45.8390948024
 20
77.2606654413
 11
46.5931159231
 21
78.1986840367
  0
LINE
  5
24A
100
AcDbEntity
  8
0
100
AcDbLine
 62
7
  6
BYLAYER
 10
46.7345378682
 20
78.1170358858
 11
45.9805167474
 21
77.1790172904
  0
LINE
  5
24B
100
AcDbEntity
  8
0
100
AcDbLine
 62
7
  6
BYLAYER
 10
67.6837644773
 20
83.7161286959
 11
63.8521217227
 21
81.5039419251
  0
LINE
  5
24C
100
AcDbEntity
  8
0
100
AcDbLine
 62
7
  6
BYLAYER
 10
67.7498536638
 20
83.0584400806
 11
62.3480026731
 21
79.9396985734
  0
LINE
  5
24D
100
AcDbEntity
  8
0
100
AcDbLine
 62
7
  6
BYLAYER
 10
51.6617439406
 20
73.6133885334
 11
53.288011018
 21
74.5523086724
  0
LINE
  5
24E
100
AcDbEntity
  8
0
100
AcDbLine
 62
7
  6
BYLAYER
 10
56.9507961595
 20
76.3763999065
 11
62.7353282286
 21
79.7160811186
  0
LINE
  5
24F
100
AcDbEntity
  8
0
100
AcDbLine
 62
7
  6
BYLAYER
 10
68.1371792193
 20
82.8348226258
 11
68.6737180925
 21
83.1445916396
  0
LINE
  5
250
100
AcDbEntity
  8
0
100
AcDbLine
 62
7
  6
BYLAYER
 10
57.0922181045
 20
76.2947517556
 11
62.8767501736
 21
79.6344329677
  0
LINE
  5
251
100
AcDbEntity
  8
0
100
AcDbLine
 62
7
  6
BYLAYER
 10
68.2786011643
 20
82.7531744749
 11
68.8151400375
 21
83.0629434887
  0
LINE
  5
252
100
AcDbEntity
  8
0
100
AcDbLine
 62
7
  6
BYLAYER
 10
55.3146833088
 20
75.0978499975
 11
51.0721320492
 21
72.6484265068
  0
LINE
  5
253
100
AcDbEntity
  8
0
100
AcDbLine
 62
7
  6
BYLAYER
 10
56.6367574087
 20
75.8324650594
 11
55.339593044
 21
75.083551545
  0
LINE
  5
254
100
AcDbEntity
  8
0
100
AcDbLine
 62
7
  6
BYLAYER
 10
56.7781793537
 20
75.7508169888
 11
55.4810149802
 21
75.0019033992
  0
LINE
  5
255
100
AcDbEntity
  8
0
100
AcDbLine
 62
7
  6
BYLAYER
 10
56.3389124195
 20
46.1591690556
 11
60.38257108
 21
43.8246144541
  0
LINE
  5
256
100
AcDbEntity
  8
0
100
AcDbLine
 62
7
  6
BYLAYER
 10
40.9144631647
 20
79.1658948233
 11
40.9144631647
 21
78.5535180105
  0
LINE
  5
257
100
AcDbEntity
  8
0
100
AcDbLine
 62
7
  6
BYLAYER
 10
49.5656601572
 20
79.9148726849
 11
49.879698908
 21
80.4588074517
  0
LINE
  5
258
100
AcDbEntity
  8
0
100
AcDbLine
 62
7
  6
BYLAYER
 10
50.0211208531
 20
80.3771593008
 11
49.7070821023
 21
79.833224534
  0
LINE
  5
259
100
AcDbEntity
  8
0
100
AcDbLine
 62
7
  6
BYLAYER
 10
63.336371495
 20
79.3690764772
 11
68.7382224857
 21
82.4878179844
  0
LINE
  5
25A
100
AcDbEntity
  8
0
100
AcDbLine
 62
7
  6
BYLAYER
 10
51.0721320492
 20
71.6807982677
 11
47.2784895514
 21
69.4905508244
  0
LINE
  5
25B
100
AcDbEntity
  8
0
100
AcDbLine
 62
7
  6
BYLAYER
 10
69.8050936527
 20
82.4914064323
 11
65.9734508981
 21
80.2792196615
  0
LINE
  5
25C
100
AcDbEntity
  8
0
100
AcDbLine
 62
7
  6
BYLAYER
 10
58.5417930411
 20
75.4578582089
 11
65.9663836869
 21
79.7444220295
  0
LINE
  5
25D
100
AcDbEntity
  8
0
100
AcDbLine
 62
7
  6
BYLAYER
 10
58.2277542213
 20
74.913923322
 11
58.2023835543
 21
74.8992756521
  0
LINE
  5
25E
100
AcDbEntity
  8
0
100
AcDbLine
 62
7
  6
BYLAYER
 10
57.0824576216
 20
74.0772481112
 11
52.8399063621
 21
71.6278246205
  0
LINE
  5
25F
100
AcDbEntity
  8
0
100
AcDbLine
 62
7
  6
BYLAYER
 10
71.5454291354
 20
81.0466763426
 11
68.0948167313
 21
79.0544762341
  0
LINE
  5
260
100
AcDbEntity
  8
0
100
AcDbLine
 62
7
  6
BYLAYER
 10
57.0825293854
 20
48.2610087254
 11
60.38257108
 21
46.3557718669
  0
LINE
  5
261
100
AcDbEntity
  8
0
100
AcDbLine
 62
7
  6
BYLAYER
 10
40.9144631647
 20
79.1658948233
 11
40.5609083022
 21
82.6360248691
  0
LINE
  5
262
100
AcDbEntity
  8
0
100
AcDbLine
 62
7
  6
BYLAYER
 10
42.045838725
 20
79.912277728
 11
42.045838725
 21
83.1667733937
  0
LINE
  5
263
100
AcDbEntity
  8
0
100
AcDbLine
 62
7
  6
BYLAYER
 10
43.1064944808
 20
80.5246439589
 11
43.1064944808
 21
83.7791396245
  0
LINE
  5
264
100
AcDbEntity
  8
0
100
AcDbLine
 62
7
  6
BYLAYER
 10
65.9663836869
 20
77.2949147781
 11
60.009701944
 21
73.8558434989
  0
LINE
  5
265
100
AcDbEntity
  8
0
100
AcDbLine
 62
7
  6
BYLAYER
 10
57.2832662556
 20
70.3678745364
 11
58.9095333329
 21
71.3067946725
  0
LINE
  5
266
100
AcDbEntity
  8
0
100
AcDbLine
 62
7
  6
BYLAYER
 10
62.5723184744
 20
73.1308859081
 11
69.9969091202
 21
77.4174497288
  0
LINE
  5
267
100
AcDbEntity
  8
0
100
AcDbLine
 62
7
  6
BYLAYER
 10
62.2582796547
 20
72.5869510219
 11
62.2329089876
 21
72.5723033506
  0
LINE
  5
268
100
AcDbEntity
  8
0
100
AcDbLine
 62
7
  6
BYLAYER
 10
74.7548617287
 20
79.6337211507
 11
70.9232189741
 21
77.4215343799
  0
LINE
  5
269
100
AcDbEntity
  8
0
100
AcDbLine
 62
7
  6
BYLAYER
 10
61.030844863
 20
54.3643482836
 11
64.2128120802
 21
53.3845136922
  0
LINE
  5
26A
100
AcDbEntity
  8
0
100
AcDbLine
 62
7
  6
BYLAYER
 10
64.6370732212
 20
53.8199739113
 11
62.2187779915
 21
54.6038403933
  0
LINE
  5
26B
100
AcDbEntity
  8
0
100
AcDbLine
 62
7
  6
BYLAYER
 10
64.2127676322
 20
50.0861275909
 11
64.6370732212
 21
49.8411601868
  0
LINE
  5
26C
100
AcDbEntity
  8
0
100
AcDbLine
 62
7
  6
BYLAYER
 10
45.4753585747
 20
44.6890618494
 11
45.4753585747
 21
40.1984964503
  0
LINE
  5
26D
100
AcDbEntity
  8
0
100
AcDbLine
 62
7
  6
BYLAYER
 10
47.2431328876
 20
40.2393477063
 11
47.2431328876
 21
45.5466134176
  0
LINE
  5
26E
100
AcDbEntity
  8
0
100
AcDbLine
 62
7
  6
BYLAYER
 10
63.9158269522
 20
72.3552284745
 11
75.6387488852
 21
79.1234202075
  0
LINE
  5
26F
100
AcDbEntity
  8
0
100
AcDbLine
 62
7
  6
BYLAYER
 10
60.6292439673
 20
70.0951050595
 11
63.6017882014
 21
71.8112937077
  0
LINE
  5
270
100
AcDbEntity
  8
0
100
AcDbLine
 62
7
  6
BYLAYER
 10
51.0721320492
 20
63.2690930127
 11
50.9024268928
 21
63.1711142798
  0
LINE
  5
271
100
AcDbEntity
  8
0
100
AcDbLine
 62
7
  6
BYLAYER
 10
61.7569181863
 20
68.7865584898
 11
61.4252320419
 21
68.5950604264
  0
LINE
  5
272
100
AcDbEntity
  8
0
100
AcDbLine
 62
7
  6
BYLAYER
 10
61.9500784772
 20
68.5714777095
 11
61.82167592
 21
68.4973449011
  0
LINE
  5
273
100
AcDbEntity
  8
0
100
AcDbLine
 62
7
  6
BYLAYER
 10
57.082104853
 20
55.3776322356
 11
57.2833630632
 21
55.2620539569
  0
LINE
  5
274
100
AcDbEntity
  8
0
100
AcDbLine
 62
7
  6
BYLAYER
 10
61.030844863
 20
55.2215817616
 11
64.2128120802
 21
53.3845136922
  0
LINE
  5
275
100
AcDbEntity
  8
0
100
AcDbLine
 62
7
  6
BYLAYER
 10
61.030844863
 20
55.2896783891
 11
62.2187779915
 21
54.6038403933
  0
LINE
  5
276
100
AcDbEntity
  8
0
100
AcDbLine
 62
7
  6
BYLAYER
 10
56.6367574087
 20
75.8324651397
 11
56.9507961595
 21
76.3763999065
  0
LINE
  5
277
100
AcDbEntity
  8
0
100
AcDbLine
 62
7
  6
BYLAYER
 10
57.0922181045
 20
76.2947517556
 11
56.7781793537
 21
75.7508169888
  0
LINE
  5
278
100
AcDbEntity
  8
0
100
AcDbLine
 62
7
  6
BYLAYER
 10
58.2277542213
 20
74.9139233226
 11
58.5417930411
 21
75.4578582089
  0
LINE
  5
279
100
AcDbEntity
  8
0
100
AcDbLine
 62
7
  6
BYLAYER
 10
60.6772928864
 20
66.1628117984
 11
61.3843968395
 21
66.5710560192
  0
LINE
  5
27A
100
AcDbEntity
  8
0
100
AcDbLine
 62
7
  6
BYLAYER
 10
61.3843968395
 20
65.9586794862
 11
62.0915004824
 21
66.3669235279
  0
LINE
  5
27B
100
AcDbEntity
  8
0
100
AcDbLine
 62
7
  6
BYLAYER
 10
47.2784895514
 20
69.4905508244
 11
50.9024268928
 21
63.1711142798
  0
LINE
  5
27C
100
AcDbEntity
  8
0
100
AcDbLine
 62
7
  6
BYLAYER
 10
42.045838725
 20
79.912277728
 11
43.0518081851
 21
77.3195492037
  0
LINE
  5
27D
100
AcDbEntity
  8
0
100
AcDbLine
 62
7
  6
BYLAYER
 10
44.1124639409
 20
77.9319154345
 11
43.1064944808
 21
80.5246439589
  0
LINE
  5
27E
100
AcDbEntity
  8
0
100
AcDbLine
 62
7
  6
BYLAYER
 10
50.9024268928
 20
47.3531826169
 11
50.9024268928
 21
63.1711142798
  0
LINE
  5
27F
100
AcDbEntity
  8
0
100
AcDbLine
 62
7
  6
BYLAYER
 10
51.0721320492
 20
72.6484265068
 11
51.0721320492
 21
46.1937481918
  0
LINE
  5
280
100
AcDbEntity
  8
0
100
AcDbLine
 62
7
  6
BYLAYER
 10
51.4857559109
 20
42.6888126295
 11
51.4857559109
 21
43.5836367128
  0
LINE
  5
281
100
AcDbEntity
  8
0
100
AcDbLine
 62
7
  6
BYLAYER
 10
51.6617439407
 20
73.6133885348
 11
51.6617157905
 21
72.9888208067
  0
LINE
  5
282
100
AcDbEntity
  8
0
100
AcDbLine
 62
7
  6
BYLAYER
 10
51.824189184
 20
87.9092371199
 11
51.824189184
 21
85.4597298685
  0
LINE
  5
283
100
AcDbEntity
  8
0
100
AcDbLine
 62
7
  6
BYLAYER
 10
52.8399063621
 20
45.4180970307
 11
52.8399063621
 21
71.6278246205
  0
LINE
  5
284
100
AcDbEntity
  8
0
100
AcDbLine
 62
7
  6
BYLAYER
 10
59.4045049101
 20
68.5715031623
 11
60.6292439673
 21
70.0951050595
  0
LINE
  5
285
100
AcDbEntity
  8
0
100
AcDbLine
 62
7
  6
BYLAYER
 10
62.2187779915
 20
61.4141125916
 11
62.0135187032
 21
61.2956067936
  0
LINE
  5
286
100
AcDbEntity
  8
0
100
AcDbLine
 62
7
  6
BYLAYER
 10
58.9095333329
 20
66.7752065385
 11
60.6772928864
 21
66.1628117984
  0
LINE
  5
287
100
AcDbEntity
  8
0
100
AcDbLine
 62
7
  6
BYLAYER
 10
47.2784895514
 20
69.4905508244
 11
36.3182888116
 21
75.8182825195
  0
LINE
  5
288
100
AcDbEntity
  8
0
100
AcDbLine
 62
7
  6
BYLAYER
 10
55.1964968283
 20
45.4934671209
 11
55.1964977917
 21
44.8720486913
  0
LINE
  5
289
100
AcDbEntity
  8
0
100
AcDbLine
 62
7
  6
BYLAYER
 10
55.6642309771
 20
83.7984886638
 11
55.6642309771
 21
83.6351910022
  0
LINE
  5
28A
100
AcDbEntity
  8
0
100
AcDbLine
 62
7
  6
BYLAYER
 10
62.5723184744
 20
73.1308859081
 11
62.2582796547
 21
72.5869510219
  0
LINE
  5
28B
100
AcDbEntity
  8
0
100
AcDbLine
 62
7
  6
BYLAYER
 10
63.6017882014
 20
71.8112937077
 11
63.9158269522
 21
72.3552284745
  0
LINE
  5
28C
100
AcDbEntity
  8
0
100
AcDbLine
 62
7
  6
BYLAYER
 10
75.6387488852
 20
79.1234202075
 11
78.6385903633
 21
79.5945906152
  0
LINE
  5
28D
100
AcDbEntity
  8
0
100
AcDbLine
 62
7
  6
BYLAYER
 10
58.9095333329
 20
67.1834051636
 11
60.6772928864
 21
66.1628117984
  0
LINE
  5
28E
100
AcDbEntity
  8
0
100
AcDbLine
 62
7
  6
BYLAYER
 10
60.8611355685
 20
66.5889416682
 11
58.9095333329
 21
67.7156742542
  0
LINE
  5
28F
100
AcDbEntity
  8
0
100
AcDbLine
 62
7
  6
BYLAYER
 10
58.9095333329
 20
67.7958154798
 11
59.4045049101
 21
67.5100499713
  0
LINE
  5
290
100
AcDbEntity
  8
0
100
AcDbLine
 62
7
  6
BYLAYER
 10
38.1099142944
 20
79.8451014478
 11
40.7014714371
 21
78.3488990824
  0
LINE
  5
291
100
AcDbEntity
  8
0
100
AcDbLine
 62
7
  6
BYLAYER
 10
61.0826555296
 20
66.7452625047
 11
61.3843968395
 21
66.5710560192
  0
LINE
  5
292
100
AcDbEntity
  8
0
100
AcDbLine
 62
7
  6
BYLAYER
 10
60.38257108
 20
46.3557718669
 11
57.2832823902
 21
55.2619762116
  0
LINE
  5
293
100
AcDbEntity
  8
0
100
AcDbLine
 62
7
  6
BYLAYER
 10
57.0825293854
 20
47.8675619539
 11
57.0825293854
 21
74.0772895438
  0
LINE
  5
294
100
AcDbEntity
  8
0
100
AcDbLine
 62
7
  6
BYLAYER
 10
57.2832823902
 20
55.2619762116
 11
57.2832662556
 21
70.3678745364
  0
LINE
  5
295
100
AcDbEntity
  8
0
100
AcDbLine
 62
7
  6
BYLAYER
 10
57.4032346324
 20
90.9295674928
 11
57.4032346324
 21
89.211491433
  0
LINE
  5
296
100
AcDbEntity
  8
0
100
AcDbLine
 62
7
  6
BYLAYER
 10
58.9095333329
 20
71.3067946725
 11
58.9095333329
 21
66.7752065385
  0
LINE
  5
297
100
AcDbEntity
  8
0
100
AcDbLine
 62
7
  6
BYLAYER
 10
59.4045049101
 20
67.5100499713
 11
59.4045049101
 21
68.5715031623
  0
LINE
  5
298
100
AcDbEntity
  8
0
100
AcDbLine
 62
7
  6
BYLAYER
 10
61.1915723964
 20
67.0721037554
 11
61.0871225546
 21
66.752999794
  0
LINE
  5
299
100
AcDbEntity
  8
0
100
AcDbLine
 62
7
  6
BYLAYER
 10
48.365716048
 20
48.8177201738
 11
48.1786135455
 21
48.7027503623
  0
LINE
  5
29A
100
AcDbEntity
  8
0
100
AcDbLine
 62
7
  6
BYLAYER
 10
47.7661971324
 20
49.417080782
 11
47.0990509633
 21
49.0319060608
  0
LINE
  5
29B
100
AcDbEntity
  8
0
100
AcDbLine
 62
7
  6
BYLAYER
 10
37.2289437025
 20
42.1164201047
 11
26.7638069117
 21
36.0744066274
  0
LINE
  5
29C
100
AcDbEntity
  8
0
100
AcDbLine
 62
7
  6
BYLAYER
 10
48.6757743583
 20
48.6387119746
 11
46.8226176597
 21
47.5687978424
  0
LINE
  5
29D
100
AcDbEntity
  8
0
100
AcDbLine
 62
7
  6
BYLAYER
 10
49.7887596238
 20
47.9961441688
 11
48.1623755303
 21
47.0571564796
  0
LINE
  5
29E
100
AcDbEntity
  8
0
100
AcDbLine
 62
7
  6
BYLAYER
 10
76.4951972114
 20
79.9070671207
 11
74.7548617287
 21
79.6337211507
  0
LINE
  5
29F
100
AcDbEntity
  8
0
100
AcDbLine
 62
7
  6
BYLAYER
 10
52.8399063621
 20
71.6278246205
 11
51.0721320492
 21
72.6484265068
  0
LINE
  5
2A0
100
AcDbEntity
  8
0
100
AcDbLine
 62
7
  6
BYLAYER
 10
33.8681524364
 20
82.5809240643
 11
32.1003781236
 21
83.6015259506
  0
LINE
  5
2A1
100
AcDbEntity
  8
0
100
AcDbLine
 62
7
  6
BYLAYER
 10
40.9144631647
 20
78.5535180105
 11
43.0518081851
 21
77.3195492037
  0
LINE
  5
2A2
100
AcDbEntity
  8
0
100
AcDbLine
 62
7
  6
BYLAYER
 10
62.0915004824
 20
66.3669235279
 11
61.1404720918
 21
66.9159875818
  0
LINE
  5
2A3
100
AcDbEntity
  8
0
100
AcDbLine
 62
7
  6
BYLAYER
 10
58.9095333329
 20
68.8572686708
 11
59.4045049101
 21
68.5715031623
  0
LINE
  5
2A4
100
AcDbEntity
  8
0
100
AcDbLine
 62
7
  6
BYLAYER
 10
51.6616721769
 20
73.6133471022
 11
52.202557353
 21
73.3010739645
  0
LINE
  5
2A5
100
AcDbEntity
  8
0
100
AcDbLine
 62
7
  6
BYLAYER
 10
57.0816682201
 20
70.4841817174
 11
57.2831944918
 21
70.3678331038
  0
LINE
  5
2A6
100
AcDbEntity
  8
0
100
AcDbLine
 62
7
  6
BYLAYER
 10
38.1107754597
 20
81.7225117538
 11
40.812928084
 21
80.1624585019
  0
LINE
  5
2A7
100
AcDbEntity
  8
0
100
AcDbLine
 62
7
  6
BYLAYER
 10
43.9496653029
 20
78.3515033934
 11
51.9091232253
 21
73.7562121787
  0
LINE
  5
2A8
100
AcDbEntity
  8
0
100
AcDbLine
 62
7
  6
BYLAYER
 10
61.5388269573
 20
68.6606441315
 11
61.82167592
 21
68.4973449011
  0
LINE
  5
2A9
100
AcDbEntity
  8
0
100
AcDbLine
 62
7
  6
BYLAYER
 10
39.7695070755
 20
82.1382073179
 11
40.6642597821
 21
81.6216332883
  0
LINE
  5
2AA
100
AcDbEntity
  8
0
100
AcDbLine
 62
7
  6
BYLAYER
 10
43.2629958302
 20
80.1212862738
 11
46.5931159231
 21
78.1986840367
  0
LINE
  5
2AB
100
AcDbEntity
  8
0
100
AcDbLine
 62
7
  6
BYLAYER
 10
46.7345378682
 20
78.1170358858
 11
53.098490187
 21
74.4428894217
  0
LINE
  5
2AC
100
AcDbEntity
  8
0
100
AcDbLine
 62
7
  6
BYLAYER
 10
58.9095333329
 20
71.0879579959
 11
60.6292439673
 21
70.0951050595
  0
LINE
  5
2AD
100
AcDbEntity
  8
0
100
AcDbLine
 62
7
  6
BYLAYER
 10
53.288011018
 20
74.5523086724
 11
53.8288962006
 21
74.2400355311
  0
LINE
  5
2AE
100
AcDbEntity
  8
0
100
AcDbLine
 62
7
  6
BYLAYER
 10
57.0825293854
 20
72.3615920321
 11
58.9095333329
 21
71.3067946739
  0
LINE
  5
2AF
100
AcDbEntity
  8
0
100
AcDbLine
 62
7
  6
BYLAYER
 10
60.8611355648
 20
66.5889416706
 11
59.4045049101
 21
67.5100499713
  0
LINE
  5
2B0
100
AcDbEntity
  8
0
100
AcDbLine
 62
7
  6
BYLAYER
 10
60.38257108
 20
43.8246144541
 11
60.38257108
 21
46.3557718669
  0
LINE
  5
2B1
100
AcDbEntity
  8
0
100
AcDbLine
 62
7
  6
BYLAYER
 10
60.6787564123
 20
87.1408476258
 11
60.6787564123
 21
85.9995939305
  0
LINE
  5
2B2
100
AcDbEntity
  8
0
100
AcDbLine
 62
7
  6
BYLAYER
 10
61.030844863
 20
59.2633629591
 11
61.030844863
 21
54.3643482836
  0
LINE
  5
2B3
100
AcDbEntity
  8
0
100
AcDbLine
 62
7
  6
BYLAYER
 10
61.0660819678
 20
86.917230171
 11
61.0660819678
 21
86.2232151094
  0
LINE
  5
2B4
100
AcDbEntity
  8
0
100
AcDbLine
 62
7
  6
BYLAYER
 10
61.2075039129
 20
86.8355820201
 11
61.2075039129
 21
86.30486462
  0
LINE
  5
2B5
100
AcDbEntity
  8
0
100
AcDbLine
 62
7
  6
BYLAYER
 10
61.3843968395
 20
66.5710560192
 11
61.3843968395
 21
65.9586794862
  0
LINE
  5
2B6
100
AcDbEntity
  8
0
100
AcDbLine
 62
7
  6
BYLAYER
 10
61.9500785224
 20
66.4485716701
 11
61.9500784772
 21
68.5714777095
  0
LINE
  5
2B7
100
AcDbEntity
  8
0
100
AcDbLine
 62
7
  6
BYLAYER
 10
62.0915004824
 20
66.3669235279
 11
62.0915005586
 21
61.4568791696
  0
LINE
  5
2B8
100
AcDbEntity
  8
0
100
AcDbLine
 62
7
  6
BYLAYER
 10
62.2187779915
 20
54.6038403933
 11
62.2187779915
 21
61.4141125916
  0
LINE
  5
2B9
100
AcDbEntity
  8
0
100
AcDbLine
 62
7
  6
BYLAYER
 10
62.7353282286
 20
79.7160811186
 11
62.7353282286
 21
79.552783457
  0
LINE
  5
2BA
100
AcDbEntity
  8
0
100
AcDbLine
 62
7
  6
BYLAYER
 10
61.4252320419
 20
68.5950604264
 11
61.1915723964
 21
67.0721037554
  0
LINE
  5
2BB
100
AcDbEntity
  8
0
100
AcDbLine
 62
7
  6
BYLAYER
 10
62.0915005586
 20
61.4568791696
 11
61.030844863
 21
59.2633629591
  0
LINE
  5
2BC
100
AcDbEntity
  8
0
100
AcDbLine
 62
7
  6
BYLAYER
 10
37.550617269
 20
39.9585683374
 11
27.0854804782
 21
33.9165548601
  0
LINE
  5
2BD
100
AcDbEntity
  8
0
100
AcDbLine
 62
7
  6
BYLAYER
 10
51.0721320492
 20
47.4511613499
 11
50.9024268928
 21
47.3531826169
  0
LINE
  5
2BE
100
AcDbEntity
  8
0
100
AcDbLine
 62
7
  6
BYLAYER
 10
36.2934231909
 20
38.9138140162
 11
25.8282864002
 21
32.8718005389
  0
LINE
  5
2BF
100
AcDbEntity
  8
0
100
AcDbLine
 62
7
  6
BYLAYER
 10
44.2202585156
 20
43.472735886
 11
36.3006955388
 21
38.9004013626
  0
LINE
  5
2C0
100
AcDbEntity
  8
0
100
AcDbLine
 62
7
  6
BYLAYER
 10
50.3650223241
 20
45.7854865292
 11
51.0721381588
 21
46.1937376098
  0
LINE
  5
2C1
100
AcDbEntity
  8
0
100
AcDbLine
 62
7
  6
BYLAYER
 10
69.8050936527
 20
82.4914064323
 11
71.5454291354
 21
82.7647524024
  0
LINE
  5
2C2
100
AcDbEntity
  8
0
100
AcDbLine
 62
7
  6
BYLAYER
 10
71.8149815157
 20
83.5341138963
 11
68.8151400375
 21
83.0629434887
  0
LINE
  5
2C3
100
AcDbEntity
  8
0
100
AcDbLine
 62
7
  6
BYLAYER
 10
68.6737180925
 20
83.1445916396
 11
71.6735595706
 21
83.6157620472
  0
LINE
  5
2C4
100
AcDbEntity
  8
0
100
AcDbLine
 62
7
  6
BYLAYER
 10
69.4240999599
 20
83.989474666
 11
67.6837644773
 21
83.7161286959
  0
LINE
  5
2C5
100
AcDbEntity
  8
0
100
AcDbLine
 62
7
  6
BYLAYER
 10
38.1107754597
 20
84.0505777238
 11
40.5609083022
 21
82.6360248691
  0
LINE
  5
2C6
100
AcDbEntity
  8
0
100
AcDbLine
 62
7
  6
BYLAYER
 10
57.0825293854
 20
74.0772895438
 11
55.3147550725
 21
75.0978914301
  0
LINE
  5
2C7
100
AcDbEntity
  8
0
100
AcDbLine
 62
7
  6
BYLAYER
 10
38.1107754597
 20
85.0303889876
 11
36.3430011468
 21
86.0509908739
  0
LINE
  5
2C8
100
AcDbEntity
  8
0
100
AcDbLine
 62
7
  6
BYLAYER
 10
42.045838725
 20
83.1667733937
 11
37.8031803741
 21
85.6162179208
  0
LINE
  5
2C9
100
AcDbEntity
  8
0
100
AcDbLine
 62
7
  6
BYLAYER
 10
44.0601890514
 20
83.0640907425
 11
48.0907144847
 21
80.7371184417
  0
LINE
  5
2CA
100
AcDbEntity
  8
0
100
AcDbLine
 62
7
  6
BYLAYER
 10
58.2023835543
 20
74.8992756521
 11
62.2329089876
 21
72.5723033513
  0
LINE
  5
2CB
100
AcDbEntity
  8
0
100
AcDbLine
 62
7
  6
BYLAYER
 10
43.1064944808
 20
83.6439892612
 11
44.0855597184
 21
83.0787384124
  0
LINE
  5
2CC
100
AcDbEntity
  8
0
100
AcDbLine
 62
7
  6
BYLAYER
 10
49.7070821023
 20
79.8332244537
 11
56.6367574087
 21
75.8324650594
  0
LINE
  5
2CD
100
AcDbEntity
  8
0
100
AcDbLine
 62
7
  6
BYLAYER
 10
62.2582796547
 20
72.5869510212
 11
63.6017882014
 21
71.8112936274
  0
LINE
  5
2CE
100
AcDbEntity
  8
0
100
AcDbLine
 62
7
  6
BYLAYER
 10
48.1160851517
 20
80.7517661116
 11
49.5656601572
 21
79.9148726046
  0
LINE
  5
2CF
100
AcDbEntity
  8
0
100
AcDbLine
 62
7
  6
BYLAYER
 10
56.7781793537
 20
75.7508169085
 11
58.2277542213
 21
74.913923322
  0
LINE
  5
2D0
100
AcDbEntity
  8
0
100
AcDbLine
 62
7
  6
BYLAYER
 10
43.1064944808
 20
83.7791396245
 11
38.8638361299
 21
86.2285841516
  0
LINE
  5
2D1
100
AcDbEntity
  8
0
100
AcDbLine
 62
7
  6
BYLAYER
 10
61.82167592
 20
68.4973449011
 11
61.7569181863
 21
68.7865584898
  0
LINE
  5
2D2
100
AcDbEntity
  8
0
100
AcDbLine
 62
7
  6
BYLAYER
 10
64.2128120802
 20
53.3845136922
 11
64.2127427574
 21
48.240221268
  0
LINE
  5
2D3
100
AcDbEntity
  8
0
100
AcDbLine
 62
7
  6
BYLAYER
 10
64.4743318839
 20
86.8471599476
 11
64.4743318839
 21
85.1290838878
  0
LINE
  5
2D4
100
AcDbEntity
  8
0
100
AcDbLine
 62
7
  6
BYLAYER
 10
64.6024623192
 20
87.6981695925
 11
64.6024623192
 21
87.5943089893
  0
LINE
  5
2D5
100
AcDbEntity
  8
0
100
AcDbLine
 62
7
  6
BYLAYER
 10
64.6370732212
 20
49.8411601868
 11
64.6370732212
 21
53.8199739113
  0
LINE
  5
2D6
100
AcDbEntity
  8
0
100
AcDbLine
 62
7
  6
BYLAYER
 10
52.8399063621
 20
45.4180970307
 11
57.0824576216
 21
47.8675205213
  0
LINE
  5
2D7
100
AcDbEntity
  8
0
100
AcDbLine
 62
7
  6
BYLAYER
 10
56.2955039238
 20
46.1279753757
 11
52.0528809005
 21
43.6785104525
  0
LINE
  5
2D8
100
AcDbEntity
  8
0
100
AcDbLine
 62
7
  6
BYLAYER
 10
56.8823932059
 20
45.8453973757
 11
55.196496906
 21
44.8720481799
  0
LINE
  5
2D9
100
AcDbEntity
  8
0
100
AcDbLine
 62
7
  6
BYLAYER
 10
47.2431328876
 20
40.2393477063
 11
51.4857559109
 21
42.6888126295
  0
LINE
  5
2DA
100
AcDbEntity
  8
0
100
AcDbLine
 62
7
  6
BYLAYER
 10
50.6987304492
 20
40.9492260513
 11
46.456107426
 21
38.4997611281
  0
LINE
  5
2DB
100
AcDbEntity
  8
0
100
AcDbLine
 62
7
  6
BYLAYER
 10
62.7339964012
 20
86.5738139775
 11
64.4743318839
 21
86.8471599476
  0
LINE
  5
2DC
100
AcDbEntity
  8
0
100
AcDbLine
 62
7
  6
BYLAYER
 10
43.0560900604
 20
84.3983307329
 11
44.3995985381
 21
83.6226732993
  0
LINE
  5
2DD
100
AcDbEntity
  8
0
100
AcDbLine
 62
7
  6
BYLAYER
 10
48.4301239715
 20
81.2957009985
 11
49.879698908
 21
80.4588074517
  0
LINE
  5
2DE
100
AcDbEntity
  8
0
100
AcDbLine
 62
7
  6
BYLAYER
 10
50.0211208531
 20
80.3771593008
 11
56.9507961595
 21
76.3763999065
  0
LINE
  5
2DF
100
AcDbEntity
  8
0
100
AcDbLine
 62
7
  6
BYLAYER
 10
57.0922181045
 20
76.2947517556
 11
58.5417930411
 21
75.4578582089
  0
LINE
  5
2E0
100
AcDbEntity
  8
0
100
AcDbLine
 62
7
  6
BYLAYER
 10
62.5723184744
 20
73.1308859081
 11
63.9158269522
 21
72.3552284745
  0
LINE
  5
2E1
100
AcDbEntity
  8
0
100
AcDbLine
 62
7
  6
BYLAYER
 10
65.9663836869
 20
79.7444220295
 11
65.9663836869
 21
77.2949147781
  0
LINE
  5
2E2
100
AcDbEntity
  8
0
100
AcDbLine
 62
7
  6
BYLAYER
 10
67.7498536638
 20
83.0584400806
 11
67.7498536638
 21
81.9171863853
  0
LINE
  5
2E3
100
AcDbEntity
  8
0
100
AcDbLine
 62
7
  6
BYLAYER
 10
68.1371792193
 20
82.8348226258
 11
68.1371792193
 21
82.1408075642
  0
LINE
  5
2E4
100
AcDbEntity
  8
0
100
AcDbLine
 62
7
  6
BYLAYER
 10
68.2786011643
 20
82.7531744749
 11
68.2786011643
 21
82.2224570748
  0
LINE
  5
2E5
100
AcDbEntity
  8
0
100
AcDbLine
 62
7
  6
BYLAYER
 10
64.2127427574
 20
48.240221268
 11
63.1105462738
 21
45.3996022652
  0
LINE
  5
2E6
100
AcDbEntity
  8
0
100
AcDbLine
 62
7
  6
BYLAYER
 10
75.7244613887
 20
53.008804226
 11
71.5682278135
 21
50.6092159762
  0
LINE
  5
2E7
100
AcDbEntity
  8
0
100
AcDbLine
 62
7
  6
BYLAYER
 10
63.1105462738
 20
45.3996022652
 11
60.38257108
 21
43.8246144541
  0
LINE
  5
2E8
100
AcDbEntity
  8
0
100
AcDbLine
 62
7
  6
BYLAYER
 10
64.7438842642
 20
87.6165214415
 11
61.744042786
 21
87.1453510339
  0
LINE
  5
2E9
100
AcDbEntity
  8
0
100
AcDbLine
 62
7
  6
BYLAYER
 10
61.602620841
 20
87.2269991848
 11
64.6024623192
 21
87.6981695925
  0
LINE
  5
2EA
100
AcDbEntity
  8
0
100
AcDbLine
 62
7
  6
BYLAYER
 10
62.3530027085
 20
88.0718822112
 11
60.6126672258
 21
87.7985362411
  0
LINE
  5
2EB
100
AcDbEntity
  8
0
100
AcDbLine
 62
7
  6
BYLAYER
 10
67.8755432871
 20
76.1926859048
 11
65.9663836869
 21
77.2949147781
  0
LINE
  5
2EC
100
AcDbEntity
  8
0
100
AcDbLine
 62
7
  6
BYLAYER
 10
53.7333487842
 20
84.3575009952
 11
51.824189184
 21
85.4597298685
  0
LINE
  5
2ED
100
AcDbEntity
  8
0
100
AcDbLine
 62
7
  6
BYLAYER
 10
55.2769054216
 20
84.0221061186
 11
55.6642309771
 21
83.7984886638
  0
LINE
  5
2EE
100
AcDbEntity
  8
0
100
AcDbLine
 62
7
  6
BYLAYER
 10
55.8056529222
 20
83.7168405129
 11
56.2652742435
 21
83.4514840224
  0
LINE
  5
2EF
100
AcDbEntity
  8
0
100
AcDbLine
 62
7
  6
BYLAYER
 10
62.3480026731
 20
79.9396985734
 11
62.7353282286
 21
79.7160811186
  0
LINE
  5
2F0
100
AcDbEntity
  8
0
100
AcDbLine
 62
7
  6
BYLAYER
 10
62.8767501736
 20
79.6344329677
 11
63.336371495
 21
79.3690764772
  0
LINE
  5
2F1
100
AcDbEntity
  8
0
100
AcDbLine
 62
7
  6
BYLAYER
 10
71.5454291354
 20
82.7647524024
 11
71.5454291354
 21
81.0466763426
  0
LINE
  5
2F2
100
AcDbEntity
  8
0
100
AcDbLine
 62
7
  6
BYLAYER
 10
71.6735595706
 20
83.6157620472
 11
71.6735595706
 21
83.5119014441
  0
LINE
  5
2F3
100
AcDbEntity
  8
0
100
AcDbLine
 62
7
  6
BYLAYER
 10
55.6628991498
 20
90.6562215227
 11
57.4032346324
 21
90.9295674928
  0
LINE
  5
2F4
100
AcDbEntity
  8
0
100
AcDbLine
 62
7
  6
BYLAYER
 10
57.7788534715
 20
91.6376928736
 11
54.7790119933
 21
91.1665224659
  0
LINE
  5
2F5
100
AcDbEntity
  8
0
100
AcDbLine
 62
7
  6
BYLAYER
 10
69.9969091202
 20
77.4174497288
 11
65.9663836869
 21
79.7444220295
  0
LINE
  5
2F6
100
AcDbEntity
  8
0
100
AcDbLine
 62
7
  6
BYLAYER
 10
55.8547146173
 20
85.5822648192
 11
51.824189184
 21
87.9092371199
  0
LINE
  5
2F7
100
AcDbEntity
  8
0
100
AcDbLine
 62
7
  6
BYLAYER
 10
51.8312563952
 20
88.4440347519
 11
56.7810244712
 21
85.5863494703
  0
LINE
  5
2F8
100
AcDbEntity
  8
0
100
AcDbLine
 62
7
  6
BYLAYER
 10
58.9023536466
 20
84.3616272067
 11
63.8521217227
 21
81.5039419251
  0
LINE
  5
2F9
100
AcDbEntity
  8
0
100
AcDbLine
 62
7
  6
BYLAYER
 10
65.9734508981
 20
80.2792196615
 11
70.9232189741
 21
77.4215343799
  0
LINE
  5
2FA
100
AcDbEntity
  8
0
100
AcDbLine
 62
7
  6
BYLAYER
 10
78.6385903633
 20
55.9160219179
 11
75.7244613887
 21
53.008804226
  0
LINE
  5
2FB
100
AcDbEntity
  8
0
100
AcDbLine
 62
7
  6
BYLAYER
 10
68.7382224857
 20
82.4878179844
 11
68.2786011643
 21
82.7531744749
  0
LINE
  5
2FC
100
AcDbEntity
  8
0
100
AcDbLine
 62
7
  6
BYLAYER
 10
68.1371792193
 20
82.8348226258
 11
67.7498536638
 21
83.0584400806
  0
LINE
  5
2FD
100
AcDbEntity
  8
0
100
AcDbLine
 62
7
  6
BYLAYER
 10
61.6671252342
 20
86.5702255296
 11
61.2075039129
 21
86.8355820201
  0
LINE
  5
2FE
100
AcDbEntity
  8
0
100
AcDbLine
 62
7
  6
BYLAYER
 10
61.0660819678
 20
86.917230171
 11
60.6787564123
 21
87.1408476258
  0
LINE
  5
2FF
100
AcDbEntity
  8
0
100
AcDbLine
 62
7
  6
BYLAYER
 10
74.3738313782
 20
79.4137344884
 11
71.5454291354
 21
81.0466763426
  0
LINE
  5
300
100
AcDbEntity
  8
0
100
AcDbLine
 62
7
  6
BYLAYER
 10
67.3027341268
 20
83.4961420336
 11
64.4743318839
 21
85.1290838878
  0
LINE
  5
301
100
AcDbEntity
  8
0
100
AcDbLine
 62
7
  6
BYLAYER
 10
60.2316368753
 20
87.5785495788
 11
57.4032346324
 21
89.211491433
  0
LINE
  5
302
100
AcDbEntity
  8
0
100
AcDbLine
 62
7
  6
BYLAYER
 10
54.7790119933
 20
91.1665224659
 11
55.6628991498
 21
90.6562215227
  0
LINE
  5
303
100
AcDbEntity
  8
0
100
AcDbLine
 62
7
  6
BYLAYER
 10
60.6126672258
 20
87.7985362411
 11
61.602620841
 21
87.2269991848
  0
LINE
  5
304
100
AcDbEntity
  8
0
100
AcDbLine
 62
7
  6
BYLAYER
 10
61.744042786
 20
87.1453510339
 11
62.7339964012
 21
86.5738139775
  0
LINE
  5
305
100
AcDbEntity
  8
0
100
AcDbLine
 62
7
  6
BYLAYER
 10
67.6837644773
 20
83.7161286959
 11
68.6737180925
 21
83.1445916396
  0
LINE
  5
306
100
AcDbEntity
  8
0
100
AcDbLine
 62
7
  6
BYLAYER
 10
68.8151400375
 20
83.0629434887
 11
69.8050936527
 21
82.4914064323
  0
LINE
  5
307
100
AcDbEntity
  8
0
100
AcDbLine
 62
7
  6
BYLAYER
 10
74.7548617287
 20
79.6337211507
 11
75.6387488852
 21
79.1234202075
  0
LINE
  5
308
100
AcDbEntity
  8
0
100
AcDbLine
 62
7
  6
BYLAYER
 10
76.4951972114
 20
79.9070671208
 11
71.5454291354
 21
82.7647524024
  0
LINE
  5
309
100
AcDbEntity
  8
0
100
AcDbLine
 62
7
  6
BYLAYER
 10
69.4240999599
 20
83.989474666
 11
64.4743318839
 21
86.8471599476
  0
LINE
  5
30A
100
AcDbEntity
  8
0
100
AcDbLine
 62
7
  6
BYLAYER
 10
62.3530027085
 20
88.0718822112
 11
57.4032346324
 21
90.9295674928
  0
LINE
  5
30B
100
AcDbEntity
  8
0
100
AcDbLine
 62
7
  6
BYLAYER
 10
57.7788534715
 20
91.6376928736
 11
64.6024623192
 21
87.6981695925
  0
LINE
  5
30C
100
AcDbEntity
  8
0
100
AcDbLine
 62
7
  6
BYLAYER
 10
64.7438842642
 20
87.6165214415
 11
71.6735595706
 21
83.6157620472
  0
LINE
  5
30D
100
AcDbEntity
  8
0
100
AcDbLine
 62
7
  6
BYLAYER
 10
71.8149815157
 20
83.5341138963
 11
78.6385903633
 21
79.5945906152
  0
LINE
  5
30E
100
AcDbEntity
  8
0
100
AcDbLine
 62
7
  6
BYLAYER
 10
78.6385903633
 20
79.5945906152
 11
78.6385903633
 21
55.9160219179
  0
ARC
  5
30F
100
AcDbEntity
  8
0
100
AcDbCircle
 62
7
  6
BYLAYER
 10
146.8348168477
 20
119.1721258539
 40
133.8189271218
100
AcDbArc
 50
205.0254489566
 51
214.9616788268
  0
ARC
  5
310
100
AcDbEntity
  8
0
100
AcDbCircle
 62
7
  6
BYLAYER
 10
136.2021672066
 20
113.0334660056
 40
133.7888318373
100
AcDbArc
 50
204.8846866389
 51
215.1155888105
  0
ARC
  5
311
100
AcDbEntity
  8
0
100
AcDbCircle
 62
7
  6
BYLAYER
 10
-98.7532337796
 20
-22.6172164976
 40
133.7559418348
100
AcDbArc
 50
24.7893163454
 51
35.1162205446
  0
ARC
  5
312
100
AcDbEntity
  8
0
100
AcDbCircle
 62
7
  6
BYLAYER
 10
33.9288891074
 20
43.0085482416
 40
4.7436523252
100
AcDbArc
 50
298.6449197363
 51
299.9996519363
  0
ARC
  5
313
100
AcDbEntity
  8
0
100
AcDbCircle
 62
7
  6
BYLAYER
 10
24.422489026
 20
59.4742103557
 40
4.7434450527
100
AcDbArc
 50
120.0000270617
 51
121.2917333578
  0
SPLINE
  5
314
100
AcDbEntity
  8
0
100
AcDbSpline
 62
7
  6
BYLAYER
 70
0
 71
3
 72
9
 73
5
 74
0
 42
0.0000001
 43
0.0000001
 44
0.0000000001
 40
0.0
 40
0.0
 40
0.0
 40
0.0
 40
0.4953262341
 40
1.0
 40
1.0
 40
1.0
 40
1.0
 10
25.8282901604
 20
32.8717940259
 30
0.0
 10
25.5937876917
 20
32.736404772
 30
0.0
 10
25.0958733514
 20
32.5035189875
 30
0.0
 10
24.5661734507
 20
32.357690458
 30
0.0
 10
24.2952663794
 20
32.3054936851
 30
0.0
  0
SPLINE
  5
315
100
AcDbEntity
  8
0
100
AcDbSpline
 62
7
  6
BYLAYER
 70
0
 71
3
 72
15
 73
11
 74
0
 42
0.0000001
 43
0.0000001
 44
0.0000000001
 40
0.0
 40
0.0
 40
0.0
 40
0.0
 40
0.1080133067
 40
0.2180605211
 40
0.3319963878
 40
0.451358171
 40
0.5772687815
 40
0.7104885664
 40
0.8514350119
 40
1.0
 40
1.0
 40
1.0
 40
1.0
 10
44.2202456629
 20
43.4727578877
 30
0.0
 10
44.4538748894
 20
43.6076631154
 30
0.0
 10
44.9030968854
 20
43.9210700442
 30
0.0
 10
45.4965924648
 20
44.5052277708
 30
0.0
 10
46.0071043083
 20
45.1984730228
 30
0.0
 10
46.4296889193
 20
45.9931435221
 30
0.0
 10
46.7613111421
 20
46.8810057006
 30
0.0
 10
46.9992737514
 20
47.8536438575
 30
0.0
 10
47.1416325962
 20
48.9015206885
 30
0.0
 10
47.1716039967
 20
49.6251194278
 30
0.0
 10
47.1716039967
 20
49.9961855541
 30
0.0
  0
SPLINE
  5
316
100
AcDbEntity
  8
0
100
AcDbSpline
 62
7
  6
BYLAYER
 70
0
 71
3
 72
13
 73
9
 74
0
 42
0.0000001
 43
0.0000001
 44
0.0000000001
 40
0.0
 40
0.0
 40
0.0
 40
0.0
 40
0.3000545673
 40
0.5828140284
 40
0.7067640772
 40
0.8161156407
 40
0.9122024092
 40
1.0
 40
1.0
 40
1.0
 40
1.0
 10
61.0871225546
 20
66.752999794
 30
0.0
 10
61.0762433639
 20
66.7240556494
 30
0.0
 10
61.0471201644
 20
66.6706719276
 30
0.0
 10
60.996190799
 20
66.6169085602
 30
0.0
 10
60.9504398683
 20
66.5891878595
 30
0.0
 10
60.9179047674
 20
66.5782457008
 30
0.0
 10
60.887156836
 20
66.5774326986
 30
0.0
 10
60.8687826199
 20
66.5841060127
 30
0.0
 10
60.8611355648
 20
66.5889416706
 30
0.0
  0
SPLINE
  5
317
100
AcDbEntity
  8
0
100
AcDbSpline
 62
7
  6
BYLAYER
 70
0
 71
3
 72
11
 73
7
 74
0
 42
0.0000001
 43
0.0000001
 44
0.0000000001
 40
0.0
 40
0.0
 40
0.0
 40
0.0
 40
0.217745073
 40
0.4508830113
 40
0.7104597664
 40
1.0
 40
1.0
 40
1.0
 40
1.0
 10
50.8649921089
 20
45.7360107068
 30
0.0
 10
50.8979722536
 20
45.7550517042
 30
0.0
 10
50.9597405181
 20
45.806861046
 30
0.0
 10
51.0254469288
 20
45.9143422637
 30
0.0
 10
51.0644000598
 20
46.04675306
 30
0.0
 10
51.0721320492
 20
46.1431095616
 30
0.0
 10
51.0721320492
 20
46.1937481918
 30
0.0
  0
SPLINE
  5
318
100
AcDbEntity
  8
0
100
AcDbSpline
 62
7
  6
BYLAYER
 70
0
 71
3
 72
9
 73
5
 74
0
 42
0.0000001
 43
0.0000001
 44
0.0000000001
 40
0.0
 40
0.0
 40
0.0
 40
0.0
 40
0.4963404151
 40
1.0
 40
1.0
 40
1.0
 40
1.0
 10
48.1786883612
 20
48.7026207676
 30
0.0
 10
48.0098607727
 20
48.6051697419
 30
0.0
 10
47.6544461477
 20
48.4341898342
 30
0.0
 10
47.2777519978
 20
48.3177215508
 30
0.0
 10
47.0851456711
 20
48.2726524533
 30
0.0
  0
SPLINE
  5
319
100
AcDbEntity
  8
0
100
AcDbSpline
 62
7
  6
BYLAYER
 70
0
 71
3
 72
13
 73
9
 74
0
 42
0.0000001
 43
0.0000001
 44
0.0000000001
 40
0.0
 40
0.0
 40
0.0
 40
0.0
 40
0.1080947724
 40
0.2182340858
 40
0.3322580584
 40
0.4516863355
 40
0.7106233083
 40
1.0
 40
1.0
 40
1.0
 40
1.0
 10
52.052866934
 20
43.6785346432
 30
0.0
 10
51.9905666153
 20
43.6425657499
 30
0.0
 10
51.8583020332
 20
43.5805851982
 30
0.0
 10
51.644252502
 20
43.5214690846
 30
0.0
 10
51.4161047404
 20
43.495982392
 30
0.0
 10
51.0876099452
 20
43.5073896599
 30
0.0
 10
50.6511560589
 20
43.61255859
 30
0.0
 10
50.319672083
 20
43.770412868
 30
0.0
 10
50.1528894066
 20
43.8667027128
 30
0.0
  0
SPLINE
  5
31A
100
AcDbEntity
  8
0
100
AcDbSpline
 62
7
  6
BYLAYER
 70
0
 71
3
 72
13
 73
9
 74
0
 42
0.0000001
 43
0.0000001
 44
0.0000000001
 40
0.0
 40
0.0
 40
0.0
 40
0.0
 40
0.1080942654
 40
0.2182331488
 40
0.3322568368
 40
0.4516850086
 40
0.7106223278
 40
1.0
 40
1.0
 40
1.0
 40
1.0
 10
56.2954899573
 20
46.1279995664
 30
0.0
 10
56.3577916522
 20
46.1639692543
 30
0.0
 10
56.4776036712
 20
46.2475249748
 30
0.0
 10
56.6358281296
 20
46.403342925
 30
0.0
 10
56.7719768351
 20
46.5881863406
 30
0.0
 10
56.9263477475
 20
46.8783834531
 30
0.0
 10
57.0534958485
 20
47.3089615254
 30
0.0
 10
57.0825293854
 20
47.6749731868
 30
0.0
 10
57.0825293854
 20
47.8675619539
 30
0.0
  0
SPLINE
  5
31B
100
AcDbEntity
  8
0
100
AcDbSpline
 62
7
  6
BYLAYER
 70
0
 71
3
 72
11
 73
7
 74
0
 42
0.0000001
 43
0.0000001
 44
0.0000000001
 40
0.0
 40
0.0
 40
0.0
 40
0.0
 40
0.225959617
 40
0.4628056359
 40
0.7192066281
 40
1.0
 40
1.0
 40
1.0
 40
1.0
 10
46.4561030998
 20
38.4997686046
 30
0.0
 10
46.3542120011
 20
38.4409321003
 30
0.0
 10
46.1272388018
 20
38.3497438035
 30
0.0
 10
45.7514323848
 20
38.3067528543
 30
0.0
 10
45.3482357353
 20
38.354630027
 30
0.0
 10
45.0803825476
 20
38.4408083079
 30
0.0
 10
44.9450262808
 20
38.4960919278
 30
0.0
  0
SPLINE
  5
31C
100
AcDbEntity
  8
0
100
AcDbSpline
 62
7
  6
BYLAYER
 70
0
 71
3
 72
12
 73
8
 74
0
 42
0.0000001
 43
0.0000001
 44
0.0000000001
 40
0.0
 40
0.0
 40
0.0
 40
0.0
 40
0.1081618539
 40
0.2183628767
 40
0.4513599606
 40
0.710422145
 40
1.0
 40
1.0
 40
1.0
 40
1.0
 10
50.6987261231
 20
40.9492335278
 30
0.0
 10
50.7610260082
 20
40.9852082843
 30
0.0
 10
50.8808060184
 20
41.0688174611
 30
0.0
 10
51.0957014663
 20
41.2801594074
 30
0.0
 10
51.3084994883
 20
41.6271196473
 30
0.0
 10
51.456566351
 20
42.1299908077
 30
0.0
 10
51.4857559109
 20
42.4962084745
 30
0.0
 10
51.4857559109
 20
42.6888126295
 30
0.0
  0
SPLINE
  5
31D
100
AcDbEntity
  8
0
100
AcDbSpline
 62
7
  6
BYLAYER
 70
0
 71
3
 72
9
 73
5
 74
0
 42
0.0000001
 43
0.0000001
 44
0.0000000001
 40
0.0
 40
0.0
 40
0.0
 40
0.0
 40
0.5045308285
 40
1.0
 40
1.0
 40
1.0
 40
1.0
 10
10.3535127788
 20
56.5032537742
 30
0.0
 10
10.5322174976
 20
56.707417908
 30
0.0
 10
10.9184650459
 20
57.0853604577
 30
0.0
 10
11.3621350687
 20
57.3943325767
 30
0.0
 10
11.5928912314
 20
57.5275589136
 30
0.0
  0
SPLINE
  5
31E
100
AcDbEntity
  8
0
100
AcDbSpline
 62
7
  6
BYLAYER
 70
0
 71
3
 72
14
 73
10
 74
0
 42
0.0000001
 43
0.0000001
 44
0.0000000001
 40
0.0
 40
0.0
 40
0.0
 40
0.0
 40
0.2926431583
 40
0.4345636318
 40
0.5691367351
 40
0.6937769712
 40
0.8068990188
 40
0.9084221675
 40
1.0
 40
1.0
 40
1.0
 40
1.0
 10
10.6573743791
 20
54.3241299843
 30
0.0
 10
10.5265801083
 20
54.5106045928
 30
0.0
 10
10.3619376165
 20
54.8102811541
 30
0.0
 10
10.2166966018
 20
55.2295128111
 30
0.0
 10
10.1510974626
 20
55.5357155111
 30
0.0
 10
10.1303081057
 20
55.8258420114
 30
0.0
 10
10.155262476
 20
56.0902576626
 30
0.0
 10
10.2259519989
 20
56.3198826598
 30
0.0
 10
10.3066397414
 20
56.4495566499
 30
0.0
 10
10.3535127788
 20
56.5032537742
 30
0.0
  0
SPLINE
  5
31F
100
AcDbEntity
  8
0
100
AcDbSpline
 62
7
  6
BYLAYER
 70
0
 71
3
 72
11
 73
7
 74
0
 42
0.0000001
 43
0.0000001
 44
0.0000000001
 40
0.0
 40
0.0
 40
0.0
 40
0.0
 40
0.2281525922
 40
0.4746576882
 40
0.7341534865
 40
1.0
 40
1.0
 40
1.0
 40
1.0
 10
23.6073702759
 20
32.4747132428
 30
0.0
 10
23.5170095246
 20
32.5268818667
 30
0.0
 10
23.338608316
 20
32.6524151894
 30
0.0
 10
23.0934923957
 20
32.8831815339
 30
0.0
 10
22.8684567881
 20
33.1562217743
 30
0.0
 10
22.7378330052
 20
33.358596079
 30
0.0
 10
22.6778571954
 20
33.4643501775
 30
0.0
  0
SPLINE
  5
320
100
AcDbEntity
  8
0
100
AcDbSpline
 62
7
  6
BYLAYER
 70
0
 71
3
 72
10
 73
6
 74
0
 42
0.0000001
 43
0.0000001
 44
0.0000000001
 40
0.0
 40
0.0
 40
0.0
 40
0.0
 40
0.4599140201
 40
0.7195214468
 40
1.0
 40
1.0
 40
1.0
 40
1.0
 10
24.2952663794
 20
32.3054936851
 30
0.0
 10
24.1861650207
 20
32.2896950638
 30
0.0
 10
24.0088795093
 20
32.3056167491
 30
0.0
 10
23.7817870967
 20
32.3827913653
 30
0.0
 10
23.6655930022
 20
32.4410990965
 30
0.0
 10
23.6073702759
 20
32.4747132428
 30
0.0
  0
SPLINE
  5
321
100
AcDbEntity
  8
0
100
AcDbSpline
 62
7
  6
BYLAYER
 70
0
 71
3
 72
10
 73
6
 74
0
 42
0.0000001
 43
0.0000001
 44
0.0000000001
 40
0.0
 40
0.0
 40
0.0
 40
0.0
 40
0.2740975292
 40
0.532040914
 40
1.0
 40
1.0
 40
1.0
 40
1.0
 10
29.1757274365
 20
61.3940805996
 30
0.0
 10
28.8587022705
 20
61.5771110238
 30
0.0
 10
28.2257756788
 20
61.9040132814
 30
0.0
 10
26.9796492375
 20
62.3864931566
 30
0.0
 10
26.0117296428
 20
62.5743164107
 30
0.0
 10
25.3869638856
 20
62.590530055
 30
0.0
  0
SPLINE
  5
322
100
AcDbEntity
  8
0
100
AcDbSpline
 62
7
  6
BYLAYER
 70
0
 71
3
 72
23
 73
19
 74
0
 42
0.0000001
 43
0.0000001
 44
0.0000000001
 40
0.0
 40
0.0
 40
0.0
 40
0.0
 40
0.046387114
 40
0.0962400717
 40
0.1497863793
 40
0.2070373766
 40
0.2677712024
 40
0.3316023554
 40
0.3980166054
 40
0.4664025365
 40
0.5360800015
 40
0.606325802
 40
0.6763987055
 40
0.7455639565
 40
0.813115373
 40
0.8783948921
 40
0.9408544089
 40
1.0
 40
1.0
 40
1.0
 40
1.0
 10
37.1101021546
 20
42.2855716664
 30
0.0
 10
37.2745766835
 20
42.5883408934
 30
0.0
 10
37.5581026418
 20
43.2489138303
 30
0.0
 10
37.8346412871
 20
44.3302525769
 30
0.0
 10
37.9738234131
 20
45.5185811816
 30
0.0
 10
37.9743496106
 20
46.7951843564
 30
0.0
 10
37.8365390755
 20
48.1407721335
 30
0.0
 10
37.562791629
 20
49.534532089
 30
0.0
 10
37.1574676739
 20
50.9548596469
 30
0.0
 10
36.6269037446
 20
52.379598882
 30
0.0
 10
35.9793926876
 20
53.7864432724
 30
0.0
 10
35.2251159925
 20
55.1533422143
 30
0.0
 10
34.3759246015
 20
56.458861672
 30
0.0
 10
33.4451166025
 20
57.6825246238
 30
0.0
 10
32.4472671778
 20
58.8050650508
 30
0.0
 10
31.3979300096
 20
59.8091471912
 30
0.0
 10
30.313561124
 20
60.6787037203
 30
0.0
 10
29.5561988409
 20
61.1744203013
 30
0.0
 10
29.1757274365
 20
61.3940805996
 30
0.0
  0
SPLINE
  5
323
100
AcDbEntity
  8
0
100
AcDbSpline
 62
7
  6
BYLAYER
 70
0
 71
3
 72
25
 73
21
 74
0
 42
0.0000001
 43
0.0000001
 44
0.0000000001
 40
0.0
 40
0.0
 40
0.0
 40
0.0
 40
0.0623810001
 40
0.1287237513
 40
0.1983146067
 40
0.2702911569
 40
0.3436679663
 40
0.4174006439
 40
0.4904256104
 40
0.5617125934
 40
0.6303100012
 40
0.6953974309
 40
0.7563446951
 40
0.8127816656
 40
0.8646820317
 40
0.9124568804
 40
0.9351018657
 40
0.9571070864
 40
0.9786677657
 40
1.0
 40
1.0
 40
1.0
 40
1.0
 10
47.1716039967
 20
49.9961855541
 30
0.0
 10
47.1716039967
 20
50.587342074
 30
0.0
 10
47.0914946923
 20
51.8080109669
 30
0.0
 10
46.7619675906
 20
53.6614163324
 30
0.0
 10
46.2261130173
 20
55.5605624609
 30
0.0
 10
45.495556692
 20
57.4648135703
 30
0.0
 10
44.5857190876
 20
59.3338329943
 30
0.0
 10
43.5160784941
 20
61.127747333
 30
0.0
 10
42.3094136183
 20
62.8082804108
 30
0.0
 10
40.9914514757
 20
64.3396099485
 30
0.0
 10
39.5901519161
 20
65.6891792805
 30
0.0
 10
38.1349932285
 20
66.8283759934
 30
0.0
 10
36.6562416901
 20
67.7330763634
 30
0.0
 10
35.1837695502
 20
68.3837637769
 30
0.0
 10
33.7474288096
 20
68.7655354005
 30
0.0
 10
32.5824747585
 20
68.8510169298
 30
0.0
 10
31.7087347461
 20
68.7690837784
 30
0.0
 10
31.0935779934
 20
68.6378326328
 30
0.0
 10
30.5108759905
 20
68.4364383885
 30
0.0
 10
30.1454010664
 20
68.2555635557
 30
0.0
 10
29.9703351638
 20
68.1544747244
 30
0.0
  0
SPLINE
  5
324
100
AcDbEntity
  8
0
100
AcDbSpline
 62
7
  6
BYLAYER
 70
0
 71
3
 72
9
 73
5
 74
0
 42
0.0000001
 43
0.0000001
 44
0.0000000001
 40
0.0
 40
0.0
 40
0.0
 40
0.0
 40
0.4954699771
 40
1.0
 40
1.0
 40
1.0
 40
1.0
 10
11.5928912314
 20
57.5275589136
 30
0.0
 10
11.8236267811
 20
57.6607733497
 30
0.0
 10
12.3129939566
 20
57.8904968801
 30
0.0
 10
12.8333753628
 20
58.036021274
 30
0.0
 10
13.09951322
 20
58.0887031957
 30
0.0
  0
SPLINE
  5
325
100
AcDbEntity
  8
0
100
AcDbSpline
 62
7
  6
BYLAYER
 70
0
 71
3
 72
9
 73
5
 74
0
 42
0.0000001
 43
0.0000001
 44
0.0000000001
 40
0.0
 40
0.0
 40
0.0
 40
0.0
 40
0.5045300229
 40
1.0
 40
1.0
 40
1.0
 40
1.0
 10
23.5646500108
 20
64.130716673
 30
0.0
 10
23.2985121536
 20
64.0780347513
 30
0.0
 10
22.7781307474
 20
63.9325103574
 30
0.0
 10
22.2887635719
 20
63.702786827
 30
0.0
 10
22.0580280221
 20
63.5695723909
 30
0.0
  0
SPLINE
  5
326
100
AcDbEntity
  8
0
100
AcDbSpline
 62
7
  6
BYLAYER
 70
0
 71
3
 72
11
 73
7
 74
0
 42
0.0000001
 43
0.0000001
 44
0.0000000001
 40
0.0
 40
0.0
 40
0.0
 40
0.0
 40
0.2814821954
 40
0.540809977
 40
0.7791032401
 40
1.0
 40
1.0
 40
1.0
 40
1.0
 10
24.2736321159
 20
63.9703583604
 30
0.0
 10
24.2133862585
 20
64.0051405355
 30
0.0
 10
24.0933450896
 20
64.0649918838
 30
0.0
 10
23.9094481882
 20
64.1247984393
 30
0.0
 10
23.7325528292
 20
64.1493717563
 30
0.0
 10
23.6182175928
 20
64.1412451507
 30
0.0
 10
23.5646500108
 20
64.130716673
 30
0.0
  0
SPLINE
  5
327
100
AcDbEntity
  8
0
100
AcDbSpline
 62
7
  6
BYLAYER
 70
0
 71
3
 72
11
 73
7
 74
0
 42
0.0000001
 43
0.0000001
 44
0.0000000001
 40
0.0
 40
0.0
 40
0.0
 40
0.0
 40
0.2638720774
 40
0.5243641888
 40
0.7722972559
 40
1.0
 40
1.0
 40
1.0
 40
1.0
 10
25.2998940256
 20
62.7780255337
 30
0.0
 10
25.2407148571
 20
62.9052006221
 30
0.0
 10
25.1056396164
 20
63.1501602224
 30
0.0
 10
24.8604225008
 20
63.4809891524
 30
0.0
 10
24.5843187213
 20
63.7601779048
 30
0.0
 10
24.3784590199
 20
63.9098378883
 30
0.0
 10
24.2736321159
 20
63.9703583604
 30
0.0
  0
LINE
  5
328
100
AcDbEntity
  8
0
100
AcDbLine
 62
7
  6
BYLAYER
 10
25.3869638856
 20
62.590530055
 11
25.2998940256
 21
62.7780255337
  0
SPLINE
  5
329
100
AcDbEntity
  8
0
100
AcDbSpline
 62
7
  6
BYLAYER
 70
0
 71
3
 72
9
 73
5
 74
0
 42
0.0000001
 43
0.0000001
 44
0.0000000001
 40
0.0
 40
0.0
 40
0.0
 40
0.0
 40
0.4953241805
 40
1.0
 40
1.0
 40
1.0
 40
1.0
 10
36.2934269511
 20
38.9138075032
 30
0.0
 10
36.5279812374
 20
39.0492266739
 30
0.0
 10
36.9787215581
 20
39.3640681681
 30
0.0
 10
37.3699320898
 20
39.7499948414
 30
0.0
 10
37.550617269
 20
39.9585683374
 30
0.0
  0
LINE
  5
32A
100
AcDbEntity
  8
0
100
AcDbLine
 62
7
  6
BYLAYER
 10
37.2289437025
 20
42.1164201047
 11
37.1101021546
 21
42.2855716664
  0
SPLINE
  5
32B
100
AcDbEntity
  8
0
100
AcDbSpline
 62
7
  6
BYLAYER
 70
0
 71
3
 72
12
 73
8
 74
0
 42
0.0000001
 43
0.0000001
 44
0.0000000001
 40
0.0
 40
0.0
 40
0.0
 40
0.0
 40
0.289577855
 40
0.5486400394
 40
0.7816371233
 40
0.8918381461
 40
1.0
 40
1.0
 40
1.0
 40
1.0
 10
47.2431328876
 20
40.2393477062
 30
0.0
 10
47.2431328876
 20
40.0467435512
 30
0.0
 10
47.2139433277
 20
39.6805258845
 30
0.0
 10
47.065876465
 20
39.1776547241
 30
0.0
 10
46.853078443
 20
38.8306944842
 30
0.0
 10
46.6381829952
 20
38.6193525379
 30
0.0
 10
46.5184029849
 20
38.535743361
 30
0.0
 10
46.4561030998
 20
38.4997686046
 30
0.0
  0
SPLINE
  5
32C
100
AcDbEntity
  8
0
100
AcDbSpline
 62
7
  6
BYLAYER
 70
0
 71
3
 72
14
 73
10
 74
0
 42
0.0000001
 43
0.0000001
 44
0.0000000001
 40
0.0
 40
0.0
 40
0.0
 40
0.0
 40
0.0921833878
 40
0.1944152314
 40
0.3080587996
 40
0.4328903868
 40
0.5672990116
 40
0.7087532028
 40
1.0
 40
1.0
 40
1.0
 40
1.0
 10
37.550617269
 20
39.9585683374
 30
0.0
 10
37.5950223325
 20
40.0138451167
 30
0.0
 10
37.6706246582
 20
40.1454449048
 30
0.0
 10
37.7353164225
 20
40.3752051573
 30
0.0
 10
37.7557681313
 20
40.6378714643
 30
0.0
 10
37.7320157129
 20
40.924696739
 30
0.0
 10
37.6650235836
 20
41.2264307324
 30
0.0
 10
37.5200314031
 20
41.6385297244
 30
0.0
 10
37.3575808665
 20
41.933020974
 30
0.0
 10
37.2289437025
 20
42.1164201047
 30
0.0
  0
SPLINE
  5
32D
100
AcDbEntity
  8
0
100
AcDbSpline
 62
7
  6
BYLAYER
 70
0
 71
3
 72
13
 73
9
 74
0
 42
0.0000001
 43
0.0000001
 44
0.0000000001
 40
0.0
 40
0.0
 40
0.0
 40
0.0
 40
0.2893776722
 40
0.5483149914
 40
0.6677431632
 40
0.7817668512
 40
0.8919057346
 40
1.0
 40
1.0
 40
1.0
 40
1.0
 10
52.8399063621
 20
45.4180970307
 30
0.0
 10
52.8399063621
 20
45.2255082636
 30
0.0
 10
52.8108728252
 20
44.8594966021
 30
0.0
 10
52.6837247242
 20
44.4289185299
 30
0.0
 10
52.5293538118
 20
44.1387214173
 30
0.0
 10
52.3932051064
 20
43.9538780018
 30
0.0
 10
52.234980648
 20
43.7980600516
 30
0.0
 10
52.1151686289
 20
43.714504331
 30
0.0
 10
52.052866934
 20
43.6785346432
 30
0.0
  0
SPLINE
  5
32E
100
AcDbEntity
  8
0
100
AcDbSpline
 62
7
  6
BYLAYER
 70
0
 71
3
 72
11
 73
7
 74
0
 42
0.0000001
 43
0.0000001
 44
0.0000000001
 40
0.0
 40
0.0
 40
0.0
 40
0.0
 40
0.2895391946
 40
0.5491157945
 40
0.7822541179
 40
1.0
 40
1.0
 40
1.0
 40
1.0
 10
50.3650223241
 20
45.7854865292
 30
0.0
 10
50.4088755819
 20
45.7601684118
 30
0.0
 10
50.4961866401
 20
45.7186883529
 30
0.0
 10
50.6303308256
 20
45.6862192856
 30
0.0
 10
50.7562622368
 20
45.6893827404
 30
0.0
 10
50.8320127239
 20
45.7169701479
 30
0.0
 10
50.8649921089
 20
45.7360107068
 30
0.0
  0
SPLINE
  5
32F
100
AcDbEntity
  8
0
100
AcDbSpline
 62
7
  6
BYLAYER
 70
0
 71
3
 72
15
 73
11
 74
0
 42
0.0000001
 43
0.0000001
 44
0.0000000001
 40
0.0
 40
0.0
 40
0.0
 40
0.0
 40
0.1485730552
 40
0.2895101007
 40
0.4227264568
 40
0.5486400073
 40
0.6680016525
 40
0.7819390827
 40
0.8919871287
 40
1.0
 40
1.0
 40
1.0
 40
1.0
 10
39.2520410199
 20
45.4238510307
 30
0.0
 10
39.2520410199
 20
45.0527647634
 30
0.0
 10
39.222087883
 20
44.3291679485
 30
0.0
 10
39.0796999866
 20
43.2813066949
 30
0.0
 10
38.8417526644
 20
42.3086920823
 30
0.0
 10
38.5101405707
 20
41.4208256196
 30
0.0
 10
38.0875376998
 20
40.6261555858
 30
0.0
 10
37.5770497069
 20
39.9328804837
 30
0.0
 10
36.983506244
 20
39.3487713746
 30
0.0
 10
36.5343273171
 20
39.0352999847
 30
0.0
 10
36.3006903137
 20
38.9004104128
 30
0.0
  0
SPLINE
  5
330
100
AcDbEntity
  8
0
100
AcDbSpline
 62
7
  6
BYLAYER
 70
0
 71
3
 72
17
 73
13
 74
0
 42
0.0000001
 43
0.0000001
 44
0.0000000001
 40
0.0
 40
0.0
 40
0.0
 40
0.0
 40
0.0558476595
 40
0.1142245899
 40
0.2373702424
 40
0.3669982601
 40
0.4999989192
 40
0.6329997288
 40
0.762628186
 40
0.8857745308
 40
0.9441518828
 40
1.0
 40
1.0
 40
1.0
 40
1.0
 10
29.1757274365
 20
62.8764412268
 30
0.0
 10
29.5132568121
 20
62.6815729595
 30
0.0
 10
30.1865443087
 20
62.2528410919
 30
0.0
 10
31.5121546762
 20
61.2573331291
 30
0.0
 10
33.1030112662
 20
59.7688735831
 30
0.0
 10
34.8302977429
 20
57.6960082488
 30
0.0
 10
36.3459065745
 20
55.3811031769
 30
0.0
 10
37.5928818447
 20
52.9110980872
 30
0.0
 10
38.5244090156
 20
50.3787879937
 30
0.0
 10
39.0180403985
 20
48.2568287043
 30
0.0
 10
39.2173846145
 20
46.6110531738
 30
0.0
 10
39.2520410199
 20
45.8135973727
 30
0.0
 10
39.2520410199
 20
45.4238510307
 30
0.0
  0
SPLINE
  5
331
100
AcDbEntity
  8
0
100
AcDbSpline
 62
7
  6
BYLAYER
 70
0
 71
3
 72
15
 73
11
 74
0
 42
0.0000001
 43
0.0000001
 44
0.0000000001
 40
0.0
 40
0.0
 40
0.0
 40
0.0
 40
0.1080133794
 40
0.2180618555
 40
0.3319995742
 40
0.4513613272
 40
0.5772747894
 40
0.7104908742
 40
0.8514274915
 40
1.0
 40
1.0
 40
1.0
 40
1.0
 10
22.0507645594
 20
63.5821531526
 30
0.0
 10
22.284396402
 20
63.7170397449
 30
0.0
 10
22.7804495129
 20
63.9492975445
 30
0.0
 10
23.5830558244
 20
64.1712617986
 30
0.0
 10
24.4386723617
 20
64.2667203846
 30
0.0
 10
25.3381550035
 20
64.2353760924
 30
0.0
 10
26.2728513872
 20
64.0786384912
 30
0.0
 10
27.234108681
 20
63.7984157402
 30
0.0
 10
28.2127516164
 20
63.397817482
 30
0.0
 10
28.8543652776
 20
63.0619755584
 30
0.0
 10
29.1757274365
 20
62.8764412268
 30
0.0
  0
SPLINE
  5
332
100
AcDbEntity
  8
0
100
AcDbSpline
 62
7
  6
BYLAYER
 70
0
 71
3
 72
15
 73
11
 74
0
 42
0.0000001
 43
0.0000001
 44
0.0000000001
 40
0.0
 40
0.0
 40
0.0
 40
0.0
 40
0.1080117536
 40
0.2180589289
 40
0.3319967354
 40
0.4513574156
 40
0.5772652314
 40
0.7104896519
 40
0.8514454632
 40
1.0
 40
1.0
 40
1.0
 40
1.0
 10
47.7661787805
 20
49.417112516
 30
0.0
 10
47.9444789416
 20
49.5200530793
 30
0.0
 10
48.2873127204
 20
49.7592195289
 30
0.0
 10
48.7402389094
 20
50.2050316738
 30
0.0
 10
49.1298192451
 20
50.7341014955
 30
0.0
 10
49.4523498113
 20
51.3405386047
 30
0.0
 10
49.7054133352
 20
52.0181259261
 30
0.0
 10
49.8870359653
 20
52.7604188794
 30
0.0
 10
49.9956500616
 20
53.5601248257
 30
0.0
 10
50.0185397364
 20
54.1123409666
 30
0.0
 10
50.0185397364
 20
54.3955028971
 30
0.0
  0
SPLINE
  5
333
100
AcDbEntity
  8
0
100
AcDbSpline
 62
7
  6
BYLAYER
 70
0
 71
3
 72
25
 73
21
 74
0
 42
0.0000001
 43
0.0000001
 44
0.0000000001
 40
0.0
 40
0.0
 40
0.0
 40
0.0
 40
0.0623791889
 40
0.1287249866
 40
0.1983144903
 40
0.2702915514
 40
0.3436676618
 40
0.4174002731
 40
0.4904254651
 40
0.5617123118
 40
0.6303094134
 40
0.6953966504
 40
0.7563440313
 40
0.812781363
 40
0.8646820387
 40
0.9124569284
 40
0.9351015622
 40
0.9571070082
 40
0.978667715
 40
1.0
 40
1.0
 40
1.0
 40
1.0
 10
50.0185397364
 20
54.3955028971
 30
0.0
 10
50.0185397364
 20
54.8466354891
 30
0.0
 10
49.9573900506
 20
55.7782059407
 30
0.0
 10
49.7059298926
 20
57.1926497142
 30
0.0
 10
49.2969625356
 20
58.6420074765
 30
0.0
 10
48.7394514922
 20
60.0952459261
 30
0.0
 10
48.045105337
 20
61.5216026958
 30
0.0
 10
47.2288084874
 20
62.8906423364
 30
0.0
 10
46.3079288381
 20
64.173152117
 30
0.0
 10
45.3021061473
 20
65.3417878696
 30
0.0
 10
44.232691191
 20
66.3717126604
 30
0.0
 10
43.1221792681
 20
67.2410993293
 30
0.0
 10
41.9936632153
 20
67.9315386299
 30
0.0
 10
40.8699361241
 20
68.4281353819
 30
0.0
 10
39.7737791687
 20
68.7194925675
 30
0.0
 10
38.8847323088
 20
68.7847412963
 30
0.0
 10
38.217935626
 20
68.7221686137
 30
0.0
 10
37.7484743474
 20
68.6220176809
 30
0.0
 10
37.3037666326
 20
68.4683451487
 30
0.0
 10
37.0248725294
 20
68.3302676998
 30
0.0
 10
36.8912641703
 20
68.2531296891
 30
0.0
  0
SPLINE
  5
334
100
AcDbEntity
  8
0
100
AcDbSpline
 62
7
  6
BYLAYER
 70
0
 71
3
 72
14
 73
10
 74
0
 42
0.0000001
 43
0.0000001
 44
0.0000000001
 40
0.0
 40
0.0
 40
0.0
 40
0.0
 40
0.2912466988
 40
0.4327008754
 40
0.5671095018
 40
0.6919411041
 40
0.8055846955
 40
0.9078165861
 40
1.0
 40
1.0
 40
1.0
 40
1.0
 10
26.7638069117
 20
36.0744066274
 30
0.0
 10
26.892444032
 20
35.8910075589
 30
0.0
 10
27.0548945381
 20
35.5965163957
 30
0.0
 10
27.1998867198
 20
35.184417496
 30
0.0
 10
27.2668788842
 20
34.8826835093
 30
0.0
 10
27.2906313411
 20
34.5958582085
 30
0.0
 10
27.2701796673
 20
34.3331918305
 30
0.0
 10
27.2054878798
 20
34.1034315093
 30
0.0
 10
27.1298855543
 20
33.971831655
 30
0.0
 10
27.0854804782
 20
33.9165548601
 30
0.0
  0
SPLINE
  5
335
100
AcDbEntity
  8
0
100
AcDbSpline
 62
7
  6
BYLAYER
 70
0
 71
3
 72
11
 73
7
 74
0
 42
0.0000001
 43
0.0000001
 44
0.0000000001
 40
0.0
 40
0.0
 40
0.0
 40
0.0
 40
0.2277027441
 40
0.4756358112
 40
0.7361279226
 40
1.0
 40
1.0
 40
1.0
 40
1.0
 10
13.8084953251
 20
57.9283448831
 30
0.0
 10
13.9133222292
 20
57.867824411
 30
0.0
 10
14.1191819305
 20
57.7181644275
 30
0.0
 10
14.3952857101
 20
57.4389756751
 30
0.0
 10
14.6405028256
 20
57.1081467451
 30
0.0
 10
14.7755780664
 20
56.8631871449
 30
0.0
 10
14.8347572349
 20
56.7360120565
 30
0.0
  0
SPLINE
  5
336
100
AcDbEntity
  8
0
100
AcDbSpline
 62
7
  6
BYLAYER
 70
0
 71
3
 72
11
 73
7
 74
0
 42
0.0000001
 43
0.0000001
 44
0.0000000001
 40
0.0
 40
0.0
 40
0.0
 40
0.0
 40
0.2208967599
 40
0.459190023
 40
0.7185178046
 40
1.0
 40
1.0
 40
1.0
 40
1.0
 10
13.09951322
 20
58.0887031957
 30
0.0
 10
13.153080802
 20
58.0992316734
 30
0.0
 10
13.2674160384
 20
58.107358279
 30
0.0
 10
13.4443113975
 20
58.0827849621
 30
0.0
 10
13.6282082988
 20
58.0229784065
 30
0.0
 10
13.7482494677
 20
57.9631270582
 30
0.0
 10
13.8084953251
 20
57.9283448831
 30
0.0
  0
SPLINE
  5
337
100
AcDbEntity
  8
0
100
AcDbSpline
 62
7
  6
BYLAYER
 70
0
 71
3
 72
11
 73
7
 74
0
 42
0.0000001
 43
0.0000001
 44
0.0000000001
 40
0.0
 40
0.0
 40
0.0
 40
0.0
 40
0.2216424157
 40
0.4604124832
 40
0.7196745317
 40
1.0
 40
1.0
 40
1.0
 40
1.0
 10
46.7148153053
 20
47.4041109639
 30
0.0
 10
46.8253576345
 20
47.4219093171
 30
0.0
 10
47.0598143877
 20
47.432100457
 30
0.0
 10
47.4208747677
 20
47.3756808699
 30
0.0
 10
47.7952312088
 20
47.2504794111
 30
0.0
 10
48.0397364229
 20
47.1279605994
 30
0.0
 10
48.1623755303
 20
47.0571564796
 30
0.0
  0
SPLINE
  5
338
100
AcDbEntity
  8
0
100
AcDbSpline
 62
7
  6
BYLAYER
 70
0
 71
3
 72
9
 73
5
 74
0
 42
0.0000001
 43
0.0000001
 44
0.0000000001
 40
0.0
 40
0.0
 40
0.0
 40
0.0
 40
0.5046758195
 40
1.0
 40
1.0
 40
1.0
 40
1.0
 10
27.0854804782
 20
33.9165548601
 30
0.0
 10
26.904795299
 20
33.7079813641
 30
0.0
 10
26.5135847673
 20
33.3220546908
 30
0.0
 10
26.0628444466
 20
33.0072131966
 30
0.0
 10
25.8282901604
 20
32.8717940259
 30
0.0
  0
ELLIPSE
  5
339
100
AcDbEntity
  8
0
100
AcDbEllipse
 62
7
  6
BYLAYER
 10
45.9349510452
 20
47.614996282
 30
0.0
 11
-0.9845739072
 21
1.7587704709
 31
0.0
 40
0.5772213802
 41
-1.8063651177
 42
-1.6466290982
  0
ENDSEC
  0
SECTION
  2
OBJECTS
  0
DICTIONARY
  5
C
100
AcDbDictionary
280
0
281
1
  3
ACAD_GROUP
350
D
  3
ACAD_MLINESTYLE
350
17
  3
ACAD_LAYOUT
350
1A
  3
ACAD_PLOTSETTINGS
350
19
  3
ACAD_PLOTSTYLENAME
350
E
  0
DICTIONARY
  5
D
102
{ACAD_REACTORS
330
C
102
}
100
AcDbDictionary
280
0
281
1
  0
ACDBDICTIONARYWDFLT
  5
E
102
{ACAD_REACTORS
330
C
102
}
100
AcDbDictionary
281
1
  3
Normal
350
F
100
AcDbDictionaryWithDefault
340
F
  0
DICTIONARY
  5
17
102
{ACAD_REACTORS
330
C
102
}
100
AcDbDictionary
280
0
281
1
  3
Standard
350
18
  0
DICTIONARY
  5
19
102
{ACAD_REACTORS
330
C
102
}
100
AcDbDictionary
281
1
  0
DICTIONARY
  5
1A
102
{ACAD_REACTORS
330
C
102
}
100
AcDbDictionary
281
1
  3
Model
350
33A
  3
Layout1
350
33B
  0
ACDBPLACEHOLDER
  5
F
102
{ACAD_REACTORS
330
E
102
}
  0
MLINESTYLE
  5
18
102
{ACAD_REACTORS
330
17
102
}
100
AcDbMlineStyle
  2
STANDARD
 70
0
  3

 62
256
 51
90.0
 52
90.0
 71
2
 49
0.5
 62
256
  6
BYLAYER
 49
-0.5
 62
256
  6
BYLAYER
  0
LAYOUT
  5
33A
102
{ACAD_REACTORS
330
1A
102
}
100
AcDbPlotSettings
  1

  2
none_device
  4

  6

 40
0.0
 41
0.0
 42
0.0
 43
0.0
 44
210.0
 45
297.0
 46
0.0
 47
0.0
 48
0.0
 49
0.0
140
0.0
141
0.0
142
1.0
143
1.0
 70
1024
 72
1
 73
0
 74
0
  7

 75
0
147
1.0
148
0.0
149
0.0
100
AcDbLayout
  1
Model
 70
0
 71
0
 10
0.0
 20
0.0
 11
210.0
 21
297.0
 12
0.0
 22
0.0
 32
0.0
 14
0.0
 24
0.0
 34
0.0
 15
0.0
 25
0.0
 35
0.0
146
0.0
 13
0.0
 23
0.0
 33
0.0
 16
1.0
 26
0.0
 36
0.0
 17
0.0
 27
1.0
 37
0.0
 76
0
330
210
345
0
346
0
  0
LAYOUT
  5
33B
102
{ACAD_REACTORS
330
1A
102
}
100
AcDbPlotSettings
  1

  2
none_device
  4

  6

 40
0.0
 41
0.0
 42
0.0
 43
0.0
 44
210.0
 45
297.0
 46
0.0
 47
0.0
 48
0.0
 49
0.0
140
0.0
141
0.0
142
1.0
143
1.0
 70
0
 72
1
 73
0
 74
0
  7

 75
0
147
1.0
148
0.0
149
0.0
100
AcDbLayout
  1
Layout1
 70
0
 71
1
 10
0.0
 20
0.0
 11
210.0
 21
297.0
 12
0.0
 22
0.0
 32
0.0
 14
0.0
 24
0.0
 34
0.0
 15
0.0
 25
0.0
 35
0.0
146
0.0
 13
0.0
 23
0.0
 33
0.0
 16
1.0
 26
0.0
 36
0.0
 17
0.0
 27
1.0
 37
0.0
 76
0
330
211
345
0
346
0
  0
ENDSEC
  0
EOF
