999
DXF file: C:\Users\sesa63760\Dev\_Creo\CAD\MCADPE0010599_3D-CAD\drw0001_3.dxf
999
Pro/ENGINEER 2019471 by Parametric Technology Corporation
  0
SECTION
  2
HEADER
  9
$ACADVER
  1
AC1024
  9
$DWGCODEPAGE
  3
ANSI_1252
  9
$EXTMAX
 10
58.1222970233
 20
82.2015343616
 30
0.0
  9
$EXTMIN
 10
0.0
 20
0.0
 30
0.0
  9
$LIMMIN
 10
0.0
 20
0.0
  9
$LIMMAX
 10
58.1222970233
 20
82.2015343616
  9
$VIEWCTR
 10
29.0611485117
 20
41.1007671808
  9
$VIEWSIZE
 40
82.2015343616
  9
$CLAYER
  8
0
  9
$LTSCALE
 40
5.3583222399
  9
$CELTYPE
  6
BYLAYER
  9
$DIMSCALE
 40
1.0
  9
$DIMASZ
 40
0.6919321074
  9
$DIMEXO
 40
1.0
  9
$DIMDLI
 40
3.7021135475
  9
$DIMEXE
 40
1.0
  9
$DIMCEN
 40
0.8768163665
  9
$DIMLFAC
 40
1.0
  9
$DIMBLK
  1
_FILLED
  9
$DIMALT
 70
0
  9
$DIMALTF
 40
0.0393700787
  9
$DIMTXT
 40
0.9687049504
  9
$DIMTOL
 70
1
  9
$DIMLIM
 70
0
  9
$DIMTFAC
 40
1.0
  9
$DIMTP
 40
0.01
  9
$DIMTM
 40
0.01
  9
$DIMGAP
 40
0.625
  9
$DIMDSEP
 70
46
  9
$AUNITS
 70
0
  9
$PDMODE
 70
3
  9
$PDSIZE
 40
0.3125
  9
$HANDSEED
  5
26B
  9
$TILEMODE
 70
1
  9
$MEASUREMENT
 70
1
  9
$INSUNITS
 70
4
  0
ENDSEC
  0
SECTION
  2
CLASSES
  0
CLASS
  1
ACDBDICTIONARYWDFLT
  2
AcDbDictionaryWithDefault
  3
AutoCAD 2000
 90
0
 91
1
280
0
281
0
  0
CLASS
  1
ACDBPLACEHOLDER
  2
AcDbPlaceHolder
  3
AutoCAD 2000
 90
0
 91
1
280
0
281
0
  0
CLASS
  1
LAYOUT
  2
AcDbLayout
  3
AutoCAD 2000
 90
0
 91
0
280
0
281
0
  0
ENDSEC
  0
SECTION
  2
TABLES
  0
TABLE
  2
VPORT
  5
8
100
AcDbSymbolTable
 70
2
  0
VPORT
  5
1F4
100
AcDbSymbolTableRecord
100
AcDbViewportTableRecord
  2
*ACTIVE
 70
0
 10
0.0
 20
0.0
 11
1.0
 21
1.0
 12
29.0611485117
 22
41.1007671808
 13
0.0
 23
0.0
 14
1.0
 24
1.0
 15
0.0
 25
0.0
 16
0.0
 26
0.0
 36
1.0
 17
0.0
 27
0.0
 37
0.0
 40
82.2015343616
 41
0.7070707071
 42
50.0
 43
0.0
 44
0.0
 50
0.0
 51
0.0
 71
0
 72
100
 73
1
 74
1
 75
0
 76
0
 77
0
 78
0
  0
ENDTAB
  0
TABLE
  2
LTYPE
  5
5
100
AcDbSymbolTable
 70
6
  0
LTYPE
  5
14
100
AcDbSymbolTableRecord
100
AcDbLinetypeTableRecord
  2
BYBLOCK
 70
0
  3

 72
65
 73
0
 40
0.0
  0
LTYPE
  5
15
100
AcDbSymbolTableRecord
100
AcDbLinetypeTableRecord
  2
BYLAYER
 70
0
  3

 72
65
 73
0
 40
0.0
  0
LTYPE
  5
16
100
AcDbSymbolTableRecord
100
AcDbLinetypeTableRecord
  2
CONTINUOUS
 70
64
  3
Solid line
 72
65
 73
0
 40
0.0
  0
LTYPE
  5
1F5
100
AcDbSymbolTableRecord
100
AcDbLinetypeTableRecord
  2
CENTER
 70
64
  3
____ _ ____ _ ____ _ ____ _ ____ _ ____ _ ____
 72
65
 73
4
 40
0.6
 49
0.375
 74
0
 49
-0.075
 74
0
 49
0.075
 74
0
 49
-0.075
 74
0
  0
LTYPE
  5
1F6
100
AcDbSymbolTableRecord
100
AcDbLinetypeTableRecord
  2
HIDDEN
 70
64
  3
- - - - - - - - - - - - - - - - - - - -
 72
65
 73
2
 40
0.2
 49
0.1
 74
0
 49
-0.1
 74
0
  0
LTYPE
  5
1F7
100
AcDbSymbolTableRecord
100
AcDbLinetypeTableRecord
  2
PHANTOM
 70
64
  3
_____ _ _ _____ _ _ _____ _ _ _____
 72
65
 73
6
 40
0.8
 49
0.45
 74
0
 49
-0.05
 74
0
 49
0.1
 74
0
 49
-0.05
 74
0
 49
0.1
 74
0
 49
-0.05
 74
0
  0
LTYPE
  5
1F8
100
AcDbSymbolTableRecord
100
AcDbLinetypeTableRecord
  2
DOT
 70
64
  3
. . . . . . . . . . . . . . . . . . . .
 72
65
 73
2
 40
0.2
 49
0.1
 74
0
 49
-0.1
 74
0
  0
LTYPE
  5
1F9
100
AcDbSymbolTableRecord
100
AcDbLinetypeTableRecord
  2
DASHED
 70
64
  3
- - - - - - - - - - - - - - - - - - - -
 72
65
 73
2
 40
0.2
 49
0.1
 74
0
 49
-0.1
 74
0
  0
ENDTAB
  0
TABLE
  2
LAYER
  5
2
100
AcDbSymbolTable
 70
36
  0
LAYER
  5
10
100
AcDbSymbolTableRecord
100
AcDbLayerTableRecord
  2
0
 70
0
 62
7
  6
CONTINUOUS
370
-3
390
F
  0
LAYER
  5
1FA
100
AcDbSymbolTableRecord
100
AcDbLayerTableRecord
  2
DEFAULT_1
 70
0
 62
7
  6
CENTER
370
-3
390
F
  0
LAYER
  5
1FB
100
AcDbSymbolTableRecord
100
AcDbLayerTableRecord
  2
DEFAULT_2
 70
0
 62
7
  6
HIDDEN
370
-3
390
F
  0
LAYER
  5
1FC
100
AcDbSymbolTableRecord
100
AcDbLayerTableRecord
  2
DEFAULT_3
 70
0
 62
7
  6
PHANTOM
370
-3
390
F
  0
LAYER
  5
1FD
100
AcDbSymbolTableRecord
100
AcDbLayerTableRecord
  2
00_COMPONENTS
 70
0
 62
7
  6
CONTINUOUS
370
-3
390
F
  0
LAYER
  5
1FE
100
AcDbSymbolTableRecord
100
AcDbLayerTableRecord
  2
01_1_DEFAULT_DATUMS
 70
0
 62
7
  6
CONTINUOUS
370
-3
390
F
  0
LAYER
  5
1FF
100
AcDbSymbolTableRecord
100
AcDbLayerTableRecord
  2
01_PLANES
 70
0
 62
7
  6
CONTINUOUS
370
-3
390
F
  0
LAYER
  5
200
100
AcDbSymbolTableRecord
100
AcDbLayerTableRecord
  2
02_COORD_SYS
 70
0
 62
7
  6
CONTINUOUS
370
-3
390
F
  0
LAYER
  5
201
100
AcDbSymbolTableRecord
100
AcDbLayerTableRecord
  2
03_AXES
 70
0
 62
7
  6
CONTINUOUS
370
-3
390
F
  0
LAYER
  5
202
100
AcDbSymbolTableRecord
100
AcDbLayerTableRecord
  2
04_POINTS
 70
0
 62
7
  6
CONTINUOUS
370
-3
390
F
  0
LAYER
  5
203
100
AcDbSymbolTableRecord
100
AcDbLayerTableRecord
  2
05_CURVES
 70
0
 62
7
  6
CONTINUOUS
370
-3
390
F
  0
LAYER
  5
204
100
AcDbSymbolTableRecord
100
AcDbLayerTableRecord
  2
06_SURFS
 70
0
 62
7
  6
CONTINUOUS
370
-3
390
F
  0
LAYER
  5
205
100
AcDbSymbolTableRecord
100
AcDbLayerTableRecord
  2
07_COSMETICS
 70
0
 62
7
  6
CONTINUOUS
370
-3
390
F
  0
LAYER
  5
206
100
AcDbSymbolTableRecord
100
AcDbLayerTableRecord
  2
10_NOTES
 70
0
 62
7
  6
CONTINUOUS
370
-3
390
F
  0
LAYER
  5
207
100
AcDbSymbolTableRecord
100
AcDbLayerTableRecord
  2
11_NOTES_PUB
 70
0
 62
7
  6
CONTINUOUS
370
-3
390
F
  0
LAYER
  5
208
100
AcDbSymbolTableRecord
100
AcDbLayerTableRecord
  2
13_REF_GTOL
 70
0
 62
7
  6
CONTINUOUS
370
-3
390
F
  0
LAYER
  5
209
100
AcDbSymbolTableRecord
100
AcDbLayerTableRecord
  2
16_MISC
 70
0
 62
7
  6
CONTINUOUS
370
-3
390
F
  0
LAYER
  5
20A
100
AcDbSymbolTableRecord
100
AcDbLayerTableRecord
  2
17_NO_PRINT
 70
0
 62
7
  6
CONTINUOUS
370
-3
390
F
  0
LAYER
  5
20B
100
AcDbSymbolTableRecord
100
AcDbLayerTableRecord
  2
18_DATUM_CAMS_JOINTS
 70
0
 62
7
  6
CONTINUOUS
370
-3
390
F
  0
LAYER
  5
20C
100
AcDbSymbolTableRecord
100
AcDbLayerTableRecord
  2
19_DATUM_FUNCTIONAL
 70
0
 62
7
  6
CONTINUOUS
370
-3
390
F
  0
LAYER
  5
20D
100
AcDbSymbolTableRecord
100
AcDbLayerTableRecord
  2
20_DATUM_KINEMATIC_SCHEME
 70
0
 62
7
  6
CONTINUOUS
370
-3
390
F
  0
ENDTAB
  0
TABLE
  2
STYLE
  5
3
100
AcDbSymbolTable
 70
1
  0
STYLE
  5
11
100
AcDbSymbolTableRecord
100
AcDbTextStyleTableRecord
  2
STANDARD
 70
0
 40
0.0
 41
1.0
 50
0.0
 71
0
 42
0.2
  3
ARIAL.TTF
  4

  0
STYLE
  5
20E
100
AcDbSymbolTableRecord
100
AcDbTextStyleTableRecord
  2
TEXTSTYLE_1
 70
0
 40
0.0
 41
0.8
 50
0.0
 71
0
 42
0.2
  3
gdt
  4

  0
ENDTAB
  0
TABLE
  2
VIEW
  5
6
100
AcDbSymbolTable
 70
0
  0
ENDTAB
  0
TABLE
  2
UCS
  5
7
100
AcDbSymbolTable
 70
0
  0
ENDTAB
  0
TABLE
  2
APPID
  5
9
100
AcDbSymbolTable
 70
1
  0
APPID
  5
20F
100
AcDbSymbolTableRecord
100
AcDbRegAppTableRecord
  2
ACAD
 70
0
  0
ENDTAB
  0
TABLE
  2
BLOCK_RECORD
  5
1
100
AcDbSymbolTable
 70
0
  0
BLOCK_RECORD
  5
210
100
AcDbSymbolTableRecord
100
AcDbBlockTableRecord
  2
*Model_Space
  0
BLOCK_RECORD
  5
211
100
AcDbSymbolTableRecord
100
AcDbBlockTableRecord
  2
*Paper_Space
  0
BLOCK_RECORD
  5
212
100
AcDbSymbolTableRecord
100
AcDbBlockTableRecord
  2
_FILLED
  0
ENDTAB
  0
TABLE
  2
DIMSTYLE
  5
A
100
AcDbSymbolTable
 70
1
100
AcDbDimStyleTable
 71
0
  0
DIMSTYLE
105
213
100
AcDbSymbolTableRecord
100
AcDbDimStyleTableRecord
  2
STANDARD
 70
0
  3

  4

 40
1.0
 41
0.6919321074
 42
1.0
 43
0.38
 44
1.0
 45
0.0
 46
0.0
 47
0.01
 48
0.01
140
0.9687049504
141
0.09
142
0.0
143
25.4
144
1.0
145
0.0
146
1.0
147
0.625
 71
1
 72
0
 73
0
 74
0
 75
0
 76
0
 77
1
 78
8
 79
2
170
0
171
1
172
0
173
0
174
0
175
0
176
0
177
0
178
0
270
2
179
2
271
2
272
2
273
2
274
2
275
0
280
0
281
0
282
0
283
1
284
8
285
0
286
0
287
3
288
0
340
11
278
46
341
212
342
212
343
212
344
212
  0
ENDTAB
  0
ENDSEC
  0
SECTION
  2
BLOCKS
  0
BLOCK
  5
20
100
AcDbEntity
  8
0
100
AcDbBlockBegin
  2
*Model_Space
 70
0
 10
0.0
 20
0.0
 30
0.0
  3
*Model_Space
  1

  0
ENDBLK
  5
21
100
AcDbEntity
  8
0
100
AcDbBlockEnd
  0
BLOCK
  5
1C
100
AcDbEntity
  8
0
100
AcDbBlockBegin
  2
*Paper_Space
 70
0
 10
0.0
 20
0.0
 30
0.0
  3
*Paper_Space
  1

  0
ENDBLK
  5
1D
100
AcDbEntity
  8
0
100
AcDbBlockEnd
  0
BLOCK
  5
214
100
AcDbEntity
  8
0
100
AcDbBlockBegin
  2
_FILLED
 70
64
 10
0.0
 20
0.0
  3
_FILLED
  1

  0
SOLID
  5
215
100
AcDbEntity
  8
0
  6
BYBLOCK
 62
0
100
AcDbTrace
 10
0.0
 20
0.0
 11
-1.0
 21
0.25
 12
-1.0
 22
-0.25
 13
-1.0
 23
-0.25
  0
ENDBLK
  5
216
100
AcDbEntity
  8
0
  6
BYBLOCK
 62
0
100
AcDbBlockEnd
  0
ENDSEC
  0
SECTION
  2
ENTITIES
  0
LINE
  5
217
100
AcDbEntity
  8
0
100
AcDbLine
 62
7
  6
BYLAYER
 10
34.2285594969
 20
6.5902086912
 11
28.0785594969
 21
6.5902086912
  0
LINE
  5
218
100
AcDbEntity
  8
0
100
AcDbLine
 62
7
  6
BYLAYER
 10
34.2285594969
 20
7.9074046761
 11
28.0785594969
 21
7.9074046761
  0
LINE
  5
219
100
AcDbEntity
  8
0
100
AcDbLine
 62
7
  6
BYLAYER
 10
28.0785594969
 20
11.5372519379
 11
34.2285594969
 21
11.5372519379
  0
LINE
  5
21A
100
AcDbEntity
  8
0
100
AcDbLine
 62
7
  6
BYLAYER
 10
34.2285594969
 20
11.9859996752
 11
28.0785594969
 21
11.9859996752
  0
LINE
  5
21B
100
AcDbEntity
  8
0
100
AcDbLine
 62
7
  6
BYLAYER
 10
28.0785594969
 20
16.3487362269
 11
34.2285594969
 21
16.3487362269
  0
LINE
  5
21C
100
AcDbEntity
  8
0
100
AcDbLine
 62
7
  6
BYLAYER
 10
34.2285594969
 20
19.2300112447
 11
28.0785594969
 21
19.2300112447
  0
LINE
  5
21D
100
AcDbEntity
  8
0
100
AcDbLine
 62
7
  6
BYLAYER
 10
34.2285594969
 20
19.669076573
 11
28.0785594969
 21
19.669076573
  0
LINE
  5
21E
100
AcDbEntity
  8
0
100
AcDbLine
 62
7
  6
BYLAYER
 10
33.2285594969
 20
20.3199863977
 11
29.7976193892
 21
20.3199863977
  0
LINE
  5
21F
100
AcDbEntity
  8
0
100
AcDbLine
 62
7
  6
BYLAYER
 10
29.7976193892
 20
23.5039775698
 11
33.2285594969
 21
23.5039775698
  0
LINE
  5
220
100
AcDbEntity
  8
0
100
AcDbLine
 62
7
  6
BYLAYER
 10
33.2285594969
 20
27.6304737826
 11
29.7976193892
 21
27.6304737826
  0
LINE
  5
221
100
AcDbEntity
  8
0
100
AcDbLine
 62
7
  6
BYLAYER
 10
25.5035594969
 20
30.3725670539
 11
28.0785594969
 21
30.3725670539
  0
LINE
  5
222
100
AcDbEntity
  8
0
100
AcDbLine
 62
7
  6
BYLAYER
 10
29.7976193892
 20
32.4918059345
 11
33.2285594969
 21
32.4918059345
  0
LINE
  5
223
100
AcDbEntity
  8
0
100
AcDbLine
 62
7
  6
BYLAYER
 10
25.5035594969
 20
30.3725670367
 11
25.5035594968
 21
75.4752341111
  0
LINE
  5
224
100
AcDbEntity
  8
0
100
AcDbLine
 62
7
  6
BYLAYER
 10
28.0785594969
 20
35.821365091
 11
34.2285594969
 21
35.821365091
  0
LINE
  5
225
100
AcDbEntity
  8
0
100
AcDbLine
 62
7
  6
BYLAYER
 10
34.2285594969
 20
36.0368082599
 11
28.0785594969
 21
36.0368082599
  0
LINE
  5
226
100
AcDbEntity
  8
0
100
AcDbLine
 62
7
  6
BYLAYER
 10
28.0785594969
 20
36.9245156031
 11
34.2285594969
 21
36.9245156031
  0
LINE
  5
227
100
AcDbEntity
  8
0
100
AcDbLine
 62
7
  6
BYLAYER
 10
26.6285594944
 20
74.0547000138
 11
26.6285594944
 21
76.013781163
  0
LINE
  5
228
100
AcDbEntity
  8
0
100
AcDbLine
 62
7
  6
BYLAYER
 10
27.2535594944
 20
75.9513701989
 11
27.2535594944
 21
75.7796818436
  0
LINE
  5
229
100
AcDbEntity
  8
0
100
AcDbLine
 62
7
  6
BYLAYER
 10
27.2785594968
 20
74.0547000138
 11
27.2785594968
 21
73.2749958506
  0
LINE
  5
22A
100
AcDbEntity
  8
0
100
AcDbLine
 62
7
  6
BYLAYER
 10
27.5035594969
 20
58.206757795
 11
27.5035594969
 21
47.468375352
  0
LINE
  5
22B
100
AcDbEntity
  8
0
100
AcDbLine
 62
7
  6
BYLAYER
 10
34.2285594969
 20
37.6105136556
 11
28.0785594969
 21
37.6105136556
  0
LINE
  5
22C
100
AcDbEntity
  8
0
100
AcDbLine
 62
7
  6
BYLAYER
 10
28.0785594969
 20
37.7487372371
 11
34.2285594969
 21
37.7487372371
  0
LINE
  5
22D
100
AcDbEntity
  8
0
100
AcDbLine
 62
7
  6
BYLAYER
 10
28.0785594969
 20
6.5902086912
 11
28.0785594969
 21
47.468375352
  0
LINE
  5
22E
100
AcDbEntity
  8
0
100
AcDbLine
 62
7
  6
BYLAYER
 10
29.7976193892
 20
32.4918059345
 11
29.7976193892
 21
20.3199863977
  0
LINE
  5
22F
100
AcDbEntity
  8
0
100
AcDbLine
 62
7
  6
BYLAYER
 10
28.0785594969
 20
43.0824520982
 11
25.5035594969
 21
45.6382584387
  0
LINE
  5
230
100
AcDbEntity
  8
0
100
AcDbLine
 62
7
  6
BYLAYER
 10
30.8285594969
 20
73.2749958506
 11
30.8285594969
 21
74.0547000138
  0
LINE
  5
231
100
AcDbEntity
  8
0
100
AcDbLine
 62
7
  6
BYLAYER
 10
30.8535594944
 20
75.7796818436
 11
30.8535594944
 21
75.9513701989
  0
LINE
  5
232
100
AcDbEntity
  8
0
100
AcDbLine
 62
7
  6
BYLAYER
 10
31.0535594969
 20
47.468375352
 11
31.0535594969
 21
58.206757795
  0
LINE
  5
233
100
AcDbEntity
  8
0
100
AcDbLine
 62
7
  6
BYLAYER
 10
31.4785594944
 20
76.0169240506
 11
31.4785594944
 21
74.0547000138
  0
LINE
  5
234
100
AcDbEntity
  8
0
100
AcDbLine
 62
7
  6
BYLAYER
 10
31.6535594969
 20
75.4752341111
 11
31.6535594969
 21
47.468375352
  0
LINE
  5
235
100
AcDbEntity
  8
0
100
AcDbLine
 62
7
  6
BYLAYER
 10
28.0785594969
 20
42.9162019085
 11
34.2285594969
 21
42.9162019085
  0
LINE
  5
236
100
AcDbEntity
  8
0
100
AcDbLine
 62
7
  6
BYLAYER
 10
34.2285594969
 20
42.9593194751
 11
28.0785594969
 21
42.9593194751
  0
LINE
  5
237
100
AcDbEntity
  8
0
100
AcDbLine
 62
7
  6
BYLAYER
 10
28.0785594969
 20
43.881214699
 11
34.2285594969
 21
43.881214699
  0
LINE
  5
238
100
AcDbEntity
  8
0
100
AcDbLine
 62
7
  6
BYLAYER
 10
33.2285594969
 20
20.3199863977
 11
33.2285594969
 21
32.4918059345
  0
LINE
  5
239
100
AcDbEntity
  8
0
100
AcDbLine
 62
7
  6
BYLAYER
 10
34.2285594969
 20
53.891652992
 11
34.2285594969
 21
6.5902086912
  0
LINE
  5
23A
100
AcDbEntity
  8
0
100
AcDbLine
 62
7
  6
BYLAYER
 10
34.2285594969
 20
44.9371667528
 11
28.0785594969
 21
44.9371667528
  0
LINE
  5
23B
100
AcDbEntity
  8
0
100
AcDbLine
 62
7
  6
BYLAYER
 10
28.0785594969
 20
45.9929818884
 11
34.2285594969
 21
45.9929818884
  0
LINE
  5
23C
100
AcDbEntity
  8
0
100
AcDbLine
 62
7
  6
BYLAYER
 10
34.2285594969
 20
46.6765110457
 11
28.0785594969
 21
46.6765110457
  0
LINE
  5
23D
100
AcDbEntity
  8
0
100
AcDbLine
 62
7
  6
BYLAYER
 10
25.5035594969
 20
47.468375352
 11
34.2285594969
 21
47.468375352
  0
LINE
  5
23E
100
AcDbEntity
  8
0
100
AcDbLine
 62
7
  6
BYLAYER
 10
31.6535594969
 20
49.8148586366
 11
34.0176644613
 21
47.468375352
  0
LINE
  5
23F
100
AcDbEntity
  8
0
100
AcDbLine
 62
7
  6
BYLAYER
 10
31.0535594969
 20
49.0671188392
 11
27.5035594969
 21
49.0671188392
  0
LINE
  5
240
100
AcDbEntity
  8
0
100
AcDbLine
 62
7
  6
BYLAYER
 10
32.0209121572
 20
49.4502441673
 11
34.2285594969
 21
49.4502441673
  0
LINE
  5
241
100
AcDbEntity
  8
0
100
AcDbLine
 62
7
  6
BYLAYER
 10
34.2285594969
 20
49.7970645651
 11
31.6714871988
 21
49.7970645651
  0
LINE
  5
242
100
AcDbEntity
  8
0
100
AcDbLine
 62
7
  6
BYLAYER
 10
31.6535594969
 20
53.0438978128
 11
34.2285594969
 21
53.0438978128
  0
LINE
  5
243
100
AcDbEntity
  8
0
100
AcDbLine
 62
7
  6
BYLAYER
 10
31.0535594969
 20
53.3454256432
 11
27.5035594969
 21
53.3454256432
  0
LINE
  5
244
100
AcDbEntity
  8
0
100
AcDbLine
 62
7
  6
BYLAYER
 10
31.6535594969
 20
53.8845098566
 11
34.2285594969
 21
53.8845098566
  0
LINE
  5
245
100
AcDbEntity
  8
0
100
AcDbLine
 62
7
  6
BYLAYER
 10
31.6535594969
 20
53.8919637049
 11
34.2285594969
 21
53.8919637049
  0
LINE
  5
246
100
AcDbEntity
  8
0
100
AcDbLine
 62
7
  6
BYLAYER
 10
27.5035594969
 20
58.206757795
 11
31.0535594969
 21
58.206757795
  0
LINE
  5
247
100
AcDbEntity
  8
0
100
AcDbLine
 62
7
  6
BYLAYER
 10
25.5035594969
 20
61.5363169517
 11
31.6535594969
 21
61.5363169517
  0
LINE
  5
248
100
AcDbEntity
  8
0
100
AcDbLine
 62
7
  6
BYLAYER
 10
31.6535594969
 20
61.7517601205
 11
25.5035594969
 21
61.7517601205
  0
LINE
  5
249
100
AcDbEntity
  8
0
100
AcDbLine
 62
7
  6
BYLAYER
 10
25.5035594969
 20
62.6394674636
 11
31.6535594969
 21
62.6394674636
  0
LINE
  5
24A
100
AcDbEntity
  8
0
100
AcDbLine
 62
7
  6
BYLAYER
 10
31.6535594969
 20
63.3254655162
 11
25.5035594969
 21
63.3254655162
  0
LINE
  5
24B
100
AcDbEntity
  8
0
100
AcDbLine
 62
7
  6
BYLAYER
 10
25.5035594969
 20
63.4636890977
 11
31.6535594969
 21
63.4636890977
  0
LINE
  5
24C
100
AcDbEntity
  8
0
100
AcDbLine
 62
7
  6
BYLAYER
 10
25.5035594969
 20
68.6311537691
 11
31.6535594969
 21
68.6311537691
  0
LINE
  5
24D
100
AcDbEntity
  8
0
100
AcDbLine
 62
7
  6
BYLAYER
 10
31.6535594969
 20
68.6742713357
 11
25.5035594969
 21
68.6742713357
  0
LINE
  5
24E
100
AcDbEntity
  8
0
100
AcDbLine
 62
7
  6
BYLAYER
 10
25.5035594969
 20
69.5961665596
 11
31.6535594969
 21
69.5961665596
  0
LINE
  5
24F
100
AcDbEntity
  8
0
100
AcDbLine
 62
7
  6
BYLAYER
 10
31.6535594969
 20
70.6521186134
 11
25.5035594969
 21
70.6521186134
  0
LINE
  5
250
100
AcDbEntity
  8
0
100
AcDbLine
 62
7
  6
BYLAYER
 10
25.5035594969
 20
71.707933749
 11
31.6535594969
 21
71.707933749
  0
LINE
  5
251
100
AcDbEntity
  8
0
100
AcDbLine
 62
7
  6
BYLAYER
 10
31.6535594969
 20
72.3914629062
 11
25.5035594969
 21
72.3914629062
  0
LINE
  5
252
100
AcDbEntity
  8
0
100
AcDbLine
 62
7
  6
BYLAYER
 10
30.8285594969
 20
73.2749958506
 11
27.2785594968
 21
73.2749958506
  0
LINE
  5
253
100
AcDbEntity
  8
0
100
AcDbLine
 62
7
  6
BYLAYER
 10
26.6285594944
 20
74.0547000138
 11
27.2785594968
 21
74.0547000138
  0
LINE
  5
254
100
AcDbEntity
  8
0
100
AcDbLine
 62
7
  6
BYLAYER
 10
30.8285594968
 20
74.0547000138
 11
31.4785594944
 21
74.0547000138
  0
LINE
  5
255
100
AcDbEntity
  8
0
100
AcDbLine
 62
7
  6
BYLAYER
 10
25.5035594968
 20
75.4680909757
 11
26.6285594944
 21
75.4680909757
  0
LINE
  5
256
100
AcDbEntity
  8
0
100
AcDbLine
 62
7
  6
BYLAYER
 10
31.4785594944
 20
75.4680909757
 11
31.6535594969
 21
75.4680909757
  0
LINE
  5
257
100
AcDbEntity
  8
0
100
AcDbLine
 62
7
  6
BYLAYER
 10
25.5035594968
 20
75.475544824
 11
26.6285594944
 21
75.475544824
  0
LINE
  5
258
100
AcDbEntity
  8
0
100
AcDbLine
 62
7
  6
BYLAYER
 10
31.4785594944
 20
75.475544824
 11
31.6535594969
 21
75.475544824
  0
LINE
  5
259
100
AcDbEntity
  8
0
100
AcDbLine
 62
7
  6
BYLAYER
 10
26.6285594944
 20
75.6632682415
 11
31.4785594944
 21
75.6632682415
  0
LINE
  5
25A
100
AcDbEntity
  8
0
100
AcDbLine
 62
7
  6
BYLAYER
 10
27.2535594944
 20
75.7796818436
 11
30.8535594944
 21
75.7796818436
  0
LINE
  5
25B
100
AcDbEntity
  8
0
100
AcDbLine
 62
7
  6
BYLAYER
 10
27.2535594944
 20
75.9513701989
 11
30.8535594944
 21
75.9513701989
  0
LINE
  5
25C
100
AcDbEntity
  8
0
100
AcDbLine
 62
7
  6
BYLAYER
 10
26.6285594944
 20
76.013781163
 11
31.4785594944
 21
76.013781163
  0
LINE
  5
25D
100
AcDbEntity
  8
0
100
AcDbLine
 62
7
  6
BYLAYER
 10
26.6285594944
 20
76.0175080872
 11
31.4785594944
 21
76.0175080872
  0
SPLINE
  5
25E
100
AcDbEntity
  8
0
100
AcDbSpline
 62
7
  6
BYLAYER
 70
0
 71
3
 72
20
 73
16
 74
0
 42
0.0000001
 43
0.0000001
 44
0.0000000001
 40
0.0
 40
0.0
 40
0.0
 40
0.0
 40
0.3745541981
 40
0.5440238856
 40
0.6930331595
 40
0.7580832994
 40
0.8160444291
 40
0.8664132225
 40
0.9087954671
 40
0.9429746198
 40
0.9689132871
 40
0.9789417401
 40
0.98720632
 40
0.9940314891
 40
1.0
 40
1.0
 40
1.0
 40
1.0
 10
29.0535594969
 20
72.5526533605
 30
0.0
 10
28.7760064662
 20
72.5526533605
 30
0.0
 10
28.3727372727
 20
72.5615729644
 30
0.0
 10
27.8601700032
 20
72.5941645994
 30
0.0
 10
27.5772015423
 20
72.6215667138
 30
0.0
 10
27.3773694013
 20
72.6481538429
 30
0.0
 10
27.2505252732
 20
72.6687336733
 30
0.0
 10
27.1409868205
 20
72.6906324864
 30
0.0
 10
27.0497032173
 20
72.7136093765
 30
0.0
 10
26.9775204351
 20
72.7373690471
 30
0.0
 10
26.9299617787
 20
72.7590336782
 30
0.0
 10
26.9028161985
 20
72.7775681862
 30
0.0
 10
26.8892437795
 20
72.7904690466
 30
0.0
 10
26.8806594651
 20
72.8037548488
 30
0.0
 10
26.8785714049
 20
72.8132963824
 30
0.0
 10
26.8785721882
 20
72.8177191823
 30
0.0
  0
SPLINE
  5
25F
100
AcDbEntity
  8
0
100
AcDbSpline
 62
7
  6
BYLAYER
 70
0
 71
3
 72
20
 73
16
 74
0
 42
0.0000001
 43
0.0000001
 44
0.0000000001
 40
0.0
 40
0.0
 40
0.0
 40
0.0
 40
0.0059685541
 40
0.0127932752
 40
0.0210567918
 40
0.0310841921
 40
0.0570232463
 40
0.0911995726
 40
0.1335788795
 40
0.1839480868
 40
0.2419076285
 40
0.3069586283
 40
0.4559705004
 40
0.6254449303
 40
1.0
 40
1.0
 40
1.0
 40
1.0
 10
31.2285468055
 20
72.8177191825
 30
0.0
 10
31.2285460223
 20
72.8132963529
 30
0.0
 10
31.226456733
 20
72.8037559158
 30
0.0
 10
31.2178746165
 20
72.7904702104
 30
0.0
 10
31.2043048845
 20
72.7775691867
 30
0.0
 10
31.1771612052
 20
72.7590340089
 30
0.0
 10
31.1296031719
 20
72.7373739578
 30
0.0
 10
31.0574257661
 20
72.7136118655
 30
0.0
 10
30.9661460454
 20
72.6906350784
 30
0.0
 10
30.8566104202
 20
72.6687383413
 30
0.0
 10
30.7297669869
 20
72.6481560848
 30
0.0
 10
30.5299334636
 20
72.6215694413
 30
0.0
 10
30.2469593057
 20
72.5941649334
 30
0.0
 10
29.7343861341
 20
72.5615736641
 30
0.0
 10
29.3311130317
 20
72.5526533605
 30
0.0
 10
29.0535594969
 20
72.5526533605
 30
0.0
  0
SPLINE
  5
260
100
AcDbEntity
  8
0
100
AcDbSpline
 62
7
  6
BYLAYER
 70
0
 71
3
 72
20
 73
16
 74
0
 42
0.0000001
 43
0.0000001
 44
0.0000000001
 40
0.0
 40
0.0
 40
0.0
 40
0.0
 40
0.0059905188
 40
0.0128290451
 40
0.0210951762
 40
0.03111406
 40
0.0570060932
 40
0.0911043486
 40
0.1333817755
 40
0.183632615
 40
0.2414688395
 40
0.3063984363
 40
0.4552238201
 40
0.6246590669
 40
1.0
 40
1.0
 40
1.0
 40
1.0
 10
33.8035468055
 20
53.4582535805
 30
0.0
 10
33.8035460282
 20
53.4538645388
 30
0.0
 10
33.8014919708
 20
53.4444053372
 30
0.0
 10
33.7930404383
 20
53.4312153465
 30
0.0
 10
33.7796683491
 20
53.4184041119
 30
0.0
 10
33.7529281793
 20
53.4000039417
 30
0.0
 10
33.7060586628
 20
53.3784866649
 30
0.0
 10
33.6349085735
 20
53.3548747827
 30
0.0
 10
33.5449157672
 20
53.3320288178
 30
0.0
 10
33.4369001916
 20
53.3102383826
 30
0.0
 10
33.3117815101
 20
53.2897359386
 30
0.0
 10
33.1145528233
 20
53.2632060953
 30
0.0
 10
32.8350577369
 20
53.2357758452
 30
0.0
 10
32.3278955216
 20
53.2029012507
 30
0.0
 10
31.9286353262
 20
53.1935959437
 30
0.0
 10
31.6536365463
 20
53.1932055651
 30
0.0
  0
SPLINE
  5
261
100
AcDbEntity
  8
0
100
AcDbSpline
 62
7
  6
BYLAYER
 70
0
 71
3
 72
20
 73
16
 74
0
 42
0.0000001
 43
0.0000001
 44
0.0000000001
 40
0.0
 40
0.0
 40
0.0
 40
0.0
 40
0.0059685541
 40
0.0127932752
 40
0.0210567918
 40
0.0310841921
 40
0.0570232463
 40
0.0911995726
 40
0.1335788795
 40
0.1839480868
 40
0.2419076285
 40
0.3069586283
 40
0.4559705004
 40
0.6254449303
 40
1.0
 40
1.0
 40
1.0
 40
1.0
 10
33.8035468055
 20
47.0540195846
 30
0.0
 10
33.8035460223
 20
47.0495967549
 30
0.0
 10
33.801456733
 20
47.0400563179
 30
0.0
 10
33.7928746165
 20
47.0267706125
 30
0.0
 10
33.7793048845
 20
47.0138695888
 30
0.0
 10
33.7521612052
 20
46.995334411
 30
0.0
 10
33.7046031719
 20
46.9736743598
 30
0.0
 10
33.6324257661
 20
46.9499122676
 30
0.0
 10
33.5411460454
 20
46.9269354804
 30
0.0
 10
33.4316104202
 20
46.9050387434
 30
0.0
 10
33.3047669869
 20
46.8844564869
 30
0.0
 10
33.1049334636
 20
46.8578698433
 30
0.0
 10
32.8219593057
 20
46.8304653355
 30
0.0
 10
32.3093861341
 20
46.7978740662
 30
0.0
 10
31.9061130317
 20
46.7889537625
 30
0.0
 10
31.6285594969
 20
46.7889537625
 30
0.0
  0
SPLINE
  5
262
100
AcDbEntity
  8
0
100
AcDbSpline
 62
7
  6
BYLAYER
 70
0
 71
3
 72
20
 73
16
 74
0
 42
0.0000001
 43
0.0000001
 44
0.0000000001
 40
0.0
 40
0.0
 40
0.0
 40
0.0
 40
0.3745541981
 40
0.5440238856
 40
0.6930331595
 40
0.7580832994
 40
0.8160444291
 40
0.8664132225
 40
0.9087954671
 40
0.9429746198
 40
0.9689132871
 40
0.9789417401
 40
0.98720632
 40
0.9940314891
 40
1.0
 40
1.0
 40
1.0
 40
1.0
 10
31.6285594969
 20
46.7889537625
 30
0.0
 10
31.3510064662
 20
46.7889537625
 30
0.0
 10
30.9477372727
 20
46.7978733665
 30
0.0
 10
30.4351700032
 20
46.8304650015
 30
0.0
 10
30.1522015423
 20
46.8578671158
 30
0.0
 10
29.9523694013
 20
46.884454245
 30
0.0
 10
29.8255252732
 20
46.9050340754
 30
0.0
 10
29.7159868205
 20
46.9269328885
 30
0.0
 10
29.6247032173
 20
46.9499097786
 30
0.0
 10
29.5525204351
 20
46.9736694492
 30
0.0
 10
29.5049617787
 20
46.9953340802
 30
0.0
 10
29.4778161985
 20
47.0138685883
 30
0.0
 10
29.4642437795
 20
47.0267694487
 30
0.0
 10
29.4556594651
 20
47.0400552509
 30
0.0
 10
29.4535714049
 20
47.0495967844
 30
0.0
 10
29.4535721882
 20
47.0540195843
 30
0.0
  0
SPLINE
  5
263
100
AcDbEntity
  8
0
100
AcDbSpline
 62
7
  6
BYLAYER
 70
0
 71
3
 72
20
 73
16
 74
0
 42
0.0000001
 43
0.0000001
 44
0.0000000001
 40
0.0
 40
0.0
 40
0.0
 40
0.0
 40
0.3745541981
 40
0.5440238856
 40
0.6930331595
 40
0.7580832994
 40
0.8160444291
 40
0.8664132225
 40
0.9087954671
 40
0.9429746198
 40
0.9689132871
 40
0.9789417401
 40
0.98720632
 40
0.9940314891
 40
1.0
 40
1.0
 40
1.0
 40
1.0
 10
31.6285594969
 20
47.3190854064
 30
0.0
 10
31.9061125275
 20
47.3190854064
 30
0.0
 10
32.309381721
 20
47.3101658024
 30
0.0
 10
32.8219489905
 20
47.2775741674
 30
0.0
 10
33.1049174514
 20
47.2501720531
 30
0.0
 10
33.3047495924
 20
47.2235849239
 30
0.0
 10
33.4315937205
 20
47.2030050936
 30
0.0
 10
33.5411321732
 20
47.1811062804
 30
0.0
 10
33.6324157764
 20
47.1581293903
 30
0.0
 10
33.7045985586
 20
47.1343697197
 30
0.0
 10
33.752157215
 20
47.1127050887
 30
0.0
 10
33.7793027952
 20
47.0941705806
 30
0.0
 10
33.7928752142
 20
47.0812697202
 30
0.0
 10
33.8014595286
 20
47.067983918
 30
0.0
 10
33.8035475888
 20
47.0584423845
 30
0.0
 10
33.8035468055
 20
47.0540195846
 30
0.0
  0
SPLINE
  5
264
100
AcDbEntity
  8
0
100
AcDbSpline
 62
7
  6
BYLAYER
 70
0
 71
3
 72
20
 73
16
 74
0
 42
0.0000001
 43
0.0000001
 44
0.0000000001
 40
0.0
 40
0.0
 40
0.0
 40
0.0
 40
0.0059685541
 40
0.0127932752
 40
0.0210567918
 40
0.0310841921
 40
0.0570232463
 40
0.0911995726
 40
0.1335788795
 40
0.1839480868
 40
0.2419076285
 40
0.3069586283
 40
0.4559705004
 40
0.6254449303
 40
1.0
 40
1.0
 40
1.0
 40
1.0
 10
29.4535721882
 20
47.0540195843
 30
0.0
 10
29.4535729714
 20
47.058442414
 30
0.0
 10
29.4556622607
 20
47.067982851
 30
0.0
 10
29.4642443772
 20
47.0812685564
 30
0.0
 10
29.4778141092
 20
47.0941695801
 30
0.0
 10
29.5049577885
 20
47.1127047579
 30
0.0
 10
29.5525158218
 20
47.1343648091
 30
0.0
 10
29.6246932276
 20
47.1581269013
 30
0.0
 10
29.7159729483
 20
47.1811036885
 30
0.0
 10
29.8255085735
 20
47.2030004255
 30
0.0
 10
29.9523520068
 20
47.223582682
 30
0.0
 10
30.1521855301
 20
47.2501693256
 30
0.0
 10
30.435159688
 20
47.2775738334
 30
0.0
 10
30.9477328596
 20
47.3101651027
 30
0.0
 10
31.351005962
 20
47.3190854064
 30
0.0
 10
31.6285594969
 20
47.3190854064
 30
0.0
  0
SPLINE
  5
265
100
AcDbEntity
  8
0
100
AcDbSpline
 62
7
  6
BYLAYER
 70
0
 71
3
 72
20
 73
16
 74
0
 42
0.0000001
 43
0.0000001
 44
0.0000000001
 40
0.0
 40
0.0
 40
0.0
 40
0.0
 40
0.3745541981
 40
0.5440238856
 40
0.6930331595
 40
0.7580832994
 40
0.8160444291
 40
0.8664132225
 40
0.9087954671
 40
0.9429746198
 40
0.9689132871
 40
0.9789417401
 40
0.98720632
 40
0.9940314891
 40
1.0
 40
1.0
 40
1.0
 40
1.0
 10
29.0535594969
 20
73.0827850043
 30
0.0
 10
29.3311125275
 20
73.0827850043
 30
0.0
 10
29.734381721
 20
73.0738654003
 30
0.0
 10
30.2469489905
 20
73.0412737653
 30
0.0
 10
30.5299174514
 20
73.013871651
 30
0.0
 10
30.7297495924
 20
72.9872845218
 30
0.0
 10
30.8565937205
 20
72.9667046915
 30
0.0
 10
30.9661321732
 20
72.9448058783
 30
0.0
 10
31.0574157764
 20
72.9218289883
 30
0.0
 10
31.1295985586
 20
72.8980693177
 30
0.0
 10
31.177157215
 20
72.8764046866
 30
0.0
 10
31.2043027952
 20
72.8578701785
 30
0.0
 10
31.2178752142
 20
72.8449693181
 30
0.0
 10
31.2264595286
 20
72.8316835159
 30
0.0
 10
31.2285475888
 20
72.8221419824
 30
0.0
 10
31.2285468055
 20
72.8177191825
 30
0.0
  0
SPLINE
  5
266
100
AcDbEntity
  8
0
100
AcDbSpline
 62
7
  6
BYLAYER
 70
0
 71
3
 72
20
 73
16
 74
0
 42
0.0000001
 43
0.0000001
 44
0.0000000001
 40
0.0
 40
0.0
 40
0.0
 40
0.0
 40
0.3753395431
 40
0.5447702473
 40
0.6935929199
 40
0.7585219484
 40
0.8163597815
 40
0.8666102055
 40
0.9088907188
 40
0.9429917341
 40
0.9688834037
 40
0.9789033593
 40
0.987170554
 40
0.9940095235
 40
1.0
 40
1.0
 40
1.0
 40
1.0
 10
31.653636002
 20
53.7233015969
 30
0.0
 10
31.9286339743
 20
53.7229112382
 30
0.0
 10
32.3278901671
 20
53.7136065765
 30
0.0
 10
32.8350463829
 20
53.6807318742
 30
0.0
 10
33.1145361559
 20
53.6533036952
 30
0.0
 10
33.3117637061
 20
53.626773627
 30
0.0
 10
33.4368833382
 20
53.6062735311
 30
0.0
 10
33.544901823
 20
53.5844808806
 30
0.0
 10
33.6348986024
 20
53.5616349987
 30
0.0
 10
33.7060540776
 20
53.538025361
 30
0.0
 10
33.7529241771
 20
53.5165035464
 30
0.0
 10
33.7796663024
 20
53.4981040706
 30
0.0
 10
33.7930410741
 20
53.4852929869
 30
0.0
 10
33.8014947651
 20
53.4721028788
 30
0.0
 10
33.8035475828
 20
53.4626425945
 30
0.0
 10
33.8035468055
 20
53.4582535805
 30
0.0
  0
SPLINE
  5
267
100
AcDbEntity
  8
0
100
AcDbSpline
 62
7
  6
BYLAYER
 70
0
 71
3
 72
20
 73
16
 74
0
 42
0.0000001
 43
0.0000001
 44
0.0000000001
 40
0.0
 40
0.0
 40
0.0
 40
0.0
 40
0.0059685541
 40
0.0127932752
 40
0.0210567918
 40
0.0310841921
 40
0.0570232463
 40
0.0911995726
 40
0.1335788795
 40
0.1839480868
 40
0.2419076285
 40
0.3069586283
 40
0.4559705004
 40
0.6254449303
 40
1.0
 40
1.0
 40
1.0
 40
1.0
 10
26.8785721882
 20
72.8177191823
 30
0.0
 10
26.8785729714
 20
72.8221420119
 30
0.0
 10
26.8806622607
 20
72.8316824489
 30
0.0
 10
26.8892443772
 20
72.8449681544
 30
0.0
 10
26.9028141092
 20
72.857869178
 30
0.0
 10
26.9299577885
 20
72.8764043559
 30
0.0
 10
26.9775158218
 20
72.898064407
 30
0.0
 10
27.0496932276
 20
72.9218264993
 30
0.0
 10
27.1409729483
 20
72.9448032864
 30
0.0
 10
27.2505085735
 20
72.9667000235
 30
0.0
 10
27.3773520068
 20
72.98728228
 30
0.0
 10
27.5771855301
 20
73.0138689235
 30
0.0
 10
27.860159688
 20
73.0412734313
 30
0.0
 10
28.3727328596
 20
73.0738647006
 30
0.0
 10
28.776005962
 20
73.0827850043
 30
0.0
 10
29.0535594969
 20
73.0827850043
 30
0.0
  0
ELLIPSE
  5
268
100
AcDbEntity
  8
0
100
AcDbEllipse
 62
7
  6
BYLAYER
 10
31.6285594969
 20
47.5467620165
 30
0.0
 11
0.0
 21
4.8946013701
 31
0.0
 40
0.4443671375
 41
-3.4690792587
 42
-2.8140883332
  0
ENDSEC
  0
SECTION
  2
OBJECTS
  0
DICTIONARY
  5
C
100
AcDbDictionary
280
0
281
1
  3
ACAD_GROUP
350
D
  3
ACAD_MLINESTYLE
350
17
  3
ACAD_LAYOUT
350
1A
  3
ACAD_PLOTSETTINGS
350
19
  3
ACAD_PLOTSTYLENAME
350
E
  0
DICTIONARY
  5
D
102
{ACAD_REACTORS
330
C
102
}
100
AcDbDictionary
280
0
281
1
  0
ACDBDICTIONARYWDFLT
  5
E
102
{ACAD_REACTORS
330
C
102
}
100
AcDbDictionary
281
1
  3
Normal
350
F
100
AcDbDictionaryWithDefault
340
F
  0
DICTIONARY
  5
17
102
{ACAD_REACTORS
330
C
102
}
100
AcDbDictionary
280
0
281
1
  3
Standard
350
18
  0
DICTIONARY
  5
19
102
{ACAD_REACTORS
330
C
102
}
100
AcDbDictionary
281
1
  0
DICTIONARY
  5
1A
102
{ACAD_REACTORS
330
C
102
}
100
AcDbDictionary
281
1
  3
Model
350
269
  3
Layout1
350
26A
  0
ACDBPLACEHOLDER
  5
F
102
{ACAD_REACTORS
330
E
102
}
  0
MLINESTYLE
  5
18
102
{ACAD_REACTORS
330
17
102
}
100
AcDbMlineStyle
  2
STANDARD
 70
0
  3

 62
256
 51
90.0
 52
90.0
 71
2
 49
0.5
 62
256
  6
BYLAYER
 49
-0.5
 62
256
  6
BYLAYER
  0
LAYOUT
  5
269
102
{ACAD_REACTORS
330
1A
102
}
100
AcDbPlotSettings
  1

  2
none_device
  4

  6

 40
0.0
 41
0.0
 42
0.0
 43
0.0
 44
210.0
 45
297.0
 46
0.0
 47
0.0
 48
0.0
 49
0.0
140
0.0
141
0.0
142
1.0
143
1.0
 70
1024
 72
1
 73
0
 74
0
  7

 75
0
147
1.0
148
0.0
149
0.0
100
AcDbLayout
  1
Model
 70
0
 71
0
 10
0.0
 20
0.0
 11
210.0
 21
297.0
 12
0.0
 22
0.0
 32
0.0
 14
0.0
 24
0.0
 34
0.0
 15
0.0
 25
0.0
 35
0.0
146
0.0
 13
0.0
 23
0.0
 33
0.0
 16
1.0
 26
0.0
 36
0.0
 17
0.0
 27
1.0
 37
0.0
 76
0
330
210
345
0
346
0
  0
LAYOUT
  5
26A
102
{ACAD_REACTORS
330
1A
102
}
100
AcDbPlotSettings
  1

  2
none_device
  4

  6

 40
0.0
 41
0.0
 42
0.0
 43
0.0
 44
210.0
 45
297.0
 46
0.0
 47
0.0
 48
0.0
 49
0.0
140
0.0
141
0.0
142
1.0
143
1.0
 70
0
 72
1
 73
0
 74
0
  7

 75
0
147
1.0
148
0.0
149
0.0
100
AcDbLayout
  1
Layout1
 70
0
 71
1
 10
0.0
 20
0.0
 11
210.0
 21
297.0
 12
0.0
 22
0.0
 32
0.0
 14
0.0
 24
0.0
 34
0.0
 15
0.0
 25
0.0
 35
0.0
146
0.0
 13
0.0
 23
0.0
 33
0.0
 16
1.0
 26
0.0
 36
0.0
 17
0.0
 27
1.0
 37
0.0
 76
0
330
211
345
0
346
0
  0
ENDSEC
  0
EOF
