  0
SECTION
  2
HEADER
  9
$ACADVER
  1
AC1009
  9
$DWGCODEPAGE
  3
ansi_1250
  9
$INSBASE
 10
0.0
 20
0.0
 30
0.0
  9
$EXTMIN
 10
-1.432986
 20
-1.968504
 30
0.0
  9
$EXTMAX
 10
1.097507
 20
2.125984
 30
0.0
  9
$LIMMIN
 10
0.0
 20
0.0
  9
$LIMMAX
 10
0.0
 20
0.0
  9
$ORTHOMODE
 70
     0
  9
$REGENMODE
 70
     1
  9
$FILLMODE
 70
     1
  9
$QTEXTMODE
 70
     0
  9
$MIRRTEXT
 70
     1
  9
$DRAGMODE
 70
     2
  9
$LTSCALE
 40
1.0
  9
$OSMODE
 70
     0
  9
$ATTMODE
 70
     1
  9
$TEXTSIZE
 40
0.2
  9
$TRACEWID
 40
0.05
  9
$TEXTSTYLE
  7
STANDARD
  9
$CLAYER
  8
0
  9
$CELTYPE
  6
CONTINUOUS
  9
$CECOLOR
 62
   256
  9
$DIMSCALE
 40
1.0
  9
$DIMASZ
 40
0.18
  9
$DIMEXO
 40
0.0625
  9
$DIMDLI
 40
0.38
  9
$DIMRND
 40
0.0
  9
$DIMDLE
 40
0.0
  9
$DIMEXE
 40
0.18
  9
$DIMTP
 40
0.0
  9
$DIMTM
 40
0.0
  9
$DIMTXT
 40
0.18
  9
$DIMCEN
 40
0.09
  9
$DIMTSZ
 40
0.0
  9
$DIMTOL
 70
     0
  9
$DIMLIM
 70
     0
  9
$DIMTIH
 70
     1
  9
$DIMTOH
 70
     1
  9
$DIMSE1
 70
     0
  9
$DIMSE2
 70
     0
  9
$DIMTAD
 70
     0
  9
$DIMZIN
 70
     0
  9
$DIMBLK
  1

  9
$DIMASO
 70
     1
  9
$DIMSHO
 70
     1
  9
$DIMPOST
  1

  9
$DIMAPOST
  1

  9
$DIMALT
 70
     0
  9
$DIMALTD
 70
     2
  9
$DIMALTF
 40
25.4
  9
$DIMLFAC
 40
1.0
  9
$DIMTOFL
 70
     0
  9
$DIMTVP
 40
0.0
  9
$DIMTIX
 70
     0
  9
$DIMSOXD
 70
     0
  9
$DIMSAH
 70
     0
  9
$DIMBLK1
  1

  9
$DIMBLK2
  1

  9
$DIMSTYLE
  2
STANDARD
  9
$DIMCLRD
 70
     0
  9
$DIMCLRE
 70
     0
  9
$DIMCLRT
 70
     0
  9
$DIMTFAC
 40
1.0
  9
$DIMGAP
 40
0.09
  9
$LUNITS
 70
     2
  9
$LUPREC
 70
     4
  9
$AXISMODE
 70
     0
  9
$AXISUNIT
 10
0.0
 20
0.0
  9
$SKETCHINC
 40
0.1
  9
$FILLETRAD
 40
0.0
  9
$AUNITS
 70
     0
  9
$AUPREC
 70
     0
  9
$MENU
  1
acad
  9
$ELEVATION
 40
0.0
  9
$PELEVATION
 40
0.0
  9
$THICKNESS
 40
0.0
  9
$LIMCHECK
 70
     0
  9
$BLIPMODE
 70
     1
  9
$CHAMFERA
 40
0.0
  9
$CHAMFERB
 40
0.0
  9
$SKPOLY
 70
     0
  9
$TDCREATE
 40
0.000000000
  9
$TDUPDATE
 40
0.000000000
  9
$TDINDWG
 40
0.0000000000
  9
$TDUSRTIMER
 40
0.0000000000
  9
$USRTIMER
 70
     1
  9
$ANGBASE
 50
0.0
  9
$ANGDIR
 70
     0
  9
$PDMODE
 70
     0
  9
$PDSIZE
 40
0.0
  9
$PLINEWID
 40
0.0
  9
$COORDS
 70
     0
  9
$SPLFRAME
 70
     0
  9
$SPLINETYPE
 70
     6
  9
$SPLINESEGS
 70
     8
  9
$ATTDIA
 70
     0
  9
$ATTREQ
 70
     1
  9
$HANDLING
 70
     1
  9
$HANDSEED
  5
161
  9
$SURFTAB1
 70
     6
  9
$SURFTAB2
 70
     6
  9
$SURFTYPE
 70
     6
  9
$SURFU
 70
     6
  9
$SURFV
 70
     6
  9
$UCSNAME
  2

  9
$UCSORG
 10
0.0
 20
0.0
 30
0.0
  9
$UCSXDIR
 10
1.0
 20
0.0
 30
0.0
  9
$UCSYDIR
 10
0.0
 20
1.0
 30
0.0
  9
$PUCSNAME
  2

  9
$PUCSORG
 10
0.0
 20
0.0
 30
0.0
  9
$PUCSXDIR
 10
1.0
 20
0.0
 30
0.0
  9
$PUCSYDIR
 10
0.0
 20
1.0
 30
0.0
  9
$USERI1
 70
     0
  9
$USERI2
 70
     0
  9
$USERI3
 70
     0
  9
$USERI4
 70
     0
  9
$USERI5
 70
     0
  9
$USERR1
 40
0.0
  9
$USERR2
 40
0.0
  9
$USERR3
 40
0.0
  9
$USERR4
 40
0.0
  9
$USERR5
 40
0.0
  9
$WORLDVIEW
 70
     1
  9
$SHADEDGE
 70
     3
  9
$SHADEDIF
 70
    70
  9
$TILEMODE
 70
     1
  9
$MAXACTVP
 70
    16
  9
$PINSBASE
 10
0.0
 20
0.0
 30
0.0
  9
$PLIMCHECK
 70
     0
  9
$PEXTMIN
 10
1.000000E+20
 20
1.000000E+20
 30
1.000000E+20
  9
$PEXTMAX
 10
-1.000000E+20
 20
-1.000000E+20
 30
-1.000000E+20
  9
$PLIMMIN
 10
0.0
 20
0.0
  9
$PLIMMAX
 10
12.0
 20
9.0
  9
$UNITMODE
 70
     0
  9
$VISRETAIN
 70
     0
  9
$PLINEGEN
 70
     1
  9
$PSLTSCALE
 70
     0
  9
$TREEDEPTH
 70
  3020
  0
ENDSEC
  0
SECTION
  2
TABLES
  0
TABLE
  2
VPORT
 70
     1
  0
VPORT
  2
*ACTIVE
 70
     0
 10
0.0
 20
0.0
 11
1.0
 21
1.0
 12
6.591288
 22
4.579184
 13
0.0
 23
0.0
 14
1.0
 24
1.0
 15
0.0
 25
0.0
 16
0.0
 26
0.0
 36
1.0
 17
0.0
 27
0.0
 37
0.0
 40
9.158369
 41
0.688564
 42
50.0
 43
0.0
 44
0.0
 50
0.0
 51
0.0
 71
     0
 72
   100
 73
     1
 74
     1
 75
     0
 76
     0
 77
     0
 78
     0
  0
ENDTAB
  0
TABLE
  2
LTYPE
 70
     5
  0
LTYPE
  2
CONTINUOUS
 70
    64
  3
Solid line
 72
    65
 73
     0
 40
0.0
  0
LTYPE
  2
CENTER
 70
    64
  3
Center ____ _ ____ _ ____ _ ____ _ ____ _ ____
 72
    65
 73
     4
 40
50.8
 49
31.75
 49
-6.35
 49
6.35
 49
-6.35
  0
LTYPE
  2
HIDDEN
 70
    64
  3
Hidden __ __ __ __ __ __ __ __ __ __ __ __ __ __
 72
    65
 73
     2
 40
9.525
 49
6.35
 49
-3.175
  0
LTYPE
  2
CENTER2
 70
    64
  3
Center (.5x) ___ _ ___ _ ___ _ ___ _ ___ _ ___
 72
    65
 73
     4
 40
28.575
 49
19.05
 49
-3.175
 49
3.175
 49
-3.175
  0
LTYPE
  2
HIDDEN2
 70
    64
  3
Hidden (.5x) _ _ _ _ _ _ _ _ _ _ _ _ _ _ _ _ _
 72
    65
 73
     2
 40
4.7625
 49
3.175
 49
-1.5875
  0
ENDTAB
  0
TABLE
  2
LAYER
 70
     1
  0
LAYER
  2
0
 70
     0
 62
     7
  6
CONTINUOUS
  0
ENDTAB
  0
TABLE
  2
STYLE
 70
     1
  0
STYLE
  2
STANDARD
 70
     0
 40
0.0
 41
1.0
 50
0.0
 71
     0
 42
0.0
  3
txt
  4

  0
ENDTAB
  0
TABLE
  2
VIEW
 70
     0
  0
ENDTAB
  0
TABLE
  2
UCS
 70
     0
  0
ENDTAB
  0
TABLE
  2
APPID
 70
     1
  0
APPID
  2
ACAD
 70
     0
  0
ENDTAB
  0
TABLE
  2
DIMSTYLE
 70
     1
  0
DIMSTYLE
  2
STANDARD
 70
     0
  3

  4

  5

  6

  7

 40
1.0
 41
0.18
 42
0.0625
 43
0.38
 44
0.18
 45
0.0
 46
0.0
 47
0.0
 48
0.0
 71
     0
 72
     0
 73
     1
 74
     1
 75
     0
 76
     0
 77
     0
 78
     0
140
0.18
141
0.09
142
0.0
143
25.4
144
1.0
145
0.0
146
1.0
147
0.09
170
     0
171
     2
172
     0
173
     0
174
     0
175
     0
176
     0
177
     0
178
     0
  0
ENDTAB
  0
ENDSEC
  0
SECTION
  2
BLOCKS
  0
ENDSEC
  0
SECTION
  2
ENTITIES
  0
ARC
  8
0
  6
CONTINUOUS
 62
     7
  5
D4
 10
0.0
 20
1.929134
 30
0.0
 40
0.11811
 50
19.471221
 51
160.528779
  0
ARC
  8
0
  6
CONTINUOUS
 62
     7
  5
D5
 10
0.0
 20
1.929134
 30
0.0
 40
0.137795
 50
16.60155
 51
163.39845
  0
LINE
  8
0
  6
CONTINUOUS
 62
     7
  5
D6
 10
0.120937
 20
2.125984
 30
0.0
 11
0.120937
 21
1.995178
 31
0.0
  0
LINE
  8
0
  6
CONTINUOUS
 62
     7
  5
D7
 10
0.07874
 20
2.125984
 30
0.0
 11
0.120937
 21
2.125984
 31
0.0
  0
LINE
  8
0
  6
CONTINUOUS
 62
     7
  5
D8
 10
0.07874
 20
2.125984
 30
0.0
 11
0.053336
 21
2.056188
 31
0.0
  0
LINE
  8
0
  6
CONTINUOUS
 62
     7
  5
D9
 10
-0.247994
 20
-1.757874
 30
0.0
 11
-0.299137
 21
-1.669291
 31
0.0
  0
LINE
  8
0
  6
CONTINUOUS
 62
     7
  5
DA
 10
-0.145707
 20
-1.757874
 30
0.0
 11
-0.247994
 21
-1.757874
 31
0.0
  0
LINE
  8
0
  6
CONTINUOUS
 62
     7
  5
DB
 10
-0.094564
 20
-1.669291
 30
0.0
 11
-0.145707
 21
-1.757874
 31
0.0
  0
LINE
  8
0
  6
CONTINUOUS
 62
     7
  5
DC
 10
-0.145707
 20
-1.580709
 30
0.0
 11
-0.094564
 21
-1.669291
 31
0.0
  0
CIRCLE
  8
0
  6
CONTINUOUS
 62
     7
  5
DD
 10
-0.19685
 20
-1.669291
 30
0.0
 40
0.059055
  0
LINE
  8
0
  6
CONTINUOUS
 62
     7
  5
DE
 10
-0.299137
 20
-1.669291
 30
0.0
 11
-0.247994
 21
-1.580709
 31
0.0
  0
LINE
  8
0
  6
CONTINUOUS
 62
     7
  5
DF
 10
-0.247994
 20
-1.580709
 30
0.0
 11
-0.145707
 21
-1.580709
 31
0.0
  0
LINE
  8
0
  6
CONTINUOUS
 62
     7
  5
E0
 10
-0.145707
 20
-0.773622
 30
0.0
 11
-0.247994
 21
-0.773622
 31
0.0
  0
CIRCLE
  8
0
  6
CONTINUOUS
 62
     7
  5
E1
 10
-0.19685
 20
-0.685039
 30
0.0
 40
0.059055
  0
LINE
  8
0
  6
CONTINUOUS
 62
     7
  5
E2
 10
-0.247994
 20
-0.773622
 30
0.0
 11
-0.299137
 21
-0.685039
 31
0.0
  0
LINE
  8
0
  6
CONTINUOUS
 62
     7
  5
E3
 10
-0.299137
 20
-0.685039
 30
0.0
 11
-0.247994
 21
-0.596457
 31
0.0
  0
LINE
  8
0
  6
CONTINUOUS
 62
     7
  5
E4
 10
-0.247994
 20
-0.596457
 30
0.0
 11
-0.145707
 21
-0.596457
 31
0.0
  0
LINE
  8
0
  6
CONTINUOUS
 62
     7
  5
E5
 10
-0.145707
 20
-0.596457
 30
0.0
 11
-0.094564
 21
-0.685039
 31
0.0
  0
LINE
  8
0
  6
CONTINUOUS
 62
     7
  5
E6
 10
-0.094564
 20
-0.685039
 30
0.0
 11
-0.145707
 21
-0.773622
 31
0.0
  0
LINE
  8
0
  6
CONTINUOUS
 62
     7
  5
E7
 10
-0.031496
 20
-0.948228
 30
0.0
 11
-0.031496
 21
-1.406102
 31
0.0
  0
ARC
  8
0
  6
CONTINUOUS
 62
     7
  5
E8
 10
-0.135433
 20
-1.406102
 30
0.0
 40
0.103937
 50
260.0
 51
360.0
  0
LINE
  8
0
  6
CONTINUOUS
 62
     7
  5
E9
 10
-0.153482
 20
-1.50846
 30
0.0
 11
-0.276316
 21
-1.486801
 31
0.0
  0
ARC
  8
0
  6
CONTINUOUS
 62
     7
  5
EA
 10
-0.258268
 20
-1.384443
 30
0.0
 40
0.103937
 50
180.0
 51
260.0
  0
LINE
  8
0
  6
CONTINUOUS
 62
     7
  5
EB
 10
-0.362205
 20
-1.384443
 30
0.0
 11
-0.362205
 21
-0.969887
 31
0.0
  0
ARC
  8
0
  6
CONTINUOUS
 62
     7
  5
EC
 10
-0.258268
 20
-0.969887
 30
0.0
 40
0.103937
 50
100.0
 51
180.0
  0
LINE
  8
0
  6
CONTINUOUS
 62
     7
  5
ED
 10
-0.276316
 20
-0.867529
 30
0.0
 11
-0.153482
 21
-0.84587
 31
0.0
  0
ARC
  8
0
  6
CONTINUOUS
 62
     7
  5
EE
 10
-0.135433
 20
-0.948228
 30
0.0
 40
0.103937
 50
0.0
 51
100.0
  0
ARC
  8
0
  6
CONTINUOUS
 62
     7
  5
EF
 10
-0.258268
 20
-0.969887
 30
0.0
 40
0.143307
 50
100.0
 51
180.0
  0
LINE
  8
0
  6
CONTINUOUS
 62
     7
  5
F0
 10
-0.283153
 20
-0.828757
 30
0.0
 11
-0.160318
 21
-0.807098
 31
0.0
  0
ARC
  8
0
  6
CONTINUOUS
 62
     7
  5
F1
 10
-0.135433
 20
-0.948228
 30
0.0
 40
0.143307
 50
0.0
 51
100.0
  0
LINE
  8
0
  6
CONTINUOUS
 62
     7
  5
F2
 10
0.007874
 20
-0.948228
 30
0.0
 11
0.007874
 21
-1.406102
 31
0.0
  0
ARC
  8
0
  6
CONTINUOUS
 62
     7
  5
F3
 10
-0.135433
 20
-1.406102
 30
0.0
 40
0.143307
 50
260.0
 51
0.0
  0
LINE
  8
0
  6
CONTINUOUS
 62
     7
  5
F4
 10
-0.160318
 20
-1.547232
 30
0.0
 11
-0.283153
 21
-1.525573
 31
0.0
  0
ARC
  8
0
  6
CONTINUOUS
 62
     7
  5
F5
 10
-0.258268
 20
-1.384443
 30
0.0
 40
0.143307
 50
180.0
 51
260.0
  0
LINE
  8
0
  6
CONTINUOUS
 62
     7
  5
F6
 10
-0.401575
 20
-1.384443
 30
0.0
 11
-0.401575
 21
-0.969887
 31
0.0
  0
LINE
  8
0
  6
CONTINUOUS
 62
     7
  5
F7
 10
-0.197187
 20
-1.580709
 30
0.0
 11
-0.289989
 21
-1.564345
 31
0.0
  0
ARC
  8
0
  6
CONTINUOUS
 62
     7
  5
F8
 10
-0.842434
 20
1.158949
 30
0.0
 40
0.590551
 50
328.299985
 51
358.954007
  0
ARC
  8
0
  6
CONTINUOUS
 62
     7
  5
F9
 10
-0.377953
 20
0.863608
 30
0.0
 40
0.040813
 50
201.527931
 51
338.472069
  0
ARC
  8
0
  6
CONTINUOUS
 62
     7
  5
FA
 10
0.086529
 20
1.158949
 30
0.0
 40
0.590551
 50
181.045993
 51
211.700015
  0
ARC
  8
0
  6
CONTINUOUS
 62
     7
  5
FB
 10
-0.424856
 20
1.149496
 30
0.0
 40
0.079079
 50
143.214342
 51
180.961754
  0
ARC
  8
0
  6
CONTINUOUS
 62
     7
  5
FC
 10
-0.377953
 20
1.114173
 30
0.0
 40
0.137795
 50
36.869898
 51
143.130102
  0
ARC
  8
0
  6
CONTINUOUS
 62
     7
  5
FD
 10
-0.330709
 20
1.149606
 30
0.0
 40
0.07874
 50
358.954007
 51
36.869898
  0
LINE
  8
0
  6
CONTINUOUS
 62
     7
  5
FE
 10
-0.511811
 20
1.133858
 30
0.0
 11
-0.503489
 21
1.133858
 31
0.0
  0
LINE
  8
0
  6
CONTINUOUS
 62
     7
  5
FF
 10
-0.511811
 20
1.133858
 30
0.0
 11
-0.511811
 21
0.897638
 31
0.0
  0
LINE
  8
0
  6
CONTINUOUS
 62
     7
  5
100
 10
-0.637795
 20
0.897638
 30
0.0
 11
-0.511811
 21
0.897638
 31
0.0
  0
LINE
  8
0
  6
CONTINUOUS
 62
     7
  5
101
 10
-0.637795
 20
0.897638
 30
0.0
 11
-0.637795
 21
-0.188726
 31
0.0
  0
LINE
  8
0
  6
CONTINUOUS
 62
     7
  5
102
 10
-0.244094
 20
-0.188726
 30
0.0
 11
-0.637795
 21
-0.188726
 31
0.0
  0
LINE
  8
0
  6
CONTINUOUS
 62
     7
  5
103
 10
-0.244094
 20
1.133858
 30
0.0
 11
-0.244094
 21
-0.188726
 31
0.0
  0
LINE
  8
0
  6
CONTINUOUS
 62
     7
  5
104
 10
-0.252416
 20
1.133858
 30
0.0
 11
-0.244094
 21
1.133858
 31
0.0
  0
LINE
  8
0
  6
CONTINUOUS
 62
     7
  5
105
 10
-0.55315
 20
0.897638
 30
0.0
 11
-0.55315
 21
0.899606
 31
0.0
  0
LINE
  8
0
  6
CONTINUOUS
 62
     7
  5
106
 10
-0.55315
 20
1.10115
 30
0.0
 11
-0.55315
 21
1.102799
 31
0.0
  0
LINE
  8
0
  6
CONTINUOUS
 62
     7
  5
107
 10
-0.55315
 20
0.925197
 30
0.0
 11
-0.55315
 21
1.10115
 31
0.0
  0
LINE
  8
0
  6
CONTINUOUS
 62
     7
  5
108
 10
-0.55315
 20
0.899606
 30
0.0
 11
-0.55315
 21
0.925197
 31
0.0
  0
LINE
  8
0
  6
CONTINUOUS
 62
     7
  5
109
 10
-0.229134
 20
-0.125984
 30
0.0
 11
-0.244094
 21
-0.125984
 31
0.0
  0
LINE
  8
0
  6
CONTINUOUS
 62
     7
  5
10A
 10
-0.649606
 20
0.899606
 30
0.0
 11
-0.649606
 21
0.925197
 31
0.0
  0
LINE
  8
0
  6
CONTINUOUS
 62
     7
  5
10B
 10
-0.649606
 20
1.10115
 30
0.0
 11
-0.55315
 21
1.10115
 31
0.0
  0
LINE
  8
0
  6
CONTINUOUS
 62
     7
  5
10C
 10
-0.649606
 20
0.925197
 30
0.0
 11
-0.649606
 21
1.10115
 31
0.0
  0
LINE
  8
0
  6
CONTINUOUS
 62
     7
  5
10D
 10
-0.649606
 20
1.102799
 30
0.0
 11
-0.55315
 21
1.102799
 31
0.0
  0
LINE
  8
0
  6
CONTINUOUS
 62
     7
  5
10E
 10
-0.649606
 20
1.10115
 30
0.0
 11
-0.649606
 21
1.102799
 31
0.0
  0
LINE
  8
0
  6
CONTINUOUS
 62
     7
  5
10F
 10
-0.229134
 20
-0.409335
 30
0.0
 11
-0.229134
 21
-0.247825
 31
0.0
  0
LINE
  8
0
  6
CONTINUOUS
 62
     7
  5
110
 10
-0.649606
 20
-0.409335
 30
0.0
 11
-0.649606
 21
-0.247825
 31
0.0
  0
LINE
  8
0
  6
CONTINUOUS
 62
     7
  5
111
 10
-0.229134
 20
-0.247825
 30
0.0
 11
-0.229134
 21
-0.136446
 31
0.0
  0
LINE
  8
0
  6
CONTINUOUS
 62
     7
  5
112
 10
-0.244094
 20
-0.136446
 30
0.0
 11
-0.229134
 21
-0.136446
 31
0.0
  0
LINE
  8
0
  6
CONTINUOUS
 62
     7
  5
113
 10
-0.649606
 20
-0.136446
 30
0.0
 11
-0.637795
 21
-0.136446
 31
0.0
  0
LINE
  8
0
  6
CONTINUOUS
 62
     7
  5
114
 10
-0.649606
 20
-0.247825
 30
0.0
 11
-0.649606
 21
-0.136446
 31
0.0
  0
LINE
  8
0
  6
CONTINUOUS
 62
     7
  5
115
 10
-0.649606
 20
-0.136446
 30
0.0
 11
-0.649606
 21
0.899606
 31
0.0
  0
LINE
  8
0
  6
CONTINUOUS
 62
     7
  5
116
 10
-0.229134
 20
-0.136446
 30
0.0
 11
-0.229134
 21
-0.125984
 31
0.0
  0
LINE
  8
0
  6
CONTINUOUS
 62
     7
  5
117
 10
-0.229134
 20
-0.42126
 30
0.0
 11
-0.229134
 21
-0.409335
 31
0.0
  0
LINE
  8
0
  6
CONTINUOUS
 62
     7
  5
118
 10
-0.649606
 20
-0.42126
 30
0.0
 11
-0.649606
 21
-0.409335
 31
0.0
  0
LINE
  8
0
  6
CONTINUOUS
 62
     7
  5
119
 10
-0.229134
 20
-0.42126
 30
0.0
 11
-0.649606
 21
-0.42126
 31
0.0
  0
LINE
  8
0
  6
CONTINUOUS
 62
     7
  5
11A
 10
0.173228
 20
1.057087
 30
0.0
 11
0.326772
 21
1.057087
 31
0.0
  0
LINE
  8
0
  6
CONTINUOUS
 62
     7
  5
11B
 10
0.326772
 20
1.057087
 30
0.0
 11
0.326772
 21
0.753937
 31
0.0
  0
LINE
  8
0
  6
CONTINUOUS
 62
     7
  5
11C
 10
0.326772
 20
0.753937
 30
0.0
 11
0.173228
 21
0.753937
 31
0.0
  0
LINE
  8
0
  6
CONTINUOUS
 62
     7
  5
11D
 10
0.173228
 20
0.753937
 30
0.0
 11
0.173228
 21
1.057087
 31
0.0
  0
ARC
  8
0
  6
CONTINUOUS
 62
     7
  5
11E
 10
0.40748
 20
0.700787
 30
0.0
 40
0.019685
 50
270.0
 51
360.0
  0
LINE
  8
0
  6
CONTINUOUS
 62
     7
  5
11F
 10
0.427165
 20
1.114173
 30
0.0
 11
0.427165
 21
0.700787
 31
0.0
  0
ARC
  8
0
  6
CONTINUOUS
 62
     7
  5
120
 10
0.40748
 20
1.114173
 30
0.0
 40
0.019685
 50
0.0
 51
90.0
  0
LINE
  8
0
  6
CONTINUOUS
 62
     7
  5
121
 10
0.09252
 20
1.133858
 30
0.0
 11
0.40748
 21
1.133858
 31
0.0
  0
ARC
  8
0
  6
CONTINUOUS
 62
     7
  5
122
 10
0.09252
 20
1.114173
 30
0.0
 40
0.019685
 50
90.0
 51
180.0
  0
LINE
  8
0
  6
CONTINUOUS
 62
     7
  5
123
 10
0.072835
 20
0.700787
 30
0.0
 11
0.072835
 21
1.114173
 31
0.0
  0
ARC
  8
0
  6
CONTINUOUS
 62
     7
  5
124
 10
0.09252
 20
0.700787
 30
0.0
 40
0.019685
 50
180.0
 51
270.0
  0
LINE
  8
0
  6
CONTINUOUS
 62
     7
  5
125
 10
0.40748
 20
0.681102
 30
0.0
 11
0.09252
 21
0.681102
 31
0.0
  0
LINE
  8
0
  6
CONTINUOUS
 62
     7
  5
126
 10
-0.440945
 20
-1.384443
 30
0.0
 11
-0.440945
 21
-0.969887
 31
0.0
  0
ARC
  8
0
  6
CONTINUOUS
 62
     7
  5
127
 10
-0.258268
 20
-1.384443
 30
0.0
 40
0.182677
 50
180.0
 51
260.0
  0
ARC
  8
0
  6
CONTINUOUS
 62
     7
  5
128
 10
-0.135433
 20
-1.406102
 30
0.0
 40
0.182677
 50
268.222884
 51
360.0
  0
LINE
  8
0
  6
CONTINUOUS
 62
     7
  5
129
 10
0.047244
 20
-0.948228
 30
0.0
 11
0.047244
 21
-1.406102
 31
0.0
  0
ARC
  8
0
  6
CONTINUOUS
 62
     7
  5
12A
 10
-0.135433
 20
-0.948228
 30
0.0
 40
0.182677
 50
0.0
 51
91.777116
  0
LINE
  8
0
  6
CONTINUOUS
 62
     7
  5
12B
 10
-0.289989
 20
-0.789986
 30
0.0
 11
-0.197187
 21
-0.773622
 31
0.0
  0
ARC
  8
0
  6
CONTINUOUS
 62
     7
  5
12C
 10
-0.258268
 20
-0.969887
 30
0.0
 40
0.182677
 50
100.0
 51
180.0
  0
LINE
  8
0
  6
CONTINUOUS
 62
     7
  5
12D
 10
-0.649606
 20
-0.452756
 30
0.0
 11
0.169291
 21
-0.452756
 31
0.0
  0
LINE
  8
0
  6
CONTINUOUS
 62
     7
  5
12E
 10
-0.649606
 20
-1.968504
 30
0.0
 11
-0.649606
 21
-0.452756
 31
0.0
  0
LINE
  8
0
  6
CONTINUOUS
 62
     7
  5
12F
 10
0.169291
 20
-1.968504
 30
0.0
 11
-0.649606
 21
-1.968504
 31
0.0
  0
LINE
  8
0
  6
CONTINUOUS
 62
     7
  5
130
 10
0.169291
 20
-0.452756
 30
0.0
 11
0.169291
 21
-1.968504
 31
0.0
  0
LINE
  8
0
  6
CONTINUOUS
 62
     7
  5
131
 10
-0.649606
 20
-0.42126
 30
0.0
 11
-0.649606
 21
-0.452756
 31
0.0
  0
LINE
  8
0
  6
CONTINUOUS
 62
     7
  5
132
 10
0.649606
 20
-1.968504
 30
0.0
 11
0.169291
 21
-1.968504
 31
0.0
  0
LINE
  8
0
  6
CONTINUOUS
 62
     7
  5
133
 10
0.649606
 20
1.338583
 30
0.0
 11
0.649606
 21
-1.968504
 31
0.0
  0
LINE
  8
0
  6
CONTINUOUS
 62
     7
  5
134
 10
0.649606
 20
1.338583
 30
0.0
 11
-0.649606
 21
1.338583
 31
0.0
  0
LINE
  8
0
  6
CONTINUOUS
 62
     7
  5
135
 10
-0.649606
 20
1.338583
 30
0.0
 11
-0.649606
 21
1.102799
 31
0.0
  0
ARC
  8
0
  6
CONTINUOUS
 62
     7
  5
136
 10
0.324803
 20
-0.177165
 30
0.0
 40
0.019685
 50
270.0
 51
360.0
  0
LINE
  8
0
  6
CONTINUOUS
 62
     7
  5
137
 10
0.324803
 20
-0.19685
 30
0.0
 11
-0.206693
 21
-0.19685
 31
0.0
  0
ARC
  8
0
  6
CONTINUOUS
 62
     7
  5
138
 10
-0.206693
 20
-0.177165
 30
0.0
 40
0.019685
 50
180.0
 51
270.0
  0
LINE
  8
0
  6
CONTINUOUS
 62
     7
  5
139
 10
-0.226378
 20
-0.177165
 30
0.0
 11
-0.226378
 21
0.492126
 31
0.0
  0
ARC
  8
0
  6
CONTINUOUS
 62
     7
  5
13A
 10
-0.206693
 20
0.492126
 30
0.0
 40
0.019685
 50
90.0
 51
180.0
  0
LINE
  8
0
  6
CONTINUOUS
 62
     7
  5
13B
 10
-0.206693
 20
0.511811
 30
0.0
 11
0.324803
 21
0.511811
 31
0.0
  0
ARC
  8
0
  6
CONTINUOUS
 62
     7
  5
13C
 10
0.324803
 20
0.492126
 30
0.0
 40
0.019685
 50
0.0
 51
90.0
  0
LINE
  8
0
  6
CONTINUOUS
 62
     7
  5
13D
 10
0.344488
 20
0.492126
 30
0.0
 11
0.344488
 21
-0.177165
 31
0.0
  0
LINE
  8
0
  6
CONTINUOUS
 62
     7
  5
13E
 10
0.600394
 20
0.222623
 30
0.0
 11
0.600394
 21
0.092338
 31
0.0
  0
ARC
  8
0
  6
CONTINUOUS
 62
     7
  5
13F
 10
0.588583
 20
0.092338
 30
0.0
 40
0.011811
 50
265.457248
 51
0.0
  0
ARC
  8
0
  6
CONTINUOUS
 62
     7
  5
140
 10
0.625066
 20
0.551521
 30
0.0
 40
0.472441
 50
243.332651
 51
265.457269
  0
ARC
  8
0
  6
CONTINUOUS
 62
     7
  5
141
 10
0.427165
 20
0.15748
 30
0.0
 40
0.031496
 50
116.667349
 51
243.332651
  0
ARC
  8
0
  6
CONTINUOUS
 62
     7
  5
142
 10
0.625066
 20
-0.23656
 30
0.0
 40
0.472441
 50
94.542731
 51
116.667349
  0
ARC
  8
0
  6
CONTINUOUS
 62
     7
  5
143
 10
0.588583
 20
0.222623
 30
0.0
 40
0.011811
 50
0.0
 51
94.542751
  0
LINE
  8
0
  6
CONTINUOUS
 62
     7
  5
144
 10
-0.017717
 20
-0.07874
 30
0.0
 11
-0.017717
 21
0.033465
 31
0.0
  0
LINE
  8
0
  6
CONTINUOUS
 62
     7
  5
145
 10
-0.017717
 20
0.033465
 30
0.0
 11
-0.088583
 21
0.033465
 31
0.0
  0
LINE
  8
0
  6
CONTINUOUS
 62
     7
  5
146
 10
-0.088583
 20
0.033465
 30
0.0
 11
-0.088583
 21
0.076772
 31
0.0
  0
LINE
  8
0
  6
CONTINUOUS
 62
     7
  5
147
 10
-0.088583
 20
0.076772
 30
0.0
 11
-0.13189
 21
0.076772
 31
0.0
  0
LINE
  8
0
  6
CONTINUOUS
 62
     7
  5
148
 10
-0.13189
 20
0.076772
 30
0.0
 11
-0.13189
 21
0.238189
 31
0.0
  0
LINE
  8
0
  6
CONTINUOUS
 62
     7
  5
149
 10
-0.13189
 20
0.238189
 30
0.0
 11
-0.088583
 21
0.238189
 31
0.0
  0
LINE
  8
0
  6
CONTINUOUS
 62
     7
  5
14A
 10
-0.088583
 20
0.238189
 30
0.0
 11
-0.088583
 21
0.281496
 31
0.0
  0
LINE
  8
0
  6
CONTINUOUS
 62
     7
  5
14B
 10
0.25
 20
-0.07874
 30
0.0
 11
-0.017717
 21
-0.07874
 31
0.0
  0
LINE
  8
0
  6
CONTINUOUS
 62
     7
  5
14C
 10
0.25
 20
0.393701
 30
0.0
 11
0.25
 21
-0.07874
 31
0.0
  0
LINE
  8
0
  6
CONTINUOUS
 62
     7
  5
14D
 10
-0.017717
 20
0.393701
 30
0.0
 11
0.25
 21
0.393701
 31
0.0
  0
LINE
  8
0
  6
CONTINUOUS
 62
     7
  5
14E
 10
-0.017717
 20
0.281496
 30
0.0
 11
-0.017717
 21
0.393701
 31
0.0
  0
LINE
  8
0
  6
CONTINUOUS
 62
     7
  5
14F
 10
-0.088583
 20
0.281496
 30
0.0
 11
-0.017717
 21
0.281496
 31
0.0
  0
LINE
  8
0
  6
CONTINUOUS
 62
     7
  5
150
 10
-0.053336
 20
2.056188
 30
0.0
 11
-0.07874
 21
2.125984
 31
0.0
  0
LINE
  8
0
  6
CONTINUOUS
 62
     7
  5
151
 10
0.120937
 20
2.125984
 30
0.0
 11
0.393701
 21
1.968504
 31
0.0
  0
LINE
  8
0
  6
CONTINUOUS
 62
     7
  5
152
 10
-0.120937
 20
2.125984
 30
0.0
 11
-0.120937
 21
1.995178
 31
0.0
  0
LINE
  8
0
  6
CONTINUOUS
 62
     7
  5
153
 10
-0.120937
 20
2.125984
 30
0.0
 11
-0.07874
 21
2.125984
 31
0.0
  0
LINE
  8
0
  6
CONTINUOUS
 62
     7
  5
154
 10
-0.393701
 20
1.968504
 30
0.0
 11
-0.120937
 21
2.125984
 31
0.0
  0
LINE
  8
0
  6
CONTINUOUS
 62
     7
  5
155
 10
0.0
 20
1.968504
 30
0.0
 11
0.649606
 21
1.968504
 31
0.0
  0
LINE
  8
0
  6
CONTINUOUS
 62
     7
  5
156
 10
0.649606
 20
1.968504
 30
0.0
 11
0.649606
 21
1.838895
 31
0.0
  0
LINE
  8
0
  6
CONTINUOUS
 62
     7
  5
157
 10
0.649606
 20
1.838895
 30
0.0
 11
0.0
 21
1.838895
 31
0.0
  0
LINE
  8
0
  6
CONTINUOUS
 62
     7
  5
158
 10
0.0
 20
1.838895
 30
0.0
 11
0.0
 21
1.968504
 31
0.0
  0
LINE
  8
0
  6
CONTINUOUS
 62
     7
  5
159
 10
0.649606
 20
1.838895
 30
0.0
 11
0.649606
 21
1.338583
 31
0.0
  0
LINE
  8
0
  6
CONTINUOUS
 62
     7
  5
15A
 10
-0.649606
 20
1.968504
 30
0.0
 11
0.0
 21
1.968504
 31
0.0
  0
LINE
  8
0
  6
CONTINUOUS
 62
     7
  5
15B
 10
-0.649606
 20
1.338583
 30
0.0
 11
-0.649606
 21
1.968504
 31
0.0
  0
LINE
  8
0
  6
CONTINUOUS
 62
     7
  5
15C
 10
-0.649606
 20
0.899606
 30
0.0
 11
-0.55315
 21
0.899606
 31
0.0
  0
LINE
  8
0
  6
CONTINUOUS
 62
     3
  5
15D
 10
-0.137795
 20
1.929134
 30
0.0
 11
0.137795
 21
1.929134
 31
0.0
  0
LINE
  8
0
  6
CONTINUOUS
 62
     3
  5
15E
 10
0.0
 20
1.791339
 30
0.0
 11
0.0
 21
2.066929
 31
0.0
  0
ENDSEC
  0
EOF
