999
DXF file: C:\Users\sesa63760\Dev\_Creo\CAD\MCADID0004253_3D-CAD\drw0001_2.dxf
999
Pro/ENGINEER 2019471 by Parametric Technology Corporation
  0
SECTION
  2
HEADER
  9
$ACADVER
  1
AC1024
  9
$DWGCODEPAGE
  3
ANSI_1252
  9
$EXTMAX
 10
1797.8448181229
 20
2542.6662427738
 30
0.0
  9
$EXTMIN
 10
0.0
 20
0.0
 30
0.0
  9
$LIMMIN
 10
0.0
 20
0.0
  9
$LIMMAX
 10
1797.8448181229
 20
2542.6662427738
  9
$VIEWCTR
 10
898.9224090614
 20
1271.3331213869
  9
$VIEWSIZE
 40
2542.6662427738
  9
$CLAYER
  8
0
  9
$LTSCALE
 40
165.7441698993
  9
$CELTYPE
  6
BYLAYER
  9
$DIMSCALE
 40
1.0
  9
$DIMASZ
 40
21.4029145015
  9
$DIMEXO
 40
1.0
  9
$DIMDLI
 40
114.5141537486
  9
$DIMEXE
 40
1.0
  9
$DIMCEN
 40
27.1217732563
  9
$DIMLFAC
 40
1.0
  9
$DIMBLK
  1
_FILLED
  9
$DIMALT
 70
0
  9
$DIMALTF
 40
0.0393700787
  9
$DIMTXT
 40
29.964080302
  9
$DIMTOL
 70
1
  9
$DIMLIM
 70
0
  9
$DIMTFAC
 40
1.0
  9
$DIMTP
 40
0.01
  9
$DIMTM
 40
0.01
  9
$DIMGAP
 40
0.625
  9
$DIMDSEP
 70
46
  9
$AUNITS
 70
0
  9
$PDMODE
 70
3
  9
$PDSIZE
 40
0.3125
  9
$HANDSEED
  5
492
  9
$TILEMODE
 70
1
  9
$MEASUREMENT
 70
1
  9
$INSUNITS
 70
4
  0
ENDSEC
  0
SECTION
  2
CLASSES
  0
CLASS
  1
ACDBDICTIONARYWDFLT
  2
AcDbDictionaryWithDefault
  3
AutoCAD 2000
 90
0
 91
1
280
0
281
0
  0
CLASS
  1
ACDBPLACEHOLDER
  2
AcDbPlaceHolder
  3
AutoCAD 2000
 90
0
 91
1
280
0
281
0
  0
CLASS
  1
LAYOUT
  2
AcDbLayout
  3
AutoCAD 2000
 90
0
 91
0
280
0
281
0
  0
ENDSEC
  0
SECTION
  2
TABLES
  0
TABLE
  2
VPORT
  5
8
100
AcDbSymbolTable
 70
2
  0
VPORT
  5
1F4
100
AcDbSymbolTableRecord
100
AcDbViewportTableRecord
  2
*ACTIVE
 70
0
 10
0.0
 20
0.0
 11
1.0
 21
1.0
 12
898.9224090614
 22
1271.3331213869
 13
0.0
 23
0.0
 14
1.0
 24
1.0
 15
0.0
 25
0.0
 16
0.0
 26
0.0
 36
1.0
 17
0.0
 27
0.0
 37
0.0
 40
2542.6662427738
 41
0.7070707071
 42
50.0
 43
0.0
 44
0.0
 50
0.0
 51
0.0
 71
0
 72
100
 73
1
 74
1
 75
0
 76
0
 77
0
 78
0
  0
ENDTAB
  0
TABLE
  2
LTYPE
  5
5
100
AcDbSymbolTable
 70
6
  0
LTYPE
  5
14
100
AcDbSymbolTableRecord
100
AcDbLinetypeTableRecord
  2
BYBLOCK
 70
0
  3

 72
65
 73
0
 40
0.0
  0
LTYPE
  5
15
100
AcDbSymbolTableRecord
100
AcDbLinetypeTableRecord
  2
BYLAYER
 70
0
  3

 72
65
 73
0
 40
0.0
  0
LTYPE
  5
16
100
AcDbSymbolTableRecord
100
AcDbLinetypeTableRecord
  2
CONTINUOUS
 70
64
  3
Solid line
 72
65
 73
0
 40
0.0
  0
LTYPE
  5
1F5
100
AcDbSymbolTableRecord
100
AcDbLinetypeTableRecord
  2
CENTER
 70
64
  3
____ _ ____ _ ____ _ ____ _ ____ _ ____ _ ____
 72
65
 73
4
 40
0.6
 49
0.375
 74
0
 49
-0.075
 74
0
 49
0.075
 74
0
 49
-0.075
 74
0
  0
LTYPE
  5
1F6
100
AcDbSymbolTableRecord
100
AcDbLinetypeTableRecord
  2
HIDDEN
 70
64
  3
- - - - - - - - - - - - - - - - - - - -
 72
65
 73
2
 40
0.2
 49
0.1
 74
0
 49
-0.1
 74
0
  0
LTYPE
  5
1F7
100
AcDbSymbolTableRecord
100
AcDbLinetypeTableRecord
  2
PHANTOM
 70
64
  3
_____ _ _ _____ _ _ _____ _ _ _____
 72
65
 73
6
 40
0.8
 49
0.45
 74
0
 49
-0.05
 74
0
 49
0.1
 74
0
 49
-0.05
 74
0
 49
0.1
 74
0
 49
-0.05
 74
0
  0
LTYPE
  5
1F8
100
AcDbSymbolTableRecord
100
AcDbLinetypeTableRecord
  2
DOT
 70
64
  3
. . . . . . . . . . . . . . . . . . . .
 72
65
 73
2
 40
0.2
 49
0.1
 74
0
 49
-0.1
 74
0
  0
LTYPE
  5
1F9
100
AcDbSymbolTableRecord
100
AcDbLinetypeTableRecord
  2
DASHED
 70
64
  3
- - - - - - - - - - - - - - - - - - - -
 72
65
 73
2
 40
0.2
 49
0.1
 74
0
 49
-0.1
 74
0
  0
ENDTAB
  0
TABLE
  2
LAYER
  5
2
100
AcDbSymbolTable
 70
36
  0
LAYER
  5
10
100
AcDbSymbolTableRecord
100
AcDbLayerTableRecord
  2
0
 70
0
 62
7
  6
CONTINUOUS
370
-3
390
F
  0
LAYER
  5
1FA
100
AcDbSymbolTableRecord
100
AcDbLayerTableRecord
  2
DEFAULT_1
 70
0
 62
7
  6
CENTER
370
-3
390
F
  0
LAYER
  5
1FB
100
AcDbSymbolTableRecord
100
AcDbLayerTableRecord
  2
DEFAULT_2
 70
0
 62
7
  6
HIDDEN
370
-3
390
F
  0
LAYER
  5
1FC
100
AcDbSymbolTableRecord
100
AcDbLayerTableRecord
  2
DEFAULT_3
 70
0
 62
7
  6
PHANTOM
370
-3
390
F
  0
LAYER
  5
1FD
100
AcDbSymbolTableRecord
100
AcDbLayerTableRecord
  2
00_COMPONENTS
 70
0
 62
7
  6
CONTINUOUS
370
-3
390
F
  0
LAYER
  5
1FE
100
AcDbSymbolTableRecord
100
AcDbLayerTableRecord
  2
01_1_DEFAULT_DATUMS
 70
0
 62
7
  6
CONTINUOUS
370
-3
390
F
  0
LAYER
  5
1FF
100
AcDbSymbolTableRecord
100
AcDbLayerTableRecord
  2
01_PLANES
 70
0
 62
7
  6
CONTINUOUS
370
-3
390
F
  0
LAYER
  5
200
100
AcDbSymbolTableRecord
100
AcDbLayerTableRecord
  2
02_COORD_SYS
 70
0
 62
7
  6
CONTINUOUS
370
-3
390
F
  0
LAYER
  5
201
100
AcDbSymbolTableRecord
100
AcDbLayerTableRecord
  2
03_AXES
 70
0
 62
7
  6
CONTINUOUS
370
-3
390
F
  0
LAYER
  5
202
100
AcDbSymbolTableRecord
100
AcDbLayerTableRecord
  2
04_POINTS
 70
0
 62
7
  6
CONTINUOUS
370
-3
390
F
  0
LAYER
  5
203
100
AcDbSymbolTableRecord
100
AcDbLayerTableRecord
  2
05_CURVES
 70
0
 62
7
  6
CONTINUOUS
370
-3
390
F
  0
LAYER
  5
204
100
AcDbSymbolTableRecord
100
AcDbLayerTableRecord
  2
06_SURFS
 70
0
 62
7
  6
CONTINUOUS
370
-3
390
F
  0
LAYER
  5
205
100
AcDbSymbolTableRecord
100
AcDbLayerTableRecord
  2
07_COSMETICS
 70
0
 62
7
  6
CONTINUOUS
370
-3
390
F
  0
LAYER
  5
206
100
AcDbSymbolTableRecord
100
AcDbLayerTableRecord
  2
10_NOTES
 70
0
 62
7
  6
CONTINUOUS
370
-3
390
F
  0
LAYER
  5
207
100
AcDbSymbolTableRecord
100
AcDbLayerTableRecord
  2
11_NOTES_PUB
 70
0
 62
7
  6
CONTINUOUS
370
-3
390
F
  0
LAYER
  5
208
100
AcDbSymbolTableRecord
100
AcDbLayerTableRecord
  2
13_REF_GTOL
 70
0
 62
7
  6
CONTINUOUS
370
-3
390
F
  0
LAYER
  5
209
100
AcDbSymbolTableRecord
100
AcDbLayerTableRecord
  2
16_MISC
 70
0
 62
7
  6
CONTINUOUS
370
-3
390
F
  0
LAYER
  5
20A
100
AcDbSymbolTableRecord
100
AcDbLayerTableRecord
  2
17_NO_PRINT
 70
0
 62
7
  6
CONTINUOUS
370
-3
390
F
  0
LAYER
  5
20B
100
AcDbSymbolTableRecord
100
AcDbLayerTableRecord
  2
18_DATUM_CAMS_JOINTS
 70
0
 62
7
  6
CONTINUOUS
370
-3
390
F
  0
LAYER
  5
20C
100
AcDbSymbolTableRecord
100
AcDbLayerTableRecord
  2
19_DATUM_FUNCTIONAL
 70
0
 62
7
  6
CONTINUOUS
370
-3
390
F
  0
LAYER
  5
20D
100
AcDbSymbolTableRecord
100
AcDbLayerTableRecord
  2
20_DATUM_KINEMATIC_SCHEME
 70
0
 62
7
  6
CONTINUOUS
370
-3
390
F
  0
LAYER
  5
20E
100
AcDbSymbolTableRecord
100
AcDbLayerTableRecord
  2
3
 70
0
 62
7
  6
CONTINUOUS
370
-3
390
F
  0
LAYER
  5
20F
100
AcDbSymbolTableRecord
100
AcDbLayerTableRecord
  2
4
 70
0
 62
7
  6
CONTINUOUS
370
-3
390
F
  0
ENDTAB
  0
TABLE
  2
STYLE
  5
3
100
AcDbSymbolTable
 70
1
  0
STYLE
  5
11
100
AcDbSymbolTableRecord
100
AcDbTextStyleTableRecord
  2
STANDARD
 70
0
 40
0.0
 41
1.0
 50
0.0
 71
0
 42
0.2
  3
ARIAL.TTF
  4

  0
STYLE
  5
210
100
AcDbSymbolTableRecord
100
AcDbTextStyleTableRecord
  2
TEXTSTYLE_1
 70
0
 40
0.0
 41
0.8
 50
0.0
 71
0
 42
0.2
  3
gdt
  4

  0
ENDTAB
  0
TABLE
  2
VIEW
  5
6
100
AcDbSymbolTable
 70
0
  0
ENDTAB
  0
TABLE
  2
UCS
  5
7
100
AcDbSymbolTable
 70
0
  0
ENDTAB
  0
TABLE
  2
APPID
  5
9
100
AcDbSymbolTable
 70
1
  0
APPID
  5
211
100
AcDbSymbolTableRecord
100
AcDbRegAppTableRecord
  2
ACAD
 70
0
  0
ENDTAB
  0
TABLE
  2
BLOCK_RECORD
  5
1
100
AcDbSymbolTable
 70
0
  0
BLOCK_RECORD
  5
212
100
AcDbSymbolTableRecord
100
AcDbBlockTableRecord
  2
*Model_Space
  0
BLOCK_RECORD
  5
213
100
AcDbSymbolTableRecord
100
AcDbBlockTableRecord
  2
*Paper_Space
  0
BLOCK_RECORD
  5
214
100
AcDbSymbolTableRecord
100
AcDbBlockTableRecord
  2
_FILLED
  0
ENDTAB
  0
TABLE
  2
DIMSTYLE
  5
A
100
AcDbSymbolTable
 70
1
100
AcDbDimStyleTable
 71
0
  0
DIMSTYLE
105
215
100
AcDbSymbolTableRecord
100
AcDbDimStyleTableRecord
  2
STANDARD
 70
0
  3

  4

 40
1.0
 41
21.4029145015
 42
1.0
 43
0.38
 44
1.0
 45
0.0
 46
0.0
 47
0.01
 48
0.01
140
29.964080302
141
0.09
142
0.0
143
25.4
144
1.0
145
0.0
146
1.0
147
0.625
 71
1
 72
0
 73
0
 74
0
 75
0
 76
0
 77
1
 78
8
 79
2
170
0
171
1
172
0
173
0
174
0
175
0
176
0
177
0
178
0
270
2
179
2
271
2
272
2
273
2
274
2
275
0
280
0
281
0
282
0
283
1
284
8
285
0
286
0
287
3
288
0
340
11
278
46
341
214
342
214
343
214
344
214
  0
ENDTAB
  0
ENDSEC
  0
SECTION
  2
BLOCKS
  0
BLOCK
  5
20
100
AcDbEntity
  8
0
100
AcDbBlockBegin
  2
*Model_Space
 70
0
 10
0.0
 20
0.0
 30
0.0
  3
*Model_Space
  1

  0
ENDBLK
  5
21
100
AcDbEntity
  8
0
100
AcDbBlockEnd
  0
BLOCK
  5
1C
100
AcDbEntity
  8
0
100
AcDbBlockBegin
  2
*Paper_Space
 70
0
 10
0.0
 20
0.0
 30
0.0
  3
*Paper_Space
  1

  0
ENDBLK
  5
1D
100
AcDbEntity
  8
0
100
AcDbBlockEnd
  0
BLOCK
  5
216
100
AcDbEntity
  8
0
100
AcDbBlockBegin
  2
_FILLED
 70
64
 10
0.0
 20
0.0
  3
_FILLED
  1

  0
SOLID
  5
217
100
AcDbEntity
  8
0
  6
BYBLOCK
 62
0
100
AcDbTrace
 10
0.0
 20
0.0
 11
-1.0
 21
0.25
 12
-1.0
 22
-0.25
 13
-1.0
 23
-0.25
  0
ENDBLK
  5
218
100
AcDbEntity
  8
0
  6
BYBLOCK
 62
0
100
AcDbBlockEnd
  0
ENDSEC
  0
SECTION
  2
ENTITIES
  0
LINE
  5
219
100
AcDbEntity
  8
0
100
AcDbLine
 62
7
  6
BYLAYER
 10
1014.0899038937
 20
169.6148228044
 11
1008.4904806065
 21
169.6148228044
  0
LINE
  5
21A
100
AcDbEntity
  8
0
100
AcDbLine
 62
7
  6
BYLAYER
 10
972.0903789367
 20
169.6148228044
 11
966.4900055694
 21
169.6148228044
  0
LINE
  5
21B
100
AcDbEntity
  8
0
100
AcDbLine
 62
7
  6
BYLAYER
 10
866.4407730052
 20
169.6148228044
 11
860.8413497179
 21
169.6148228044
  0
LINE
  5
21C
100
AcDbEntity
  8
0
100
AcDbLine
 62
7
  6
BYLAYER
 10
824.4412480482
 20
169.6148228044
 11
818.8408746809
 21
169.6148228044
  0
LINE
  5
21D
100
AcDbEntity
  8
0
100
AcDbLine
 62
7
  6
BYLAYER
 10
818.6412482948
 20
169.7147126659
 11
819.4684541339
 21
169.7147126659
  0
LINE
  5
21E
100
AcDbEntity
  8
0
100
AcDbLine
 62
7
  6
BYLAYER
 10
824.8140424558
 20
169.7147126659
 11
860.468454131
 21
169.7147126659
  0
LINE
  5
21F
100
AcDbEntity
  8
0
100
AcDbLine
 62
7
  6
BYLAYER
 10
865.8140424529
 20
169.7147126659
 11
866.6412482948
 21
169.7147126659
  0
LINE
  5
220
100
AcDbEntity
  8
0
100
AcDbLine
 62
7
  6
BYLAYER
 10
966.2903791833
 20
169.7147126659
 11
967.1175850224
 21
169.7147126659
  0
LINE
  5
221
100
AcDbEntity
  8
0
100
AcDbLine
 62
7
  6
BYLAYER
 10
972.4631733443
 20
169.7147126659
 11
1008.1175850195
 21
169.7147126659
  0
LINE
  5
222
100
AcDbEntity
  8
0
100
AcDbLine
 62
7
  6
BYLAYER
 10
1013.4631733414
 20
169.7147126659
 11
1014.2903791833
 21
169.7147126659
  0
LINE
  5
223
100
AcDbEntity
  8
0
100
AcDbLine
 62
7
  6
BYLAYER
 10
994.4318273636
 20
170.2147126659
 11
986.1498955291
 21
170.2147126659
  0
LINE
  5
224
100
AcDbEntity
  8
0
100
AcDbLine
 62
7
  6
BYLAYER
 10
846.7826964751
 20
170.2147126659
 11
838.5007646406
 21
170.2147126659
  0
LINE
  5
225
100
AcDbEntity
  8
0
100
AcDbLine
 62
7
  6
BYLAYER
 10
1014.0903791804
 20
170.6148228044
 11
1007.4903791804
 21
170.6148228044
  0
LINE
  5
226
100
AcDbEntity
  8
0
100
AcDbLine
 62
7
  6
BYLAYER
 10
973.0903791833
 20
170.6148228044
 11
966.4903791833
 21
170.6148228044
  0
LINE
  5
227
100
AcDbEntity
  8
0
100
AcDbLine
 62
7
  6
BYLAYER
 10
866.4412482919
 20
170.6148228044
 11
859.8412482919
 21
170.6148228044
  0
LINE
  5
228
100
AcDbEntity
  8
0
100
AcDbLine
 62
7
  6
BYLAYER
 10
825.4412482948
 20
170.6148228044
 11
818.8412482948
 21
170.6148228044
  0
LINE
  5
229
100
AcDbEntity
  8
0
100
AcDbLine
 62
7
  6
BYLAYER
 10
1015.2903791833
 20
170.7147126659
 11
1014.0903791804
 21
170.7147126659
  0
LINE
  5
22A
100
AcDbEntity
  8
0
100
AcDbLine
 62
7
  6
BYLAYER
 10
1007.4903791804
 20
170.7147126659
 11
994.2903791833
 21
170.7147126725
  0
LINE
  5
22B
100
AcDbEntity
  8
0
100
AcDbLine
 62
7
  6
BYLAYER
 10
986.2903791833
 20
170.714712666
 11
973.0903791833
 21
170.7147126659
  0
LINE
  5
22C
100
AcDbEntity
  8
0
100
AcDbLine
 62
7
  6
BYLAYER
 10
966.4903791833
 20
170.7147126659
 11
965.2903791833
 21
170.7147126659
  0
LINE
  5
22D
100
AcDbEntity
  8
0
100
AcDbLine
 62
7
  6
BYLAYER
 10
867.6412482948
 20
170.7147126659
 11
866.4412482919
 21
170.7147126659
  0
LINE
  5
22E
100
AcDbEntity
  8
0
100
AcDbLine
 62
7
  6
BYLAYER
 10
859.8412482919
 20
170.7147126659
 11
846.6412482948
 21
170.7147126725
  0
LINE
  5
22F
100
AcDbEntity
  8
0
100
AcDbLine
 62
7
  6
BYLAYER
 10
838.6412482948
 20
170.714712666
 11
825.4412482948
 21
170.7147126659
  0
LINE
  5
230
100
AcDbEntity
  8
0
100
AcDbLine
 62
7
  6
BYLAYER
 10
818.8412482948
 20
170.7147126659
 11
817.6412482948
 21
170.7147126659
  0
LINE
  5
231
100
AcDbEntity
  8
0
100
AcDbLine
 62
7
  6
BYLAYER
 10
817.6412482948
 20
171.714712597
 11
818.8412482948
 21
171.7147126659
  0
LINE
  5
232
100
AcDbEntity
  8
0
100
AcDbLine
 62
7
  6
BYLAYER
 10
825.4412482948
 20
171.7147126659
 11
826.6412482948
 21
171.7147125969
  0
LINE
  5
233
100
AcDbEntity
  8
0
100
AcDbLine
 62
7
  6
BYLAYER
 10
858.6412482948
 20
171.714712597
 11
859.8412482919
 21
171.7147126659
  0
LINE
  5
234
100
AcDbEntity
  8
0
100
AcDbLine
 62
7
  6
BYLAYER
 10
866.4412482919
 20
171.7147126659
 11
867.6412482948
 21
171.7147125969
  0
LINE
  5
235
100
AcDbEntity
  8
0
100
AcDbLine
 62
7
  6
BYLAYER
 10
965.2903791833
 20
171.714712597
 11
966.4903791833
 21
171.7147126659
  0
LINE
  5
236
100
AcDbEntity
  8
0
100
AcDbLine
 62
7
  6
BYLAYER
 10
973.0903791833
 20
171.7147126659
 11
974.2903791833
 21
171.7147125969
  0
LINE
  5
237
100
AcDbEntity
  8
0
100
AcDbLine
 62
7
  6
BYLAYER
 10
1006.2903791833
 20
171.714712597
 11
1007.4903791804
 21
171.7147126659
  0
LINE
  5
238
100
AcDbEntity
  8
0
100
AcDbLine
 62
7
  6
BYLAYER
 10
1014.0903791804
 20
171.7147126659
 11
1015.2903791833
 21
171.7147125969
  0
LINE
  5
239
100
AcDbEntity
  8
0
100
AcDbLine
 62
7
  6
BYLAYER
 10
818.1412482948
 20
172.2147126659
 11
825.1412482948
 21
172.2147126659
  0
LINE
  5
23A
100
AcDbEntity
  8
0
100
AcDbLine
 62
7
  6
BYLAYER
 10
860.1412482948
 20
172.2147126659
 11
867.1412482948
 21
172.2147126659
  0
LINE
  5
23B
100
AcDbEntity
  8
0
100
AcDbLine
 62
7
  6
BYLAYER
 10
965.7903791833
 20
172.2147126659
 11
972.7903791833
 21
172.2147126659
  0
LINE
  5
23C
100
AcDbEntity
  8
0
100
AcDbLine
 62
7
  6
BYLAYER
 10
1007.7903791833
 20
172.2147126659
 11
1014.7903791833
 21
172.2147126659
  0
LINE
  5
23D
100
AcDbEntity
  8
0
100
AcDbLine
 62
7
  6
BYLAYER
 10
1015.2903791833
 20
172.7147126659
 11
1007.7903791833
 21
172.7147126659
  0
LINE
  5
23E
100
AcDbEntity
  8
0
100
AcDbLine
 62
7
  6
BYLAYER
 10
972.7903791833
 20
172.7147126659
 11
965.2903791833
 21
172.7147126659
  0
LINE
  5
23F
100
AcDbEntity
  8
0
100
AcDbLine
 62
7
  6
BYLAYER
 10
867.6412482948
 20
172.7147126659
 11
860.1412482948
 21
172.7147126659
  0
LINE
  5
240
100
AcDbEntity
  8
0
100
AcDbLine
 62
7
  6
BYLAYER
 10
825.1412482948
 20
172.7147126659
 11
817.6412482948
 21
172.7147126659
  0
LINE
  5
241
100
AcDbEntity
  8
0
100
AcDbLine
 62
7
  6
BYLAYER
 10
817.6412482948
 20
187.2147126659
 11
867.6412482948
 21
187.2147126659
  0
LINE
  5
242
100
AcDbEntity
  8
0
100
AcDbLine
 62
7
  6
BYLAYER
 10
965.2903791833
 20
187.2147126659
 11
1015.2903791833
 21
187.2147126659
  0
LINE
  5
243
100
AcDbEntity
  8
3
100
AcDbLine
 62
7
  6
BYLAYER
 10
817.6407732517
 20
187.2148356129
 11
867.6407732517
 21
187.2148356129
  0
LINE
  5
244
100
AcDbEntity
  8
3
100
AcDbLine
 62
7
  6
BYLAYER
 10
965.2899041403
 20
187.2148356129
 11
1015.2899041403
 21
187.2148356129
  0
LINE
  5
245
100
AcDbEntity
  8
4
100
AcDbLine
 62
7
  6
BYLAYER
 10
807.4520275683
 20
214.5629979276
 11
852.4520275683
 21
214.5629979276
  0
LINE
  5
246
100
AcDbEntity
  8
3
100
AcDbLine
 62
7
  6
BYLAYER
 10
955.1011584568
 20
214.5629979276
 11
1000.1011584568
 21
214.5629979276
  0
LINE
  5
247
100
AcDbEntity
  8
3
100
AcDbLine
 62
7
  6
BYLAYER
 10
958.1011584568
 20
219.5629979276
 11
955.1011584568
 21
219.5629979276
  0
LINE
  5
248
100
AcDbEntity
  8
4
100
AcDbLine
 62
7
  6
BYLAYER
 10
810.4520275683
 20
219.5629979276
 11
807.4520275683
 21
219.5629979276
  0
LINE
  5
249
100
AcDbEntity
  8
3
100
AcDbLine
 62
7
  6
BYLAYER
 10
992.9903791819
 20
219.8864607472
 11
987.5903791819
 21
219.8864607472
  0
LINE
  5
24A
100
AcDbEntity
  8
4
100
AcDbLine
 62
7
  6
BYLAYER
 10
845.3412482934
 20
219.8864607472
 11
839.9412482934
 21
219.8864607472
  0
LINE
  5
24B
100
AcDbEntity
  8
4
100
AcDbLine
 62
7
  6
BYLAYER
 10
835.7520275683
 20
221.3129979276
 11
837.2369388245
 21
221.3129979276
  0
LINE
  5
24C
100
AcDbEntity
  8
4
100
AcDbLine
 62
7
  6
BYLAYER
 10
848.0452202226
 20
221.3129979276
 11
849.2520275683
 21
221.3129979276
  0
LINE
  5
24D
100
AcDbEntity
  8
3
100
AcDbLine
 62
7
  6
BYLAYER
 10
983.4011584568
 20
221.3129979276
 11
984.886069713
 21
221.3129979276
  0
LINE
  5
24E
100
AcDbEntity
  8
3
100
AcDbLine
 62
7
  6
BYLAYER
 10
995.6943511111
 20
221.3129979276
 11
996.9011584568
 21
221.3129979276
  0
LINE
  5
24F
100
AcDbEntity
  8
3
100
AcDbLine
 62
7
  6
BYLAYER
 10
996.9011584568
 20
227.8129979276
 11
995.6946886507
 21
227.8129979276
  0
LINE
  5
250
100
AcDbEntity
  8
3
100
AcDbLine
 62
7
  6
BYLAYER
 10
984.8864072526
 20
227.8129979276
 11
983.4011584568
 21
227.8129979276
  0
LINE
  5
251
100
AcDbEntity
  8
4
100
AcDbLine
 62
7
  6
BYLAYER
 10
849.2520275683
 20
227.8129979276
 11
848.0455577622
 21
227.8129979276
  0
LINE
  5
252
100
AcDbEntity
  8
4
100
AcDbLine
 62
7
  6
BYLAYER
 10
837.2372763641
 20
227.8129979276
 11
835.7520275683
 21
227.8129979276
  0
LINE
  5
253
100
AcDbEntity
  8
4
100
AcDbLine
 62
7
  6
BYLAYER
 10
839.9412482934
 20
229.239535108
 11
845.3412482934
 21
229.239535108
  0
LINE
  5
254
100
AcDbEntity
  8
3
100
AcDbLine
 62
7
  6
BYLAYER
 10
987.5903791819
 20
229.239535108
 11
992.9903791819
 21
229.239535108
  0
LINE
  5
255
100
AcDbEntity
  8
3
100
AcDbLine
 62
7
  6
BYLAYER
 10
992.9903791819
 20
249.8864607472
 11
987.5903791819
 21
249.8864607472
  0
LINE
  5
256
100
AcDbEntity
  8
4
100
AcDbLine
 62
7
  6
BYLAYER
 10
845.3412482934
 20
249.8864607472
 11
839.9412482934
 21
249.8864607472
  0
LINE
  5
257
100
AcDbEntity
  8
4
100
AcDbLine
 62
7
  6
BYLAYER
 10
835.7520275683
 20
251.3129979276
 11
837.2369388245
 21
251.3129979276
  0
LINE
  5
258
100
AcDbEntity
  8
4
100
AcDbLine
 62
7
  6
BYLAYER
 10
848.0452202226
 20
251.3129979276
 11
849.2520275683
 21
251.3129979276
  0
LINE
  5
259
100
AcDbEntity
  8
3
100
AcDbLine
 62
7
  6
BYLAYER
 10
983.4011584568
 20
251.3129979276
 11
984.886069713
 21
251.3129979276
  0
LINE
  5
25A
100
AcDbEntity
  8
3
100
AcDbLine
 62
7
  6
BYLAYER
 10
995.6943511111
 20
251.3129979276
 11
996.9011584568
 21
251.3129979276
  0
LINE
  5
25B
100
AcDbEntity
  8
3
100
AcDbLine
 62
7
  6
BYLAYER
 10
996.9011584568
 20
257.8129979276
 11
995.6946886507
 21
257.8129979276
  0
LINE
  5
25C
100
AcDbEntity
  8
3
100
AcDbLine
 62
7
  6
BYLAYER
 10
984.8864072526
 20
257.8129979276
 11
983.4011584568
 21
257.8129979276
  0
LINE
  5
25D
100
AcDbEntity
  8
4
100
AcDbLine
 62
7
  6
BYLAYER
 10
849.2520275683
 20
257.8129979276
 11
848.0455577622
 21
257.8129979276
  0
LINE
  5
25E
100
AcDbEntity
  8
4
100
AcDbLine
 62
7
  6
BYLAYER
 10
837.2372763641
 20
257.8129979276
 11
835.7520275683
 21
257.8129979276
  0
LINE
  5
25F
100
AcDbEntity
  8
4
100
AcDbLine
 62
7
  6
BYLAYER
 10
839.9412482934
 20
259.239535108
 11
845.3412482934
 21
259.239535108
  0
LINE
  5
260
100
AcDbEntity
  8
3
100
AcDbLine
 62
7
  6
BYLAYER
 10
987.5903791819
 20
259.239535108
 11
992.9903791819
 21
259.239535108
  0
LINE
  5
261
100
AcDbEntity
  8
4
100
AcDbLine
 62
7
  6
BYLAYER
 10
807.4520275683
 20
259.5629979276
 11
810.4520275683
 21
259.5629979276
  0
LINE
  5
262
100
AcDbEntity
  8
3
100
AcDbLine
 62
7
  6
BYLAYER
 10
955.1011584568
 20
259.5629979276
 11
958.1011584568
 21
259.5629979276
  0
LINE
  5
263
100
AcDbEntity
  8
4
100
AcDbLine
 62
7
  6
BYLAYER
 10
807.4520275683
 20
264.5629979276
 11
852.4520275683
 21
264.5629979276
  0
LINE
  5
264
100
AcDbEntity
  8
3
100
AcDbLine
 62
7
  6
BYLAYER
 10
955.1011584568
 20
264.5629979276
 11
1000.1011584568
 21
264.5629979276
  0
LINE
  5
265
100
AcDbEntity
  8
0
100
AcDbLine
 62
7
  6
BYLAYER
 10
828.1405185052
 20
2363.7148228044
 11
827.6405204838
 21
2363.2148249629
  0
LINE
  5
266
100
AcDbEntity
  8
0
100
AcDbLine
 62
7
  6
BYLAYER
 10
826.3905204838
 20
2359.7148228044
 11
825.8905204838
 21
2359.2148228044
  0
LINE
  5
267
100
AcDbEntity
  8
0
100
AcDbLine
 62
7
  6
BYLAYER
 10
844.3905204838
 20
2359.7148228044
 11
843.8905204838
 21
2359.2148228044
  0
LINE
  5
268
100
AcDbEntity
  8
0
100
AcDbLine
 62
7
  6
BYLAYER
 10
975.7896493937
 20
2363.7148228044
 11
975.2896513723
 21
2363.2148249629
  0
LINE
  5
269
100
AcDbEntity
  8
0
100
AcDbLine
 62
7
  6
BYLAYER
 10
974.0396513723
 20
2359.7148228044
 11
973.5396513723
 21
2359.2148228044
  0
LINE
  5
26A
100
AcDbEntity
  8
0
100
AcDbLine
 62
7
  6
BYLAYER
 10
992.0396513723
 20
2359.7148228044
 11
991.5396513723
 21
2359.2148228044
  0
LINE
  5
26B
100
AcDbEntity
  8
4
100
AcDbLine
 62
7
  6
BYLAYER
 10
839.9412482934
 20
2305.5744375689
 11
837.2412482934
 21
2300.8979003885
  0
LINE
  5
26C
100
AcDbEntity
  8
4
100
AcDbLine
 62
7
  6
BYLAYER
 10
837.2412482934
 20
224.5629979276
 11
839.9412482934
 21
219.8864607472
  0
LINE
  5
26D
100
AcDbEntity
  8
4
100
AcDbLine
 62
7
  6
BYLAYER
 10
845.3412482934
 20
2296.221363208
 11
848.0412482934
 21
2300.8979003885
  0
LINE
  5
26E
100
AcDbEntity
  8
4
100
AcDbLine
 62
7
  6
BYLAYER
 10
839.9412482934
 20
2275.5744375689
 11
837.2412482934
 21
2270.8979003885
  0
LINE
  5
26F
100
AcDbEntity
  8
4
100
AcDbLine
 62
7
  6
BYLAYER
 10
845.3412482934
 20
2266.221363208
 11
848.0412482934
 21
2270.8979003885
  0
LINE
  5
270
100
AcDbEntity
  8
4
100
AcDbLine
 62
7
  6
BYLAYER
 10
848.0412482934
 20
224.5629979276
 11
845.3412482934
 21
229.239535108
  0
LINE
  5
271
100
AcDbEntity
  8
4
100
AcDbLine
 62
7
  6
BYLAYER
 10
837.2412482934
 20
254.5629979276
 11
839.9412482934
 21
249.8864607472
  0
LINE
  5
272
100
AcDbEntity
  8
4
100
AcDbLine
 62
7
  6
BYLAYER
 10
848.0412482934
 20
254.5629979276
 11
845.3412482934
 21
259.239535108
  0
LINE
  5
273
100
AcDbEntity
  8
3
100
AcDbLine
 62
7
  6
BYLAYER
 10
987.5903791819
 20
2305.5744375689
 11
984.8903791819
 21
2300.8979003885
  0
LINE
  5
274
100
AcDbEntity
  8
3
100
AcDbLine
 62
7
  6
BYLAYER
 10
992.9903791819
 20
2296.221363208
 11
995.6903791819
 21
2300.8979003885
  0
LINE
  5
275
100
AcDbEntity
  8
3
100
AcDbLine
 62
7
  6
BYLAYER
 10
987.5903791819
 20
2275.5744375689
 11
984.8903791819
 21
2270.8979003885
  0
LINE
  5
276
100
AcDbEntity
  8
3
100
AcDbLine
 62
7
  6
BYLAYER
 10
984.8903791819
 20
224.5629979276
 11
987.5903791819
 21
219.8864607472
  0
LINE
  5
277
100
AcDbEntity
  8
3
100
AcDbLine
 62
7
  6
BYLAYER
 10
995.6903791819
 20
224.5629979276
 11
992.9903791819
 21
229.239535108
  0
LINE
  5
278
100
AcDbEntity
  8
3
100
AcDbLine
 62
7
  6
BYLAYER
 10
984.8903791819
 20
254.5629979276
 11
987.5903791819
 21
249.8864607472
  0
LINE
  5
279
100
AcDbEntity
  8
3
100
AcDbLine
 62
7
  6
BYLAYER
 10
995.6903791819
 20
254.5629979276
 11
992.9903791819
 21
259.239535108
  0
LINE
  5
27A
100
AcDbEntity
  8
3
100
AcDbLine
 62
7
  6
BYLAYER
 10
992.9903791819
 20
2266.221363208
 11
995.6903791819
 21
2270.8979003885
  0
LINE
  5
27B
100
AcDbEntity
  8
4
100
AcDbLine
 62
7
  6
BYLAYER
 10
807.4520275683
 20
214.5629979276
 11
807.4520275683
 21
264.5629979276
  0
LINE
  5
27C
100
AcDbEntity
  8
4
100
AcDbLine
 62
7
  6
BYLAYER
 10
807.4520275683
 20
1236.8471387674
 11
807.4520275683
 21
1286.8471387674
  0
LINE
  5
27D
100
AcDbEntity
  8
4
100
AcDbLine
 62
7
  6
BYLAYER
 10
807.4520275683
 20
2260.8979003885
 11
807.4520275683
 21
2310.8979003885
  0
LINE
  5
27E
100
AcDbEntity
  8
4
100
AcDbLine
 62
7
  6
BYLAYER
 10
810.4520275683
 20
2310.8979003885
 11
810.4520275683
 21
2260.8979003885
  0
LINE
  5
27F
100
AcDbEntity
  8
4
100
AcDbLine
 62
7
  6
BYLAYER
 10
810.4520275683
 20
1286.8471387674
 11
810.4520275683
 21
1236.8471387674
  0
LINE
  5
280
100
AcDbEntity
  8
4
100
AcDbLine
 62
7
  6
BYLAYER
 10
810.4520275683
 20
264.5629979276
 11
810.4520275683
 21
214.5629979276
  0
LINE
  5
281
100
AcDbEntity
  8
4
100
AcDbLine
 62
7
  6
BYLAYER
 10
814.4520275683
 20
214.5629979276
 11
814.4520275683
 21
264.5629979276
  0
LINE
  5
282
100
AcDbEntity
  8
4
100
AcDbLine
 62
7
  6
BYLAYER
 10
814.4520275683
 20
1236.8471387674
 11
814.4520275683
 21
1286.8471387674
  0
LINE
  5
283
100
AcDbEntity
  8
4
100
AcDbLine
 62
7
  6
BYLAYER
 10
814.4520275683
 20
2260.8979003885
 11
814.4520275683
 21
2310.8979003885
  0
LINE
  5
284
100
AcDbEntity
  8
0
100
AcDbLine
 62
7
  6
BYLAYER
 10
817.6405222081
 20
2351.214864404
 11
817.6405204827
 21
2350.4160798563
  0
LINE
  5
285
100
AcDbEntity
  8
0
100
AcDbLine
 62
7
  6
BYLAYER
 10
817.6405204838
 20
2352.2148228044
 11
817.6405204838
 21
2350.2267565101
  0
LINE
  5
286
100
AcDbEntity
  8
0
100
AcDbLine
 62
7
  6
BYLAYER
 10
817.6405204838
 20
2350.2148228044
 11
817.6405204838
 21
2335.7148228044
  0
LINE
  5
287
100
AcDbEntity
  8
3
100
AcDbLine
 62
7
  6
BYLAYER
 10
817.6407732517
 20
2335.7148356129
 11
817.6407732517
 21
2310.8979003885
  0
LINE
  5
288
100
AcDbEntity
  8
3
100
AcDbLine
 62
7
  6
BYLAYER
 10
817.6407732517
 20
2260.8979003885
 11
817.6407732517
 21
1286.8471387674
  0
LINE
  5
289
100
AcDbEntity
  8
3
100
AcDbLine
 62
7
  6
BYLAYER
 10
817.6407732517
 20
1236.8471387674
 11
817.6407732517
 21
264.5629979276
  0
LINE
  5
28A
100
AcDbEntity
  8
3
100
AcDbLine
 62
7
  6
BYLAYER
 10
817.6407732517
 20
214.5629979276
 11
817.6407732517
 21
187.2148356129
  0
LINE
  5
28B
100
AcDbEntity
  8
0
100
AcDbLine
 62
7
  6
BYLAYER
 10
817.6412482948
 20
170.7147126659
 11
817.6412482948
 21
187.2147126659
  0
LINE
  5
28C
100
AcDbEntity
  8
0
100
AcDbLine
 62
7
  6
BYLAYER
 10
818.6405204821
 20
2351.2148228044
 11
818.6405204838
 21
2353.2148228044
  0
LINE
  5
28D
100
AcDbEntity
  8
0
100
AcDbLine
 62
7
  6
BYLAYER
 10
818.6412482948
 20
169.7147126659
 11
818.6412482931
 21
171.7147126659
  0
LINE
  5
28E
100
AcDbEntity
  8
0
100
AcDbLine
 62
7
  6
BYLAYER
 10
818.8405204838
 20
2350.7148228044
 11
818.8405204838
 21
2352.3148228044
  0
LINE
  5
28F
100
AcDbEntity
  8
0
100
AcDbLine
 62
7
  6
BYLAYER
 10
818.8412482948
 20
170.6148228044
 11
818.8412482948
 21
172.2148228044
  0
LINE
  5
290
100
AcDbEntity
  8
0
100
AcDbLine
 62
7
  6
BYLAYER
 10
821.6405204838
 20
2335.7148228044
 11
821.6405204838
 21
2350.7148228044
  0
LINE
  5
291
100
AcDbEntity
  8
3
100
AcDbLine
 62
7
  6
BYLAYER
 10
821.6407732517
 20
187.2148356129
 11
821.6407732517
 21
214.5629979276
  0
LINE
  5
292
100
AcDbEntity
  8
3
100
AcDbLine
 62
7
  6
BYLAYER
 10
821.6407732517
 20
264.5629979276
 11
821.6407732517
 21
1236.8471387674
  0
LINE
  5
293
100
AcDbEntity
  8
3
100
AcDbLine
 62
7
  6
BYLAYER
 10
821.6407732517
 20
1286.8471387674
 11
821.6407732517
 21
2260.8979003885
  0
LINE
  5
294
100
AcDbEntity
  8
3
100
AcDbLine
 62
7
  6
BYLAYER
 10
821.6407732517
 20
2310.8979003885
 11
821.6407732517
 21
2335.7148356129
  0
LINE
  5
295
100
AcDbEntity
  8
0
100
AcDbLine
 62
7
  6
BYLAYER
 10
821.6412482948
 20
172.2147126659
 11
821.6412482948
 21
187.2147126659
  0
LINE
  5
296
100
AcDbEntity
  8
0
100
AcDbLine
 62
7
  6
BYLAYER
 10
825.1405204109
 20
2350.7148228044
 11
825.1405204109
 21
2350.2148228044
  0
LINE
  5
297
100
AcDbEntity
  8
0
100
AcDbLine
 62
7
  6
BYLAYER
 10
825.1412482223
 20
172.7147126659
 11
825.1412482223
 21
172.2147126659
  0
LINE
  5
298
100
AcDbEntity
  8
0
100
AcDbLine
 62
7
  6
BYLAYER
 10
825.4405204838
 20
2352.3148228044
 11
825.4405204838
 21
2350.8190052392
  0
LINE
  5
299
100
AcDbEntity
  8
0
100
AcDbLine
 62
7
  6
BYLAYER
 10
825.4412482948
 20
172.1106456717
 11
825.4412482948
 21
170.6148228044
  0
LINE
  5
29A
100
AcDbEntity
  8
0
100
AcDbLine
 62
7
  6
BYLAYER
 10
825.6405204838
 20
2352.2148228044
 11
825.6405204838
 21
2351.2148228044
  0
LINE
  5
29B
100
AcDbEntity
  8
0
100
AcDbLine
 62
7
  6
BYLAYER
 10
825.6412482948
 20
171.7147126659
 11
825.6412482948
 21
170.7147126659
  0
LINE
  5
29C
100
AcDbEntity
  8
0
100
AcDbLine
 62
7
  6
BYLAYER
 10
825.8905204838
 20
2353.2148228044
 11
825.8905204838
 21
2359.2148228044
  0
LINE
  5
29D
100
AcDbEntity
  8
0
100
AcDbLine
 62
7
  6
BYLAYER
 10
826.6405204838
 20
2351.2148228044
 11
826.6405204838
 21
2353.2148228044
  0
LINE
  5
29E
100
AcDbEntity
  8
0
100
AcDbLine
 62
7
  6
BYLAYER
 10
826.6412482948
 20
169.7147126659
 11
826.6412482948
 21
171.7147126659
  0
LINE
  5
29F
100
AcDbEntity
  8
0
100
AcDbLine
 62
7
  6
BYLAYER
 10
827.6405204838
 20
2359.7148228044
 11
827.6405204838
 21
2363.2148218669
  0
LINE
  5
2A0
100
AcDbEntity
  8
0
100
AcDbLine
 62
7
  6
BYLAYER
 10
829.5163004838
 20
2360.9148228044
 11
829.5163004838
 21
2359.7148228044
  0
LINE
  5
2A1
100
AcDbEntity
  8
0
100
AcDbLine
 62
7
  6
BYLAYER
 10
837.7663004838
 20
2360.9148228044
 11
837.7663004838
 21
2359.7148228044
  0
LINE
  5
2A2
100
AcDbEntity
  8
0
100
AcDbLine
 62
7
  6
BYLAYER
 10
838.1405204838
 20
2352.2148228044
 11
838.1405204838
 21
2335.7148228044
  0
LINE
  5
2A3
100
AcDbEntity
  8
3
100
AcDbLine
 62
7
  6
BYLAYER
 10
838.1407732517
 20
2335.7148356129
 11
838.1407732517
 21
2310.8979003885
  0
LINE
  5
2A4
100
AcDbEntity
  8
3
100
AcDbLine
 62
7
  6
BYLAYER
 10
838.1407732517
 20
2260.8979003885
 11
838.1407732517
 21
1286.8471387674
  0
LINE
  5
2A5
100
AcDbEntity
  8
3
100
AcDbLine
 62
7
  6
BYLAYER
 10
838.1407732517
 20
1236.8471387674
 11
838.1407732517
 21
264.5629979276
  0
LINE
  5
2A6
100
AcDbEntity
  8
3
100
AcDbLine
 62
7
  6
BYLAYER
 10
838.1407732517
 20
214.5629979276
 11
838.1407732517
 21
187.2148356129
  0
LINE
  5
2A7
100
AcDbEntity
  8
0
100
AcDbLine
 62
7
  6
BYLAYER
 10
838.1412482948
 20
187.2147126659
 11
838.1412482948
 21
170.7147126659
  0
LINE
  5
2A8
100
AcDbEntity
  8
0
100
AcDbLine
 62
7
  6
BYLAYER
 10
838.6405204838
 20
2335.7148228044
 11
838.6405204838
 21
2352.2148228043
  0
LINE
  5
2A9
100
AcDbEntity
  8
3
100
AcDbLine
 62
7
  6
BYLAYER
 10
838.6407732517
 20
187.2148356129
 11
838.6407732517
 21
214.5629979276
  0
LINE
  5
2AA
100
AcDbEntity
  8
3
100
AcDbLine
 62
7
  6
BYLAYER
 10
838.6407732517
 20
264.5629979276
 11
838.6407732517
 21
1236.8471387674
  0
LINE
  5
2AB
100
AcDbEntity
  8
3
100
AcDbLine
 62
7
  6
BYLAYER
 10
838.6407732517
 20
1286.8471387674
 11
838.6407732517
 21
2260.8979003885
  0
LINE
  5
2AC
100
AcDbEntity
  8
3
100
AcDbLine
 62
7
  6
BYLAYER
 10
838.6407732517
 20
2310.8979003885
 11
838.6407732517
 21
2335.7148356129
  0
LINE
  5
2AD
100
AcDbEntity
  8
0
100
AcDbLine
 62
7
  6
BYLAYER
 10
838.6412482948
 20
170.7147126659
 11
838.6412482948
 21
187.2147126659
  0
LINE
  5
2AE
100
AcDbEntity
  8
0
100
AcDbLine
 62
7
  6
BYLAYER
 10
839.6405204838
 20
2363.2148218669
 11
839.6405204838
 21
2359.7148228044
  0
LINE
  5
2AF
100
AcDbEntity
  8
0
100
AcDbLine
 62
7
  6
BYLAYER
 10
841.3905204838
 20
2353.2148228044
 11
841.3905204838
 21
2359.2148228044
  0
LINE
  5
2B0
100
AcDbEntity
  8
0
100
AcDbLine
 62
7
  6
BYLAYER
 10
843.8905204838
 20
2353.2148228044
 11
843.8905204838
 21
2359.2148228044
  0
LINE
  5
2B1
100
AcDbEntity
  8
0
100
AcDbLine
 62
7
  6
BYLAYER
 10
846.6405204838
 20
2352.2148228043
 11
846.6405204838
 21
2335.7148228044
  0
LINE
  5
2B2
100
AcDbEntity
  8
3
100
AcDbLine
 62
7
  6
BYLAYER
 10
846.6407732517
 20
2335.7148356129
 11
846.6407732517
 21
2310.8979003885
  0
LINE
  5
2B3
100
AcDbEntity
  8
3
100
AcDbLine
 62
7
  6
BYLAYER
 10
846.6407732517
 20
2260.8979003885
 11
846.6407732517
 21
1286.8471387674
  0
LINE
  5
2B4
100
AcDbEntity
  8
3
100
AcDbLine
 62
7
  6
BYLAYER
 10
846.6407732517
 20
1236.8471387674
 11
846.6407732517
 21
264.5629979276
  0
LINE
  5
2B5
100
AcDbEntity
  8
3
100
AcDbLine
 62
7
  6
BYLAYER
 10
846.6407732517
 20
214.5629979276
 11
846.6407732517
 21
187.2148356129
  0
LINE
  5
2B6
100
AcDbEntity
  8
0
100
AcDbLine
 62
7
  6
BYLAYER
 10
846.6412482948
 20
187.2147126659
 11
846.6412482948
 21
170.714712666
  0
LINE
  5
2B7
100
AcDbEntity
  8
0
100
AcDbLine
 62
7
  6
BYLAYER
 10
847.1405204838
 20
2335.7148228044
 11
847.1405204838
 21
2352.2148228044
  0
LINE
  5
2B8
100
AcDbEntity
  8
3
100
AcDbLine
 62
7
  6
BYLAYER
 10
847.1407732517
 20
187.2148356129
 11
847.1407732517
 21
214.5629979276
  0
LINE
  5
2B9
100
AcDbEntity
  8
3
100
AcDbLine
 62
7
  6
BYLAYER
 10
847.1407732517
 20
264.5629979276
 11
847.1407732517
 21
1236.8471387674
  0
LINE
  5
2BA
100
AcDbEntity
  8
3
100
AcDbLine
 62
7
  6
BYLAYER
 10
847.1407732517
 20
1286.8471387674
 11
847.1407732517
 21
2260.8979003885
  0
LINE
  5
2BB
100
AcDbEntity
  8
3
100
AcDbLine
 62
7
  6
BYLAYER
 10
847.1407732517
 20
2310.8979003885
 11
847.1407732517
 21
2335.7148356129
  0
LINE
  5
2BC
100
AcDbEntity
  8
0
100
AcDbLine
 62
7
  6
BYLAYER
 10
847.1412482948
 20
170.7147126659
 11
847.1412482948
 21
187.2147126659
  0
LINE
  5
2BD
100
AcDbEntity
  8
0
100
AcDbLine
 62
7
  6
BYLAYER
 10
847.5172804838
 20
2360.9148228044
 11
847.5172804838
 21
2359.7148228044
  0
LINE
  5
2BE
100
AcDbEntity
  8
4
100
AcDbLine
 62
7
  6
BYLAYER
 10
839.9412482934
 20
1281.5236759478
 11
837.2412482934
 21
1276.8471387674
  0
LINE
  5
2BF
100
AcDbEntity
  8
4
100
AcDbLine
 62
7
  6
BYLAYER
 10
837.2412482934
 20
1246.8471387674
 11
839.9412482934
 21
1242.170601587
  0
LINE
  5
2C0
100
AcDbEntity
  8
4
100
AcDbLine
 62
7
  6
BYLAYER
 10
848.0412482934
 20
1246.8471387674
 11
845.3412482934
 21
1251.5236759478
  0
LINE
  5
2C1
100
AcDbEntity
  8
0
100
AcDbLine
 62
7
  6
BYLAYER
 10
855.7672804838
 20
2360.9148228044
 11
855.7672804838
 21
2359.7148228044
  0
LINE
  5
2C2
100
AcDbEntity
  8
4
100
AcDbLine
 62
7
  6
BYLAYER
 10
857.4520275683
 20
2305.8979003885
 11
857.4520275683
 21
2265.8979003885
  0
LINE
  5
2C3
100
AcDbEntity
  8
4
100
AcDbLine
 62
7
  6
BYLAYER
 10
857.4520275683
 20
1281.8471387674
 11
857.4520275683
 21
1241.8471387674
  0
LINE
  5
2C4
100
AcDbEntity
  8
4
100
AcDbLine
 62
7
  6
BYLAYER
 10
857.4520275683
 20
259.5629979276
 11
857.4520275683
 21
219.5629979276
  0
LINE
  5
2C5
100
AcDbEntity
  8
0
100
AcDbLine
 62
7
  6
BYLAYER
 10
858.6405204838
 20
2353.2148228044
 11
858.6405204838
 21
2351.2148228044
  0
LINE
  5
2C6
100
AcDbEntity
  8
0
100
AcDbLine
 62
7
  6
BYLAYER
 10
858.6412482948
 20
171.7147126659
 11
858.6412482948
 21
169.7147126659
  0
LINE
  5
2C7
100
AcDbEntity
  8
0
100
AcDbLine
 62
7
  6
BYLAYER
 10
859.3905204838
 20
2353.2148228044
 11
859.3905204838
 21
2359.2148228044
  0
LINE
  5
2C8
100
AcDbEntity
  8
0
100
AcDbLine
 62
7
  6
BYLAYER
 10
859.6405204838
 20
2351.2148228044
 11
859.6405204838
 21
2352.2148228044
  0
LINE
  5
2C9
100
AcDbEntity
  8
0
100
AcDbLine
 62
7
  6
BYLAYER
 10
859.6412482948
 20
170.7147126659
 11
859.6412482948
 21
171.7147126659
  0
LINE
  5
2CA
100
AcDbEntity
  8
0
100
AcDbLine
 62
7
  6
BYLAYER
 10
859.8405204838
 20
2350.8188897984
 11
859.8405204838
 21
2352.3148228044
  0
LINE
  5
2CB
100
AcDbEntity
  8
0
100
AcDbLine
 62
7
  6
BYLAYER
 10
859.8412482919
 20
170.6148228044
 11
859.8412482919
 21
172.1105302292
  0
LINE
  5
2CC
100
AcDbEntity
  8
0
100
AcDbLine
 62
7
  6
BYLAYER
 10
860.1405205563
 20
2350.2148228044
 11
860.1405205563
 21
2350.7148228044
  0
LINE
  5
2CD
100
AcDbEntity
  8
0
100
AcDbLine
 62
7
  6
BYLAYER
 10
860.1412483677
 20
172.2147126659
 11
860.1412483677
 21
172.7147126659
  0
LINE
  5
2CE
100
AcDbEntity
  8
0
100
AcDbLine
 62
7
  6
BYLAYER
 10
863.6405204838
 20
2350.7148228044
 11
863.6405204838
 21
2335.7148228044
  0
LINE
  5
2CF
100
AcDbEntity
  8
3
100
AcDbLine
 62
7
  6
BYLAYER
 10
863.6407732517
 20
2335.7148356129
 11
863.6407732517
 21
187.2148356129
  0
LINE
  5
2D0
100
AcDbEntity
  8
0
100
AcDbLine
 62
7
  6
BYLAYER
 10
863.6412482948
 20
187.2147126659
 11
863.6412482948
 21
172.2147126659
  0
LINE
  5
2D1
100
AcDbEntity
  8
0
100
AcDbLine
 62
7
  6
BYLAYER
 10
866.4405204838
 20
2352.3148228044
 11
866.4405204838
 21
2350.7148228044
  0
LINE
  5
2D2
100
AcDbEntity
  8
0
100
AcDbLine
 62
7
  6
BYLAYER
 10
866.4412482919
 20
172.2148228044
 11
866.4412482919
 21
170.6148228044
  0
LINE
  5
2D3
100
AcDbEntity
  8
0
100
AcDbLine
 62
7
  6
BYLAYER
 10
866.6405204838
 20
2353.2148228044
 11
866.6405204855
 21
2351.2148228044
  0
LINE
  5
2D4
100
AcDbEntity
  8
0
100
AcDbLine
 62
7
  6
BYLAYER
 10
866.6412482965
 20
171.7147126659
 11
866.6412482948
 21
169.7147126659
  0
LINE
  5
2D5
100
AcDbEntity
  8
0
100
AcDbLine
 62
7
  6
BYLAYER
 10
867.6405204838
 20
2335.7148228044
 11
867.6405204838
 21
2352.2148228044
  0
LINE
  5
2D6
100
AcDbEntity
  8
3
100
AcDbLine
 62
7
  6
BYLAYER
 10
867.6407732517
 20
187.2148356129
 11
867.6407732517
 21
2335.7148356129
  0
LINE
  5
2D7
100
AcDbEntity
  8
0
100
AcDbLine
 62
7
  6
BYLAYER
 10
867.6412482948
 20
172.7147126659
 11
867.6412482948
 21
187.2147126659
  0
LINE
  5
2D8
100
AcDbEntity
  8
0
100
AcDbLine
 62
7
  6
BYLAYER
 10
867.6412482948
 20
170.7147126659
 11
867.6412482943
 21
172.7087305698
  0
LINE
  5
2D9
100
AcDbEntity
  8
0
100
AcDbLine
 62
7
  6
BYLAYER
 10
867.641246529
 20
171.7146638772
 11
867.6412482951
 21
172.5180830048
  0
LINE
  5
2DA
100
AcDbEntity
  8
4
100
AcDbLine
 62
7
  6
BYLAYER
 10
845.3412482934
 20
1272.170601587
 11
848.0412482934
 21
1276.8471387674
  0
LINE
  5
2DB
100
AcDbEntity
  8
4
100
AcDbLine
 62
7
  6
BYLAYER
 10
839.9412482934
 20
1251.5236759478
 11
837.2412482934
 21
1246.8471387674
  0
LINE
  5
2DC
100
AcDbEntity
  8
4
100
AcDbLine
 62
7
  6
BYLAYER
 10
845.3412482934
 20
1242.170601587
 11
848.0412482934
 21
1246.8471387674
  0
LINE
  5
2DD
100
AcDbEntity
  8
4
100
AcDbLine
 62
7
  6
BYLAYER
 10
807.4520275683
 20
1236.8471387674
 11
852.4520275683
 21
1236.8471387674
  0
LINE
  5
2DE
100
AcDbEntity
  8
3
100
AcDbLine
 62
7
  6
BYLAYER
 10
955.1011584568
 20
1236.8471387674
 11
1000.1011584568
 21
1236.8471387674
  0
LINE
  5
2DF
100
AcDbEntity
  8
3
100
AcDbLine
 62
7
  6
BYLAYER
 10
958.1011584568
 20
1241.8471387674
 11
955.1011584568
 21
1241.8471387674
  0
LINE
  5
2E0
100
AcDbEntity
  8
4
100
AcDbLine
 62
7
  6
BYLAYER
 10
810.4520275683
 20
1241.8471387674
 11
807.4520275683
 21
1241.8471387674
  0
LINE
  5
2E1
100
AcDbEntity
  8
3
100
AcDbLine
 62
7
  6
BYLAYER
 10
992.9903791819
 20
1242.170601587
 11
987.5903791819
 21
1242.170601587
  0
LINE
  5
2E2
100
AcDbEntity
  8
4
100
AcDbLine
 62
7
  6
BYLAYER
 10
845.3412482934
 20
1242.170601587
 11
839.9412482934
 21
1242.170601587
  0
LINE
  5
2E3
100
AcDbEntity
  8
4
100
AcDbLine
 62
7
  6
BYLAYER
 10
835.7520275683
 20
1243.5971387674
 11
837.2369388245
 21
1243.5971387674
  0
LINE
  5
2E4
100
AcDbEntity
  8
4
100
AcDbLine
 62
7
  6
BYLAYER
 10
848.0452202226
 20
1243.5971387674
 11
849.2520275683
 21
1243.5971387674
  0
LINE
  5
2E5
100
AcDbEntity
  8
3
100
AcDbLine
 62
7
  6
BYLAYER
 10
983.4011584568
 20
1243.5971387674
 11
984.886069713
 21
1243.5971387674
  0
LINE
  5
2E6
100
AcDbEntity
  8
3
100
AcDbLine
 62
7
  6
BYLAYER
 10
995.6943511111
 20
1243.5971387674
 11
996.9011584568
 21
1243.5971387674
  0
LINE
  5
2E7
100
AcDbEntity
  8
3
100
AcDbLine
 62
7
  6
BYLAYER
 10
996.9011584568
 20
1250.0971387674
 11
995.6946886507
 21
1250.0971387674
  0
LINE
  5
2E8
100
AcDbEntity
  8
3
100
AcDbLine
 62
7
  6
BYLAYER
 10
984.8864072526
 20
1250.0971387674
 11
983.4011584568
 21
1250.0971387674
  0
LINE
  5
2E9
100
AcDbEntity
  8
4
100
AcDbLine
 62
7
  6
BYLAYER
 10
849.2520275683
 20
1250.0971387674
 11
848.0455577622
 21
1250.0971387674
  0
LINE
  5
2EA
100
AcDbEntity
  8
4
100
AcDbLine
 62
7
  6
BYLAYER
 10
837.2372763641
 20
1250.0971387674
 11
835.7520275683
 21
1250.0971387674
  0
LINE
  5
2EB
100
AcDbEntity
  8
4
100
AcDbLine
 62
7
  6
BYLAYER
 10
839.9412482934
 20
1251.5236759478
 11
845.3412482934
 21
1251.5236759478
  0
LINE
  5
2EC
100
AcDbEntity
  8
3
100
AcDbLine
 62
7
  6
BYLAYER
 10
987.5903791819
 20
1251.5236759478
 11
992.9903791819
 21
1251.5236759478
  0
LINE
  5
2ED
100
AcDbEntity
  8
3
100
AcDbLine
 62
7
  6
BYLAYER
 10
992.9903791819
 20
1272.170601587
 11
987.5903791819
 21
1272.170601587
  0
LINE
  5
2EE
100
AcDbEntity
  8
4
100
AcDbLine
 62
7
  6
BYLAYER
 10
845.3412482934
 20
1272.170601587
 11
839.9412482934
 21
1272.170601587
  0
LINE
  5
2EF
100
AcDbEntity
  8
4
100
AcDbLine
 62
7
  6
BYLAYER
 10
835.7520275683
 20
1273.5971387674
 11
837.2369388245
 21
1273.5971387674
  0
LINE
  5
2F0
100
AcDbEntity
  8
4
100
AcDbLine
 62
7
  6
BYLAYER
 10
848.0452202226
 20
1273.5971387674
 11
849.2520275683
 21
1273.5971387674
  0
LINE
  5
2F1
100
AcDbEntity
  8
3
100
AcDbLine
 62
7
  6
BYLAYER
 10
983.4011584568
 20
1273.5971387674
 11
984.886069713
 21
1273.5971387674
  0
LINE
  5
2F2
100
AcDbEntity
  8
3
100
AcDbLine
 62
7
  6
BYLAYER
 10
995.6943511111
 20
1273.5971387674
 11
996.9011584568
 21
1273.5971387674
  0
LINE
  5
2F3
100
AcDbEntity
  8
4
100
AcDbLine
 62
7
  6
BYLAYER
 10
837.2412482934
 20
1276.8471387674
 11
839.9412482934
 21
1272.170601587
  0
LINE
  5
2F4
100
AcDbEntity
  8
4
100
AcDbLine
 62
7
  6
BYLAYER
 10
848.0412482934
 20
1276.8471387674
 11
845.3412482934
 21
1281.5236759478
  0
LINE
  5
2F5
100
AcDbEntity
  8
3
100
AcDbLine
 62
7
  6
BYLAYER
 10
955.1011584568
 20
214.5629979276
 11
955.1011584568
 21
264.5629979276
  0
LINE
  5
2F6
100
AcDbEntity
  8
3
100
AcDbLine
 62
7
  6
BYLAYER
 10
955.1011584568
 20
1236.8471387674
 11
955.1011584568
 21
1286.8471387674
  0
LINE
  5
2F7
100
AcDbEntity
  8
3
100
AcDbLine
 62
7
  6
BYLAYER
 10
955.1011584568
 20
2260.8979003885
 11
955.1011584568
 21
2310.8979003885
  0
LINE
  5
2F8
100
AcDbEntity
  8
3
100
AcDbLine
 62
7
  6
BYLAYER
 10
958.1011584568
 20
2310.8979003885
 11
958.1011584568
 21
2260.8979003885
  0
LINE
  5
2F9
100
AcDbEntity
  8
3
100
AcDbLine
 62
7
  6
BYLAYER
 10
958.1011584568
 20
1286.8471387674
 11
958.1011584568
 21
1236.8471387674
  0
LINE
  5
2FA
100
AcDbEntity
  8
3
100
AcDbLine
 62
7
  6
BYLAYER
 10
958.1011584568
 20
264.5629979276
 11
958.1011584568
 21
214.5629979276
  0
LINE
  5
2FB
100
AcDbEntity
  8
3
100
AcDbLine
 62
7
  6
BYLAYER
 10
962.1011584568
 20
214.5629979276
 11
962.1011584568
 21
264.5629979276
  0
LINE
  5
2FC
100
AcDbEntity
  8
3
100
AcDbLine
 62
7
  6
BYLAYER
 10
962.1011584568
 20
1236.8471387674
 11
962.1011584568
 21
1286.8471387674
  0
LINE
  5
2FD
100
AcDbEntity
  8
3
100
AcDbLine
 62
7
  6
BYLAYER
 10
962.1011584568
 20
2260.8979003885
 11
962.1011584568
 21
2310.8979003885
  0
LINE
  5
2FE
100
AcDbEntity
  8
0
100
AcDbLine
 62
7
  6
BYLAYER
 10
965.289653102
 20
2351.2148650704
 11
965.2896513712
 21
2350.4156489971
  0
LINE
  5
2FF
100
AcDbEntity
  8
0
100
AcDbLine
 62
7
  6
BYLAYER
 10
965.2896513723
 20
2352.2148228044
 11
965.2896513723
 21
2350.2266731358
  0
LINE
  5
300
100
AcDbEntity
  8
0
100
AcDbLine
 62
7
  6
BYLAYER
 10
965.2896513723
 20
2350.2148228044
 11
965.2896513723
 21
2335.7148228044
  0
LINE
  5
301
100
AcDbEntity
  8
3
100
AcDbLine
 62
7
  6
BYLAYER
 10
965.2899041403
 20
2335.7148356129
 11
965.2899041403
 21
2310.8979003885
  0
LINE
  5
302
100
AcDbEntity
  8
3
100
AcDbLine
 62
7
  6
BYLAYER
 10
965.2899041403
 20
2260.8979003885
 11
965.2899041403
 21
1286.8471387674
  0
LINE
  5
303
100
AcDbEntity
  8
3
100
AcDbLine
 62
7
  6
BYLAYER
 10
965.2899041403
 20
1236.8471387674
 11
965.2899041403
 21
264.5629979276
  0
LINE
  5
304
100
AcDbEntity
  8
3
100
AcDbLine
 62
7
  6
BYLAYER
 10
965.2899041403
 20
214.5629979276
 11
965.2899041403
 21
187.2148356129
  0
LINE
  5
305
100
AcDbEntity
  8
0
100
AcDbLine
 62
7
  6
BYLAYER
 10
965.2903791833
 20
170.7147126659
 11
965.2903791833
 21
187.2147126659
  0
LINE
  5
306
100
AcDbEntity
  8
0
100
AcDbLine
 62
7
  6
BYLAYER
 10
966.2896513706
 20
2351.2148228044
 11
966.2896513723
 21
2353.2148228044
  0
LINE
  5
307
100
AcDbEntity
  8
0
100
AcDbLine
 62
7
  6
BYLAYER
 10
966.2903791833
 20
169.7147126659
 11
966.2903791816
 21
171.7147126659
  0
LINE
  5
308
100
AcDbEntity
  8
0
100
AcDbLine
 62
7
  6
BYLAYER
 10
966.4896513723
 20
2350.7148228044
 11
966.4896513723
 21
2352.3148228044
  0
LINE
  5
309
100
AcDbEntity
  8
0
100
AcDbLine
 62
7
  6
BYLAYER
 10
966.4903791833
 20
170.6148228044
 11
966.4903791833
 21
172.2148228044
  0
LINE
  5
30A
100
AcDbEntity
  8
0
100
AcDbLine
 62
7
  6
BYLAYER
 10
969.2896513723
 20
2335.7148228044
 11
969.2896513723
 21
2350.7148228044
  0
LINE
  5
30B
100
AcDbEntity
  8
3
100
AcDbLine
 62
7
  6
BYLAYER
 10
969.2899041403
 20
187.2148356129
 11
969.2899041403
 21
214.5629979276
  0
LINE
  5
30C
100
AcDbEntity
  8
3
100
AcDbLine
 62
7
  6
BYLAYER
 10
969.2899041403
 20
264.5629979276
 11
969.2899041403
 21
1236.8471387674
  0
LINE
  5
30D
100
AcDbEntity
  8
3
100
AcDbLine
 62
7
  6
BYLAYER
 10
969.2899041403
 20
1286.8471387674
 11
969.2899041403
 21
2260.8979003885
  0
LINE
  5
30E
100
AcDbEntity
  8
3
100
AcDbLine
 62
7
  6
BYLAYER
 10
969.2899041403
 20
2310.8979003885
 11
969.2899041403
 21
2335.7148356129
  0
LINE
  5
30F
100
AcDbEntity
  8
0
100
AcDbLine
 62
7
  6
BYLAYER
 10
969.2903791833
 20
172.2147126659
 11
969.2903791833
 21
187.2147126659
  0
LINE
  5
310
100
AcDbEntity
  8
0
100
AcDbLine
 62
7
  6
BYLAYER
 10
972.7896512994
 20
2350.7148228044
 11
972.7896512994
 21
2350.2148228044
  0
LINE
  5
311
100
AcDbEntity
  8
0
100
AcDbLine
 62
7
  6
BYLAYER
 10
972.7903791108
 20
172.7147126659
 11
972.7903791108
 21
172.2147126659
  0
LINE
  5
312
100
AcDbEntity
  8
0
100
AcDbLine
 62
7
  6
BYLAYER
 10
973.0896513723
 20
2352.3148228044
 11
973.0896513723
 21
2350.8190052392
  0
LINE
  5
313
100
AcDbEntity
  8
0
100
AcDbLine
 62
7
  6
BYLAYER
 10
973.0903791833
 20
172.1106456717
 11
973.0903791833
 21
170.6148228044
  0
LINE
  5
314
100
AcDbEntity
  8
0
100
AcDbLine
 62
7
  6
BYLAYER
 10
973.2896513723
 20
2352.2148228044
 11
973.2896513723
 21
2351.2148228044
  0
LINE
  5
315
100
AcDbEntity
  8
0
100
AcDbLine
 62
7
  6
BYLAYER
 10
973.2903791833
 20
171.7147126659
 11
973.2903791833
 21
170.7147126659
  0
LINE
  5
316
100
AcDbEntity
  8
0
100
AcDbLine
 62
7
  6
BYLAYER
 10
973.5396513723
 20
2353.2148228044
 11
973.5396513723
 21
2359.2148228044
  0
LINE
  5
317
100
AcDbEntity
  8
0
100
AcDbLine
 62
7
  6
BYLAYER
 10
974.2896513723
 20
2351.2148228044
 11
974.2896513723
 21
2353.2148228044
  0
LINE
  5
318
100
AcDbEntity
  8
0
100
AcDbLine
 62
7
  6
BYLAYER
 10
974.2903791833
 20
169.7147126659
 11
974.2903791833
 21
171.7147126659
  0
LINE
  5
319
100
AcDbEntity
  8
0
100
AcDbLine
 62
7
  6
BYLAYER
 10
975.2896513723
 20
2359.7148228044
 11
975.2896513723
 21
2363.2148218669
  0
LINE
  5
31A
100
AcDbEntity
  8
0
100
AcDbLine
 62
7
  6
BYLAYER
 10
977.1654313723
 20
2360.9148228044
 11
977.1654313723
 21
2359.7148228044
  0
LINE
  5
31B
100
AcDbEntity
  8
0
100
AcDbLine
 62
7
  6
BYLAYER
 10
985.4154313723
 20
2360.9148228044
 11
985.4154313723
 21
2359.7148228044
  0
LINE
  5
31C
100
AcDbEntity
  8
0
100
AcDbLine
 62
7
  6
BYLAYER
 10
985.7896513723
 20
2352.2148228044
 11
985.7896513723
 21
2335.7148228044
  0
LINE
  5
31D
100
AcDbEntity
  8
3
100
AcDbLine
 62
7
  6
BYLAYER
 10
985.7899041403
 20
2335.7148356129
 11
985.7899041403
 21
2310.8979003885
  0
LINE
  5
31E
100
AcDbEntity
  8
3
100
AcDbLine
 62
7
  6
BYLAYER
 10
985.7899041403
 20
2260.8979003885
 11
985.7899041403
 21
1286.8471387674
  0
LINE
  5
31F
100
AcDbEntity
  8
3
100
AcDbLine
 62
7
  6
BYLAYER
 10
985.7899041403
 20
1236.8471387674
 11
985.7899041403
 21
264.5629979276
  0
LINE
  5
320
100
AcDbEntity
  8
3
100
AcDbLine
 62
7
  6
BYLAYER
 10
985.7899041403
 20
214.5629979276
 11
985.7899041403
 21
187.2148356129
  0
LINE
  5
321
100
AcDbEntity
  8
0
100
AcDbLine
 62
7
  6
BYLAYER
 10
985.7903791833
 20
187.2147126659
 11
985.7903791833
 21
170.7147126659
  0
LINE
  5
322
100
AcDbEntity
  8
0
100
AcDbLine
 62
7
  6
BYLAYER
 10
986.2896513723
 20
2335.7148228044
 11
986.2896513723
 21
2352.2148228043
  0
LINE
  5
323
100
AcDbEntity
  8
3
100
AcDbLine
 62
7
  6
BYLAYER
 10
986.2899041403
 20
187.2148356129
 11
986.2899041403
 21
214.5629979276
  0
LINE
  5
324
100
AcDbEntity
  8
3
100
AcDbLine
 62
7
  6
BYLAYER
 10
986.2899041403
 20
264.5629979276
 11
986.2899041403
 21
1236.8471387674
  0
LINE
  5
325
100
AcDbEntity
  8
3
100
AcDbLine
 62
7
  6
BYLAYER
 10
986.2899041403
 20
1286.8471387674
 11
986.2899041403
 21
2260.8979003885
  0
LINE
  5
326
100
AcDbEntity
  8
3
100
AcDbLine
 62
7
  6
BYLAYER
 10
986.2899041403
 20
2310.8979003885
 11
986.2899041403
 21
2335.7148356129
  0
LINE
  5
327
100
AcDbEntity
  8
0
100
AcDbLine
 62
7
  6
BYLAYER
 10
986.2903791833
 20
170.7147126659
 11
986.2903791833
 21
187.2147126659
  0
LINE
  5
328
100
AcDbEntity
  8
0
100
AcDbLine
 62
7
  6
BYLAYER
 10
987.2896513723
 20
2363.2148218669
 11
987.2896513723
 21
2359.7148228044
  0
LINE
  5
329
100
AcDbEntity
  8
0
100
AcDbLine
 62
7
  6
BYLAYER
 10
989.0396513723
 20
2353.2148228044
 11
989.0396513723
 21
2359.2148228044
  0
LINE
  5
32A
100
AcDbEntity
  8
0
100
AcDbLine
 62
7
  6
BYLAYER
 10
991.5396513723
 20
2353.2148228044
 11
991.5396513723
 21
2359.2148228044
  0
LINE
  5
32B
100
AcDbEntity
  8
0
100
AcDbLine
 62
7
  6
BYLAYER
 10
994.2896513723
 20
2352.2148228043
 11
994.2896513723
 21
2335.7148228044
  0
LINE
  5
32C
100
AcDbEntity
  8
3
100
AcDbLine
 62
7
  6
BYLAYER
 10
994.2899041403
 20
2335.7148356129
 11
994.2899041403
 21
2310.8979003885
  0
LINE
  5
32D
100
AcDbEntity
  8
3
100
AcDbLine
 62
7
  6
BYLAYER
 10
994.2899041403
 20
2260.8979003885
 11
994.2899041403
 21
1286.8471387674
  0
LINE
  5
32E
100
AcDbEntity
  8
3
100
AcDbLine
 62
7
  6
BYLAYER
 10
994.2899041403
 20
1236.8471387674
 11
994.2899041403
 21
264.5629979276
  0
LINE
  5
32F
100
AcDbEntity
  8
3
100
AcDbLine
 62
7
  6
BYLAYER
 10
994.2899041403
 20
214.5629979276
 11
994.2899041403
 21
187.2148356129
  0
LINE
  5
330
100
AcDbEntity
  8
0
100
AcDbLine
 62
7
  6
BYLAYER
 10
994.2903791833
 20
187.2147126659
 11
994.2903791833
 21
170.714712666
  0
LINE
  5
331
100
AcDbEntity
  8
3
100
AcDbLine
 62
7
  6
BYLAYER
 10
987.5903791819
 20
1281.5236759478
 11
984.8903791819
 21
1276.8471387674
  0
LINE
  5
332
100
AcDbEntity
  8
3
100
AcDbLine
 62
7
  6
BYLAYER
 10
992.9903791819
 20
1272.170601587
 11
995.6903791819
 21
1276.8471387674
  0
LINE
  5
333
100
AcDbEntity
  8
3
100
AcDbLine
 62
7
  6
BYLAYER
 10
987.5903791819
 20
1251.5236759478
 11
984.8903791819
 21
1246.8471387674
  0
LINE
  5
334
100
AcDbEntity
  8
3
100
AcDbLine
 62
7
  6
BYLAYER
 10
992.9903791819
 20
1242.170601587
 11
995.6903791819
 21
1246.8471387674
  0
LINE
  5
335
100
AcDbEntity
  8
3
100
AcDbLine
 62
7
  6
BYLAYER
 10
996.9011584568
 20
1280.0971387674
 11
995.6946886507
 21
1280.0971387674
  0
LINE
  5
336
100
AcDbEntity
  8
3
100
AcDbLine
 62
7
  6
BYLAYER
 10
984.8864072526
 20
1280.0971387674
 11
983.4011584568
 21
1280.0971387674
  0
LINE
  5
337
100
AcDbEntity
  8
4
100
AcDbLine
 62
7
  6
BYLAYER
 10
849.2520275683
 20
1280.0971387674
 11
848.0455577622
 21
1280.0971387674
  0
LINE
  5
338
100
AcDbEntity
  8
4
100
AcDbLine
 62
7
  6
BYLAYER
 10
837.2372763641
 20
1280.0971387674
 11
835.7520275683
 21
1280.0971387674
  0
LINE
  5
339
100
AcDbEntity
  8
4
100
AcDbLine
 62
7
  6
BYLAYER
 10
839.9412482934
 20
1281.5236759478
 11
845.3412482934
 21
1281.5236759478
  0
LINE
  5
33A
100
AcDbEntity
  8
3
100
AcDbLine
 62
7
  6
BYLAYER
 10
987.5903791819
 20
1281.5236759478
 11
992.9903791819
 21
1281.5236759478
  0
LINE
  5
33B
100
AcDbEntity
  8
4
100
AcDbLine
 62
7
  6
BYLAYER
 10
807.4520275683
 20
1281.8471387674
 11
810.4520275683
 21
1281.8471387674
  0
LINE
  5
33C
100
AcDbEntity
  8
3
100
AcDbLine
 62
7
  6
BYLAYER
 10
955.1011584568
 20
1281.8471387674
 11
958.1011584568
 21
1281.8471387674
  0
LINE
  5
33D
100
AcDbEntity
  8
4
100
AcDbLine
 62
7
  6
BYLAYER
 10
807.4520275683
 20
1286.8471387674
 11
852.4520275683
 21
1286.8471387674
  0
LINE
  5
33E
100
AcDbEntity
  8
3
100
AcDbLine
 62
7
  6
BYLAYER
 10
955.1011584568
 20
1286.8471387674
 11
1000.1011584568
 21
1286.8471387674
  0
LINE
  5
33F
100
AcDbEntity
  8
3
100
AcDbLine
 62
7
  6
BYLAYER
 10
984.8903791819
 20
1246.8471387674
 11
987.5903791819
 21
1242.170601587
  0
LINE
  5
340
100
AcDbEntity
  8
3
100
AcDbLine
 62
7
  6
BYLAYER
 10
995.6903791819
 20
1246.8471387674
 11
992.9903791819
 21
1251.5236759478
  0
LINE
  5
341
100
AcDbEntity
  8
3
100
AcDbLine
 62
7
  6
BYLAYER
 10
984.8903791819
 20
1276.8471387674
 11
987.5903791819
 21
1272.170601587
  0
LINE
  5
342
100
AcDbEntity
  8
3
100
AcDbLine
 62
7
  6
BYLAYER
 10
995.6903791819
 20
1276.8471387674
 11
992.9903791819
 21
1281.5236759478
  0
LINE
  5
343
100
AcDbEntity
  8
0
100
AcDbLine
 62
7
  6
BYLAYER
 10
994.7896513723
 20
2335.7148228044
 11
994.7896513723
 21
2352.2148228044
  0
LINE
  5
344
100
AcDbEntity
  8
3
100
AcDbLine
 62
7
  6
BYLAYER
 10
994.7899041403
 20
187.2148356129
 11
994.7899041403
 21
214.5629979276
  0
LINE
  5
345
100
AcDbEntity
  8
3
100
AcDbLine
 62
7
  6
BYLAYER
 10
994.7899041403
 20
264.5629979276
 11
994.7899041403
 21
1236.8471387674
  0
LINE
  5
346
100
AcDbEntity
  8
3
100
AcDbLine
 62
7
  6
BYLAYER
 10
994.7899041403
 20
1286.8471387674
 11
994.7899041403
 21
2260.8979003885
  0
LINE
  5
347
100
AcDbEntity
  8
3
100
AcDbLine
 62
7
  6
BYLAYER
 10
994.7899041403
 20
2310.8979003885
 11
994.7899041403
 21
2335.7148356129
  0
LINE
  5
348
100
AcDbEntity
  8
0
100
AcDbLine
 62
7
  6
BYLAYER
 10
994.7903791833
 20
170.7147126659
 11
994.7903791833
 21
187.2147126659
  0
LINE
  5
349
100
AcDbEntity
  8
0
100
AcDbLine
 62
7
  6
BYLAYER
 10
995.1664113723
 20
2360.9148228044
 11
995.1664113723
 21
2359.7148228044
  0
LINE
  5
34A
100
AcDbEntity
  8
0
100
AcDbLine
 62
7
  6
BYLAYER
 10
1003.4164113723
 20
2360.9148228044
 11
1003.4164113723
 21
2359.7148228044
  0
LINE
  5
34B
100
AcDbEntity
  8
3
100
AcDbLine
 62
7
  6
BYLAYER
 10
1005.1011584568
 20
2305.8979003885
 11
1005.1011584568
 21
2265.8979003885
  0
LINE
  5
34C
100
AcDbEntity
  8
3
100
AcDbLine
 62
7
  6
BYLAYER
 10
1005.1011584568
 20
1281.8471387674
 11
1005.1011584568
 21
1241.8471387674
  0
LINE
  5
34D
100
AcDbEntity
  8
3
100
AcDbLine
 62
7
  6
BYLAYER
 10
1005.1011584568
 20
259.5629979276
 11
1005.1011584568
 21
219.5629979276
  0
LINE
  5
34E
100
AcDbEntity
  8
0
100
AcDbLine
 62
7
  6
BYLAYER
 10
1006.2896513723
 20
2353.2148228044
 11
1006.2896513723
 21
2351.2148228044
  0
LINE
  5
34F
100
AcDbEntity
  8
0
100
AcDbLine
 62
7
  6
BYLAYER
 10
1006.2903791833
 20
171.7147126659
 11
1006.2903791833
 21
169.7147126659
  0
LINE
  5
350
100
AcDbEntity
  8
0
100
AcDbLine
 62
7
  6
BYLAYER
 10
1007.0396513723
 20
2353.2148228044
 11
1007.0396513723
 21
2359.2148228044
  0
LINE
  5
351
100
AcDbEntity
  8
0
100
AcDbLine
 62
7
  6
BYLAYER
 10
1007.2896513723
 20
2351.2148228044
 11
1007.2896513723
 21
2352.2148228044
  0
LINE
  5
352
100
AcDbEntity
  8
0
100
AcDbLine
 62
7
  6
BYLAYER
 10
1007.2903791833
 20
170.7147126659
 11
1007.2903791833
 21
171.7147126659
  0
LINE
  5
353
100
AcDbEntity
  8
0
100
AcDbLine
 62
7
  6
BYLAYER
 10
1007.4896513723
 20
2350.8188897984
 11
1007.4896513723
 21
2352.3148228044
  0
LINE
  5
354
100
AcDbEntity
  8
0
100
AcDbLine
 62
7
  6
BYLAYER
 10
1007.4903791804
 20
170.6148228044
 11
1007.4903791804
 21
172.1105302292
  0
LINE
  5
355
100
AcDbEntity
  8
0
100
AcDbLine
 62
7
  6
BYLAYER
 10
1007.7896514448
 20
2350.2148228044
 11
1007.7896514448
 21
2350.7148228044
  0
LINE
  5
356
100
AcDbEntity
  8
0
100
AcDbLine
 62
7
  6
BYLAYER
 10
1007.7903792562
 20
172.2147126659
 11
1007.7903792562
 21
172.7147126659
  0
LINE
  5
357
100
AcDbEntity
  8
0
100
AcDbLine
 62
7
  6
BYLAYER
 10
1011.2896513723
 20
2350.7148228044
 11
1011.2896513723
 21
2335.7148228044
  0
LINE
  5
358
100
AcDbEntity
  8
3
100
AcDbLine
 62
7
  6
BYLAYER
 10
1011.2899041403
 20
2335.7148356129
 11
1011.2899041403
 21
187.2148356129
  0
LINE
  5
359
100
AcDbEntity
  8
0
100
AcDbLine
 62
7
  6
BYLAYER
 10
1011.2903791833
 20
187.2147126659
 11
1011.2903791833
 21
172.2147126659
  0
LINE
  5
35A
100
AcDbEntity
  8
0
100
AcDbLine
 62
7
  6
BYLAYER
 10
1014.0896513723
 20
2352.3148228044
 11
1014.0896513723
 21
2350.7148228044
  0
LINE
  5
35B
100
AcDbEntity
  8
0
100
AcDbLine
 62
7
  6
BYLAYER
 10
1014.0903791804
 20
172.2148228044
 11
1014.0903791804
 21
170.6148228044
  0
LINE
  5
35C
100
AcDbEntity
  8
0
100
AcDbLine
 62
7
  6
BYLAYER
 10
1014.2896513723
 20
2353.2148228044
 11
1014.289651374
 21
2351.2148228044
  0
LINE
  5
35D
100
AcDbEntity
  8
0
100
AcDbLine
 62
7
  6
BYLAYER
 10
1014.290379185
 20
171.7147126659
 11
1014.2903791833
 21
169.7147126659
  0
LINE
  5
35E
100
AcDbEntity
  8
0
100
AcDbLine
 62
7
  6
BYLAYER
 10
1015.2896513723
 20
2335.7148228044
 11
1015.2896513723
 21
2352.2148228044
  0
LINE
  5
35F
100
AcDbEntity
  8
3
100
AcDbLine
 62
7
  6
BYLAYER
 10
1015.2899041403
 20
187.2148356129
 11
1015.2899041403
 21
2335.7148356129
  0
LINE
  5
360
100
AcDbEntity
  8
0
100
AcDbLine
 62
7
  6
BYLAYER
 10
1015.2903791833
 20
170.7147126659
 11
1015.2903791833
 21
187.2147126659
  0
LINE
  5
361
100
AcDbEntity
  8
0
100
AcDbLine
 62
7
  6
BYLAYER
 10
1015.2903777059
 20
171.7146836638
 11
1015.2903791841
 21
172.6309814675
  0
LINE
  5
362
100
AcDbEntity
  8
4
100
AcDbLine
 62
7
  6
BYLAYER
 10
839.9412482934
 20
259.239535108
 11
837.2412482934
 21
254.5629979276
  0
LINE
  5
363
100
AcDbEntity
  8
4
100
AcDbLine
 62
7
  6
BYLAYER
 10
837.2412482934
 20
2270.8979003885
 11
839.9412482934
 21
2266.221363208
  0
LINE
  5
364
100
AcDbEntity
  8
4
100
AcDbLine
 62
7
  6
BYLAYER
 10
848.0412482934
 20
2270.8979003885
 11
845.3412482934
 21
2275.5744375689
  0
LINE
  5
365
100
AcDbEntity
  8
4
100
AcDbLine
 62
7
  6
BYLAYER
 10
845.3412482934
 20
249.8864607472
 11
848.0412482934
 21
254.5629979276
  0
LINE
  5
366
100
AcDbEntity
  8
4
100
AcDbLine
 62
7
  6
BYLAYER
 10
839.9412482934
 20
229.239535108
 11
837.2412482934
 21
224.5629979276
  0
LINE
  5
367
100
AcDbEntity
  8
4
100
AcDbLine
 62
7
  6
BYLAYER
 10
845.3412482934
 20
219.8864607472
 11
848.0412482934
 21
224.5629979276
  0
LINE
  5
368
100
AcDbEntity
  8
4
100
AcDbLine
 62
7
  6
BYLAYER
 10
837.2412482934
 20
2300.8979003885
 11
839.9412482934
 21
2296.221363208
  0
LINE
  5
369
100
AcDbEntity
  8
4
100
AcDbLine
 62
7
  6
BYLAYER
 10
848.0412482934
 20
2300.8979003885
 11
845.3412482934
 21
2305.5744375689
  0
LINE
  5
36A
100
AcDbEntity
  8
3
100
AcDbLine
 62
7
  6
BYLAYER
 10
987.5903791819
 20
259.239535108
 11
984.8903791819
 21
254.5629979276
  0
LINE
  5
36B
100
AcDbEntity
  8
3
100
AcDbLine
 62
7
  6
BYLAYER
 10
992.9903791819
 20
249.8864607472
 11
995.6903791819
 21
254.5629979276
  0
LINE
  5
36C
100
AcDbEntity
  8
3
100
AcDbLine
 62
7
  6
BYLAYER
 10
987.5903791819
 20
229.239535108
 11
984.8903791819
 21
224.5629979276
  0
LINE
  5
36D
100
AcDbEntity
  8
3
100
AcDbLine
 62
7
  6
BYLAYER
 10
992.9903791819
 20
219.8864607472
 11
995.6903791819
 21
224.5629979276
  0
LINE
  5
36E
100
AcDbEntity
  8
3
100
AcDbLine
 62
7
  6
BYLAYER
 10
984.8903791819
 20
2270.8979003885
 11
987.5903791819
 21
2266.221363208
  0
LINE
  5
36F
100
AcDbEntity
  8
3
100
AcDbLine
 62
7
  6
BYLAYER
 10
995.6903791819
 20
2270.8979003885
 11
992.9903791819
 21
2275.5744375689
  0
LINE
  5
370
100
AcDbEntity
  8
3
100
AcDbLine
 62
7
  6
BYLAYER
 10
984.8903791819
 20
2300.8979003885
 11
987.5903791819
 21
2296.221363208
  0
LINE
  5
371
100
AcDbEntity
  8
3
100
AcDbLine
 62
7
  6
BYLAYER
 10
995.6903791819
 20
2300.8979003885
 11
992.9903791819
 21
2305.5744375689
  0
LINE
  5
372
100
AcDbEntity
  8
0
100
AcDbLine
 62
7
  6
BYLAYER
 10
840.8905204838
 20
2359.7148228044
 11
841.3905204838
 21
2359.2148228044
  0
LINE
  5
373
100
AcDbEntity
  8
0
100
AcDbLine
 62
7
  6
BYLAYER
 10
839.1405224624
 20
2363.7148228044
 11
839.6405204838
 21
2363.2148249629
  0
LINE
  5
374
100
AcDbEntity
  8
0
100
AcDbLine
 62
7
  6
BYLAYER
 10
858.8905204838
 20
2359.7148228044
 11
859.3905204838
 21
2359.2148228044
  0
LINE
  5
375
100
AcDbEntity
  8
0
100
AcDbLine
 62
7
  6
BYLAYER
 10
988.5396513723
 20
2359.7148228044
 11
989.0396513723
 21
2359.2148228044
  0
LINE
  5
376
100
AcDbEntity
  8
0
100
AcDbLine
 62
7
  6
BYLAYER
 10
986.7896533509
 20
2363.7148228044
 11
987.2896513723
 21
2363.2148249629
  0
LINE
  5
377
100
AcDbEntity
  8
0
100
AcDbLine
 62
7
  6
BYLAYER
 10
1006.5396513723
 20
2359.7148228044
 11
1007.0396513723
 21
2359.2148228044
  0
LINE
  5
378
100
AcDbEntity
  8
4
100
AcDbLine
 62
7
  6
BYLAYER
 10
807.4520275683
 20
2260.8979003885
 11
852.4520275683
 21
2260.8979003885
  0
LINE
  5
379
100
AcDbEntity
  8
3
100
AcDbLine
 62
7
  6
BYLAYER
 10
955.1011584568
 20
2260.8979003885
 11
1000.1011584568
 21
2260.8979003885
  0
LINE
  5
37A
100
AcDbEntity
  8
3
100
AcDbLine
 62
7
  6
BYLAYER
 10
958.1011584568
 20
2265.8979003885
 11
955.1011584568
 21
2265.8979003885
  0
LINE
  5
37B
100
AcDbEntity
  8
4
100
AcDbLine
 62
7
  6
BYLAYER
 10
810.4520275683
 20
2265.8979003885
 11
807.4520275683
 21
2265.8979003885
  0
LINE
  5
37C
100
AcDbEntity
  8
3
100
AcDbLine
 62
7
  6
BYLAYER
 10
992.9903791819
 20
2266.221363208
 11
987.5903791819
 21
2266.221363208
  0
LINE
  5
37D
100
AcDbEntity
  8
4
100
AcDbLine
 62
7
  6
BYLAYER
 10
845.3412482934
 20
2266.221363208
 11
839.9412482934
 21
2266.221363208
  0
LINE
  5
37E
100
AcDbEntity
  8
4
100
AcDbLine
 62
7
  6
BYLAYER
 10
835.7520275683
 20
2267.6479003885
 11
837.2369388245
 21
2267.6479003885
  0
LINE
  5
37F
100
AcDbEntity
  8
4
100
AcDbLine
 62
7
  6
BYLAYER
 10
848.0452202226
 20
2267.6479003885
 11
849.2520275683
 21
2267.6479003885
  0
LINE
  5
380
100
AcDbEntity
  8
3
100
AcDbLine
 62
7
  6
BYLAYER
 10
983.4011584568
 20
2267.6479003885
 11
984.886069713
 21
2267.6479003885
  0
LINE
  5
381
100
AcDbEntity
  8
3
100
AcDbLine
 62
7
  6
BYLAYER
 10
995.6943511111
 20
2267.6479003885
 11
996.9011584568
 21
2267.6479003885
  0
LINE
  5
382
100
AcDbEntity
  8
3
100
AcDbLine
 62
7
  6
BYLAYER
 10
996.9011584568
 20
2274.1479003885
 11
995.6946886507
 21
2274.1479003885
  0
LINE
  5
383
100
AcDbEntity
  8
3
100
AcDbLine
 62
7
  6
BYLAYER
 10
984.8864072526
 20
2274.1479003885
 11
983.4011584568
 21
2274.1479003885
  0
LINE
  5
384
100
AcDbEntity
  8
4
100
AcDbLine
 62
7
  6
BYLAYER
 10
849.2520275683
 20
2274.1479003885
 11
848.0455577622
 21
2274.1479003885
  0
LINE
  5
385
100
AcDbEntity
  8
4
100
AcDbLine
 62
7
  6
BYLAYER
 10
837.2372763641
 20
2274.1479003885
 11
835.7520275683
 21
2274.1479003885
  0
LINE
  5
386
100
AcDbEntity
  8
4
100
AcDbLine
 62
7
  6
BYLAYER
 10
839.9412482934
 20
2275.5744375689
 11
845.3412482934
 21
2275.5744375689
  0
LINE
  5
387
100
AcDbEntity
  8
3
100
AcDbLine
 62
7
  6
BYLAYER
 10
987.5903791819
 20
2275.5744375689
 11
992.9903791819
 21
2275.5744375689
  0
LINE
  5
388
100
AcDbEntity
  8
3
100
AcDbLine
 62
7
  6
BYLAYER
 10
992.9903791819
 20
2296.221363208
 11
987.5903791819
 21
2296.221363208
  0
LINE
  5
389
100
AcDbEntity
  8
4
100
AcDbLine
 62
7
  6
BYLAYER
 10
845.3412482934
 20
2296.221363208
 11
839.9412482934
 21
2296.221363208
  0
LINE
  5
38A
100
AcDbEntity
  8
4
100
AcDbLine
 62
7
  6
BYLAYER
 10
835.7520275683
 20
2297.6479003885
 11
837.2369388245
 21
2297.6479003885
  0
LINE
  5
38B
100
AcDbEntity
  8
4
100
AcDbLine
 62
7
  6
BYLAYER
 10
848.0452202226
 20
2297.6479003885
 11
849.2520275683
 21
2297.6479003885
  0
LINE
  5
38C
100
AcDbEntity
  8
3
100
AcDbLine
 62
7
  6
BYLAYER
 10
983.4011584568
 20
2297.6479003885
 11
984.886069713
 21
2297.6479003885
  0
LINE
  5
38D
100
AcDbEntity
  8
3
100
AcDbLine
 62
7
  6
BYLAYER
 10
995.6943511111
 20
2297.6479003885
 11
996.9011584568
 21
2297.6479003885
  0
LINE
  5
38E
100
AcDbEntity
  8
3
100
AcDbLine
 62
7
  6
BYLAYER
 10
996.9011584568
 20
2304.1479003885
 11
995.6946886507
 21
2304.1479003885
  0
LINE
  5
38F
100
AcDbEntity
  8
3
100
AcDbLine
 62
7
  6
BYLAYER
 10
984.8864072526
 20
2304.1479003885
 11
983.4011584568
 21
2304.1479003885
  0
LINE
  5
390
100
AcDbEntity
  8
4
100
AcDbLine
 62
7
  6
BYLAYER
 10
849.2520275683
 20
2304.1479003885
 11
848.0455577622
 21
2304.1479003885
  0
LINE
  5
391
100
AcDbEntity
  8
4
100
AcDbLine
 62
7
  6
BYLAYER
 10
837.2372763641
 20
2304.1479003885
 11
835.7520275683
 21
2304.1479003885
  0
LINE
  5
392
100
AcDbEntity
  8
4
100
AcDbLine
 62
7
  6
BYLAYER
 10
839.9412482934
 20
2305.5744375689
 11
845.3412482934
 21
2305.5744375689
  0
LINE
  5
393
100
AcDbEntity
  8
3
100
AcDbLine
 62
7
  6
BYLAYER
 10
987.5903791819
 20
2305.5744375689
 11
992.9903791819
 21
2305.5744375689
  0
LINE
  5
394
100
AcDbEntity
  8
4
100
AcDbLine
 62
7
  6
BYLAYER
 10
807.4520275683
 20
2305.8979003885
 11
810.4520275683
 21
2305.8979003885
  0
LINE
  5
395
100
AcDbEntity
  8
3
100
AcDbLine
 62
7
  6
BYLAYER
 10
955.1011584568
 20
2305.8979003885
 11
958.1011584568
 21
2305.8979003885
  0
LINE
  5
396
100
AcDbEntity
  8
4
100
AcDbLine
 62
7
  6
BYLAYER
 10
807.4520275683
 20
2310.8979003885
 11
852.4520275683
 21
2310.8979003885
  0
LINE
  5
397
100
AcDbEntity
  8
3
100
AcDbLine
 62
7
  6
BYLAYER
 10
955.1011584568
 20
2310.8979003885
 11
1000.1011584568
 21
2310.8979003885
  0
LINE
  5
398
100
AcDbEntity
  8
0
100
AcDbLine
 62
7
  6
BYLAYER
 10
817.6405204838
 20
2335.7148228044
 11
867.6405204838
 21
2335.7148228044
  0
LINE
  5
399
100
AcDbEntity
  8
3
100
AcDbLine
 62
7
  6
BYLAYER
 10
817.6407732517
 20
2335.7148356129
 11
867.6407732517
 21
2335.7148356129
  0
LINE
  5
39A
100
AcDbEntity
  8
0
100
AcDbLine
 62
7
  6
BYLAYER
 10
965.2896513723
 20
2335.7148228044
 11
1015.2896513723
 21
2335.7148228044
  0
LINE
  5
39B
100
AcDbEntity
  8
3
100
AcDbLine
 62
7
  6
BYLAYER
 10
965.2899041403
 20
2335.7148356129
 11
1015.2899041403
 21
2335.7148356129
  0
LINE
  5
39C
100
AcDbEntity
  8
0
100
AcDbLine
 62
7
  6
BYLAYER
 10
1007.2896513723
 20
2349.2148228044
 11
991.2896681862
 21
2349.2148228044
  0
LINE
  5
39D
100
AcDbEntity
  8
0
100
AcDbLine
 62
7
  6
BYLAYER
 10
989.2896513723
 20
2349.2148228044
 11
973.2896681862
 21
2349.2148228044
  0
LINE
  5
39E
100
AcDbEntity
  8
0
100
AcDbLine
 62
7
  6
BYLAYER
 10
859.6405204838
 20
2349.2148228044
 11
843.6405372977
 21
2349.2148228044
  0
LINE
  5
39F
100
AcDbEntity
  8
0
100
AcDbLine
 62
7
  6
BYLAYER
 10
841.6405204838
 20
2349.2148228044
 11
825.6405372977
 21
2349.2148228044
  0
LINE
  5
3A0
100
AcDbEntity
  8
0
100
AcDbLine
 62
7
  6
BYLAYER
 10
1007.1844423434
 20
2349.2260170554
 11
991.394876994
 21
2349.2260170554
  0
LINE
  5
3A1
100
AcDbEntity
  8
0
100
AcDbLine
 62
7
  6
BYLAYER
 10
989.1844423434
 20
2349.2260170554
 11
973.394876994
 21
2349.2260170554
  0
LINE
  5
3A2
100
AcDbEntity
  8
0
100
AcDbLine
 62
7
  6
BYLAYER
 10
859.5353114549
 20
2349.2260170554
 11
843.7457461055
 21
2349.2260170554
  0
LINE
  5
3A3
100
AcDbEntity
  8
0
100
AcDbLine
 62
7
  6
BYLAYER
 10
841.5353114549
 20
2349.2260170554
 11
825.7457461055
 21
2349.2260170554
  0
LINE
  5
3A4
100
AcDbEntity
  8
0
100
AcDbLine
 62
7
  6
BYLAYER
 10
825.5350258236
 20
2350.2035669876
 11
841.7459981083
 21
2350.2035669876
  0
LINE
  5
3A5
100
AcDbEntity
  8
0
100
AcDbLine
 62
7
  6
BYLAYER
 10
973.1841567121
 20
2350.2035669876
 11
989.3951289968
 21
2350.2035669876
  0
LINE
  5
3A6
100
AcDbEntity
  8
0
100
AcDbLine
 62
7
  6
BYLAYER
 10
1007.3948604012
 20
2350.2036285534
 11
991.1844593785
 21
2350.2036285534
  0
LINE
  5
3A7
100
AcDbEntity
  8
0
100
AcDbLine
 62
7
  6
BYLAYER
 10
859.7457295127
 20
2350.2036285534
 11
843.53532849
 21
2350.2036285534
  0
LINE
  5
3A8
100
AcDbEntity
  8
0
100
AcDbLine
 62
7
  6
BYLAYER
 10
817.6405204838
 20
2350.2148228044
 11
825.1405204838
 21
2350.2148228044
  0
LINE
  5
3A9
100
AcDbEntity
  8
0
100
AcDbLine
 62
7
  6
BYLAYER
 10
860.1405204838
 20
2350.2148228044
 11
867.6405204838
 21
2350.2148228044
  0
LINE
  5
3AA
100
AcDbEntity
  8
0
100
AcDbLine
 62
7
  6
BYLAYER
 10
965.2896513723
 20
2350.2148228044
 11
972.7896513723
 21
2350.2148228044
  0
LINE
  5
3AB
100
AcDbEntity
  8
0
100
AcDbLine
 62
7
  6
BYLAYER
 10
1007.7896513723
 20
2350.2148228044
 11
1015.2896513723
 21
2350.2148228044
  0
LINE
  5
3AC
100
AcDbEntity
  8
0
100
AcDbLine
 62
7
  6
BYLAYER
 10
818.1405204838
 20
2350.7148228044
 11
825.1405204838
 21
2350.7148228044
  0
LINE
  5
3AD
100
AcDbEntity
  8
0
100
AcDbLine
 62
7
  6
BYLAYER
 10
860.1405204838
 20
2350.7148228044
 11
867.1405204838
 21
2350.7148228044
  0
LINE
  5
3AE
100
AcDbEntity
  8
0
100
AcDbLine
 62
7
  6
BYLAYER
 10
965.7896513723
 20
2350.7148228044
 11
972.7896513723
 21
2350.7148228044
  0
LINE
  5
3AF
100
AcDbEntity
  8
0
100
AcDbLine
 62
7
  6
BYLAYER
 10
1007.7896513723
 20
2350.7148228044
 11
1014.7896513723
 21
2350.7148228044
  0
LINE
  5
3B0
100
AcDbEntity
  8
0
100
AcDbLine
 62
7
  6
BYLAYER
 10
1015.2896513723
 20
2351.2148228733
 11
1014.0896513723
 21
2351.2148228044
  0
LINE
  5
3B1
100
AcDbEntity
  8
0
100
AcDbLine
 62
7
  6
BYLAYER
 10
1007.4896513723
 20
2351.2148228044
 11
1006.2896513723
 21
2351.2148228734
  0
LINE
  5
3B2
100
AcDbEntity
  8
0
100
AcDbLine
 62
7
  6
BYLAYER
 10
974.2896513723
 20
2351.2148228733
 11
973.0896513723
 21
2351.2148228044
  0
LINE
  5
3B3
100
AcDbEntity
  8
0
100
AcDbLine
 62
7
  6
BYLAYER
 10
966.4896513723
 20
2351.2148228044
 11
965.2896513723
 21
2351.2148228734
  0
LINE
  5
3B4
100
AcDbEntity
  8
0
100
AcDbLine
 62
7
  6
BYLAYER
 10
867.6405204838
 20
2351.2148228733
 11
866.4405204838
 21
2351.2148228044
  0
LINE
  5
3B5
100
AcDbEntity
  8
0
100
AcDbLine
 62
7
  6
BYLAYER
 10
859.8405204838
 20
2351.2148228044
 11
858.6405204838
 21
2351.2148228734
  0
LINE
  5
3B6
100
AcDbEntity
  8
0
100
AcDbLine
 62
7
  6
BYLAYER
 10
826.6405204838
 20
2351.2148228733
 11
825.4405204838
 21
2351.2148228044
  0
LINE
  5
3B7
100
AcDbEntity
  8
0
100
AcDbLine
 62
7
  6
BYLAYER
 10
818.8405204838
 20
2351.2148228044
 11
817.6405204838
 21
2351.2148228734
  0
LINE
  5
3B8
100
AcDbEntity
  8
0
100
AcDbLine
 62
7
  6
BYLAYER
 10
817.6405204838
 20
2352.2148228044
 11
818.8405204838
 21
2352.2148228044
  0
LINE
  5
3B9
100
AcDbEntity
  8
0
100
AcDbLine
 62
7
  6
BYLAYER
 10
825.4405204838
 20
2352.2148228044
 11
838.6405204838
 21
2352.2148227977
  0
LINE
  5
3BA
100
AcDbEntity
  8
0
100
AcDbLine
 62
7
  6
BYLAYER
 10
846.6405204838
 20
2352.2148228043
 11
859.8405204838
 21
2352.2148228044
  0
LINE
  5
3BB
100
AcDbEntity
  8
0
100
AcDbLine
 62
7
  6
BYLAYER
 10
866.4405204838
 20
2352.2148228044
 11
867.6405204838
 21
2352.2148228044
  0
LINE
  5
3BC
100
AcDbEntity
  8
0
100
AcDbLine
 62
7
  6
BYLAYER
 10
965.2896513723
 20
2352.2148228044
 11
966.4896513723
 21
2352.2148228044
  0
LINE
  5
3BD
100
AcDbEntity
  8
0
100
AcDbLine
 62
7
  6
BYLAYER
 10
973.0896513723
 20
2352.2148228044
 11
986.2896513723
 21
2352.2148227977
  0
LINE
  5
3BE
100
AcDbEntity
  8
0
100
AcDbLine
 62
7
  6
BYLAYER
 10
994.2896513723
 20
2352.2148228043
 11
1007.4896513723
 21
2352.2148228044
  0
LINE
  5
3BF
100
AcDbEntity
  8
0
100
AcDbLine
 62
7
  6
BYLAYER
 10
1014.0896513723
 20
2352.2148228044
 11
1015.2896513723
 21
2352.2148228044
  0
LINE
  5
3C0
100
AcDbEntity
  8
0
100
AcDbLine
 62
7
  6
BYLAYER
 10
818.8405204838
 20
2352.3148228044
 11
825.4405204838
 21
2352.3148228044
  0
LINE
  5
3C1
100
AcDbEntity
  8
0
100
AcDbLine
 62
7
  6
BYLAYER
 10
859.8405204838
 20
2352.3148228044
 11
866.4405204838
 21
2352.3148228044
  0
LINE
  5
3C2
100
AcDbEntity
  8
0
100
AcDbLine
 62
7
  6
BYLAYER
 10
966.4896513723
 20
2352.3148228044
 11
973.0896513723
 21
2352.3148228044
  0
LINE
  5
3C3
100
AcDbEntity
  8
0
100
AcDbLine
 62
7
  6
BYLAYER
 10
1007.4896513723
 20
2352.3148228044
 11
1014.0896513723
 21
2352.3148228044
  0
LINE
  5
3C4
100
AcDbEntity
  8
0
100
AcDbLine
 62
7
  6
BYLAYER
 10
838.4990723035
 20
2352.7148228044
 11
846.781004138
 21
2352.7148228044
  0
LINE
  5
3C5
100
AcDbEntity
  8
0
100
AcDbLine
 62
7
  6
BYLAYER
 10
986.148203192
 20
2352.7148228044
 11
994.4301350265
 21
2352.7148228044
  0
LINE
  5
3C6
100
AcDbEntity
  8
0
100
AcDbLine
 62
7
  6
BYLAYER
 10
1014.2896513723
 20
2353.2148228044
 11
1013.4628565758
 21
2353.2148228044
  0
LINE
  5
3C7
100
AcDbEntity
  8
0
100
AcDbLine
 62
7
  6
BYLAYER
 10
967.1164461688
 20
2353.2148228044
 11
966.2896513723
 21
2353.2148228044
  0
LINE
  5
3C8
100
AcDbEntity
  8
0
100
AcDbLine
 62
7
  6
BYLAYER
 10
866.6405204838
 20
2353.2148228044
 11
865.8137256873
 21
2353.2148228044
  0
LINE
  5
3C9
100
AcDbEntity
  8
0
100
AcDbLine
 62
7
  6
BYLAYER
 10
819.4673152803
 20
2353.2148228044
 11
818.6405204838
 21
2353.2148228044
  0
LINE
  5
3CA
100
AcDbEntity
  8
0
100
AcDbLine
 62
7
  6
BYLAYER
 10
824.8137256873
 20
2353.2148228044
 11
860.4673152803
 21
2353.2148228044
  0
LINE
  5
3CB
100
AcDbEntity
  8
0
100
AcDbLine
 62
7
  6
BYLAYER
 10
972.4628565758
 20
2353.2148228044
 11
1008.1164461688
 21
2353.2148228044
  0
LINE
  5
3CC
100
AcDbEntity
  8
0
100
AcDbLine
 62
7
  6
BYLAYER
 10
818.8405207304
 20
2353.3148228044
 11
824.4404190577
 21
2353.3148228044
  0
LINE
  5
3CD
100
AcDbEntity
  8
0
100
AcDbLine
 62
7
  6
BYLAYER
 10
860.8405207304
 20
2353.3148228044
 11
866.4404190577
 21
2353.3148228044
  0
LINE
  5
3CE
100
AcDbEntity
  8
0
100
AcDbLine
 62
7
  6
BYLAYER
 10
966.4896516189
 20
2353.3148228044
 11
972.0895499463
 21
2353.3148228044
  0
LINE
  5
3CF
100
AcDbEntity
  8
0
100
AcDbLine
 62
7
  6
BYLAYER
 10
1008.4896516189
 20
2353.3148228044
 11
1014.0895499463
 21
2353.3148228044
  0
LINE
  5
3D0
100
AcDbEntity
  8
0
100
AcDbLine
 62
7
  6
BYLAYER
 10
1007.0396513723
 20
2354.7148228044
 11
991.5396513723
 21
2354.7148228044
  0
LINE
  5
3D1
100
AcDbEntity
  8
0
100
AcDbLine
 62
7
  6
BYLAYER
 10
989.0396513723
 20
2354.7148228044
 11
973.5396513723
 21
2354.7148228044
  0
LINE
  5
3D2
100
AcDbEntity
  8
0
100
AcDbLine
 62
7
  6
BYLAYER
 10
859.3905204838
 20
2354.7148228044
 11
843.8905204838
 21
2354.7148228044
  0
LINE
  5
3D3
100
AcDbEntity
  8
0
100
AcDbLine
 62
7
  6
BYLAYER
 10
841.3905204838
 20
2354.7148228044
 11
825.8905204838
 21
2354.7148228044
  0
LINE
  5
3D4
100
AcDbEntity
  8
0
100
AcDbLine
 62
7
  6
BYLAYER
 10
1007.0396470895
 20
2357.7148228044
 11
991.5396556551
 21
2357.7148228044
  0
LINE
  5
3D5
100
AcDbEntity
  8
0
100
AcDbLine
 62
7
  6
BYLAYER
 10
989.0396470895
 20
2357.7148228044
 11
973.5396556551
 21
2357.7148228044
  0
LINE
  5
3D6
100
AcDbEntity
  8
0
100
AcDbLine
 62
7
  6
BYLAYER
 10
859.390516201
 20
2357.7148228044
 11
843.8905247666
 21
2357.7148228044
  0
LINE
  5
3D7
100
AcDbEntity
  8
0
100
AcDbLine
 62
7
  6
BYLAYER
 10
841.390516201
 20
2357.7148228044
 11
825.8905247666
 21
2357.7148228044
  0
LINE
  5
3D8
100
AcDbEntity
  8
0
100
AcDbLine
 62
7
  6
BYLAYER
 10
825.8905204838
 20
2359.2148228044
 11
841.3905204838
 21
2359.2148228044
  0
LINE
  5
3D9
100
AcDbEntity
  8
0
100
AcDbLine
 62
7
  6
BYLAYER
 10
843.8905204838
 20
2359.2148228044
 11
859.3905204838
 21
2359.2148228044
  0
LINE
  5
3DA
100
AcDbEntity
  8
0
100
AcDbLine
 62
7
  6
BYLAYER
 10
973.5396513723
 20
2359.2148228044
 11
989.0396513723
 21
2359.2148228044
  0
LINE
  5
3DB
100
AcDbEntity
  8
0
100
AcDbLine
 62
7
  6
BYLAYER
 10
991.5396513723
 20
2359.2148228044
 11
1007.0396513723
 21
2359.2148228044
  0
LINE
  5
3DC
100
AcDbEntity
  8
0
100
AcDbLine
 62
7
  6
BYLAYER
 10
826.3905244866
 20
2359.7148228044
 11
840.890516481
 21
2359.7148228044
  0
LINE
  5
3DD
100
AcDbEntity
  8
0
100
AcDbLine
 62
7
  6
BYLAYER
 10
844.3905244866
 20
2359.7148228044
 11
858.890516481
 21
2359.7148228044
  0
LINE
  5
3DE
100
AcDbEntity
  8
0
100
AcDbLine
 62
7
  6
BYLAYER
 10
974.0396553751
 20
2359.7148228044
 11
988.5396473695
 21
2359.7148228044
  0
LINE
  5
3DF
100
AcDbEntity
  8
0
100
AcDbLine
 62
7
  6
BYLAYER
 10
992.0396553751
 20
2359.7148228044
 11
1006.5396473695
 21
2359.7148228044
  0
LINE
  5
3E0
100
AcDbEntity
  8
0
100
AcDbLine
 62
7
  6
BYLAYER
 10
829.5163004838
 20
2360.9148228044
 11
837.7663004838
 21
2360.9148228044
  0
LINE
  5
3E1
100
AcDbEntity
  8
0
100
AcDbLine
 62
7
  6
BYLAYER
 10
847.5172804838
 20
2360.9148228044
 11
855.7672804838
 21
2360.9148228044
  0
LINE
  5
3E2
100
AcDbEntity
  8
0
100
AcDbLine
 62
7
  6
BYLAYER
 10
977.1654313723
 20
2360.9148228044
 11
985.4154313723
 21
2360.9148228044
  0
LINE
  5
3E3
100
AcDbEntity
  8
0
100
AcDbLine
 62
7
  6
BYLAYER
 10
995.1664113723
 20
2360.9148228044
 11
1003.4164113723
 21
2360.9148228044
  0
LINE
  5
3E4
100
AcDbEntity
  8
0
100
AcDbLine
 62
7
  6
BYLAYER
 10
829.8163879598
 20
2361.2148228044
 11
837.4663191009
 21
2361.2148228044
  0
LINE
  5
3E5
100
AcDbEntity
  8
0
100
AcDbLine
 62
7
  6
BYLAYER
 10
847.8172201159
 20
2361.2148228044
 11
855.4673023751
 21
2361.2148228044
  0
LINE
  5
3E6
100
AcDbEntity
  8
0
100
AcDbLine
 62
7
  6
BYLAYER
 10
977.4655188484
 20
2361.2148228044
 11
985.1154499894
 21
2361.2148228044
  0
LINE
  5
3E7
100
AcDbEntity
  8
0
100
AcDbLine
 62
7
  6
BYLAYER
 10
995.4663510044
 20
2361.2148228044
 11
1003.1164332636
 21
2361.2148228044
  0
LINE
  5
3E8
100
AcDbEntity
  8
0
100
AcDbLine
 62
7
  6
BYLAYER
 10
827.6405204838
 20
2363.2148218669
 11
839.6405204838
 21
2363.2148218669
  0
LINE
  5
3E9
100
AcDbEntity
  8
0
100
AcDbLine
 62
7
  6
BYLAYER
 10
975.2896513723
 20
2363.2148218669
 11
987.2896513723
 21
2363.2148218669
  0
LINE
  5
3EA
100
AcDbEntity
  8
0
100
AcDbLine
 62
7
  6
BYLAYER
 10
828.1405257851
 20
2363.7148228044
 11
839.140521048
 21
2363.7148228044
  0
LINE
  5
3EB
100
AcDbEntity
  8
0
100
AcDbLine
 62
7
  6
BYLAYER
 10
975.7896566736
 20
2363.7148228044
 11
986.7896519366
 21
2363.7148228044
  0
ARC
  5
3EC
100
AcDbEntity
  8
4
100
AcDbCircle
 62
7
  6
BYLAYER
 10
835.7520275683
 20
224.5629979276
 40
3.25
100
AcDbArc
 50
90.0
 51
270.0
  0
ARC
  5
3ED
100
AcDbEntity
  8
4
100
AcDbCircle
 62
7
  6
BYLAYER
 10
835.7520275683
 20
254.5629979276
 40
3.25
100
AcDbArc
 50
90.0
 51
270.0
  0
ARC
  5
3EE
100
AcDbEntity
  8
0
100
AcDbCircle
 62
7
  6
BYLAYER
 10
818.8407732548
 20
170.6148228044
 40
1.0
100
AcDbArc
 50
234.2503109337
 51
270.0
  0
ARC
  5
3EF
100
AcDbEntity
  8
0
100
AcDbCircle
 62
7
  6
BYLAYER
 10
824.4412482948
 20
170.6148228044
 40
1.0
100
AcDbArc
 50
270.0
 51
360.0
  0
ARC
  5
3F0
100
AcDbEntity
  8
0
100
AcDbCircle
 62
7
  6
BYLAYER
 10
819.8412482948
 20
170.6148228044
 40
1.0
100
AcDbArc
 50
180.0
 51
270.0
  0
ARC
  5
3F1
100
AcDbEntity
  8
0
100
AcDbCircle
 62
7
  6
BYLAYER
 10
826.6412482948
 20
170.7147126659
 40
1.0
100
AcDbArc
 50
180.0
 51
270.0
  0
ARC
  5
3F2
100
AcDbEntity
  8
0
100
AcDbCircle
 62
7
  6
BYLAYER
 10
818.6412482948
 20
170.7147126659
 40
1.0
100
AcDbArc
 50
180.0
 51
270.0
  0
ARC
  5
3F3
100
AcDbEntity
  8
0
100
AcDbCircle
 62
7
  6
BYLAYER
 10
837.6412482948
 20
170.7147126659
 40
1.0
100
AcDbArc
 50
270.0
 51
360.0
  0
ARC
  5
3F4
100
AcDbEntity
  8
0
100
AcDbCircle
 62
7
  6
BYLAYER
 10
818.1412482948
 20
172.7147126659
 40
0.5
100
AcDbArc
 50
180.0
 51
270.0
  0
ARC
  5
3F5
100
AcDbEntity
  8
0
100
AcDbCircle
 62
7
  6
BYLAYER
 10
825.1412482948
 20
171.7147126659
 40
0.5
100
AcDbArc
 50
0.0
 51
90.0
  0
ARC
  5
3F6
100
AcDbEntity
  8
4
100
AcDbCircle
 62
7
  6
BYLAYER
 10
835.7520275683
 20
1246.8471387674
 40
3.25
100
AcDbArc
 50
90.0
 51
270.0
  0
ARC
  5
3F7
100
AcDbEntity
  8
0
100
AcDbCircle
 62
7
  6
BYLAYER
 10
847.6412482948
 20
170.7147126659
 40
1.0
100
AcDbArc
 50
179.9999999984
 51
270.0
  0
CIRCLE
  5
3F8
100
AcDbEntity
  8
4
100
AcDbCircle
 62
7
  6
BYLAYER
 10
842.6412482934
 20
254.5629979276
 40
6.3525
  0
CIRCLE
  5
3F9
100
AcDbEntity
  8
4
100
AcDbCircle
 62
7
  6
BYLAYER
 10
842.6412482934
 20
224.5629979276
 40
6.3525
  0
ARC
  5
3FA
100
AcDbEntity
  8
4
100
AcDbCircle
 62
7
  6
BYLAYER
 10
852.4520275683
 20
219.5629979276
 40
5.0
100
AcDbArc
 50
270.0
 51
360.0
  0
ARC
  5
3FB
100
AcDbEntity
  8
4
100
AcDbCircle
 62
7
  6
BYLAYER
 10
852.4520275683
 20
259.5629979276
 40
5.0
100
AcDbArc
 50
0.0
 51
90.0
  0
ARC
  5
3FC
100
AcDbEntity
  8
4
100
AcDbCircle
 62
7
  6
BYLAYER
 10
849.2520275683
 20
224.5629979276
 40
3.25
100
AcDbArc
 50
270.0
 51
90.0
  0
ARC
  5
3FD
100
AcDbEntity
  8
4
100
AcDbCircle
 62
7
  6
BYLAYER
 10
849.2520275683
 20
254.5629979276
 40
3.25
100
AcDbArc
 50
270.0
 51
90.0
  0
CIRCLE
  5
3FE
100
AcDbEntity
  8
4
100
AcDbCircle
 62
7
  6
BYLAYER
 10
842.6412482934
 20
224.5629979276
 40
3.0
  0
CIRCLE
  5
3FF
100
AcDbEntity
  8
4
100
AcDbCircle
 62
7
  6
BYLAYER
 10
842.6412482934
 20
254.5629979276
 40
3.0
  0
ARC
  5
400
100
AcDbEntity
  8
0
100
AcDbCircle
 62
7
  6
BYLAYER
 10
866.4407732518
 20
170.6148228044
 40
1.0
100
AcDbArc
 50
270.0
 51
305.71908683
  0
ARC
  5
401
100
AcDbEntity
  8
0
100
AcDbCircle
 62
7
  6
BYLAYER
 10
865.4412482919
 20
170.6148228044
 40
1.0
100
AcDbArc
 50
270.0
 51
360.0
  0
ARC
  5
402
100
AcDbEntity
  8
0
100
AcDbCircle
 62
7
  6
BYLAYER
 10
860.8412482919
 20
170.6148228044
 40
1.0
100
AcDbArc
 50
180.0
 51
270.0
  0
ARC
  5
403
100
AcDbEntity
  8
0
100
AcDbCircle
 62
7
  6
BYLAYER
 10
858.6412482948
 20
170.7147126659
 40
1.0
100
AcDbArc
 50
270.0
 51
360.0
  0
ARC
  5
404
100
AcDbEntity
  8
0
100
AcDbCircle
 62
7
  6
BYLAYER
 10
866.6412482948
 20
170.7147126659
 40
1.0
100
AcDbArc
 50
270.0
 51
360.0
  0
ARC
  5
405
100
AcDbEntity
  8
0
100
AcDbCircle
 62
7
  6
BYLAYER
 10
860.1412482948
 20
171.7147126659
 40
0.5
100
AcDbArc
 50
90.0
 51
180.0
  0
ARC
  5
406
100
AcDbEntity
  8
0
100
AcDbCircle
 62
7
  6
BYLAYER
 10
867.1412482948
 20
172.7147126659
 40
0.5
100
AcDbArc
 50
270.0
 51
360.0
  0
CIRCLE
  5
407
100
AcDbEntity
  8
4
100
AcDbCircle
 62
7
  6
BYLAYER
 10
842.6412482934
 20
1246.8471387674
 40
6.3525
  0
ARC
  5
408
100
AcDbEntity
  8
4
100
AcDbCircle
 62
7
  6
BYLAYER
 10
852.4520275683
 20
1241.8471387674
 40
5.0
100
AcDbArc
 50
270.0
 51
360.0
  0
ARC
  5
409
100
AcDbEntity
  8
4
100
AcDbCircle
 62
7
  6
BYLAYER
 10
849.2520275683
 20
1246.8471387674
 40
3.25
100
AcDbArc
 50
270.0
 51
90.0
  0
CIRCLE
  5
40A
100
AcDbEntity
  8
4
100
AcDbCircle
 62
7
  6
BYLAYER
 10
842.6412482934
 20
1246.8471387674
 40
3.0
  0
ARC
  5
40B
100
AcDbEntity
  8
4
100
AcDbCircle
 62
7
  6
BYLAYER
 10
835.7520275683
 20
1276.8471387674
 40
3.25
100
AcDbArc
 50
90.0
 51
270.0
  0
ARC
  5
40C
100
AcDbEntity
  8
0
100
AcDbCircle
 62
7
  6
BYLAYER
 10
818.8405204838
 20
2352.3148228044
 40
1.0
100
AcDbArc
 50
90.0
 51
125.746880854
  0
ARC
  5
40D
100
AcDbEntity
  8
0
100
AcDbCircle
 62
7
  6
BYLAYER
 10
819.8405204838
 20
2352.3148228044
 40
1.0
100
AcDbArc
 50
90.0
 51
180.0
  0
ARC
  5
40E
100
AcDbEntity
  8
0
100
AcDbCircle
 62
7
  6
BYLAYER
 10
824.4405204838
 20
2352.3148228044
 40
1.0
100
AcDbArc
 50
0.0
 51
90.0
  0
ARC
  5
40F
100
AcDbEntity
  8
0
100
AcDbCircle
 62
7
  6
BYLAYER
 10
818.6405204838
 20
2352.2148228044
 40
1.0
100
AcDbArc
 50
90.0
 51
180.0
  0
ARC
  5
410
100
AcDbEntity
  8
0
100
AcDbCircle
 62
7
  6
BYLAYER
 10
826.6405204838
 20
2352.2148228044
 40
1.0
100
AcDbArc
 50
90.0
 51
180.0
  0
ARC
  5
411
100
AcDbEntity
  8
0
100
AcDbCircle
 62
7
  6
BYLAYER
 10
825.1405204838
 20
2351.2148228044
 40
0.5
100
AcDbArc
 50
270.0
 51
360.0
  0
ARC
  5
412
100
AcDbEntity
  8
0
100
AcDbCircle
 62
7
  6
BYLAYER
 10
818.1405204838
 20
2350.2148228044
 40
0.5
100
AcDbArc
 50
90.0
 51
180.0
  0
ARC
  5
413
100
AcDbEntity
  8
0
100
AcDbCircle
 62
7
  6
BYLAYER
 10
825.6405381457
 20
2349.7148229874
 40
0.4999999532
100
AcDbArc
 50
102.1804098123
 51
282.180210997
  0
ARC
  5
414
100
AcDbEntity
  8
0
100
AcDbCircle
 62
7
  6
BYLAYER
 10
829.8163004838
 20
2360.9148228044
 40
0.3
100
AcDbArc
 50
90.0
 51
180.0
  0
ARC
  5
415
100
AcDbEntity
  8
4
100
AcDbCircle
 62
7
  6
BYLAYER
 10
835.7520275683
 20
2270.8979003885
 40
3.25
100
AcDbArc
 50
90.0
 51
270.0
  0
ARC
  5
416
100
AcDbEntity
  8
4
100
AcDbCircle
 62
7
  6
BYLAYER
 10
835.7520275683
 20
2300.8979003885
 40
3.25
100
AcDbArc
 50
90.0
 51
270.0
  0
ARC
  5
417
100
AcDbEntity
  8
0
100
AcDbCircle
 62
7
  6
BYLAYER
 10
837.6405204838
 20
2352.2148228044
 40
1.0
100
AcDbArc
 50
0.0
 51
90.0
  0
ARC
  5
418
100
AcDbEntity
  8
0
100
AcDbCircle
 62
7
  6
BYLAYER
 10
841.6405028219
 20
2349.7148229874
 40
0.4999999532
100
AcDbArc
 50
257.819789003
 51
77.8195901877
  0
ARC
  5
419
100
AcDbEntity
  8
0
100
AcDbCircle
 62
7
  6
BYLAYER
 10
837.4663004838
 20
2360.9148228044
 40
0.3
100
AcDbArc
 50
0.0000000001
 51
90.0
  0
CIRCLE
  5
41A
100
AcDbEntity
  8
4
100
AcDbCircle
 62
7
  6
BYLAYER
 10
842.6412482934
 20
1276.8471387674
 40
6.3525
  0
ARC
  5
41B
100
AcDbEntity
  8
4
100
AcDbCircle
 62
7
  6
BYLAYER
 10
852.4520275683
 20
1281.8471387674
 40
5.0
100
AcDbArc
 50
0.0
 51
90.0
  0
ARC
  5
41C
100
AcDbEntity
  8
4
100
AcDbCircle
 62
7
  6
BYLAYER
 10
849.2520275683
 20
1276.8471387674
 40
3.25
100
AcDbArc
 50
270.0
 51
90.0
  0
CIRCLE
  5
41D
100
AcDbEntity
  8
4
100
AcDbCircle
 62
7
  6
BYLAYER
 10
842.6412482934
 20
1276.8471387674
 40
3.0
  0
CIRCLE
  5
41E
100
AcDbEntity
  8
4
100
AcDbCircle
 62
7
  6
BYLAYER
 10
842.6412482934
 20
2270.8979003885
 40
6.3525
  0
CIRCLE
  5
41F
100
AcDbEntity
  8
4
100
AcDbCircle
 62
7
  6
BYLAYER
 10
842.6412482934
 20
2300.8979003885
 40
6.3525
  0
ARC
  5
420
100
AcDbEntity
  8
4
100
AcDbCircle
 62
7
  6
BYLAYER
 10
852.4520275683
 20
2265.8979003885
 40
5.0
100
AcDbArc
 50
270.0
 51
360.0
  0
ARC
  5
421
100
AcDbEntity
  8
4
100
AcDbCircle
 62
7
  6
BYLAYER
 10
852.4520275683
 20
2305.8979003885
 40
5.0
100
AcDbArc
 50
0.0
 51
90.0
  0
ARC
  5
422
100
AcDbEntity
  8
4
100
AcDbCircle
 62
7
  6
BYLAYER
 10
849.2520275683
 20
2270.8979003885
 40
3.25
100
AcDbArc
 50
270.0
 51
90.0
  0
ARC
  5
423
100
AcDbEntity
  8
4
100
AcDbCircle
 62
7
  6
BYLAYER
 10
849.2520275683
 20
2300.8979003885
 40
3.25
100
AcDbArc
 50
270.0
 51
90.0
  0
CIRCLE
  5
424
100
AcDbEntity
  8
4
100
AcDbCircle
 62
7
  6
BYLAYER
 10
842.6412482934
 20
2270.8979003885
 40
3.0
  0
CIRCLE
  5
425
100
AcDbEntity
  8
4
100
AcDbCircle
 62
7
  6
BYLAYER
 10
842.6412482934
 20
2300.8979003885
 40
3.0
  0
ARC
  5
426
100
AcDbEntity
  8
0
100
AcDbCircle
 62
7
  6
BYLAYER
 10
847.6405204838
 20
2352.2148228044
 40
1.0
100
AcDbArc
 50
90.0
 51
180.0000000008
  0
ARC
  5
427
100
AcDbEntity
  8
0
100
AcDbCircle
 62
7
  6
BYLAYER
 10
843.6405381462
 20
2349.7148229872
 40
0.4999999534
100
AcDbArc
 50
102.1571786862
 51
282.1569797606
  0
ARC
  5
428
100
AcDbEntity
  8
0
100
AcDbCircle
 62
7
  6
BYLAYER
 10
847.8172804838
 20
2360.9148228044
 40
0.3
100
AcDbArc
 50
90.0
 51
179.9999999999
  0
ARC
  5
429
100
AcDbEntity
  8
0
100
AcDbCircle
 62
7
  6
BYLAYER
 10
866.4405204838
 20
2352.3148228044
 40
1.0
100
AcDbArc
 50
54.2529864704
 51
90.0
  0
ARC
  5
42A
100
AcDbEntity
  8
0
100
AcDbCircle
 62
7
  6
BYLAYER
 10
860.8405204838
 20
2352.3148228044
 40
1.0
100
AcDbArc
 50
90.0
 51
180.0
  0
ARC
  5
42B
100
AcDbEntity
  8
0
100
AcDbCircle
 62
7
  6
BYLAYER
 10
865.4405204838
 20
2352.3148228044
 40
1.0
100
AcDbArc
 50
0.0
 51
90.0
  0
ARC
  5
42C
100
AcDbEntity
  8
0
100
AcDbCircle
 62
7
  6
BYLAYER
 10
858.6405204838
 20
2352.2148228044
 40
1.0
100
AcDbArc
 50
0.0
 51
90.0
  0
ARC
  5
42D
100
AcDbEntity
  8
0
100
AcDbCircle
 62
7
  6
BYLAYER
 10
866.6405204838
 20
2352.2148228044
 40
1.0
100
AcDbArc
 50
0.0000000001
 51
90.0
  0
ARC
  5
42E
100
AcDbEntity
  8
0
100
AcDbCircle
 62
7
  6
BYLAYER
 10
867.1405204838
 20
2350.2148228044
 40
0.5
100
AcDbArc
 50
0.0
 51
90.0
  0
ARC
  5
42F
100
AcDbEntity
  8
0
100
AcDbCircle
 62
7
  6
BYLAYER
 10
860.1405204838
 20
2351.2148228044
 40
0.5
100
AcDbArc
 50
180.0
 51
270.0
  0
ARC
  5
430
100
AcDbEntity
  8
0
100
AcDbCircle
 62
7
  6
BYLAYER
 10
859.6405028213
 20
2349.7148229872
 40
0.4999999534
100
AcDbArc
 50
257.8430202394
 51
77.8428213138
  0
ARC
  5
431
100
AcDbEntity
  8
0
100
AcDbCircle
 62
7
  6
BYLAYER
 10
855.4672804838
 20
2360.9148228044
 40
0.3
100
AcDbArc
 50
0.0
 51
90.0
  0
ARC
  5
432
100
AcDbEntity
  8
3
100
AcDbCircle
 62
7
  6
BYLAYER
 10
983.4011584568
 20
224.5629979276
 40
3.25
100
AcDbArc
 50
90.0
 51
270.0
  0
ARC
  5
433
100
AcDbEntity
  8
3
100
AcDbCircle
 62
7
  6
BYLAYER
 10
983.4011584568
 20
254.5629979276
 40
3.25
100
AcDbArc
 50
90.0
 51
270.0
  0
ARC
  5
434
100
AcDbEntity
  8
0
100
AcDbCircle
 62
7
  6
BYLAYER
 10
966.4899041434
 20
170.6148228044
 40
1.0
100
AcDbArc
 50
234.2503109337
 51
270.0
  0
ARC
  5
435
100
AcDbEntity
  8
0
100
AcDbCircle
 62
7
  6
BYLAYER
 10
972.0903791833
 20
170.6148228044
 40
1.0
100
AcDbArc
 50
270.0
 51
360.0
  0
ARC
  5
436
100
AcDbEntity
  8
0
100
AcDbCircle
 62
7
  6
BYLAYER
 10
967.4903791833
 20
170.6148228044
 40
1.0
100
AcDbArc
 50
180.0
 51
270.0
  0
ARC
  5
437
100
AcDbEntity
  8
0
100
AcDbCircle
 62
7
  6
BYLAYER
 10
974.2903791833
 20
170.7147126659
 40
1.0
100
AcDbArc
 50
180.0
 51
270.0
  0
ARC
  5
438
100
AcDbEntity
  8
0
100
AcDbCircle
 62
7
  6
BYLAYER
 10
966.2903791833
 20
170.7147126659
 40
1.0
100
AcDbArc
 50
180.0
 51
270.0
  0
ARC
  5
439
100
AcDbEntity
  8
0
100
AcDbCircle
 62
7
  6
BYLAYER
 10
985.2903791833
 20
170.7147126659
 40
1.0
100
AcDbArc
 50
270.0
 51
360.0
  0
ARC
  5
43A
100
AcDbEntity
  8
0
100
AcDbCircle
 62
7
  6
BYLAYER
 10
965.7903791833
 20
172.7147126659
 40
0.5
100
AcDbArc
 50
180.0
 51
270.0
  0
ARC
  5
43B
100
AcDbEntity
  8
0
100
AcDbCircle
 62
7
  6
BYLAYER
 10
972.7903791833
 20
171.7147126659
 40
0.5
100
AcDbArc
 50
0.0
 51
90.0
  0
ARC
  5
43C
100
AcDbEntity
  8
3
100
AcDbCircle
 62
7
  6
BYLAYER
 10
983.4011584568
 20
1246.8471387674
 40
3.25
100
AcDbArc
 50
90.0
 51
270.0
  0
ARC
  5
43D
100
AcDbEntity
  8
0
100
AcDbCircle
 62
7
  6
BYLAYER
 10
995.2903791833
 20
170.7147126659
 40
1.0
100
AcDbArc
 50
179.9999999984
 51
270.0
  0
CIRCLE
  5
43E
100
AcDbEntity
  8
3
100
AcDbCircle
 62
7
  6
BYLAYER
 10
990.2903791819
 20
224.5629979276
 40
6.3525
  0
CIRCLE
  5
43F
100
AcDbEntity
  8
3
100
AcDbCircle
 62
7
  6
BYLAYER
 10
990.2903791819
 20
254.5629979276
 40
6.3525
  0
ARC
  5
440
100
AcDbEntity
  8
3
100
AcDbCircle
 62
7
  6
BYLAYER
 10
1000.1011584568
 20
219.5629979276
 40
5.0
100
AcDbArc
 50
270.0
 51
360.0
  0
ARC
  5
441
100
AcDbEntity
  8
3
100
AcDbCircle
 62
7
  6
BYLAYER
 10
1000.1011584568
 20
259.5629979276
 40
5.0
100
AcDbArc
 50
0.0
 51
90.0
  0
ARC
  5
442
100
AcDbEntity
  8
3
100
AcDbCircle
 62
7
  6
BYLAYER
 10
996.9011584568
 20
224.5629979276
 40
3.25
100
AcDbArc
 50
270.0
 51
90.0
  0
ARC
  5
443
100
AcDbEntity
  8
3
100
AcDbCircle
 62
7
  6
BYLAYER
 10
996.9011584568
 20
254.5629979276
 40
3.25
100
AcDbArc
 50
270.0
 51
90.0
  0
CIRCLE
  5
444
100
AcDbEntity
  8
3
100
AcDbCircle
 62
7
  6
BYLAYER
 10
990.2903791819
 20
224.5629979276
 40
3.0
  0
CIRCLE
  5
445
100
AcDbEntity
  8
3
100
AcDbCircle
 62
7
  6
BYLAYER
 10
990.2903791819
 20
254.5629979276
 40
3.0
  0
ARC
  5
446
100
AcDbEntity
  8
0
100
AcDbCircle
 62
7
  6
BYLAYER
 10
1014.0899041403
 20
170.6148228044
 40
1.0
100
AcDbArc
 50
270.0
 51
305.71908683
  0
ARC
  5
447
100
AcDbEntity
  8
0
100
AcDbCircle
 62
7
  6
BYLAYER
 10
1013.0903791804
 20
170.6148228044
 40
1.0
100
AcDbArc
 50
270.0
 51
360.0
  0
ARC
  5
448
100
AcDbEntity
  8
0
100
AcDbCircle
 62
7
  6
BYLAYER
 10
1008.4903791804
 20
170.6148228044
 40
1.0
100
AcDbArc
 50
180.0
 51
270.0
  0
ARC
  5
449
100
AcDbEntity
  8
0
100
AcDbCircle
 62
7
  6
BYLAYER
 10
1006.2903791833
 20
170.7147126659
 40
1.0
100
AcDbArc
 50
270.0
 51
360.0
  0
ARC
  5
44A
100
AcDbEntity
  8
0
100
AcDbCircle
 62
7
  6
BYLAYER
 10
1014.2903791833
 20
170.7147126659
 40
1.0
100
AcDbArc
 50
270.0
 51
360.0
  0
ARC
  5
44B
100
AcDbEntity
  8
0
100
AcDbCircle
 62
7
  6
BYLAYER
 10
1007.7903791833
 20
171.7147126659
 40
0.5
100
AcDbArc
 50
90.0
 51
180.0
  0
ARC
  5
44C
100
AcDbEntity
  8
0
100
AcDbCircle
 62
7
  6
BYLAYER
 10
1014.7903791833
 20
172.7147126659
 40
0.5
100
AcDbArc
 50
270.0
 51
360.0
  0
CIRCLE
  5
44D
100
AcDbEntity
  8
3
100
AcDbCircle
 62
7
  6
BYLAYER
 10
990.2903791819
 20
1246.8471387674
 40
6.3525
  0
ARC
  5
44E
100
AcDbEntity
  8
3
100
AcDbCircle
 62
7
  6
BYLAYER
 10
1000.1011584568
 20
1241.8471387674
 40
5.0
100
AcDbArc
 50
270.0
 51
360.0
  0
ARC
  5
44F
100
AcDbEntity
  8
3
100
AcDbCircle
 62
7
  6
BYLAYER
 10
996.9011584568
 20
1246.8471387674
 40
3.25
100
AcDbArc
 50
270.0
 51
90.0
  0
CIRCLE
  5
450
100
AcDbEntity
  8
3
100
AcDbCircle
 62
7
  6
BYLAYER
 10
990.2903791819
 20
1246.8471387674
 40
3.0
  0
ARC
  5
451
100
AcDbEntity
  8
3
100
AcDbCircle
 62
7
  6
BYLAYER
 10
983.4011584568
 20
1276.8471387674
 40
3.25
100
AcDbArc
 50
90.0
 51
270.0
  0
ARC
  5
452
100
AcDbEntity
  8
3
100
AcDbCircle
 62
7
  6
BYLAYER
 10
983.4011584568
 20
2270.8979003885
 40
3.25
100
AcDbArc
 50
90.0
 51
270.0
  0
ARC
  5
453
100
AcDbEntity
  8
3
100
AcDbCircle
 62
7
  6
BYLAYER
 10
983.4011584568
 20
2300.8979003885
 40
3.25
100
AcDbArc
 50
90.0
 51
270.0
  0
ARC
  5
454
100
AcDbEntity
  8
0
100
AcDbCircle
 62
7
  6
BYLAYER
 10
966.4896513723
 20
2352.3148228044
 40
1.0
100
AcDbArc
 50
90.0
 51
125.7468808541
  0
ARC
  5
455
100
AcDbEntity
  8
0
100
AcDbCircle
 62
7
  6
BYLAYER
 10
967.4896513723
 20
2352.3148228044
 40
1.0
100
AcDbArc
 50
90.0
 51
180.0
  0
ARC
  5
456
100
AcDbEntity
  8
0
100
AcDbCircle
 62
7
  6
BYLAYER
 10
972.0896513723
 20
2352.3148228044
 40
1.0
100
AcDbArc
 50
0.0
 51
90.0
  0
ARC
  5
457
100
AcDbEntity
  8
0
100
AcDbCircle
 62
7
  6
BYLAYER
 10
985.2896513723
 20
2352.2148228044
 40
1.0
100
AcDbArc
 50
0.0
 51
90.0
  0
ARC
  5
458
100
AcDbEntity
  8
0
100
AcDbCircle
 62
7
  6
BYLAYER
 10
966.2896513723
 20
2352.2148228044
 40
1.0
100
AcDbArc
 50
90.0
 51
180.0
  0
ARC
  5
459
100
AcDbEntity
  8
0
100
AcDbCircle
 62
7
  6
BYLAYER
 10
974.2896513723
 20
2352.2148228044
 40
1.0
100
AcDbArc
 50
90.0
 51
180.0
  0
ARC
  5
45A
100
AcDbEntity
  8
0
100
AcDbCircle
 62
7
  6
BYLAYER
 10
972.7896513723
 20
2351.2148228044
 40
0.5
100
AcDbArc
 50
270.0
 51
360.0
  0
ARC
  5
45B
100
AcDbEntity
  8
0
100
AcDbCircle
 62
7
  6
BYLAYER
 10
965.7896513723
 20
2350.2148228044
 40
0.5
100
AcDbArc
 50
90.0
 51
180.0
  0
ARC
  5
45C
100
AcDbEntity
  8
0
100
AcDbCircle
 62
7
  6
BYLAYER
 10
989.2896337104
 20
2349.7148229874
 40
0.4999999532
100
AcDbArc
 50
257.819789003
 51
77.8195901877
  0
ARC
  5
45D
100
AcDbEntity
  8
0
100
AcDbCircle
 62
7
  6
BYLAYER
 10
973.2896690342
 20
2349.7148229874
 40
0.4999999532
100
AcDbArc
 50
102.1804098123
 51
282.180210997
  0
ARC
  5
45E
100
AcDbEntity
  8
0
100
AcDbCircle
 62
7
  6
BYLAYER
 10
977.4654313723
 20
2360.9148228044
 40
0.3
100
AcDbArc
 50
90.0
 51
180.0
  0
ARC
  5
45F
100
AcDbEntity
  8
0
100
AcDbCircle
 62
7
  6
BYLAYER
 10
985.1154313723
 20
2360.9148228044
 40
0.3
100
AcDbArc
 50
0.0000000001
 51
90.0
  0
CIRCLE
  5
460
100
AcDbEntity
  8
3
100
AcDbCircle
 62
7
  6
BYLAYER
 10
990.2903791819
 20
1276.8471387674
 40
6.3525
  0
ARC
  5
461
100
AcDbEntity
  8
3
100
AcDbCircle
 62
7
  6
BYLAYER
 10
1000.1011584568
 20
1281.8471387674
 40
5.0
100
AcDbArc
 50
0.0
 51
90.0
  0
ARC
  5
462
100
AcDbEntity
  8
3
100
AcDbCircle
 62
7
  6
BYLAYER
 10
996.9011584568
 20
1276.8471387674
 40
3.25
100
AcDbArc
 50
270.0
 51
90.0
  0
CIRCLE
  5
463
100
AcDbEntity
  8
3
100
AcDbCircle
 62
7
  6
BYLAYER
 10
990.2903791819
 20
1276.8471387674
 40
3.0
  0
CIRCLE
  5
464
100
AcDbEntity
  8
3
100
AcDbCircle
 62
7
  6
BYLAYER
 10
990.2903791819
 20
2270.8979003885
 40
6.3525
  0
CIRCLE
  5
465
100
AcDbEntity
  8
3
100
AcDbCircle
 62
7
  6
BYLAYER
 10
990.2903791819
 20
2300.8979003885
 40
6.3525
  0
ARC
  5
466
100
AcDbEntity
  8
3
100
AcDbCircle
 62
7
  6
BYLAYER
 10
1000.1011584568
 20
2265.8979003885
 40
5.0
100
AcDbArc
 50
270.0
 51
360.0
  0
ARC
  5
467
100
AcDbEntity
  8
3
100
AcDbCircle
 62
7
  6
BYLAYER
 10
1000.1011584568
 20
2305.8979003885
 40
5.0
100
AcDbArc
 50
0.0
 51
90.0
  0
ARC
  5
468
100
AcDbEntity
  8
3
100
AcDbCircle
 62
7
  6
BYLAYER
 10
996.9011584568
 20
2270.8979003885
 40
3.25
100
AcDbArc
 50
270.0
 51
90.0
  0
ARC
  5
469
100
AcDbEntity
  8
3
100
AcDbCircle
 62
7
  6
BYLAYER
 10
996.9011584568
 20
2300.8979003885
 40
3.25
100
AcDbArc
 50
270.0
 51
90.0
  0
CIRCLE
  5
46A
100
AcDbEntity
  8
3
100
AcDbCircle
 62
7
  6
BYLAYER
 10
990.2903791819
 20
2270.8979003885
 40
3.0
  0
CIRCLE
  5
46B
100
AcDbEntity
  8
3
100
AcDbCircle
 62
7
  6
BYLAYER
 10
990.2903791819
 20
2300.8979003885
 40
3.0
  0
ARC
  5
46C
100
AcDbEntity
  8
0
100
AcDbCircle
 62
7
  6
BYLAYER
 10
995.2896513723
 20
2352.2148228044
 40
1.0
100
AcDbArc
 50
90.0
 51
180.0000000008
  0
ARC
  5
46D
100
AcDbEntity
  8
0
100
AcDbCircle
 62
7
  6
BYLAYER
 10
991.2896690347
 20
2349.7148229872
 40
0.4999999534
100
AcDbArc
 50
102.1571786862
 51
282.1569797606
  0
ARC
  5
46E
100
AcDbEntity
  8
0
100
AcDbCircle
 62
7
  6
BYLAYER
 10
995.4664113723
 20
2360.9148228044
 40
0.3
100
AcDbArc
 50
90.0
 51
179.9999999999
  0
ARC
  5
46F
100
AcDbEntity
  8
0
100
AcDbCircle
 62
7
  6
BYLAYER
 10
1014.0896513723
 20
2352.3148228044
 40
1.0
100
AcDbArc
 50
54.2529864704
 51
90.0
  0
ARC
  5
470
100
AcDbEntity
  8
0
100
AcDbCircle
 62
7
  6
BYLAYER
 10
1008.4896513723
 20
2352.3148228044
 40
1.0
100
AcDbArc
 50
90.0
 51
180.0
  0
ARC
  5
471
100
AcDbEntity
  8
0
100
AcDbCircle
 62
7
  6
BYLAYER
 10
1013.0896513723
 20
2352.3148228044
 40
1.0
100
AcDbArc
 50
0.0
 51
90.0
  0
ARC
  5
472
100
AcDbEntity
  8
0
100
AcDbCircle
 62
7
  6
BYLAYER
 10
1006.2896513723
 20
2352.2148228044
 40
1.0
100
AcDbArc
 50
0.0
 51
90.0
  0
ARC
  5
473
100
AcDbEntity
  8
0
100
AcDbCircle
 62
7
  6
BYLAYER
 10
1014.2896513723
 20
2352.2148228044
 40
1.0
100
AcDbArc
 50
0.0000000001
 51
90.0
  0
ARC
  5
474
100
AcDbEntity
  8
0
100
AcDbCircle
 62
7
  6
BYLAYER
 10
1014.7896513723
 20
2350.2148228044
 40
0.5
100
AcDbArc
 50
0.0
 51
90.0
  0
ARC
  5
475
100
AcDbEntity
  8
0
100
AcDbCircle
 62
7
  6
BYLAYER
 10
1007.7896513723
 20
2351.2148228044
 40
0.5
100
AcDbArc
 50
180.0
 51
270.0
  0
ARC
  5
476
100
AcDbEntity
  8
0
100
AcDbCircle
 62
7
  6
BYLAYER
 10
1007.2896337099
 20
2349.7148229872
 40
0.4999999534
100
AcDbArc
 50
257.8430202394
 51
77.8428213138
  0
ARC
  5
477
100
AcDbEntity
  8
0
100
AcDbCircle
 62
7
  6
BYLAYER
 10
1003.1164113723
 20
2360.9148228044
 40
0.3
100
AcDbArc
 50
0.0
 51
90.0
  0
SPLINE
  5
478
100
AcDbEntity
  8
0
100
AcDbSpline
 62
7
  6
BYLAYER
 70
0
 71
3
 72
11
 73
7
 74
0
 42
0.0000001
 43
0.0000001
 44
0.0000000001
 40
0.0
 40
0.0
 40
0.0
 40
0.0
 40
0.1598605771
 40
0.3733762137
 40
0.6595504004
 40
1.0
 40
1.0
 40
1.0
 40
1.0
 10
995.2896534065
 20
2353.2148228047
 30
0.0
 10
995.2255093254
 20
2353.2148096735
 30
0.0
 10
995.0767459159
 20
2353.1492405967
 30
0.0
 10
994.9222666016
 20
2352.9263419245
 30
0.0
 10
994.8145139924
 20
2352.604078219
 30
0.0
 10
994.7896525581
 20
2352.3514282615
 30
0.0
 10
994.7896519131
 20
2352.2148228044
 30
0.0
  0
SPLINE
  5
479
100
AcDbEntity
  8
0
100
AcDbSpline
 62
7
  6
BYLAYER
 70
0
 71
3
 72
11
 73
7
 74
0
 42
0.0000001
 43
0.0000001
 44
0.0000000001
 40
0.0
 40
0.0
 40
0.0
 40
0.0
 40
0.2478327053
 40
0.4979558062
 40
0.7486361583
 40
1.0
 40
1.0
 40
1.0
 40
1.0
 10
974.2896513723
 20
2351.2148228044
 30
0.0
 10
974.2896509367
 20
2351.0507011889
 30
0.0
 10
974.1574914586
 20
2350.720622475
 30
0.0
 10
973.7699743454
 20
2350.394094298
 30
0.0
 10
973.2914083552
 20
2350.2213485779
 30
0.0
 10
972.9561114031
 20
2350.214822763
 30
0.0
 10
972.7896513723
 20
2350.2148228044
 30
0.0
  0
SPLINE
  5
47A
100
AcDbEntity
  8
0
100
AcDbSpline
 62
7
  6
BYLAYER
 70
0
 71
3
 72
13
 73
9
 74
0
 42
0.0000001
 43
0.0000001
 44
0.0000000001
 40
0.0
 40
0.0
 40
0.0
 40
0.0
 40
0.263683202
 40
0.5741154223
 40
0.7239646887
 40
0.8563112027
 40
0.9572588386
 40
1.0
 40
1.0
 40
1.0
 40
1.0
 10
966.289651384
 20
2351.2148228044
 30
0.0
 10
966.2896512291
 20
2351.1515287897
 30
0.0
 10
966.1954209764
 20
2351.0291280136
 30
0.0
 10
966.0680703376
 20
2350.9193754135
 30
0.0
 10
965.9573646482
 20
2350.8288234132
 30
0.0
 10
965.8818773218
 20
2350.7761396261
 30
0.0
 10
965.8316426429
 20
2350.7332334755
 30
0.0
 10
965.7960226431
 20
2350.7228642313
 30
0.0
 10
965.7896513806
 20
2350.7148228072
 30
0.0
  0
SPLINE
  5
47B
100
AcDbEntity
  8
0
100
AcDbSpline
 62
7
  6
BYLAYER
 70
0
 71
3
 72
13
 73
9
 74
0
 42
0.0000001
 43
0.0000001
 44
0.0000000001
 40
0.0
 40
0.0
 40
0.0
 40
0.0
 40
0.0427411614
 40
0.1436887974
 40
0.2760353115
 40
0.425884578
 40
0.7363167985
 40
1.0
 40
1.0
 40
1.0
 40
1.0
 10
1014.7896513649
 20
2350.7148228072
 30
0.0
 10
1014.7832833076
 20
2350.7228667698
 30
0.0
 10
1014.7476564959
 20
2350.7332306191
 30
0.0
 10
1014.6974271272
 20
2350.7761409753
 30
0.0
 10
1014.6219375281
 20
2350.8288229625
 30
0.0
 10
1014.5112327684
 20
2350.919375699
 30
0.0
 10
1014.3838816582
 20
2351.0291279257
 30
0.0
 10
1014.2896515173
 20
2351.1515287898
 30
0.0
 10
1014.2896513624
 20
2351.2148228044
 30
0.0
  0
SPLINE
  5
47C
100
AcDbEntity
  8
0
100
AcDbSpline
 62
7
  6
BYLAYER
 70
0
 71
3
 72
11
 73
7
 74
0
 42
0.0000001
 43
0.0000001
 44
0.0000000001
 40
0.0
 40
0.0
 40
0.0
 40
0.0
 40
0.3404385698
 40
0.6266185405
 40
0.8401374976
 40
1.0
 40
1.0
 40
1.0
 40
1.0
 10
985.7896499491
 20
2352.2148228044
 30
0.0
 10
985.7896499487
 20
2352.3514238225
 30
0.0
 10
985.7647884348
 20
2352.6040716126
 30
0.0
 10
985.6570388645
 20
2352.9263349405
 30
0.0
 10
985.5025585996
 20
2353.1492396497
 30
0.0
 10
985.3537932786
 20
2353.2148083111
 30
0.0
 10
985.2896484315
 20
2353.2148228048
 30
0.0
  0
SPLINE
  5
47D
100
AcDbEntity
  8
0
100
AcDbSpline
 62
7
  6
BYLAYER
 70
0
 71
3
 72
11
 73
7
 74
0
 42
0.0000001
 43
0.0000001
 44
0.0000000001
 40
0.0
 40
0.0
 40
0.0
 40
0.0
 40
0.2478325037
 40
0.497955658
 40
0.7486362695
 40
1.0
 40
1.0
 40
1.0
 40
1.0
 10
1006.2896513723
 20
2351.2148228044
 30
0.0
 10
1006.289651808
 20
2351.0507013221
 30
0.0
 10
1006.4218111343
 20
2350.7206227022
 30
0.0
 10
1006.8093282249
 20
2350.3940943398
 30
0.0
 10
1007.287894373
 20
2350.2213486025
 30
0.0
 10
1007.6231914149
 20
2350.2148227631
 30
0.0
 10
1007.7896513723
 20
2350.2148228044
 30
0.0
  0
SPLINE
  5
47E
100
AcDbEntity
  8
0
100
AcDbSpline
 62
7
  6
BYLAYER
 70
0
 71
3
 72
11
 73
7
 74
0
 42
0.0000001
 43
0.0000001
 44
0.0000000001
 40
0.0
 40
0.0
 40
0.0
 40
0.0
 40
0.2478327053
 40
0.4979558062
 40
0.7486361583
 40
1.0
 40
1.0
 40
1.0
 40
1.0
 10
826.6405204838
 20
2351.2148228044
 30
0.0
 10
826.6405200482
 20
2351.0507011889
 30
0.0
 10
826.50836057
 20
2350.720622475
 30
0.0
 10
826.1208434569
 20
2350.394094298
 30
0.0
 10
825.6422774667
 20
2350.2213485779
 30
0.0
 10
825.3069805146
 20
2350.214822763
 30
0.0
 10
825.1405204838
 20
2350.2148228044
 30
0.0
  0
SPLINE
  5
47F
100
AcDbEntity
  8
0
100
AcDbSpline
 62
7
  6
BYLAYER
 70
0
 71
3
 72
13
 73
9
 74
0
 42
0.0000001
 43
0.0000001
 44
0.0000000001
 40
0.0
 40
0.0
 40
0.0
 40
0.0
 40
0.263683202
 40
0.5741154223
 40
0.7239646887
 40
0.8563112027
 40
0.9572588386
 40
1.0
 40
1.0
 40
1.0
 40
1.0
 10
818.6405204954
 20
2351.2148228044
 30
0.0
 10
818.6405203405
 20
2351.1515287897
 30
0.0
 10
818.5462900856
 20
2351.0291280154
 30
0.0
 10
818.4189394565
 20
2350.9193754076
 30
0.0
 10
818.308233748
 20
2350.8288234225
 30
0.0
 10
818.2327464683
 20
2350.7761395984
 30
0.0
 10
818.1825116802
 20
2350.7332335343
 30
0.0
 10
818.1468918205
 20
2350.7228641791
 30
0.0
 10
818.1405204921
 20
2350.7148228072
 30
0.0
  0
SPLINE
  5
480
100
AcDbEntity
  8
0
100
AcDbSpline
 62
7
  6
BYLAYER
 70
0
 71
3
 72
13
 73
9
 74
0
 42
0.0000001
 43
0.0000001
 44
0.0000000001
 40
0.0
 40
0.0
 40
0.0
 40
0.0
 40
0.0427411614
 40
0.1436887974
 40
0.2760353115
 40
0.425884578
 40
0.7363167985
 40
1.0
 40
1.0
 40
1.0
 40
1.0
 10
867.1405204764
 20
2350.7148228072
 30
0.0
 10
867.1341524191
 20
2350.7228667698
 30
0.0
 10
867.0985256074
 20
2350.7332306191
 30
0.0
 10
867.0482962387
 20
2350.7761409753
 30
0.0
 10
866.9728066396
 20
2350.8288229625
 30
0.0
 10
866.8621018799
 20
2350.919375699
 30
0.0
 10
866.7347507697
 20
2351.0291279257
 30
0.0
 10
866.6405206287
 20
2351.1515287898
 30
0.0
 10
866.6405204739
 20
2351.2148228044
 30
0.0
  0
SPLINE
  5
481
100
AcDbEntity
  8
0
100
AcDbSpline
 62
7
  6
BYLAYER
 70
0
 71
3
 72
11
 73
7
 74
0
 42
0.0000001
 43
0.0000001
 44
0.0000000001
 40
0.0
 40
0.0
 40
0.0
 40
0.0
 40
0.3404385698
 40
0.6266185405
 40
0.8401374976
 40
1.0
 40
1.0
 40
1.0
 40
1.0
 10
838.1405190606
 20
2352.2148228044
 30
0.0
 10
838.1405190602
 20
2352.3514238225
 30
0.0
 10
838.1156575462
 20
2352.6040716126
 30
0.0
 10
838.007907976
 20
2352.9263349405
 30
0.0
 10
837.853427711
 20
2353.1492396497
 30
0.0
 10
837.7046623901
 20
2353.2148083111
 30
0.0
 10
837.6405175429
 20
2353.2148228048
 30
0.0
  0
SPLINE
  5
482
100
AcDbEntity
  8
0
100
AcDbSpline
 62
7
  6
BYLAYER
 70
0
 71
3
 72
11
 73
7
 74
0
 42
0.0000001
 43
0.0000001
 44
0.0000000001
 40
0.0
 40
0.0
 40
0.0
 40
0.0
 40
0.2478325037
 40
0.497955658
 40
0.7486362695
 40
1.0
 40
1.0
 40
1.0
 40
1.0
 10
858.6405204838
 20
2351.2148228044
 30
0.0
 10
858.6405209194
 20
2351.0507013221
 30
0.0
 10
858.7726802458
 20
2350.7206227022
 30
0.0
 10
859.1601973363
 20
2350.3940943398
 30
0.0
 10
859.6387634845
 20
2350.2213486025
 30
0.0
 10
859.9740605264
 20
2350.2148227631
 30
0.0
 10
860.1405204838
 20
2350.2148228044
 30
0.0
  0
SPLINE
  5
483
100
AcDbEntity
  8
0
100
AcDbSpline
 62
7
  6
BYLAYER
 70
0
 71
3
 72
11
 73
7
 74
0
 42
0.0000001
 43
0.0000001
 44
0.0000000001
 40
0.0
 40
0.0
 40
0.0
 40
0.0
 40
0.1598605771
 40
0.3733762137
 40
0.6595504004
 40
1.0
 40
1.0
 40
1.0
 40
1.0
 10
847.640522518
 20
2353.2148228047
 30
0.0
 10
847.5763784369
 20
2353.2148096735
 30
0.0
 10
847.4276150273
 20
2353.1492405967
 30
0.0
 10
847.2731357131
 20
2352.9263419245
 30
0.0
 10
847.1653831039
 20
2352.604078219
 30
0.0
 10
847.1405216696
 20
2352.3514282615
 30
0.0
 10
847.1405210246
 20
2352.2148228044
 30
0.0
  0
SPLINE
  5
484
100
AcDbEntity
  8
0
100
AcDbSpline
 62
7
  6
BYLAYER
 70
0
 71
3
 72
11
 73
7
 74
0
 42
0.0000001
 43
0.0000001
 44
0.0000000001
 40
0.0
 40
0.0
 40
0.0
 40
0.0
 40
0.3404385699
 40
0.6266185405
 40
0.8401374976
 40
1.0
 40
1.0
 40
1.0
 40
1.0
 10
994.7903806065
 20
170.7147126659
 30
0.0
 10
994.7903806069
 20
170.5781116477
 30
0.0
 10
994.8152421208
 20
170.3254638576
 30
0.0
 10
994.9229916912
 20
170.0032005298
 30
0.0
 10
995.077471956
 20
169.7802958205
 30
0.0
 10
995.226237277
 20
169.7147271592
 30
0.0
 10
995.2903821242
 20
169.7147126654
 30
0.0
  0
SPLINE
  5
485
100
AcDbEntity
  8
0
100
AcDbSpline
 62
7
  6
BYLAYER
 70
0
 71
3
 72
11
 73
7
 74
0
 42
0.0000001
 43
0.0000001
 44
0.0000000001
 40
0.0
 40
0.0
 40
0.0
 40
0.0
 40
0.1598605678
 40
0.3733761936
 40
0.6595503807
 40
1.0
 40
1.0
 40
1.0
 40
1.0
 10
985.2903772414
 20
169.7147126656
 30
0.0
 10
985.3545213199
 20
169.7147257898
 30
0.0
 10
985.5032847308
 20
169.7802948523
 30
0.0
 10
985.6577640517
 20
170.0031935166
 30
0.0
 10
985.7655166689
 20
170.3254572291
 30
0.0
 10
985.7903781064
 20
170.5781071987
 30
0.0
 10
985.7903787513
 20
170.7147126658
 30
0.0
  0
SPLINE
  5
486
100
AcDbEntity
  8
0
100
AcDbSpline
 62
7
  6
BYLAYER
 70
0
 71
3
 72
13
 73
9
 74
0
 42
0.0000001
 43
0.0000001
 44
0.0000000001
 40
0.0
 40
0.0
 40
0.0
 40
0.0
 40
0.0427411615
 40
0.1436887974
 40
0.2760353115
 40
0.425884578
 40
0.7363167985
 40
1.0
 40
1.0
 40
1.0
 40
1.0
 10
965.7903791907
 20
172.214712663
 30
0.0
 10
965.7967480819
 20
172.2066693607
 30
0.0
 10
965.8323731213
 20
172.1963041082
 30
0.0
 10
965.8826038716
 20
172.1533948458
 30
0.0
 10
965.9580928794
 20
172.1007123905
 30
0.0
 10
966.0687978809
 20
172.0101598454
 30
0.0
 10
966.1961488684
 20
171.9004075216
 30
0.0
 10
966.2903790384
 20
171.7780066804
 30
0.0
 10
966.2903791932
 20
171.7147126659
 30
0.0
  0
SPLINE
  5
487
100
AcDbEntity
  8
0
100
AcDbSpline
 62
7
  6
BYLAYER
 70
0
 71
3
 72
11
 73
7
 74
0
 42
0.0000001
 43
0.0000001
 44
0.0000000001
 40
0.0
 40
0.0
 40
0.0
 40
0.0
 40
0.2478325037
 40
0.497955658
 40
0.7486362695
 40
1.0
 40
1.0
 40
1.0
 40
1.0
 10
974.2903791833
 20
171.7147126659
 30
0.0
 10
974.2903787477
 20
171.8788341481
 30
0.0
 10
974.1582194213
 20
172.208912768
 30
0.0
 10
973.7707023308
 20
172.5354411305
 30
0.0
 10
973.2921361826
 20
172.7081868678
 30
0.0
 10
972.9568391407
 20
172.7147127072
 30
0.0
 10
972.7903791833
 20
172.7147126659
 30
0.0
  0
SPLINE
  5
488
100
AcDbEntity
  8
0
100
AcDbSpline
 62
7
  6
BYLAYER
 70
0
 71
3
 72
11
 73
7
 74
0
 42
0.0000001
 43
0.0000001
 44
0.0000000001
 40
0.0
 40
0.0
 40
0.0
 40
0.0
 40
0.2478327053
 40
0.4979558062
 40
0.7486361583
 40
1.0
 40
1.0
 40
1.0
 40
1.0
 10
1006.2903791833
 20
171.7147126659
 30
0.0
 10
1006.2903796189
 20
171.8788342814
 30
0.0
 10
1006.4225390971
 20
172.2089129953
 30
0.0
 10
1006.8100562102
 20
172.5354411723
 30
0.0
 10
1007.2886222004
 20
172.7081868924
 30
0.0
 10
1007.6239191525
 20
172.7147127072
 30
0.0
 10
1007.7903791833
 20
172.7147126659
 30
0.0
  0
SPLINE
  5
489
100
AcDbEntity
  8
0
100
AcDbSpline
 62
7
  6
BYLAYER
 70
0
 71
3
 72
13
 73
9
 74
0
 42
0.0000001
 43
0.0000001
 44
0.0000000001
 40
0.0
 40
0.0
 40
0.0
 40
0.0
 40
0.263683202
 40
0.5741154223
 40
0.7239646888
 40
0.8563112027
 40
0.9572588386
 40
1.0
 40
1.0
 40
1.0
 40
1.0
 10
1014.2903791717
 20
171.7147126659
 30
0.0
 10
1014.2903793266
 20
171.7780066806
 30
0.0
 10
1014.3846096156
 20
171.9004074278
 30
0.0
 10
1014.5119601004
 20
172.01016015
 30
0.0
 10
1014.6226660934
 20
172.1007119097
 30
0.0
 10
1014.6981526775
 20
172.153396285
 30
0.0
 10
1014.7483890907
 20
172.1963010613
 30
0.0
 10
1014.7840068658
 20
172.2066720684
 30
0.0
 10
1014.790379175
 20
172.214712663
 30
0.0
  0
SPLINE
  5
48A
100
AcDbEntity
  8
0
100
AcDbSpline
 62
7
  6
BYLAYER
 70
0
 71
3
 72
11
 73
7
 74
0
 42
0.0000001
 43
0.0000001
 44
0.0000000001
 40
0.0
 40
0.0
 40
0.0
 40
0.0
 40
0.3404385699
 40
0.6266185405
 40
0.8401374976
 40
1.0
 40
1.0
 40
1.0
 40
1.0
 10
847.141249718
 20
170.7147126659
 30
0.0
 10
847.1412497184
 20
170.5781116477
 30
0.0
 10
847.1661112323
 20
170.3254638576
 30
0.0
 10
847.2738608027
 20
170.0032005298
 30
0.0
 10
847.4283410675
 20
169.7802958205
 30
0.0
 10
847.5771063885
 20
169.7147271592
 30
0.0
 10
847.6412512356
 20
169.7147126654
 30
0.0
  0
SPLINE
  5
48B
100
AcDbEntity
  8
0
100
AcDbSpline
 62
7
  6
BYLAYER
 70
0
 71
3
 72
11
 73
7
 74
0
 42
0.0000001
 43
0.0000001
 44
0.0000000001
 40
0.0
 40
0.0
 40
0.0
 40
0.0
 40
0.1598605678
 40
0.3733761936
 40
0.6595503807
 40
1.0
 40
1.0
 40
1.0
 40
1.0
 10
837.6412463529
 20
169.7147126656
 30
0.0
 10
837.7053904313
 20
169.7147257898
 30
0.0
 10
837.8541538423
 20
169.7802948523
 30
0.0
 10
838.0086331632
 20
170.0031935166
 30
0.0
 10
838.1163857804
 20
170.3254572291
 30
0.0
 10
838.1412472179
 20
170.5781071987
 30
0.0
 10
838.1412478628
 20
170.7147126658
 30
0.0
  0
SPLINE
  5
48C
100
AcDbEntity
  8
0
100
AcDbSpline
 62
7
  6
BYLAYER
 70
0
 71
3
 72
13
 73
9
 74
0
 42
0.0000001
 43
0.0000001
 44
0.0000000001
 40
0.0
 40
0.0
 40
0.0
 40
0.0
 40
0.0427411614
 40
0.1436887974
 40
0.2760353115
 40
0.425884578
 40
0.7363167985
 40
1.0
 40
1.0
 40
1.0
 40
1.0
 10
818.1412483022
 20
172.214712663
 30
0.0
 10
818.1476172594
 20
172.206669413
 30
0.0
 10
818.1832421585
 20
172.1963040494
 30
0.0
 10
818.2334730181
 20
172.1533948736
 30
0.0
 10
818.3089619792
 20
172.1007123812
 30
0.0
 10
818.4196669998
 20
172.0101598513
 30
0.0
 10
818.5470179775
 20
171.9004075198
 30
0.0
 10
818.6412481498
 20
171.7780066804
 30
0.0
 10
818.6412483047
 20
171.7147126659
 30
0.0
  0
SPLINE
  5
48D
100
AcDbEntity
  8
0
100
AcDbSpline
 62
7
  6
BYLAYER
 70
0
 71
3
 72
11
 73
7
 74
0
 42
0.0000001
 43
0.0000001
 44
0.0000000001
 40
0.0
 40
0.0
 40
0.0
 40
0.0
 40
0.2478325037
 40
0.497955658
 40
0.7486362695
 40
1.0
 40
1.0
 40
1.0
 40
1.0
 10
826.6412482948
 20
171.7147126659
 30
0.0
 10
826.6412478591
 20
171.8788341481
 30
0.0
 10
826.5090885328
 20
172.208912768
 30
0.0
 10
826.1215714422
 20
172.5354411305
 30
0.0
 10
825.6430052941
 20
172.7081868678
 30
0.0
 10
825.3077082522
 20
172.7147127072
 30
0.0
 10
825.1412482948
 20
172.7147126659
 30
0.0
  0
SPLINE
  5
48E
100
AcDbEntity
  8
0
100
AcDbSpline
 62
7
  6
BYLAYER
 70
0
 71
3
 72
11
 73
7
 74
0
 42
0.0000001
 43
0.0000001
 44
0.0000000001
 40
0.0
 40
0.0
 40
0.0
 40
0.0
 40
0.2478327053
 40
0.4979558062
 40
0.7486361583
 40
1.0
 40
1.0
 40
1.0
 40
1.0
 10
858.6412482948
 20
171.7147126659
 30
0.0
 10
858.6412487304
 20
171.8788342814
 30
0.0
 10
858.7734082085
 20
172.2089129953
 30
0.0
 10
859.1609253217
 20
172.5354411723
 30
0.0
 10
859.6394913119
 20
172.7081868924
 30
0.0
 10
859.974788264
 20
172.7147127072
 30
0.0
 10
860.1412482948
 20
172.7147126659
 30
0.0
  0
SPLINE
  5
48F
100
AcDbEntity
  8
0
100
AcDbSpline
 62
7
  6
BYLAYER
 70
0
 71
3
 72
13
 73
9
 74
0
 42
0.0000001
 43
0.0000001
 44
0.0000000001
 40
0.0
 40
0.0
 40
0.0
 40
0.0
 40
0.263683202
 40
0.5741154223
 40
0.7239646888
 40
0.8563112027
 40
0.9572588386
 40
1.0
 40
1.0
 40
1.0
 40
1.0
 10
866.6412482831
 20
171.7147126659
 30
0.0
 10
866.641248438
 20
171.7780066806
 30
0.0
 10
866.735478727
 20
171.9004074279
 30
0.0
 10
866.8628292121
 20
172.0101601498
 30
0.0
 10
866.9735352044
 20
172.1007119101
 30
0.0
 10
867.0490217903
 20
172.1533962839
 30
0.0
 10
867.0992581995
 20
172.1963010635
 30
0.0
 10
867.1348759796
 20
172.2066720665
 30
0.0
 10
867.1412482865
 20
172.214712663
 30
0.0
  0
ENDSEC
  0
SECTION
  2
OBJECTS
  0
DICTIONARY
  5
C
100
AcDbDictionary
280
0
281
1
  3
ACAD_GROUP
350
D
  3
ACAD_MLINESTYLE
350
17
  3
ACAD_LAYOUT
350
1A
  3
ACAD_PLOTSETTINGS
350
19
  3
ACAD_PLOTSTYLENAME
350
E
  0
DICTIONARY
  5
D
102
{ACAD_REACTORS
330
C
102
}
100
AcDbDictionary
280
0
281
1
  0
ACDBDICTIONARYWDFLT
  5
E
102
{ACAD_REACTORS
330
C
102
}
100
AcDbDictionary
281
1
  3
Normal
350
F
100
AcDbDictionaryWithDefault
340
F
  0
DICTIONARY
  5
17
102
{ACAD_REACTORS
330
C
102
}
100
AcDbDictionary
280
0
281
1
  3
Standard
350
18
  0
DICTIONARY
  5
19
102
{ACAD_REACTORS
330
C
102
}
100
AcDbDictionary
281
1
  0
DICTIONARY
  5
1A
102
{ACAD_REACTORS
330
C
102
}
100
AcDbDictionary
281
1
  3
Model
350
490
  3
Layout1
350
491
  0
ACDBPLACEHOLDER
  5
F
102
{ACAD_REACTORS
330
E
102
}
  0
MLINESTYLE
  5
18
102
{ACAD_REACTORS
330
17
102
}
100
AcDbMlineStyle
  2
STANDARD
 70
0
  3

 62
256
 51
90.0
 52
90.0
 71
2
 49
0.5
 62
256
  6
BYLAYER
 49
-0.5
 62
256
  6
BYLAYER
  0
LAYOUT
  5
490
102
{ACAD_REACTORS
330
1A
102
}
100
AcDbPlotSettings
  1

  2
none_device
  4

  6

 40
0.0
 41
0.0
 42
0.0
 43
0.0
 44
210.0
 45
297.0
 46
0.0
 47
0.0
 48
0.0
 49
0.0
140
0.0
141
0.0
142
1.0
143
1.0
 70
1024
 72
1
 73
0
 74
0
  7

 75
0
147
1.0
148
0.0
149
0.0
100
AcDbLayout
  1
Model
 70
0
 71
0
 10
0.0
 20
0.0
 11
210.0
 21
297.0
 12
0.0
 22
0.0
 32
0.0
 14
0.0
 24
0.0
 34
0.0
 15
0.0
 25
0.0
 35
0.0
146
0.0
 13
0.0
 23
0.0
 33
0.0
 16
1.0
 26
0.0
 36
0.0
 17
0.0
 27
1.0
 37
0.0
 76
0
330
212
345
0
346
0
  0
LAYOUT
  5
491
102
{ACAD_REACTORS
330
1A
102
}
100
AcDbPlotSettings
  1

  2
none_device
  4

  6

 40
0.0
 41
0.0
 42
0.0
 43
0.0
 44
210.0
 45
297.0
 46
0.0
 47
0.0
 48
0.0
 49
0.0
140
0.0
141
0.0
142
1.0
143
1.0
 70
0
 72
1
 73
0
 74
0
  7

 75
0
147
1.0
148
0.0
149
0.0
100
AcDbLayout
  1
Layout1
 70
0
 71
1
 10
0.0
 20
0.0
 11
210.0
 21
297.0
 12
0.0
 22
0.0
 32
0.0
 14
0.0
 24
0.0
 34
0.0
 15
0.0
 25
0.0
 35
0.0
146
0.0
 13
0.0
 23
0.0
 33
0.0
 16
1.0
 26
0.0
 36
0.0
 17
0.0
 27
1.0
 37
0.0
 76
0
330
213
345
0
346
0
  0
ENDSEC
  0
EOF
