999
DXF file: C:\Users\sesa63760\Dev\_Creo\CAD\MCADPP0000813_3D-CAD\drw0001_1.dxf
999
Pro/ENGINEER 2019471 by Parametric Technology Corporation
  0
SECTION
  2
HEADER
  9
$ACADVER
  1
AC1024
  9
$DWGCODEPAGE
  3
ANSI_1252
  9
$EXTMAX
 10
58.6754913585
 20
82.9839092071
 30
0.0
  9
$EXTMIN
 10
0.0
 20
0.0
 30
0.0
  9
$LIMMIN
 10
0.0
 20
0.0
  9
$LIMMAX
 10
58.6754913585
 20
82.9839092071
  9
$VIEWCTR
 10
29.3377456793
 20
41.4919546035
  9
$VIEWSIZE
 40
82.9839092071
  9
$CLAYER
  8
0
  9
$LTSCALE
 40
5.4093214891
  9
$CELTYPE
  6
BYLAYER
  9
$DIMSCALE
 40
1.0
  9
$DIMASZ
 40
0.6985177543
  9
$DIMEXO
 40
1.0
  9
$DIMDLI
 40
3.7373493924
  9
$DIMEXE
 40
1.0
  9
$DIMCEN
 40
0.8851616982
  9
$DIMLFAC
 40
1.0
  9
$DIMBLK
  1
_FILLED
  9
$DIMALT
 70
0
  9
$DIMALTF
 40
0.0393700787
  9
$DIMTXT
 40
0.977924856
  9
$DIMTOL
 70
1
  9
$DIMLIM
 70
0
  9
$DIMTFAC
 40
1.0
  9
$DIMTP
 40
0.01
  9
$DIMTM
 40
0.01
  9
$DIMGAP
 40
0.625
  9
$DIMDSEP
 70
46
  9
$AUNITS
 70
0
  9
$PDMODE
 70
3
  9
$PDSIZE
 40
0.3125
  9
$HANDSEED
  5
4B0
  9
$TILEMODE
 70
1
  9
$MEASUREMENT
 70
1
  9
$INSUNITS
 70
4
  0
ENDSEC
  0
SECTION
  2
CLASSES
  0
CLASS
  1
ACDBDICTIONARYWDFLT
  2
AcDbDictionaryWithDefault
  3
AutoCAD 2000
 90
0
 91
1
280
0
281
0
  0
CLASS
  1
ACDBPLACEHOLDER
  2
AcDbPlaceHolder
  3
AutoCAD 2000
 90
0
 91
1
280
0
281
0
  0
CLASS
  1
LAYOUT
  2
AcDbLayout
  3
AutoCAD 2000
 90
0
 91
0
280
0
281
0
  0
ENDSEC
  0
SECTION
  2
TABLES
  0
TABLE
  2
VPORT
  5
8
100
AcDbSymbolTable
 70
2
  0
VPORT
  5
1F4
100
AcDbSymbolTableRecord
100
AcDbViewportTableRecord
  2
*ACTIVE
 70
0
 10
0.0
 20
0.0
 11
1.0
 21
1.0
 12
29.3377456793
 22
41.4919546035
 13
0.0
 23
0.0
 14
1.0
 24
1.0
 15
0.0
 25
0.0
 16
0.0
 26
0.0
 36
1.0
 17
0.0
 27
0.0
 37
0.0
 40
82.9839092071
 41
0.7070707071
 42
50.0
 43
0.0
 44
0.0
 50
0.0
 51
0.0
 71
0
 72
100
 73
1
 74
1
 75
0
 76
0
 77
0
 78
0
  0
ENDTAB
  0
TABLE
  2
LTYPE
  5
5
100
AcDbSymbolTable
 70
6
  0
LTYPE
  5
14
100
AcDbSymbolTableRecord
100
AcDbLinetypeTableRecord
  2
BYBLOCK
 70
0
  3

 72
65
 73
0
 40
0.0
  0
LTYPE
  5
15
100
AcDbSymbolTableRecord
100
AcDbLinetypeTableRecord
  2
BYLAYER
 70
0
  3

 72
65
 73
0
 40
0.0
  0
LTYPE
  5
16
100
AcDbSymbolTableRecord
100
AcDbLinetypeTableRecord
  2
CONTINUOUS
 70
64
  3
Solid line
 72
65
 73
0
 40
0.0
  0
LTYPE
  5
1F5
100
AcDbSymbolTableRecord
100
AcDbLinetypeTableRecord
  2
CENTER
 70
64
  3
____ _ ____ _ ____ _ ____ _ ____ _ ____ _ ____
 72
65
 73
4
 40
0.6
 49
0.375
 74
0
 49
-0.075
 74
0
 49
0.075
 74
0
 49
-0.075
 74
0
  0
LTYPE
  5
1F6
100
AcDbSymbolTableRecord
100
AcDbLinetypeTableRecord
  2
HIDDEN
 70
64
  3
- - - - - - - - - - - - - - - - - - - -
 72
65
 73
2
 40
0.2
 49
0.1
 74
0
 49
-0.1
 74
0
  0
LTYPE
  5
1F7
100
AcDbSymbolTableRecord
100
AcDbLinetypeTableRecord
  2
PHANTOM
 70
64
  3
_____ _ _ _____ _ _ _____ _ _ _____
 72
65
 73
6
 40
0.8
 49
0.45
 74
0
 49
-0.05
 74
0
 49
0.1
 74
0
 49
-0.05
 74
0
 49
0.1
 74
0
 49
-0.05
 74
0
  0
LTYPE
  5
1F8
100
AcDbSymbolTableRecord
100
AcDbLinetypeTableRecord
  2
DOT
 70
64
  3
. . . . . . . . . . . . . . . . . . . .
 72
65
 73
2
 40
0.2
 49
0.1
 74
0
 49
-0.1
 74
0
  0
LTYPE
  5
1F9
100
AcDbSymbolTableRecord
100
AcDbLinetypeTableRecord
  2
DASHED
 70
64
  3
- - - - - - - - - - - - - - - - - - - -
 72
65
 73
2
 40
0.2
 49
0.1
 74
0
 49
-0.1
 74
0
  0
ENDTAB
  0
TABLE
  2
LAYER
  5
2
100
AcDbSymbolTable
 70
36
  0
LAYER
  5
10
100
AcDbSymbolTableRecord
100
AcDbLayerTableRecord
  2
0
 70
0
 62
7
  6
CONTINUOUS
370
-3
390
F
  0
LAYER
  5
1FA
100
AcDbSymbolTableRecord
100
AcDbLayerTableRecord
  2
DEFAULT_1
 70
0
 62
7
  6
CENTER
370
-3
390
F
  0
LAYER
  5
1FB
100
AcDbSymbolTableRecord
100
AcDbLayerTableRecord
  2
DEFAULT_2
 70
0
 62
8
  6
HIDDEN
370
-3
390
F
  0
LAYER
  5
1FC
100
AcDbSymbolTableRecord
100
AcDbLayerTableRecord
  2
DEFAULT_3
 70
0
 62
7
  6
PHANTOM
370
-3
390
F
  0
LAYER
  5
1FD
100
AcDbSymbolTableRecord
100
AcDbLayerTableRecord
  2
00_COMPONENTS
 70
0
 62
7
  6
CONTINUOUS
370
-3
390
F
  0
LAYER
  5
1FE
100
AcDbSymbolTableRecord
100
AcDbLayerTableRecord
  2
01_1_DEFAULT_DATUMS
 70
0
 62
7
  6
CONTINUOUS
370
-3
390
F
  0
LAYER
  5
1FF
100
AcDbSymbolTableRecord
100
AcDbLayerTableRecord
  2
01_PLANES
 70
0
 62
7
  6
CONTINUOUS
370
-3
390
F
  0
LAYER
  5
200
100
AcDbSymbolTableRecord
100
AcDbLayerTableRecord
  2
02_COORD_SYS
 70
0
 62
7
  6
CONTINUOUS
370
-3
390
F
  0
LAYER
  5
201
100
AcDbSymbolTableRecord
100
AcDbLayerTableRecord
  2
03_AXES
 70
0
 62
7
  6
CONTINUOUS
370
-3
390
F
  0
LAYER
  5
202
100
AcDbSymbolTableRecord
100
AcDbLayerTableRecord
  2
04_POINTS
 70
0
 62
7
  6
CONTINUOUS
370
-3
390
F
  0
LAYER
  5
203
100
AcDbSymbolTableRecord
100
AcDbLayerTableRecord
  2
05_CURVES
 70
0
 62
7
  6
CONTINUOUS
370
-3
390
F
  0
LAYER
  5
204
100
AcDbSymbolTableRecord
100
AcDbLayerTableRecord
  2
06_SURFS
 70
0
 62
7
  6
CONTINUOUS
370
-3
390
F
  0
LAYER
  5
205
100
AcDbSymbolTableRecord
100
AcDbLayerTableRecord
  2
07_COSMETICS
 70
0
 62
7
  6
CONTINUOUS
370
-3
390
F
  0
LAYER
  5
206
100
AcDbSymbolTableRecord
100
AcDbLayerTableRecord
  2
10_NOTES
 70
0
 62
7
  6
CONTINUOUS
370
-3
390
F
  0
LAYER
  5
207
100
AcDbSymbolTableRecord
100
AcDbLayerTableRecord
  2
11_NOTES_PUB
 70
0
 62
7
  6
CONTINUOUS
370
-3
390
F
  0
LAYER
  5
208
100
AcDbSymbolTableRecord
100
AcDbLayerTableRecord
  2
13_REF_GTOL
 70
0
 62
7
  6
CONTINUOUS
370
-3
390
F
  0
LAYER
  5
209
100
AcDbSymbolTableRecord
100
AcDbLayerTableRecord
  2
16_MISC
 70
0
 62
7
  6
CONTINUOUS
370
-3
390
F
  0
LAYER
  5
20A
100
AcDbSymbolTableRecord
100
AcDbLayerTableRecord
  2
17_NO_PRINT
 70
0
 62
7
  6
CONTINUOUS
370
-3
390
F
  0
LAYER
  5
20B
100
AcDbSymbolTableRecord
100
AcDbLayerTableRecord
  2
18_DATUM_CAMS_JOINTS
 70
0
 62
7
  6
CONTINUOUS
370
-3
390
F
  0
LAYER
  5
20C
100
AcDbSymbolTableRecord
100
AcDbLayerTableRecord
  2
19_DATUM_FUNCTIONAL
 70
0
 62
7
  6
CONTINUOUS
370
-3
390
F
  0
LAYER
  5
20D
100
AcDbSymbolTableRecord
100
AcDbLayerTableRecord
  2
20_DATUM_KINEMATIC_SCHEME
 70
0
 62
7
  6
CONTINUOUS
370
-3
390
F
  0
ENDTAB
  0
TABLE
  2
STYLE
  5
3
100
AcDbSymbolTable
 70
1
  0
STYLE
  5
11
100
AcDbSymbolTableRecord
100
AcDbTextStyleTableRecord
  2
STANDARD
 70
0
 40
0.0
 41
0.8
 50
0.0
 71
0
 42
0.2
  3
txt
  4

  0
STYLE
  5
20E
100
AcDbSymbolTableRecord
100
AcDbTextStyleTableRecord
  2
TEXTSTYLE_1
 70
0
 40
0.0
 41
0.8
 50
0.0
 71
0
 42
0.2
  3
gdt
  4

  0
ENDTAB
  0
TABLE
  2
VIEW
  5
6
100
AcDbSymbolTable
 70
0
  0
ENDTAB
  0
TABLE
  2
UCS
  5
7
100
AcDbSymbolTable
 70
0
  0
ENDTAB
  0
TABLE
  2
APPID
  5
9
100
AcDbSymbolTable
 70
1
  0
APPID
  5
20F
100
AcDbSymbolTableRecord
100
AcDbRegAppTableRecord
  2
ACAD
 70
0
  0
ENDTAB
  0
TABLE
  2
BLOCK_RECORD
  5
1
100
AcDbSymbolTable
 70
0
  0
BLOCK_RECORD
  5
210
100
AcDbSymbolTableRecord
100
AcDbBlockTableRecord
  2
*Model_Space
  0
BLOCK_RECORD
  5
211
100
AcDbSymbolTableRecord
100
AcDbBlockTableRecord
  2
*Paper_Space
  0
BLOCK_RECORD
  5
212
100
AcDbSymbolTableRecord
100
AcDbBlockTableRecord
  2
_FILLED
  0
ENDTAB
  0
TABLE
  2
DIMSTYLE
  5
A
100
AcDbSymbolTable
 70
1
100
AcDbDimStyleTable
 71
0
  0
DIMSTYLE
105
213
100
AcDbSymbolTableRecord
100
AcDbDimStyleTableRecord
  2
STANDARD
 70
0
  3

  4

 40
1.0
 41
0.6985177543
 42
1.0
 43
0.38
 44
1.0
 45
0.0
 46
0.0
 47
0.01
 48
0.01
140
0.977924856
141
0.09
142
0.0
143
25.4
144
1.0
145
0.0
146
1.0
147
0.625
 71
1
 72
0
 73
0
 74
0
 75
0
 76
0
 77
1
 78
8
 79
2
170
0
171
1
172
0
173
0
174
0
175
0
176
0
177
0
178
0
270
2
179
2
271
2
272
2
273
2
274
2
275
0
280
0
281
0
282
0
283
1
284
8
285
0
286
0
287
3
288
0
340
11
278
46
341
212
342
212
343
212
344
212
  0
ENDTAB
  0
ENDSEC
  0
SECTION
  2
BLOCKS
  0
BLOCK
  5
20
100
AcDbEntity
  8
0
100
AcDbBlockBegin
  2
*Model_Space
 70
0
 10
0.0
 20
0.0
 30
0.0
  3
*Model_Space
  1

  0
ENDBLK
  5
21
100
AcDbEntity
  8
0
100
AcDbBlockEnd
  0
BLOCK
  5
1C
100
AcDbEntity
  8
0
100
AcDbBlockBegin
  2
*Paper_Space
 70
0
 10
0.0
 20
0.0
 30
0.0
  3
*Paper_Space
  1

  0
ENDBLK
  5
1D
100
AcDbEntity
  8
0
100
AcDbBlockEnd
  0
BLOCK
  5
214
100
AcDbEntity
  8
0
100
AcDbBlockBegin
  2
_FILLED
 70
64
 10
0.0
 20
0.0
  3
_FILLED
  1

  0
SOLID
  5
215
100
AcDbEntity
  8
0
  6
BYBLOCK
 62
0
100
AcDbTrace
 10
0.0
 20
0.0
 11
-1.0
 21
0.25
 12
-1.0
 22
-0.25
 13
-1.0
 23
-0.25
  0
ENDBLK
  5
216
100
AcDbEntity
  8
0
  6
BYBLOCK
 62
0
100
AcDbBlockEnd
  0
ENDSEC
  0
SECTION
  2
ENTITIES
  0
LINE
  5
217
100
AcDbEntity
  8
0
100
AcDbLine
 62
7
  6
CONTINUOUS
 10
13.9859738867
 20
65.4036133347
 11
9.7377650572
 21
62.9509231178
  0
LINE
  5
218
100
AcDbEntity
  8
0
100
AcDbLine
 62
7
  6
CONTINUOUS
 10
9.7377651315
 20
60.4197655885
 11
6.8070320752
 21
58.7277159183
  0
LINE
  5
219
100
AcDbEntity
  8
0
100
AcDbLine
 62
7
  6
CONTINUOUS
 10
16.1744203976
 20
62.0947907365
 11
13.6975631185
 21
60.664784862
  0
LINE
  5
21A
100
AcDbEntity
  8
0
100
AcDbLine
 62
7
  6
CONTINUOUS
 10
19.71333115
 20
63.3613628194
 11
28.4590350823
 21
68.408896541
  0
LINE
  5
21B
100
AcDbEntity
  8
0
100
AcDbLine
 62
7
  6
CONTINUOUS
 10
18.6526667559
 20
63.974432353
 11
27.398370301
 21
69.0205491817
  0
LINE
  5
21C
100
AcDbEntity
  8
0
100
AcDbLine
 62
7
  6
CONTINUOUS
 10
6.8070320752
 20
58.7277159183
 11
6.8070328783
 21
31.374884479
  0
LINE
  5
21D
100
AcDbEntity
  8
0
100
AcDbLine
 62
7
  6
CONTINUOUS
 10
8.0798761251
 20
26.3999993025
 11
8.0810923162
 21
30.6393227197
  0
LINE
  5
21E
100
AcDbEntity
  8
0
100
AcDbLine
 62
7
  6
CONTINUOUS
 10
13.6975631929
 20
58.133627326
 11
10.7668301365
 21
56.4415776557
  0
LINE
  5
21F
100
AcDbEntity
  8
0
100
AcDbLine
 62
7
  6
CONTINUOUS
 10
26.2399772317
 20
18.4119076179
 11
29.1377962653
 21
18.4825066814
  0
LINE
  5
220
100
AcDbEntity
  8
0
100
AcDbLine
 62
7
  6
CONTINUOUS
 10
24.2233965384
 20
18.6245020981
 11
26.2399772317
 21
18.4119076179
  0
LINE
  5
221
100
AcDbEntity
  8
0
100
AcDbLine
 62
7
  6
CONTINUOUS
 10
9.3102861527
 20
27.2331413591
 11
14.33738645
 21
24.3320419439
  0
LINE
  5
222
100
AcDbEntity
  8
0
100
AcDbLine
 62
7
  6
CONTINUOUS
 10
9.310020219
 20
26.0912103603
 11
16.1460326529
 21
22.1445076559
  0
LINE
  5
223
100
AcDbEntity
  8
0
100
AcDbLine
 62
7
  6
CONTINUOUS
 10
20.4336875908
 20
19.669073402
 11
29.0811500881
 21
14.6765483072
  0
LINE
  5
224
100
AcDbEntity
  8
0
100
AcDbLine
 62
7
  6
CONTINUOUS
 10
24.2234122104
 20
18.624426937
 11
29.0814776808
 21
15.8184501053
  0
LINE
  5
225
100
AcDbEntity
  8
0
100
AcDbLine
 62
7
  6
CONTINUOUS
 10
8.6808565153
 20
50.052415147
 11
8.6808564678
 21
51.6690898835
  0
LINE
  5
226
100
AcDbEntity
  8
0
100
AcDbLine
 62
7
  6
CONTINUOUS
 10
9.7377650572
 20
62.9509231178
 11
9.7377651315
 21
60.4197655885
  0
LINE
  5
227
100
AcDbEntity
  8
0
100
AcDbLine
 62
7
  6
CONTINUOUS
 10
10.766830312
 20
50.4647798288
 11
10.7668301365
 21
56.4415776557
  0
LINE
  5
228
100
AcDbEntity
  8
0
100
AcDbLine
 62
7
  6
CONTINUOUS
 10
9.1416975862
 20
25.7883576273
 11
9.1424469513
 21
30.0265633309
  0
LINE
  5
229
100
AcDbEntity
  8
0
100
AcDbLine
 62
7
  6
CONTINUOUS
 10
9.3099632905
 20
26.0896622482
 11
9.3102861527
 21
27.2331413591
  0
LINE
  5
22A
100
AcDbEntity
  8
0
100
AcDbLine
 62
7
  6
CONTINUOUS
 10
21.6474500769
 20
58.9350077498
 11
19.1705927978
 21
57.5050018669
  0
LINE
  5
22B
100
AcDbEntity
  8
0
100
AcDbLine
 62
7
  6
CONTINUOUS
 10
30.0710152752
 20
17.9437247399
 11
25.5101218536
 21
20.5768976459
  0
LINE
  5
22C
100
AcDbEntity
  8
0
100
AcDbLine
 62
7
  6
CONTINUOUS
 10
11.3679262999
 20
28.741711576
 11
6.8070328783
 21
31.374884479
  0
LINE
  5
22D
100
AcDbEntity
  8
0
100
AcDbLine
 62
7
  6
CONTINUOUS
 10
25.5101218524
 20
20.6177217177
 11
11.4032814891
 21
28.7621237853
  0
LINE
  5
22E
100
AcDbEntity
  8
0
100
AcDbLine
 62
7
  6
CONTINUOUS
 10
34.7802292055
 20
16.5041560408
 11
36.6187144909
 21
15.4427300791
  0
LINE
  5
22F
100
AcDbEntity
  8
0
100
AcDbLine
 62
7
  6
CONTINUOUS
 10
11.3679258204
 20
45.0717601957
 11
11.3679262999
 21
28.741711576
  0
LINE
  5
230
100
AcDbEntity
  8
0
100
AcDbLine
 62
7
  6
CONTINUOUS
 10
11.4032814891
 20
28.7621237853
 11
11.4032810108
 21
45.0513483332
  0
LINE
  5
231
100
AcDbEntity
  8
0
100
AcDbLine
 62
7
  6
CONTINUOUS
 10
28.0825226222
 20
65.0615609848
 11
26.9047861651
 21
63.7315707754
  0
LINE
  5
232
100
AcDbEntity
  8
0
100
AcDbLine
 62
7
  6
CONTINUOUS
 10
17.4109420821
 20
56.2543593459
 11
15.3603411065
 21
55.0704512117
  0
LINE
  5
233
100
AcDbEntity
  8
0
100
AcDbLine
 62
7
  6
CONTINUOUS
 10
10.0809579354
 20
50.8607593861
 11
8.6808565153
 21
50.052415147
  0
LINE
  5
234
100
AcDbEntity
  8
0
100
AcDbLine
 62
7
  6
CONTINUOUS
 10
14.8854503325
 20
52.8426523657
 11
10.766830312
 21
50.4647798288
  0
LINE
  5
235
100
AcDbEntity
  8
0
100
AcDbLine
 62
7
  6
CONTINUOUS
 10
15.5062175495
 20
53.0459387686
 11
15.2940864141
 21
52.9234655134
  0
LINE
  5
236
100
AcDbEntity
  8
0
100
AcDbLine
 62
7
  6
CONTINUOUS
 10
19.1705928722
 20
54.9738443351
 11
16.2398598158
 21
53.2817946648
  0
LINE
  5
237
100
AcDbEntity
  8
0
100
AcDbLine
 62
7
  6
CONTINUOUS
 10
13.6975631185
 20
60.6647848575
 11
13.6975631929
 21
58.133627326
  0
LINE
  5
238
100
AcDbEntity
  8
0
100
AcDbLine
 62
7
  6
CONTINUOUS
 10
15.2940864141
 20
52.9234655134
 11
15.2940863875
 21
53.8297832117
  0
LINE
  5
239
100
AcDbEntity
  8
0
100
AcDbLine
 62
7
  6
CONTINUOUS
 10
15.5062175495
 20
53.0459387686
 11
15.5062175301
 21
53.7073120366
  0
LINE
  5
23A
100
AcDbEntity
  8
0
100
AcDbLine
 62
7
  6
CONTINUOUS
 10
13.8923490934
 20
27.3250927549
 11
13.8920712914
 21
26.3412014977
  0
LINE
  5
23B
100
AcDbEntity
  8
0
100
AcDbLine
 62
7
  6
CONTINUOUS
 10
26.9047861651
 20
63.7315707754
 11
24.2103399631
 21
59.5007076621
  0
LINE
  5
23C
100
AcDbEntity
  8
0
100
AcDbLine
 62
7
  6
CONTINUOUS
 10
28.9813684275
 20
69.5232561646
 11
28.3928857667
 21
68.6135203259
  0
LINE
  5
23D
100
AcDbEntity
  8
0
100
AcDbLine
 62
7
  6
CONTINUOUS
 10
29.4535503544
 20
68.0011591941
 11
30.0420330152
 21
68.9108950328
  0
LINE
  5
23E
100
AcDbEntity
  8
0
100
AcDbLine
 62
7
  6
CONTINUOUS
 10
28.6552077214
 20
64.7803584743
 11
28.6551096904
 21
64.7802182676
  0
LINE
  5
23F
100
AcDbEntity
  8
0
100
AcDbLine
 62
7
  6
CONTINUOUS
 10
26.0968782297
 20
61.1282689119
 11
26.0967848748
 21
61.1281357703
  0
LINE
  5
240
100
AcDbEntity
  8
0
100
AcDbLine
 62
7
  6
CONTINUOUS
 10
27.8010933191
 20
63.5607077061
 11
27.8009697803
 21
63.5605315879
  0
LINE
  5
241
100
AcDbEntity
  8
0
100
AcDbLine
 62
7
  6
CONTINUOUS
 10
26.9472608895
 20
62.3414405644
 11
26.9470685479
 21
62.3411665615
  0
LINE
  5
242
100
AcDbEntity
  8
0
100
AcDbLine
 62
7
  6
CONTINUOUS
 10
25.2419219611
 20
59.9104144754
 11
25.2418156252
 21
59.9102634158
  0
LINE
  5
243
100
AcDbEntity
  8
0
100
AcDbLine
 62
7
  6
CONTINUOUS
 10
28.2699777895
 20
63.8251350594
 11
28.5871942778
 21
64.1833602135
  0
LINE
  5
244
100
AcDbEntity
  8
0
100
AcDbLine
 62
7
  6
CONTINUOUS
 10
29.5874730986
 20
58.9749065952
 11
29.1487593295
 21
58.6945676009
  0
LINE
  5
245
100
AcDbEntity
  8
0
100
AcDbLine
 62
7
  6
CONTINUOUS
 10
28.2014959787
 20
58.0892643854
 11
27.8273119122
 21
57.8501600028
  0
LINE
  5
246
100
AcDbEntity
  8
0
100
AcDbLine
 62
7
  6
CONTINUOUS
 10
24.9497234496
 20
57.0284828689
 11
22.4728661706
 21
55.5984769944
  0
LINE
  5
247
100
AcDbEntity
  8
0
100
AcDbLine
 62
7
  6
CONTINUOUS
 10
16.17442059
 20
55.5404574849
 11
16.1744203976
 21
62.0947907407
  0
LINE
  5
248
100
AcDbEntity
  8
0
100
AcDbLine
 62
7
  6
CONTINUOUS
 10
16.2398600388
 20
45.6883220904
 11
16.2398598158
 21
53.2817946648
  0
LINE
  5
249
100
AcDbEntity
  8
0
100
AcDbLine
 62
7
  6
CONTINUOUS
 10
16.4678886108
 20
53.4134463847
 11
16.4678885787
 21
54.5074976909
  0
LINE
  5
24A
100
AcDbEntity
  8
0
100
AcDbLine
 62
7
  6
CONTINUOUS
 10
16.6800197462
 20
53.5359196399
 11
16.6800197213
 21
54.3850265158
  0
LINE
  5
24B
100
AcDbEntity
  8
0
100
AcDbLine
 62
7
  6
CONTINUOUS
 10
17.2527804319
 20
54.0543505178
 11
17.2527804374
 21
53.8666012544
  0
LWPOLYLINE
  5
24C
100
AcDbEntity
  8
0
100
AcDbPolyline
 62
7
  6
CONTINUOUS
 90
7
 70
0
 10
26.0967842499
 20
61.128135968
 10
26.022194922
 20
60.9816215219
 10
25.9855953605
 20
60.7193654918
 10
26.0258578698
 20
60.5020755704
 10
26.1021326636
 20
60.3198782346
 10
26.204039967
 20
60.1467082112
 10
26.2167756862
 20
60.1289422621
  0
LWPOLYLINE
  5
24D
100
AcDbEntity
  8
0
100
AcDbPolyline
 62
7
  6
CONTINUOUS
 90
5
 70
0
 10
26.947263436
 20
62.3414441957
 10
26.9008659898
 20
62.2626927268
 10
26.8546850255
 20
61.8052075362
 10
26.9264209881
 20
61.5990784214
 10
27.0894093775
 20
61.344420361
  0
LINE
  5
24E
100
AcDbEntity
  8
0
100
AcDbLine
 62
7
  6
CONTINUOUS
 10
25.0588707477
 20
59.010819374
 11
25.2089261108
 21
59.2464387382
  0
LINE
  5
24F
100
AcDbEntity
  8
0
100
AcDbLine
 62
7
  6
CONTINUOUS
 10
25.8030346695
 20
60.1793176297
 11
26.021964877
 21
60.5230853912
  0
LINE
  5
250
100
AcDbEntity
  8
0
100
AcDbLine
 62
7
  6
CONTINUOUS
 10
26.5786213201
 20
61.3971563636
 11
26.8577354213
 21
61.8354258508
  0
LINE
  5
251
100
AcDbEntity
  8
0
100
AcDbLine
 62
7
  6
CONTINUOUS
 10
27.3313144189
 20
62.5790472713
 11
27.693298027
 21
63.1474398017
  0
LINE
  5
252
100
AcDbEntity
  8
0
100
AcDbLine
 62
7
  6
CONTINUOUS
 10
33.358335045
 20
60.4798667656
 11
33.6794967582
 21
60.7622768263
  0
LINE
  5
253
100
AcDbEntity
  8
0
100
AcDbLine
 62
7
  6
CONTINUOUS
 10
35.3461566496
 20
60.3804977507
 11
34.5526375732
 21
59.8838055299
  0
LINE
  5
254
100
AcDbEntity
  8
0
100
AcDbLine
 62
7
  6
CONTINUOUS
 10
35.9381439383
 20
60.0639197741
 11
35.1097703089
 21
59.5482469135
  0
LINE
  5
255
100
AcDbEntity
  8
0
100
AcDbLine
 62
7
  6
CONTINUOUS
 10
34.8065556284
 20
60.7175424789
 11
33.97940452
 21
60.2029467858
  0
LWPOLYLINE
  5
256
100
AcDbEntity
  8
0
100
AcDbPolyline
 62
7
  6
CONTINUOUS
 90
3
 70
0
 10
34.3402806924
 20
59.856373198
 10
34.9933140787
 20
60.2551030613
 10
35.1331810773
 20
60.2471886556
  0
LINE
  5
257
100
AcDbEntity
  8
0
100
AcDbLine
 62
7
  6
CONTINUOUS
 10
22.4728662449
 20
53.0673194583
 11
19.5421331886
 21
51.3752697881
  0
LINE
  5
258
100
AcDbEntity
  8
0
100
AcDbLine
 62
7
  6
CONTINUOUS
 10
19.1705927978
 20
57.5050018669
 11
19.1705928722
 21
54.9738443351
  0
LINE
  5
259
100
AcDbEntity
  8
0
100
AcDbLine
 62
7
  6
CONTINUOUS
 10
19.5421334116
 20
43.7817971804
 11
19.5421331886
 21
51.3752697881
  0
LINE
  5
25A
100
AcDbEntity
  8
0
100
AcDbLine
 62
7
  6
CONTINUOUS
 10
19.7131338109
 20
62.0971115442
 11
19.71333115
 21
63.3613628194
  0
LINE
  5
25B
100
AcDbEntity
  8
0
100
AcDbLine
 62
7
  6
CONTINUOUS
 10
18.6524199052
 20
62.7095010166
 11
18.6527749663
 21
63.9737864973
  0
LINE
  5
25C
100
AcDbEntity
  8
0
100
AcDbLine
 62
7
  6
CONTINUOUS
 10
22.7722129713
 20
61.7207103076
 11
22.5377301018
 21
60.4663673606
  0
LINE
  5
25D
100
AcDbEntity
  8
0
100
AcDbLine
 62
7
  6
CONTINUOUS
 10
23.5983947118
 20
59.8540063485
 11
23.9544850017
 21
61.7588761769
  0
LWPOLYLINE
  5
25E
100
AcDbEntity
  8
0
100
AcDbPolyline
 62
7
  6
CONTINUOUS
 90
4
 70
0
 10
25.2419187261
 20
59.9104128338
 10
25.1320007621
 20
59.593440232
 10
25.235904785
 20
59.1247410095
 10
25.4811769695
 20
58.7670063317
  0
LINE
  5
25F
100
AcDbEntity
  8
0
100
AcDbLine
 62
7
  6
CONTINUOUS
 10
28.4590350823
 20
68.408896541
 11
28.3078522793
 21
68.0196459596
  0
LWPOLYLINE
  5
260
100
AcDbEntity
  8
0
100
AcDbPolyline
 62
7
  6
CONTINUOUS
 90
6
 70
0
 10
28.6552155562
 20
64.7803696457
 10
28.5619359503
 20
64.5677612349
 10
28.5614268452
 20
64.2568748647
 10
28.6438442368
 20
64.0217375162
 10
28.7637212311
 20
63.8125317288
 10
28.783459684
 20
63.7850931211
  0
LWPOLYLINE
  5
261
100
AcDbEntity
  8
0
100
AcDbPolyline
 62
7
  6
CONTINUOUS
 90
7
 70
0
 10
27.8009699426
 20
63.5605318194
 10
27.7260326
 20
63.4124967818
 10
27.690903603
 20
63.1608555724
 10
27.7271294469
 20
62.957884997
 10
27.7917645768
 20
62.7965869295
 10
27.8733041858
 20
62.6495188666
 10
27.9284093895
 20
62.5667867
  0
LWPOLYLINE
  5
262
100
AcDbEntity
  8
0
100
AcDbPolyline
 62
7
  6
CONTINUOUS
 90
3
 70
0
 10
30.491051918
 20
58.7997643339
 10
30.5915564063
 20
58.9146959639
 10
30.576696217
 20
58.8920881642
  0
LWPOLYLINE
  5
263
100
AcDbEntity
  8
0
100
AcDbPolyline
 62
7
  6
CONTINUOUS
 90
7
 70
0
 10
33.3567877293
 20
60.4759528449
 10
33.0598680804
 20
60.1531907208
 10
32.4478807682
 20
59.1500994305
 10
32.1422814156
 20
58.0293884836
 10
32.1299429624
 20
57.498707012
 10
32.4150618519
 20
56.6225679601
 10
32.8232119199
 20
56.2357146862
  0
LINE
  5
264
100
AcDbEntity
  8
0
100
AcDbLine
 62
7
  6
CONTINUOUS
 10
33.3555763763
 20
60.4772119012
 11
33.358335045
 21
60.4798667656
  0
LINE
  5
265
100
AcDbEntity
  8
0
100
AcDbLine
 62
7
  6
CONTINUOUS
 10
33.6885091227
 20
60.104386968
 11
34.0946434916
 21
60.4615168097
  0
LINE
  5
266
100
AcDbEntity
  8
0
100
AcDbLine
 62
7
  6
CONTINUOUS
 10
30.4227531289
 20
53.8686998821
 11
27.9458958499
 21
52.4386939989
  0
LINE
  5
267
100
AcDbEntity
  8
0
100
AcDbLine
 62
7
  6
CONTINUOUS
 10
26.1862451342
 20
51.1880511347
 11
24.1356441586
 21
50.0041430005
  0
LINE
  5
268
100
AcDbEntity
  8
0
100
AcDbLine
 62
7
  6
CONTINUOUS
 10
35.2506188877
 20
55.6116285001
 11
35.5530285638
 21
55.7712554286
  0
LINE
  5
269
100
AcDbEntity
  8
0
100
AcDbLine
 62
7
  6
CONTINUOUS
 10
34.6999366328
 20
55.9487898122
 11
35.2940863778
 21
56.2407809241
  0
LINE
  5
26A
100
AcDbEntity
  8
0
100
AcDbLine
 62
7
  6
CONTINUOUS
 10
35.3850186105
 20
56.2255035405
 11
34.7654206598
 21
55.9367683277
  0
LINE
  5
26B
100
AcDbEntity
  8
0
100
AcDbLine
 62
7
  6
CONTINUOUS
 10
35.587199516
 20
55.7311730592
 11
35.2810534652
 21
55.6051070995
  0
LINE
  5
26C
100
AcDbEntity
  8
0
100
AcDbLine
 62
7
  6
CONTINUOUS
 10
50.2305182914
 20
34.8088094578
 11
51.4763558297
 21
35.0044874833
  0
LINE
  5
26D
100
AcDbEntity
  8
0
100
AcDbLine
 62
7
  6
CONTINUOUS
 10
22.4728661706
 20
55.5984769902
 11
22.4728662449
 21
53.0673194583
  0
LWPOLYLINE
  5
26E
100
AcDbEntity
  8
0
100
AcDbPolyline
 62
7
  6
CONTINUOUS
 90
30
 70
0
 10
31.4295215357
 20
60.1106594022
 10
31.4764857393
 20
60.1954079166
 10
31.5168889567
 20
60.3746619964
 10
31.496148578
 20
60.543984184
 10
31.4280796234
 20
60.681545499
 10
31.3458074753
 20
60.7709145447
 10
31.3112632028
 20
60.798525786
 10
31.2857287892
 20
60.8172234336
 10
31.2511597904
 20
60.8417205232
 10
31.2031211633
 20
60.8749965452
 10
31.139328837
 20
60.9183253084
 10
31.0576822953
 20
60.9727538281
 10
30.9561687932
 20
61.0391717752
 10
30.8333614789
 20
61.1180210946
 10
30.6888621506
 20
61.2090723111
 10
30.5220088183
 20
61.3121640104
 10
30.3321654131
 20
61.4269575186
 10
30.1199173841
 20
61.5521816241
 10
29.8872358431
 20
61.6855558638
 10
29.636894327
 20
61.8241450516
 10
29.3727500543
 20
61.9643002037
 10
29.0984392122
 20
62.1027773081
 10
28.817592613
 20
62.2361731655
 10
28.5346177668
 20
62.3601537904
 10
28.2556197485
 20
62.4687566607
 10
27.9871064632
 20
62.5543691008
 10
27.7308071746
 20
62.6085902339
 10
27.4721455189
 20
62.6186837757
 10
27.1684280112
 20
62.5332033646
 10
26.9470685479
 20
62.3411665615
  0
LWPOLYLINE
  5
26F
100
AcDbEntity
  8
0
100
AcDbPolyline
 62
7
  6
CONTINUOUS
 90
34
 70
0
 10
32.2837121592
 20
61.3297786719
 10
32.3267059461
 20
61.4054790511
 10
32.3698538261
 20
61.5741009856
 10
32.3576277117
 20
61.7363332963
 10
32.3006874265
 20
61.8731742585
 10
32.2225084683
 20
61.9695280351
 10
32.1769703922
 20
62.0088412449
 10
32.1539483656
 20
62.0261603829
 10
32.1281740906
 20
62.044729694
 10
32.0942619645
 20
62.068567109
 10
32.0494264023
 20
62.0994834454
 10
31.991767123
 20
62.1385621123
 10
31.919835952
 20
62.1865111734
 10
31.832464831
 20
62.2437988909
 10
31.7291401533
 20
62.3104521528
 10
31.6092950706
 20
62.3865280226
 10
31.4720453215
 20
62.4722122122
 10
31.3966238628
 20
62.5186834626
 10
31.2317926319
 20
62.6187797278
 10
31.0485375365
 20
62.7277205707
 10
30.847600265
 20
62.8442761536
 10
30.6301885466
 20
62.9667902434
 10
30.3981663192
 20
63.0930732876
 10
30.1543108892
 20
63.2205452125
 10
29.9023290238
 20
63.3462211529
 10
29.646123401
 20
63.4668487331
 10
29.3903666577
 20
63.5785302116
 10
29.1398793552
 20
63.6768603965
 10
28.8976633336
 20
63.7571768766
 10
28.6667771288
 20
63.813615316
 10
28.4448595421
 20
63.8398587367
 10
28.2080907166
 20
63.8199246514
 10
27.9445828758
 20
63.7043657046
 10
27.8010933191
 20
63.5607077061
  0
LWPOLYLINE
  5
270
100
AcDbEntity
  8
0
100
AcDbPolyline
 62
7
  6
CONTINUOUS
 90
34
 70
0
 10
29.7214371028
 20
57.6738319995
 10
29.7637067435
 20
57.7479550487
 10
29.8072011333
 20
57.9148949021
 10
29.7960953357
 20
58.0759509337
 10
29.7405965078
 20
58.212614693
 10
29.6620402187
 20
58.310761269
 10
29.6130913943
 20
58.3530000096
 10
29.5903738735
 20
58.36990575
 10
29.5647047523
 20
58.3882152891
 10
29.5310773472
 20
58.4116784172
 10
29.4868877011
 20
58.4420174598
 10
29.4305997638
 20
58.4801153076
 10
29.3612098845
 20
58.5264368251
 10
29.27803031
 20
58.5811894832
 10
29.1806016034
 20
58.64438645
 10
29.0683040188
 20
58.716095524
 10
28.9399377731
 20
58.7966821943
 10
28.7941126764
 20
58.8865241848
 10
28.6295774443
 20
58.9857835711
 10
28.4466259277
 20
59.0936608121
 10
28.2466878549
 20
59.2087005464
 10
28.0316527365
 20
59.3291041246
 10
27.8034058916
 20
59.4529557013
 10
27.5643566138
 20
59.5778773236
 10
27.3174758308
 20
59.7009593028
 10
27.0667608735
 20
59.8184700088
 10
26.8172824562
 20
59.9261767058
 10
26.5733964868
 20
60.0205838663
 10
26.3377847825
 20
60.0984197112
 10
26.110182773
 20
60.1558285684
 10
25.8891576798
 20
60.1853752974
 10
25.6492465285
 20
60.1685005734
 10
25.3822255019
 20
60.0516772688
 10
25.2418156252
 20
59.9102634158
  0
LWPOLYLINE
  5
271
100
AcDbEntity
  8
0
100
AcDbPolyline
 62
7
  6
CONTINUOUS
 90
34
 70
0
 10
30.5766953614
 20
58.8920862361
 10
30.6169556426
 20
58.96186068
 10
30.6615734143
 20
59.124120757
 10
30.6540148481
 20
59.2819200027
 10
30.6034796422
 20
59.4177989215
 10
30.5274740286
 20
59.5188248972
 10
30.4725910353
 20
59.5679628417
 10
30.4502258454
 20
59.5848168472
 10
30.4270996842
 20
59.6014281235
 10
30.39762675
 20
59.6221152757
 10
30.3598689374
 20
59.6481949368
 10
30.312030054
 20
59.6807859628
 10
30.2523752933
 20
59.7208950468
 10
30.1794649818
 20
59.7692651235
 10
30.0922687269
 20
59.8263064398
 10
29.9898474391
 20
59.8923088082
 10
29.8713389501
 20
59.9674436796
 10
29.7360172912
 20
60.0517183125
 10
29.5833089569
 20
60.1449589702
 10
29.4126944865
 20
60.246921196
 10
29.2239673053
 20
60.3571651984
 10
29.0173762994
 20
60.4748480878
 10
28.7940274847
 20
60.5984594516
 10
28.5560301481
 20
60.7257254868
 10
28.3062297937
 20
60.8537217205
 10
28.0492768438
 20
60.9782925215
 10
27.7908748901
 20
61.09466476
 10
27.5362622638
 20
61.1987956758
 10
27.2884607569
 20
61.287303756
 10
27.0484993229
 20
61.3561592569
 10
26.8127679453
 20
61.3987729175
 10
26.5603290128
 20
61.3970300731
 10
26.2694175074
 20
61.2916676956
 10
26.0968782297
 20
61.1282689119
  0
LINE
  5
272
100
AcDbEntity
  8
0
100
AcDbLine
 62
7
  6
CONTINUOUS
 10
34.0946369278
 20
60.4615003336
 11
34.0958109158
 21
60.4631523304
  0
LWPOLYLINE
  5
273
100
AcDbEntity
  8
0
100
AcDbPolyline
 62
7
  6
CONTINUOUS
 90
7
 70
0
 10
33.97940452
 20
60.2029467858
 10
33.2695310043
 20
59.3187603499
 10
33.0060097347
 20
58.8012940795
 10
32.7064036506
 20
57.7051599463
 10
32.786464749
 20
56.703562813
 10
33.2625336906
 20
55.9924787103
 10
33.3751732154
 20
55.9183371921
  0
LINE
  5
274
100
AcDbEntity
  8
0
100
AcDbLine
 62
7
  6
CONTINUOUS
 10
33.6884209536
 20
59.0465217376
 11
34.3402806924
 21
59.856373198
  0
LWPOLYLINE
  5
275
100
AcDbEntity
  8
0
100
AcDbPolyline
 62
7
  6
CONTINUOUS
 90
6
 70
0
 10
35.1097703089
 20
59.5482469135
 10
34.4115432786
 20
58.6854339286
 10
34.1461163656
 20
58.1726109204
 10
33.8413486662
 20
57.0703713066
 10
33.9160216662
 20
56.0529893757
 10
33.9317429816
 20
56.0292778775
  0
LINE
  5
276
100
AcDbEntity
  8
0
100
AcDbLine
 62
7
  6
CONTINUOUS
 10
34.5526375732
 20
59.8838055299
 11
33.9271324042
 21
59.1396857539
  0
LWPOLYLINE
  5
277
100
AcDbEntity
  8
0
100
AcDbPolyline
 62
7
  6
CONTINUOUS
 90
3
 70
0
 10
34.9537925537
 20
56.6105541676
 10
34.9495780159
 20
56.6063644316
 10
34.6707690915
 20
56.4804717146
  0
LWPOLYLINE
  5
278
100
AcDbEntity
  8
0
100
AcDbPolyline
 62
7
  6
CONTINUOUS
 90
3
 70
0
 10
39.8133235555
 20
56.4162706007
 10
40.543281802
 20
56.8700253212
 10
40.7773510589
 20
56.8907098827
  0
LINE
  5
279
100
AcDbEntity
  8
0
100
AcDbLine
 62
7
  6
CONTINUOUS
 10
24.2815206016
 20
47.9796305574
 11
24.0693894662
 21
47.8571573021
  0
LINE
  5
27A
100
AcDbEntity
  8
0
100
AcDbLine
 62
7
  6
CONTINUOUS
 10
27.9458959242
 20
49.9075364674
 11
25.0151628679
 21
48.2154867971
  0
LINE
  5
27B
100
AcDbEntity
  8
0
100
AcDbLine
 62
7
  6
CONTINUOUS
 10
24.2146923897
 20
46.4794846786
 11
19.5421334116
 21
43.7817971804
  0
LWPOLYLINE
  5
27C
100
AcDbEntity
  8
0
100
AcDbPolyline
 62
7
  6
CONTINUOUS
 90
3
 70
0
 10
40.8680898136
 20
56.3391302121
 10
40.8661290695
 20
56.3381989609
 10
40.0672812158
 20
55.548809129
  0
LINE
  5
27D
100
AcDbEntity
  8
0
100
AcDbLine
 62
7
  6
CONTINUOUS
 10
48.1793670851
 20
20.8866535194
 11
45.419011958
 21
22.4803092417
  0
LINE
  5
27E
100
AcDbEntity
  8
0
100
AcDbLine
 62
7
  6
CONTINUOUS
 10
46.0038207092
 20
22.8384834276
 11
44.1653354238
 21
23.8999093893
  0
LINE
  5
27F
100
AcDbEntity
  8
0
100
AcDbLine
 62
7
  6
CONTINUOUS
 10
24.0693894662
 20
47.8571573021
 11
24.0693894396
 21
48.7634750005
  0
LINE
  5
280
100
AcDbEntity
  8
0
100
AcDbLine
 62
7
  6
CONTINUOUS
 10
24.2815206016
 20
47.9796305574
 11
24.2815205822
 21
48.6410038254
  0
LINE
  5
281
100
AcDbEntity
  8
0
100
AcDbLine
 62
7
  6
CONTINUOUS
 10
24.9497236421
 20
50.4741492737
 11
24.9497234496
 21
57.0284828731
  0
LINE
  5
282
100
AcDbEntity
  8
0
100
AcDbLine
 62
7
  6
CONTINUOUS
 10
25.0151630909
 20
40.6220141816
 11
25.0151628679
 21
48.2154867971
  0
LINE
  5
283
100
AcDbEntity
  8
0
100
AcDbLine
 62
7
  6
CONTINUOUS
 10
25.2431916629
 20
48.347138517
 11
25.2431916308
 21
49.4411894797
  0
LINE
  5
284
100
AcDbEntity
  8
0
100
AcDbLine
 62
7
  6
CONTINUOUS
 10
34.3344850449
 20
58.8504332631
 11
34.3344790022
 21
58.8504239008
  0
LINE
  5
285
100
AcDbEntity
  8
0
100
AcDbLine
 62
7
  6
CONTINUOUS
 10
33.9271107068
 20
59.1396761223
 11
33.9271164741
 21
59.139684984
  0
LWPOLYLINE
  5
286
100
AcDbEntity
  8
0
100
AcDbPolyline
 62
7
  6
CONTINUOUS
 90
5
 70
0
 10
34.3344874421
 20
58.8504135042
 10
34.6095557058
 20
59.2225000001
 10
35.2587611024
 20
59.7924526292
 10
35.5710582403
 20
59.9303115489
 10
35.7096500051
 20
59.9216794661
  0
LINE
  5
287
100
AcDbEntity
  8
0
100
AcDbLine
 62
7
  6
CONTINUOUS
 10
35.2940863778
 20
56.2407809241
 11
35.4028948452
 21
56.3512707045
  0
LINE
  5
288
100
AcDbEntity
  8
0
100
AcDbLine
 62
7
  6
CONTINUOUS
 10
37.2499562836
 20
51.9724535885
 11
33.0017474541
 21
49.5197633855
  0
LINE
  5
289
100
AcDbEntity
  8
0
100
AcDbLine
 62
7
  6
CONTINUOUS
 10
11.3679258204
 20
45.0717601957
 11
25.5101213741
 21
36.9069462656
  0
LINE
  5
28A
100
AcDbEntity
  8
0
100
AcDbLine
 62
7
  6
CONTINUOUS
 10
25.4553227983
 20
48.4696117723
 11
25.4553227734
 21
49.3187183046
  0
LINE
  5
28B
100
AcDbEntity
  8
0
100
AcDbLine
 62
7
  6
CONTINUOUS
 10
25.5101213741
 20
36.9069462656
 11
25.5101218536
 21
20.5768976459
  0
LINE
  5
28C
100
AcDbEntity
  8
0
100
AcDbLine
 62
7
  6
CONTINUOUS
 10
26.028083484
 20
48.9880423066
 11
26.0280834895
 21
48.8002933868
  0
LINE
  5
28D
100
AcDbEntity
  8
0
100
AcDbLine
 62
7
  6
CONTINUOUS
 10
29.4381508545
 20
58.8794893763
 11
29.3596307201
 21
58.5274763044
  0
LINE
  5
28E
100
AcDbEntity
  8
0
100
AcDbLine
 62
7
  6
CONTINUOUS
 10
29.130634453
 20
57.5008647225
 11
28.9970958725
 21
56.902198835
  0
LINE
  5
28F
100
AcDbEntity
  8
0
100
AcDbLine
 62
7
  6
CONTINUOUS
 10
33.6783402936
 20
60.7606674703
 11
34.5182607075
 21
62.7658477306
  0
LINE
  5
290
100
AcDbEntity
  8
0
100
AcDbLine
 62
7
  6
CONTINUOUS
 10
34.0957999562
 20
60.4631261657
 11
34.9547869325
 21
62.5138248986
  0
LINE
  5
291
100
AcDbEntity
  8
0
100
AcDbLine
 62
7
  6
CONTINUOUS
 10
34.6365930201
 20
57.6640864065
 11
34.6367789926
 21
57.6644812276
  0
LWPOLYLINE
  5
292
100
AcDbEntity
  8
0
100
AcDbPolyline
 62
7
  6
CONTINUOUS
 90
4
 70
0
 10
33.9271107068
 20
59.1396761223
 10
33.4435631936
 20
58.1433397717
 10
33.2563989306
 20
57.0022120026
 10
33.3229950109
 20
56.4789010268
  0
LWPOLYLINE
  5
293
100
AcDbEntity
  8
0
100
AcDbPolyline
 62
7
  6
CONTINUOUS
 90
6
 70
0
 10
35.0969597866
 20
57.4659016084
 10
35.5574756989
 20
58.3340515531
 10
36.1556528968
 20
58.9755464865
 10
36.4638823478
 20
59.178029331
 10
37.0128792008
 20
59.3132742784
 10
37.1944323253
 20
59.2525403269
  0
LWPOLYLINE
  5
294
100
AcDbEntity
  8
0
100
AcDbPolyline
 62
7
  6
CONTINUOUS
 90
3
 70
0
 10
41.0509041167
 20
56.618946673
 10
40.9285203639
 20
56.49579335
 10
40.9326112373
 20
56.5017276566
  0
LWPOLYLINE
  5
295
100
AcDbEntity
  8
0
100
AcDbPolyline
 62
7
  6
CONTINUOUS
 90
3
 70
0
 10
39.9335172623
 20
55.6174753
 10
40.523341327
 20
56.2100384
 10
40.8833638019
 20
56.4014981636
  0
LINE
  5
296
100
AcDbEntity
  8
0
100
AcDbLine
 62
7
  6
CONTINUOUS
 10
40.2464831404
 20
56.6263899357
 11
39.5265473675
 21
55.9072867391
  0
LINE
  5
297
100
AcDbEntity
  8
0
100
AcDbLine
 62
7
  6
CONTINUOUS
 10
40.6681322375
 20
55.4532831213
 11
41.0526665045
 21
55.8229729411
  0
LWPOLYLINE
  5
298
100
AcDbEntity
  8
0
100
AcDbPolyline
 62
7
  6
CONTINUOUS
 90
3
 70
0
 10
41.2869898097
 20
55.9012055975
 10
40.9545312856
 20
55.5955334065
 10
40.7981355359
 20
55.3825270747
  0
LINE
  5
299
100
AcDbEntity
  8
0
100
AcDbLine
 62
7
  6
CONTINUOUS
 10
33.0017475284
 20
46.9886058495
 11
30.0710144721
 21
45.2965561793
  0
LINE
  5
29A
100
AcDbEntity
  8
0
100
AcDbLine
 62
7
  6
CONTINUOUS
 10
40.7144899868
 20
51.2366124102
 11
49.4601939192
 21
56.2841461318
  0
LINE
  5
29B
100
AcDbEntity
  8
0
100
AcDbLine
 62
7
  6
CONTINUOUS
 10
39.6538255927
 20
51.8496819438
 11
48.3995291378
 21
56.8957987724
  0
LINE
  5
29C
100
AcDbEntity
  8
0
100
AcDbLine
 62
7
  6
CONTINUOUS
 10
34.780229034
 20
34.5986660079
 11
36.6187143194
 21
33.5372400461
  0
LINE
  5
29D
100
AcDbEntity
  8
0
100
AcDbLine
 62
7
  6
CONTINUOUS
 10
46.0038207092
 20
28.178899137
 11
44.1653354238
 21
29.2403250988
  0
LINE
  5
29E
100
AcDbEntity
  8
0
100
AcDbLine
 62
7
  6
CONTINUOUS
 10
25.0151630909
 20
40.6220141569
 11
19.5421334116
 21
43.7817971478
  0
LINE
  5
29F
100
AcDbEntity
  8
0
100
AcDbLine
 62
7
  6
CONTINUOUS
 10
16.2398600388
 20
45.6883220245
 11
8.6808565153
 21
50.0524150702
  0
LINE
  5
2A0
100
AcDbEntity
  8
0
100
AcDbLine
 62
7
  6
CONTINUOUS
 10
27.9458958499
 20
52.4386939989
 11
27.9458959242
 21
49.9075364674
  0
LINE
  5
2A1
100
AcDbEntity
  8
0
100
AcDbLine
 62
7
  6
CONTINUOUS
 10
30.0420330152
 20
68.9108950328
 11
30.0420330152
 21
67.6614062577
  0
LINE
  5
2A2
100
AcDbEntity
  8
0
100
AcDbLine
 62
7
  6
CONTINUOUS
 10
30.0420330152
 20
63.9759748575
 11
30.0420330152
 21
63.8187352311
  0
LINE
  5
2A3
100
AcDbEntity
  8
0
100
AcDbLine
 62
7
  6
CONTINUOUS
 10
30.0710144721
 20
45.2965561793
 11
30.0710152752
 21
17.9437247399
  0
LINE
  5
2A4
100
AcDbEntity
  8
0
100
AcDbLine
 62
7
  6
CONTINUOUS
 10
29.0810350065
 20
14.2754041109
 11
29.0822511542
 21
18.5145749338
  0
LWPOLYLINE
  5
2A5
100
AcDbEntity
  8
0
100
AcDbPolyline
 62
7
  6
CONTINUOUS
 90
5
 70
0
 10
34.3728373303
 20
57.2393609686
 10
34.697735024
 20
58.1733505038
 10
35.2538652498
 20
58.9854072607
 10
35.9036049138
 20
59.5099994029
 10
36.1714776809
 20
59.5701752182
  0
LWPOLYLINE
  5
2A6
100
AcDbEntity
  8
0
100
AcDbPolyline
 62
7
  6
CONTINUOUS
 90
3
 70
0
 10
36.197558649
 20
58.8023106225
 10
36.2310188044
 20
58.8877816842
 10
36.2364451565
 20
59.0286207352
  0
LINE
  5
2A7
100
AcDbEntity
  8
0
100
AcDbLine
 62
7
  6
CONTINUOUS
 10
35.0958275295
 20
57.4663511102
 11
35.0957355424
 21
57.4661264505
  0
LINE
  5
2A8
100
AcDbEntity
  8
0
100
AcDbLine
 62
7
  6
CONTINUOUS
 10
34.6365930201
 20
57.6640864065
 11
33.1925946669
 21
54.3149189315
  0
LINE
  5
2A9
100
AcDbEntity
  8
0
100
AcDbLine
 62
7
  6
CONTINUOUS
 10
35.0957355424
 20
57.4661264505
 11
33.6285660399
 21
54.0632164906
  0
LWPOLYLINE
  5
2AA
100
AcDbEntity
  8
0
100
AcDbPolyline
 62
7
  6
CONTINUOUS
 90
5
 70
0
 10
38.3674885799
 20
55.5769341447
 10
38.8617791916
 20
56.3457403866
 10
39.5530184925
 20
56.9770039858
 10
39.9228316229
 20
57.1733749216
 10
40.1909606716
 20
57.2080858662
  0
LINE
  5
2AB
100
AcDbEntity
  8
0
100
AcDbLine
 62
7
  6
CONTINUOUS
 10
38.4046163088
 20
52.8941232649
 11
38.3658474564
 21
52.8461390898
  0
LINE
  5
2AC
100
AcDbEntity
  8
0
100
AcDbLine
 62
7
  6
CONTINUOUS
 10
39.2626539939
 20
54.1153946615
 11
39.2210870334
 21
54.0644075901
  0
LINE
  5
2AD
100
AcDbEntity
  8
0
100
AcDbLine
 62
7
  6
CONTINUOUS
 10
39.160576378
 20
55.6555506853
 11
39.8133235555
 21
56.4162706007
  0
LINE
  5
2AE
100
AcDbEntity
  8
0
100
AcDbLine
 62
7
  6
CONTINUOUS
 10
41.198781705
 20
55.0864128957
 11
41.5436833748
 21
55.4496248099
  0
LINE
  5
2AF
100
AcDbEntity
  8
0
100
AcDbLine
 62
7
  6
CONTINUOUS
 10
43.5168361134
 20
37.239220591
 11
39.4039190301
 21
38.1653049413
  0
LINE
  5
2B0
100
AcDbEntity
  8
0
100
AcDbLine
 62
7
  6
CONTINUOUS
 10
39.4039190301
 20
38.1653049413
 11
39.1531875127
 21
38.262696547
  0
LINE
  5
2B1
100
AcDbEntity
  8
0
100
AcDbLine
 62
7
  6
CONTINUOUS
 10
8.6808564678
 20
51.6690898835
 11
10.766830312
 21
50.4647798288
  0
LINE
  5
2B2
100
AcDbEntity
  8
0
100
AcDbLine
 62
7
  6
CONTINUOUS
 10
31.274930179
 20
18.6387837471
 11
31.2749297113
 21
38.3981601419
  0
LINE
  5
2B3
100
AcDbEntity
  8
0
100
AcDbLine
 62
7
  6
CONTINUOUS
 10
30.1418591972
 20
13.663268374
 11
30.1430720104
 21
17.9853264745
  0
LINE
  5
2B4
100
AcDbEntity
  8
0
100
AcDbLine
 62
7
  6
CONTINUOUS
 10
36.7656740061
 20
58.4743164884
 11
36.7950443779
 21
58.5494951376
  0
LINE
  5
2B5
100
AcDbEntity
  8
0
100
AcDbLine
 62
7
  6
CONTINUOUS
 10
36.4634015526
 20
52.4265608246
 11
37.9073997647
 21
55.7757279724
  0
LINE
  5
2B6
100
AcDbEntity
  8
0
100
AcDbLine
 62
7
  6
CONTINUOUS
 10
36.8993729257
 20
52.1748583837
 11
38.366542287
 21
55.5777680164
  0
LWPOLYLINE
  5
2B7
100
AcDbEntity
  8
0
100
AcDbPolyline
 62
7
  6
CONTINUOUS
 90
4
 70
0
 10
38.75173146
 20
55.9427136152
 10
38.2502142506
 20
54.8710222564
 10
38.1270753615
 20
53.8170273664
 10
38.4578910865
 20
53.0302066209
  0
LINE
  5
2B8
100
AcDbEntity
  8
0
100
AcDbLine
 62
7
  6
CONTINUOUS
 10
37.9073997647
 20
55.7757279724
 11
37.9078365888
 21
55.7765694611
  0
LWPOLYLINE
  5
2B9
100
AcDbEntity
  8
0
100
AcDbPolyline
 62
7
  6
CONTINUOUS
 90
11
 70
0
 10
40.0782917106
 20
55.2826351024
 10
40.0347755717
 20
55.2057809932
 10
39.9914129113
 20
55.0284028345
 10
40.0085899579
 20
54.8597401306
 10
40.073222683
 20
54.7210027528
 10
40.1523346221
 20
54.6309754238
 10
40.1914450633
 20
54.5987145984
 10
40.2163042197
 20
54.5803298747
 10
40.2457674346
 20
54.5593301921
 10
40.2842990665
 20
54.5324856754
 10
40.3338291063
 20
54.4986088465
  0
LWPOLYLINE
  5
2BA
100
AcDbEntity
  8
0
100
AcDbPolyline
 62
7
  6
CONTINUOUS
 90
10
 70
0
 10
40.9326122556
 20
56.5017291085
 10
40.8890774381
 20
56.4248285328
 10
40.8457783922
 20
56.2480264599
 10
40.8626353308
 20
56.0798704673
 10
40.927015632
 20
55.9408506108
 10
41.0059565083
 20
55.850648126
 10
41.0476213781
 20
55.8163375196
 10
41.0730427457
 20
55.7976105303
 10
41.1049831118
 20
55.7749032738
 10
41.1478321373
 20
55.7451315349
  0
LINE
  5
2BB
100
AcDbEntity
  8
0
100
AcDbLine
 62
7
  6
CONTINUOUS
 10
39.5265465254
 20
55.9072647265
 11
38.9805652868
 21
54.9940834989
  0
LWPOLYLINE
  5
2BC
100
AcDbEntity
  8
0
100
AcDbPolyline
 62
7
  6
CONTINUOUS
 90
3
 70
0
 10
40.0672812158
 20
55.548809129
 10
39.7462093103
 20
55.0610594728
 10
39.4076143299
 20
54.2191432908
  0
LINE
  5
2BD
100
AcDbEntity
  8
0
100
AcDbLine
 62
7
  6
CONTINUOUS
 10
39.2210883957
 20
54.0644103797
 11
39.2284769917
 21
54.0746356147
  0
LINE
  5
2BE
100
AcDbEntity
  8
0
100
AcDbLine
 62
7
  6
CONTINUOUS
 10
38.3658480609
 20
52.8461424385
 11
38.3737221118
 21
52.857018663
  0
LINE
  5
2BF
100
AcDbEntity
  8
0
100
AcDbLine
 62
7
  6
CONTINUOUS
 10
11.4032814891
 20
28.7621237853
 11
11.3679262999
 21
28.741711576
  0
LINE
  5
2C0
100
AcDbEntity
  8
0
100
AcDbLine
 62
7
  6
CONTINUOUS
 10
9.3102172227
 20
27.2344274703
 11
11.6805563601
 21
28.60204272
  0
LINE
  5
2C1
100
AcDbEntity
  8
0
100
AcDbLine
 62
7
  6
CONTINUOUS
 10
45.2407012445
 20
46.7904412531
 11
45.3049648018
 21
46.8210514296
  0
LINE
  5
2C2
100
AcDbEntity
  8
0
100
AcDbLine
 62
7
  6
CONTINUOUS
 10
37.1594966685
 20
38.4159558961
 11
37.8666063937
 21
38.0077151416
  0
LINE
  5
2C3
100
AcDbEntity
  8
0
100
AcDbLine
 62
7
  6
CONTINUOUS
 10
38.2692626701
 20
38.7729321435
 11
39.1531498265
 21
38.2626312004
  0
LINE
  5
2C4
100
AcDbEntity
  8
0
100
AcDbLine
 62
7
  6
CONTINUOUS
 10
14.77431915
 20
52.778491121
 11
14.93922293
 21
52.6832860537
  0
LINE
  5
2C5
100
AcDbEntity
  8
0
100
AcDbLine
 62
7
  6
CONTINUOUS
 10
51.9439172041
 20
31.6083949761
 11
50.1054319187
 21
32.6698209378
  0
LINE
  5
2C6
100
AcDbEntity
  8
0
100
AcDbLine
 62
7
  6
CONTINUOUS
 10
25.0151628945
 20
47.3111272298
 11
24.0693894662
 21
47.8571573021
  0
LINE
  5
2C7
100
AcDbEntity
  8
0
100
AcDbLine
 62
7
  6
CONTINUOUS
 10
16.2398598424
 20
52.377435441
 11
15.2940864141
 21
52.9234655134
  0
LINE
  5
2C8
100
AcDbEntity
  8
0
100
AcDbLine
 62
7
  6
CONTINUOUS
 10
37.8666063937
 20
38.0077151416
 11
42.1983917554
 21
35.21992134
  0
LINE
  5
2C9
100
AcDbEntity
  8
0
100
AcDbLine
 62
7
  6
CONTINUOUS
 10
33.0017474541
 20
49.5197633788
 11
33.0017475284
 21
46.9886058495
  0
LINE
  5
2CA
100
AcDbEntity
  8
0
100
AcDbLine
 62
7
  6
CONTINUOUS
 10
34.780229034
 20
34.5986660079
 11
34.7802290683
 21
16.5036705614
  0
LINE
  5
2CB
100
AcDbEntity
  8
0
100
AcDbLine
 62
7
  6
CONTINUOUS
 10
34.3665435703
 20
57.0377416245
 11
34.3728373303
 21
57.2393609686
  0
LWPOLYLINE
  5
2CC
100
AcDbEntity
  8
0
100
AcDbPolyline
 62
7
  6
CONTINUOUS
 90
3
 70
0
 10
39.212451305
 20
54.0589764673
 10
39.4782510674
 20
54.8816908962
 10
39.9335348638
 20
55.6174772987
  0
LINE
  5
2CD
100
AcDbEntity
  8
0
100
AcDbLine
 62
7
  6
CONTINUOUS
 10
39.9193229737
 20
54.1799761928
 11
40.123668503
 21
54.6635967218
  0
LWPOLYLINE
  5
2CE
100
AcDbEntity
  8
0
100
AcDbPolyline
 62
7
  6
CONTINUOUS
 90
9
 70
0
 10
39.2284769917
 20
54.0746356147
 10
39.1518042499
 20
53.9155022253
 10
39.1341313378
 20
53.7487879256
 10
39.1665125864
 20
53.597249632
 10
39.2360933276
 20
53.4765988071
 10
39.3086160101
 20
53.4020067827
 10
39.340428124
 20
53.3769365718
 10
39.3623312457
 20
53.3610188009
 10
39.3900035528
 20
53.3414819619
  0
LWPOLYLINE
  5
2CF
100
AcDbEntity
  8
0
100
AcDbPolyline
 62
7
  6
CONTINUOUS
 90
9
 70
0
 10
38.3737221118
 20
52.857018663
 10
38.2971631229
 20
52.6993702416
 10
38.2787423698
 20
52.5338485967
 10
38.3097865089
 20
52.3829391174
 10
38.3779427191
 20
52.2620780538
 10
38.4512480409
 20
52.1855458048
 10
38.4839574718
 20
52.1595852076
 10
38.5050096487
 20
52.1442431092
 10
38.5611931206
 20
52.1071437144
  0
LINE
  5
2D0
100
AcDbEntity
  8
0
100
AcDbLine
 62
7
  6
CONTINUOUS
 10
31.2749296885
 20
38.3981601388
 11
37.2499565489
 21
41.8478233806
  0
LINE
  5
2D1
100
AcDbEntity
  8
0
100
AcDbLine
 62
7
  6
CONTINUOUS
 10
9.4882092908
 20
25.9883347003
 11
9.1416975862
 21
25.7883576273
  0
LINE
  5
2D2
100
AcDbEntity
  8
0
100
AcDbLine
 62
7
  6
CONTINUOUS
 10
35.1281688601
 20
40.0504810718
 11
36.5274839207
 21
40.8580690584
  0
LINE
  5
2D3
100
AcDbEntity
  8
0
100
AcDbLine
 62
7
  6
CONTINUOUS
 10
40.8421831567
 20
43.3482153927
 11
41.240460255
 21
43.5780734203
  0
LINE
  5
2D4
100
AcDbEntity
  8
0
100
AcDbLine
 62
7
  6
CONTINUOUS
 10
39.7816996923
 20
43.9604719552
 11
40.1800375508
 21
44.1902962465
  0
LINE
  5
2D5
100
AcDbEntity
  8
0
100
AcDbLine
 62
7
  6
CONTINUOUS
 10
41.9333290067
 20
44.283749269
 11
46.1888519582
 21
46.3107504865
  0
LINE
  5
2D6
100
AcDbEntity
  8
0
100
AcDbLine
 62
7
  6
CONTINUOUS
 10
42.1732938027
 20
43.3735232395
 11
41.8562938065
 21
43.2225290172
  0
LINE
  5
2D7
100
AcDbEntity
  8
0
100
AcDbLine
 62
7
  6
CONTINUOUS
 10
25.0151628873
 20
47.5560716601
 11
24.2815206016
 21
47.9796305574
  0
LINE
  5
2D8
100
AcDbEntity
  8
0
100
AcDbLine
 62
7
  6
CONTINUOUS
 10
16.2398598352
 20
52.6223798714
 11
15.5062175495
 21
53.0459387686
  0
LINE
  5
2D9
100
AcDbEntity
  8
0
100
AcDbLine
 62
7
  6
CONTINUOUS
 10
10.7668301365
 20
56.4415776557
 11
6.8070320752
 21
58.7277159183
  0
LINE
  5
2DA
100
AcDbEntity
  8
0
100
AcDbLine
 62
7
  6
CONTINUOUS
 10
24.0693894396
 20
48.7634750005
 11
30.0710144721
 21
45.2965561793
  0
LINE
  5
2DB
100
AcDbEntity
  8
0
100
AcDbLine
 62
7
  6
CONTINUOUS
 10
15.2940863875
 20
53.8297832117
 11
19.5421331886
 21
51.3752697881
  0
LINE
  5
2DC
100
AcDbEntity
  8
0
100
AcDbLine
 62
7
  6
CONTINUOUS
 10
37.8370672893
 20
40.8432992921
 11
36.705691729
 21
41.4964844993
  0
LINE
  5
2DD
100
AcDbEntity
  8
0
100
AcDbLine
 62
7
  6
CONTINUOUS
 10
25.2431916308
 20
49.4411894797
 11
26.028083484
 21
48.9880423066
  0
LINE
  5
2DE
100
AcDbEntity
  8
0
100
AcDbLine
 62
7
  6
CONTINUOUS
 10
16.4678885787
 20
54.507497691
 11
17.2527804319
 21
54.0543505178
  0
LINE
  5
2DF
100
AcDbEntity
  8
0
100
AcDbLine
 62
7
  6
CONTINUOUS
 10
51.4763558297
 20
35.0044874833
 11
50.2305182918
 21
35.7237558492
  0
LINE
  5
2E0
100
AcDbEntity
  8
0
100
AcDbLine
 62
7
  6
CONTINUOUS
 10
36.6187143194
 20
33.5372400461
 11
36.6187143194
 21
15.4422445799
  0
LINE
  5
2E1
100
AcDbEntity
  8
0
100
AcDbLine
 62
7
  6
CONTINUOUS
 10
37.2499565361
 20
41.8478233833
 11
37.2499562964
 21
51.9724536031
  0
LINE
  5
2E2
100
AcDbEntity
  8
0
100
AcDbLine
 62
7
  6
CONTINUOUS
 10
35.1282713162
 20
40.6228749865
 11
35.1281688601
 21
40.0504810718
  0
LWPOLYLINE
  5
2E3
100
AcDbEntity
  8
0
100
AcDbPolyline
 62
7
  6
CONTINUOUS
 90
3
 70
0
 10
36.3262564084
 20
59.0876197624
 10
36.325322747
 20
58.7369603463
 10
36.32272036
 20
58.7300501097
  0
LINE
  5
2E4
100
AcDbEntity
  8
0
100
AcDbLine
 62
7
  6
CONTINUOUS
 10
36.7950443779
 20
58.5494951376
 11
36.826396316
 21
59.2673343649
  0
LWPOLYLINE
  5
2E5
100
AcDbEntity
  8
0
100
AcDbPolyline
 62
7
  6
CONTINUOUS
 90
4
 70
0
 10
37.9436878405
 20
58.371552274
 10
37.9777587256
 20
58.8195675101
 10
37.63273994
 20
59.5416715843
 10
37.4417120167
 20
59.6863027438
  0
LINE
  5
2E6
100
AcDbEntity
  8
0
100
AcDbLine
 62
7
  6
CONTINUOUS
 10
37.3759506368
 20
58.6631365095
 11
37.4039532935
 21
58.9106740148
  0
LWPOLYLINE
  5
2E7
100
AcDbEntity
  8
0
100
AcDbPolyline
 62
7
  6
CONTINUOUS
 90
4
 70
0
 10
38.9805652868
 20
54.9940834989
 10
38.6946873213
 20
53.9382858091
 10
38.6996785048
 20
53.4508462837
 10
38.7960347136
 20
53.2329051318
  0
LINE
  5
2E8
100
AcDbEntity
  8
0
100
AcDbLine
 62
7
  6
CONTINUOUS
 10
36.705691729
 20
41.4964844994
 11
34.780229034
 21
34.5986660079
  0
LINE
  5
2E9
100
AcDbEntity
  8
0
100
AcDbLine
 62
7
  6
CONTINUOUS
 10
40.2357553067
 20
54.5729028604
 11
40.0527809952
 21
54.0858963331
  0
LINE
  5
2EA
100
AcDbEntity
  8
0
100
AcDbLine
 62
7
  6
CONTINUOUS
 10
42.44595068
 20
58.1888973353
 11
41.7514484301
 21
56.5308804813
  0
LINE
  5
2EB
100
AcDbEntity
  8
0
100
AcDbLine
 62
7
  6
CONTINUOUS
 10
42.3191680328
 20
56.5920615755
 11
42.1777372355
 21
56.2544173915
  0
LINE
  5
2EC
100
AcDbEntity
  8
0
100
AcDbLine
 62
7
  6
CONTINUOUS
 10
41.990602747
 20
49.3924229316
 11
41.9905678568
 21
49.3923731216
  0
LINE
  5
2ED
100
AcDbEntity
  8
0
100
AcDbLine
 62
7
  6
CONTINUOUS
 10
44.9556438385
 20
49.6341257676
 11
40.7142184799
 21
49.4972049224
  0
LINE
  5
2EE
100
AcDbEntity
  8
0
100
AcDbLine
 62
7
  6
CONTINUOUS
 10
33.0017475284
 20
46.9886058495
 11
27.9458959242
 21
49.9075364674
  0
LINE
  5
2EF
100
AcDbEntity
  8
0
100
AcDbLine
 62
7
  6
CONTINUOUS
 10
22.4728662449
 20
53.0673194583
 11
19.1705928722
 21
54.9738443351
  0
LINE
  5
2F0
100
AcDbEntity
  8
0
100
AcDbLine
 62
7
  6
CONTINUOUS
 10
13.6975631929
 20
58.133627326
 11
9.7377651315
 21
60.4197655885
  0
LINE
  5
2F1
100
AcDbEntity
  8
0
100
AcDbLine
 62
7
  6
CONTINUOUS
 10
48.6224374492
 20
38.6095487763
 11
48.7220339382
 21
38.5520480174
  0
LINE
  5
2F2
100
AcDbEntity
  8
0
100
AcDbLine
 62
7
  6
CONTINUOUS
 10
40.8692185558
 20
43.2762897123
 11
41.7531057123
 21
42.7659887692
  0
LINE
  5
2F3
100
AcDbEntity
  8
0
100
AcDbLine
 62
7
  6
CONTINUOUS
 10
39.7343333956
 20
43.9878182807
 11
40.8657089559
 21
43.3346330735
  0
LINE
  5
2F4
100
AcDbEntity
  8
0
100
AcDbLine
 62
7
  6
CONTINUOUS
 10
49.1698537054
 20
38.8105953372
 11
50.2305182931
 21
38.1982342054
  0
LINE
  5
2F5
100
AcDbEntity
  8
0
100
AcDbLine
 62
7
  6
CONTINUOUS
 10
37.2499564406
 20
45.8819448045
 11
41.8562990795
 21
43.2225259729
  0
LWPOLYLINE
  5
2F6
100
AcDbEntity
  8
0
100
AcDbPolyline
 62
7
  6
CONTINUOUS
 90
6
 70
0
 10
32.7226637496
 20
57.2085554989
 10
32.6212736182
 20
57.6800018774
 10
32.6551680813
 20
58.101948318
 10
32.9286720309
 20
59.0028923806
 10
33.4405557598
 20
59.8303613313
 10
33.691155099
 20
60.1052343633
  0
LWPOLYLINE
  5
2F7
100
AcDbEntity
  8
0
100
AcDbPolyline
 62
7
  6
CONTINUOUS
 90
4
 70
0
 10
33.2614025488
 20
57.032718722
 10
33.1926901651
 20
57.5413124291
 10
33.4398438742
 20
58.5456355375
 10
33.6884209536
 20
59.0465217376
  0
LINE
  5
2F8
100
AcDbEntity
  8
0
100
AcDbLine
 62
7
  6
CONTINUOUS
 10
39.6534452739
 20
50.1095033844
 11
39.6539338032
 21
51.8490360881
  0
LWPOLYLINE
  5
2F9
100
AcDbEntity
  8
0
100
AcDbPolyline
 62
7
  6
CONTINUOUS
 90
3
 70
0
 10
39.2945715847
 20
53.4164519478
 10
39.2763690586
 20
53.0507583594
 10
39.3467815451
 20
52.9043478716
  0
LINE
  5
2FA
100
AcDbEntity
  8
0
100
AcDbLine
 62
7
  6
CONTINUOUS
 10
39.2108076797
 20
54.0379631619
 11
39.212451305
 21
54.0589764673
  0
LWPOLYLINE
  5
2FB
100
AcDbEntity
  8
0
100
AcDbPolyline
 62
7
  6
CONTINUOUS
 90
3
 70
0
 10
40.4663484078
 20
53.8179931712
 10
40.4944889085
 20
53.9539665519
 10
40.6578607332
 20
54.2549484256
  0
LINE
  5
2FC
100
AcDbEntity
  8
0
100
AcDbLine
 62
7
  6
CONTINUOUS
 10
37.1594966685
 20
38.4159558961
 11
37.8370672893
 21
40.8432992922
  0
LINE
  5
2FD
100
AcDbEntity
  8
0
100
AcDbLine
 62
7
  6
CONTINUOUS
 10
36.6187143194
 20
33.5372400461
 11
37.8666063937
 21
38.0077151416
  0
LINE
  5
2FE
100
AcDbEntity
  8
0
100
AcDbLine
 62
7
  6
CONTINUOUS
 10
41.9906160867
 20
49.392438965
 11
42.0575338504
 21
49.5405695606
  0
LINE
  5
2FF
100
AcDbEntity
  8
0
100
AcDbLine
 62
7
  6
CONTINUOUS
 10
49.9833497491
 20
57.3997203298
 11
49.3940518634
 21
56.4887657252
  0
LINE
  5
300
100
AcDbEntity
  8
0
100
AcDbLine
 62
7
  6
CONTINUOUS
 10
50.0943620774
 20
55.6196203338
 11
49.73532091
 21
55.0645782922
  0
LINE
  5
301
100
AcDbEntity
  8
0
100
AcDbLine
 62
7
  6
CONTINUOUS
 10
49.8767428551
 20
54.9829301413
 11
51.0440143369
 21
56.787359198
  0
LINE
  5
302
100
AcDbEntity
  8
0
100
AcDbLine
 62
7
  6
CONTINUOUS
 10
49.7609472822
 20
51.8557852382
 11
45.3049648018
 21
46.8210514296
  0
LINE
  5
303
100
AcDbEntity
  8
0
100
AcDbLine
 62
7
  6
CONTINUOUS
 10
46.1888519582
 20
46.3107504865
 11
50.6448344386
 21
51.345484295
  0
LINE
  5
304
100
AcDbEntity
  8
0
100
AcDbLine
 62
7
  6
CONTINUOUS
 10
52.779813991
 20
47.4343612704
 11
46.808697343
 21
42.6596761242
  0
LWPOLYLINE
  5
305
100
AcDbEntity
  8
0
100
AcDbPolyline
 62
7
  6
CONTINUOUS
 90
4
 70
0
 10
41.1478404866
 20
49.153407498
 10
41.3641989852
 20
49.1141620802
 10
41.7722813981
 20
49.201981367
 10
41.9905678568
 20
49.3923731216
  0
LINE
  5
306
100
AcDbEntity
  8
0
100
AcDbLine
 62
7
  6
CONTINUOUS
 10
41.9333336046
 20
44.2837466144
 11
37.2499564144
 21
46.9876404562
  0
LINE
  5
307
100
AcDbEntity
  8
0
100
AcDbLine
 62
7
  6
CONTINUOUS
 10
33.0017474541
 20
49.5197633855
 11
27.9458958499
 21
52.4386940034
  0
LINE
  5
308
100
AcDbEntity
  8
0
100
AcDbLine
 62
7
  6
CONTINUOUS
 10
22.4728661706
 20
55.5984769944
 11
19.1705927978
 21
57.5050018711
  0
LINE
  5
309
100
AcDbEntity
  8
0
100
AcDbLine
 62
7
  6
CONTINUOUS
 10
13.6975631185
 20
60.664784862
 11
9.7377650572
 21
62.9509231246
  0
LINE
  5
30A
100
AcDbEntity
  8
0
100
AcDbLine
 62
7
  6
CONTINUOUS
 10
41.753040337
 20
42.7658755036
 11
42.1028895572
 21
42.4036495849
  0
LINE
  5
30B
100
AcDbEntity
  8
0
100
AcDbLine
 62
7
  6
CONTINUOUS
 10
41.464005175
 20
37.7014459574
 11
41.4906606348
 21
35.6753936837
  0
LINE
  5
30C
100
AcDbEntity
  8
0
100
AcDbLine
 62
7
  6
CONTINUOUS
 10
42.1983917554
 20
35.21992134
 11
42.4145840501
 21
18.7872580549
  0
LINE
  5
30D
100
AcDbEntity
  8
0
100
AcDbLine
 62
7
  6
CONTINUOUS
 10
40.7142184799
 20
49.4972049224
 11
40.7144899868
 21
51.2366124102
  0
LINE
  5
30E
100
AcDbEntity
  8
0
100
AcDbLine
 62
7
  6
CONTINUOUS
 10
41.2661357932
 20
43.5632499443
 11
41.230177389
 21
43.0678947473
  0
LINE
  5
30F
100
AcDbEntity
  8
0
100
AcDbLine
 62
7
  6
CONTINUOUS
 10
41.8562938065
 20
43.2225290172
 11
41.9333290067
 21
44.283749269
  0
LINE
  5
310
100
AcDbEntity
  8
0
100
AcDbLine
 62
7
  6
CONTINUOUS
 10
42.1028895572
 20
42.4036495849
 11
42.1732938027
 21
43.3735232395
  0
LINE
  5
311
100
AcDbEntity
  8
0
100
AcDbLine
 62
7
  6
CONTINUOUS
 10
43.7733718082
 20
49.5959598984
 11
43.4429417748
 21
47.8283570765
  0
LINE
  5
312
100
AcDbEntity
  8
0
100
AcDbLine
 62
7
  6
CONTINUOUS
 10
49.1698537054
 20
38.8105953372
 11
48.592993679
 21
38.4775470337
  0
LINE
  5
313
100
AcDbEntity
  8
0
100
AcDbLine
 62
7
  6
CONTINUOUS
 10
16.1744203976
 20
62.0947907407
 11
21.6474500769
 21
58.9350077498
  0
LINE
  5
314
100
AcDbEntity
  8
0
100
AcDbLine
 62
7
  6
CONTINUOUS
 10
24.9497234496
 20
57.0284828731
 11
30.4227531289
 21
53.8686998821
  0
LINE
  5
315
100
AcDbEntity
  8
0
100
AcDbLine
 62
7
  6
CONTINUOUS
 10
37.2499563099
 20
51.4038062486
 11
45.2407012445
 21
46.7904412531
  0
LINE
  5
316
100
AcDbEntity
  8
0
100
AcDbLine
 62
7
  6
CONTINUOUS
 10
46.1888541446
 20
46.3107492242
 11
45.3049648018
 21
46.8210514296
  0
LINE
  5
317
100
AcDbEntity
  8
0
100
AcDbLine
 62
7
  6
CONTINUOUS
 10
39.6535588368
 20
50.1095810047
 11
40.7142234245
 21
49.4972198729
  0
LWPOLYLINE
  5
318
100
AcDbEntity
  8
0
100
AcDbPolyline
 62
7
  6
CONTINUOUS
 90
5
 70
0
 10
28.0468550342
 20
57.6705035595
 10
27.6738800024
 20
57.9757163444
 10
27.2050893192
 20
58.3833005216
 10
26.7804466592
 20
58.7844089503
 10
26.6532179252
 20
58.9180931592
  0
LWPOLYLINE
  5
319
100
AcDbEntity
  8
0
100
AcDbPolyline
 62
7
  6
CONTINUOUS
 90
3
 70
0
 10
34.2616830302
 20
55.5316494891
 10
34.3830916037
 20
55.3485363659
 10
34.5192064533
 20
55.2560083684
  0
LINE
  5
31A
100
AcDbEntity
  8
0
100
AcDbLine
 62
7
  6
CONTINUOUS
 10
33.3229950109
 20
56.4789010268
 11
33.7920137618
 21
55.7051940189
  0
LWPOLYLINE
  5
31B
100
AcDbEntity
  8
0
100
AcDbPolyline
 62
7
  6
CONTINUOUS
 90
5
 70
0
 10
33.8840368483
 20
56.4887663744
 10
33.7849013302
 20
56.6961837011
 10
33.7541702485
 20
57.0880143286
 10
33.9172589275
 20
57.9856807959
 10
34.3344850449
 20
58.8504332631
  0
LWPOLYLINE
  5
31C
100
AcDbEntity
  8
0
100
AcDbPolyline
 62
7
  6
CONTINUOUS
 90
4
 70
0
 10
38.6972453684
 20
53.6884666503
 10
38.6168274937
 20
53.9382768128
 10
38.7366109829
 20
54.7555010597
 10
39.160576378
 20
55.6555506853
  0
LINE
  5
31D
100
AcDbEntity
  8
0
100
AcDbLine
 62
7
  6
CONTINUOUS
 10
39.2723656939
 20
53.334471801
 11
39.2345184845
 21
53.4793295357
  0
LINE
  5
31E
100
AcDbEntity
  8
0
100
AcDbLine
 62
7
  6
CONTINUOUS
 10
39.8288490689
 20
53.0511091551
 11
39.9618508061
 21
52.3851908964
  0
LINE
  5
31F
100
AcDbEntity
  8
0
100
AcDbLine
 62
7
  6
CONTINUOUS
 10
43.3767050134
 20
55.234869308
 11
43.3300086234
 21
55.8512387162
  0
LINE
  5
320
100
AcDbEntity
  8
0
100
AcDbLine
 62
7
  6
CONTINUOUS
 10
44.1653354238
 20
23.8999093893
 11
44.1653354238
 21
29.2403250988
  0
LINE
  5
321
100
AcDbEntity
  8
0
100
AcDbLine
 62
7
  6
CONTINUOUS
 10
44.5036061245
 20
47.2159946718
 11
44.9556438385
 21
49.6341257676
  0
LINE
  5
322
100
AcDbEntity
  8
0
100
AcDbLine
 62
7
  6
CONTINUOUS
 10
49.4601939192
 20
56.2841461318
 11
49.076738807
 21
55.2965917666
  0
LINE
  5
323
100
AcDbEntity
  8
0
100
AcDbLine
 62
7
  6
CONTINUOUS
 10
46.808697343
 20
42.6596761242
 11
43.5168361134
 21
37.239220591
  0
LINE
  5
324
100
AcDbEntity
  8
0
100
AcDbLine
 62
7
  6
CONTINUOUS
 10
48.426132237
 20
37.1564776487
 11
50.2305182931
 21
38.1982342054
  0
LWPOLYLINE
  5
325
100
AcDbEntity
  8
0
100
AcDbPolyline
 62
7
  6
CONTINUOUS
 90
4
 70
0
 10
34.5190730321
 20
55.2560861312
 10
34.7318659757
 20
55.1603213111
 10
35.6404728568
 20
55.1765612115
 10
36.0410937197
 20
55.4054677441
  0
LWPOLYLINE
  5
326
100
AcDbEntity
  8
0
100
AcDbPolyline
 62
7
  6
CONTINUOUS
 90
3
 70
0
 10
33.3763102951
 20
55.9176800839
 10
33.5532325952
 20
55.8342450513
 10
33.7187680391
 20
55.8260222989
  0
LWPOLYLINE
  5
327
100
AcDbEntity
  8
0
100
AcDbPolyline
 62
7
  6
CONTINUOUS
 90
3
 70
0
 10
32.8247900608
 20
56.2348015071
 10
32.9644056802
 20
56.1663307775
 10
33.1539115215
 20
56.1547230638
  0
LWPOLYLINE
  5
328
100
AcDbEntity
  8
0
100
AcDbPolyline
 62
7
  6
CONTINUOUS
 90
11
 70
0
 10
40.2699313465
 20
52.2051641067
 10
40.2200354314
 20
52.2335377272
 10
40.0415537419
 20
52.3376112838
 10
39.8763809573
 20
52.436213136
 10
39.7256645644
 20
52.5282148439
 10
39.6558364111
 20
52.5715149472
 10
39.5277391459
 20
52.6520988129
 10
39.4160517509
 20
52.7236414461
 10
39.3213435487
 20
52.7853318026
 10
39.2436396822
 20
52.8367439329
 10
39.1952661578
 20
52.8692296829
  0
LINE
  5
329
100
AcDbEntity
  8
0
100
AcDbLine
 62
7
  6
CONTINUOUS
 10
37.2499562964
 20
51.9724536031
 11
13.9859738995
 21
65.4036133421
  0
LINE
  5
32A
100
AcDbEntity
  8
0
100
AcDbLine
 62
7
  6
CONTINUOUS
 10
43.5667496779
 20
48.4906552241
 11
41.9941508477
 21
49.3985686048
  0
LINE
  5
32B
100
AcDbEntity
  8
0
100
AcDbLine
 62
7
  6
CONTINUOUS
 10
39.6536251033
 20
50.7498316228
 11
36.9563667496
 21
52.3070481892
  0
LINE
  5
32C
100
AcDbEntity
  8
0
100
AcDbLine
 62
7
  6
CONTINUOUS
 10
36.5203947793
 20
52.5587492447
 11
33.6855553829
 21
54.195395903
  0
LINE
  5
32D
100
AcDbEntity
  8
0
100
AcDbLine
 62
7
  6
CONTINUOUS
 10
33.2495834125
 20
54.4470969585
 11
28.7929638724
 21
57.0200509984
  0
LINE
  5
32E
100
AcDbEntity
  8
0
100
AcDbLine
 62
7
  6
CONTINUOUS
 10
28.8369146913
 20
57.213977477
 11
28.0466353743
 21
57.6702351315
  0
LINE
  5
32F
100
AcDbEntity
  8
0
100
AcDbLine
 62
7
  6
CONTINUOUS
 10
33.3763102951
 20
55.9176800839
 11
33.3751731906
 21
55.9183370189
  0
LINE
  5
330
100
AcDbEntity
  8
0
100
AcDbLine
 62
7
  6
CONTINUOUS
 10
32.8247900608
 20
56.2348015071
 11
32.8232130398
 21
56.2357144179
  0
LINE
  5
331
100
AcDbEntity
  8
0
100
AcDbLine
 62
7
  6
CONTINUOUS
 10
34.7689107795
 20
55.6889650223
 11
34.767941196
 21
55.6895274943
  0
LINE
  5
332
100
AcDbEntity
  8
0
100
AcDbLine
 62
7
  6
CONTINUOUS
 10
34.5192065269
 20
55.2560086099
 11
34.5190730321
 21
55.2560861312
  0
LINE
  5
333
100
AcDbEntity
  8
0
100
AcDbLine
 62
7
  6
CONTINUOUS
 10
38.5129055406
 20
52.1408036058
 11
38.5162072176
 21
52.1385484923
  0
LWPOLYLINE
  5
334
100
AcDbEntity
  8
0
100
AcDbPolyline
 62
7
  6
CONTINUOUS
 90
4
 70
0
 10
38.5162072176
 20
52.1385484923
 10
38.5651832517
 20
52.1020734417
 10
38.6080199887
 20
52.0727149607
 10
38.6251715584
 20
52.0611124928
  0
LWPOLYLINE
  5
335
100
AcDbEntity
  8
0
100
AcDbPolyline
 62
7
  6
CONTINUOUS
 90
10
 70
0
 10
28.9594390254
 20
57.6048577664
 10
29.0003790937
 20
57.5737387093
 10
29.0289024989
 20
57.5543955154
 10
29.0609877026
 20
57.53412726
 10
29.1480844693
 20
57.4925307827
 10
29.2719652347
 20
57.4646133017
 10
29.4150486216
 20
57.4742643492
 10
29.5594643626
 20
57.5291852896
 10
29.6853301329
 20
57.6287517767
 10
29.7214369497
 20
57.6738343575
  0
LINE
  5
336
100
AcDbEntity
  8
0
100
AcDbLine
 62
7
  6
CONTINUOUS
 10
28.9890620973
 20
57.5842912752
 11
29.0069001822
 21
57.5716403521
  0
LINE
  5
337
100
AcDbEntity
  8
0
100
AcDbLine
 62
7
  6
CONTINUOUS
 10
29.8540541143
 20
58.7956941829
 11
29.8622518941
 21
58.7898404286
  0
LINE
  5
338
100
AcDbEntity
  8
0
100
AcDbLine
 62
7
  6
CONTINUOUS
 10
28.9065970309
 20
57.6401077444
 11
28.9610917387
 21
57.6011888652
  0
LWPOLYLINE
  5
339
100
AcDbEntity
  8
0
100
AcDbPolyline
 62
7
  6
CONTINUOUS
 90
13
 70
0
 10
38.5611931206
 20
52.1071437144
 10
38.6003502043
 20
52.0791397348
 10
38.6514936813
 20
52.0419952731
 10
38.7155254838
 20
51.9947816515
 10
38.793278624
 20
51.9365650126
 10
38.8854810773
 20
51.8664279162
 10
38.9926147005
 20
51.7835765451
 10
39.0518032296
 20
51.7372289168
 10
39.1808578303
 20
51.6348670238
 10
39.3230646617
 20
51.5200822882
 10
39.4768065098
 20
51.3936426018
 10
39.6407183381
 20
51.2560332653
 10
39.6537641162
 20
51.2448224258
  0
LWPOLYLINE
  5
33A
100
AcDbEntity
  8
0
100
AcDbPolyline
 62
7
  6
CONTINUOUS
 90
11
 70
0
 10
29.7352889075
 20
58.8776664833
 10
29.7873220511
 20
58.8401633189
 10
29.8280417367
 20
58.8112967472
 10
29.8589892992
 20
58.7897698911
 10
29.8828711222
 20
58.7735805203
 10
29.9074197007
 20
58.7577822125
 10
29.9744039896
 20
58.7225112667
 10
30.0880381121
 20
58.6880075262
 10
30.2233083456
 20
58.6846586243
 10
30.3627469296
 20
58.7219644582
 10
30.491051918
 20
58.7997643339
  0
LWPOLYLINE
  5
33B
100
AcDbEntity
  8
0
100
AcDbPolyline
 62
7
  6
CONTINUOUS
 90
17
 70
0
 10
29.46162179
 20
58.4591184033
 10
29.4334312379
 20
58.4796196946
 10
29.372904587
 20
58.524279459
 10
29.3003611605
 20
58.5785904101
 10
29.2151882886
 20
58.6433121405
 10
29.1169820516
 20
58.7190864107
 10
29.0059539652
 20
58.8060744949
 10
28.8828872863
 20
58.9040075303
 10
28.7488264294
 20
59.0124472261
 10
28.6049581387
 20
59.1308854698
 10
28.4521588201
 20
59.2591392795
 10
28.2915716037
 20
59.3969113609
 10
28.1247254541
 20
59.5437123227
 10
27.9536870784
 20
59.6987532018
 10
27.7816214469
 20
59.8602720889
 10
27.6118949198
 20
60.0260918753
 10
27.4995608024
 20
60.141188109
  0
LINE
  5
33C
100
AcDbEntity
  8
0
100
AcDbLine
 62
7
  6
CONTINUOUS
 10
28.8929294113
 20
57.6500618959
 11
28.9065970309
 21
57.6401077444
  0
LWPOLYLINE
  5
33D
100
AcDbEntity
  8
0
100
AcDbPolyline
 62
7
  6
CONTINUOUS
 90
3
 70
0
 10
34.7689109129
 20
55.6889651752
 10
34.625563074
 20
55.7992200199
 10
34.4946505713
 20
56.0719875788
  0
LINE
  5
33E
100
AcDbEntity
  8
0
100
AcDbLine
 62
7
  6
CONTINUOUS
 10
38.4578910865
 20
53.0302066209
 11
38.51739549
 21
52.982715999
  0
LWPOLYLINE
  5
33F
100
AcDbEntity
  8
0
100
AcDbPolyline
 62
7
  6
CONTINUOUS
 90
20
 70
0
 10
40.1385773124
 20
52.1293751438
 10
40.0362829428
 20
52.2143444432
 10
39.8845293014
 20
52.338009895
 10
39.7454255642
 20
52.4494106634
 10
39.6198724662
 20
52.5483365208
 10
39.5084249922
 20
52.6347817607
 10
39.4112289806
 20
52.7090032556
 10
39.3275874019
 20
52.7718981512
 10
39.2564530152
 20
52.8245922068
 10
39.1968434615
 20
52.8680960118
 10
39.1479597759
 20
52.9032306666
 10
39.1091185313
 20
52.9306903328
 10
39.0791235459
 20
52.9514841425
 10
39.0550514219
 20
52.9676974912
 10
39.0240518543
 20
52.9871013922
 10
38.937359647
 20
53.0280465221
 10
38.8123063665
 20
53.0555446371
 10
38.6684461734
 20
53.044825155
 10
38.5272033396
 20
52.9904204725
 10
38.4046163088
 20
52.8941232649
  0
LINE
  5
340
100
AcDbEntity
  8
0
100
AcDbLine
 62
7
  6
CONTINUOUS
 10
34.0958109158
 20
60.4631523304
 11
34.0638475562
 21
60.5098366294
  0
LINE
  5
341
100
AcDbEntity
  8
0
100
AcDbLine
 62
7
  6
CONTINUOUS
 10
40.0349486898
 20
52.6514925065
 11
39.8383316397
 21
53.0036314518
  0
LWPOLYLINE
  5
342
100
AcDbEntity
  8
0
100
AcDbPolyline
 62
7
  6
CONTINUOUS
 90
3
 70
0
 10
35.9807356078
 20
60.4146300502
 10
35.9133140528
 20
60.5427192195
 10
35.7463713239
 20
60.6647921729
  0
LWPOLYLINE
  5
343
100
AcDbEntity
  8
0
100
AcDbPolyline
 62
7
  6
CONTINUOUS
 90
3
 70
0
 10
36.5538845717
 20
60.0864497342
 10
36.4951458303
 20
60.204954724
 10
36.3173534388
 20
60.3397541664
  0
LWPOLYLINE
  5
344
100
AcDbEntity
  8
0
100
AcDbPolyline
 62
7
  6
CONTINUOUS
 90
3
 70
0
 10
37.1325307338
 20
59.7595376428
 10
37.0991400035
 20
59.840298528
 10
36.8852971199
 20
60.0112136716
  0
LINE
  5
345
100
AcDbEntity
  8
0
100
AcDbLine
 62
7
  6
CONTINUOUS
 10
46.2897395276
 20
23.003557749
 11
46.2900526794
 21
22.9830208241
  0
LINE
  5
346
100
AcDbEntity
  8
0
100
AcDbLine
 62
7
  6
CONTINUOUS
 10
46.0038207092
 20
22.8384834276
 11
46.0038207092
 21
28.178899137
  0
LWPOLYLINE
  5
347
100
AcDbEntity
  8
0
100
AcDbPolyline
 62
7
  6
CONTINUOUS
 90
3
 70
0
 10
41.9673615482
 20
57.0463397024
 10
41.136893409
 20
57.0697265677
 10
40.2464831404
 20
56.6263899357
  0
LWPOLYLINE
  5
348
100
AcDbEntity
  8
0
100
AcDbPolyline
 62
7
  6
CONTINUOUS
 90
3
 70
0
 10
41.8429438273
 20
56.7493116104
 10
41.7431121003
 20
56.7547201838
 10
41.5477041491
 20
56.6619115935
  0
LWPOLYLINE
  5
349
100
AcDbEntity
  8
0
100
AcDbPolyline
 62
7
  6
CONTINUOUS
 90
24
 70
0
 10
25.8310102089
 20
59.1921590338
 10
25.8823759804
 20
59.1871980919
 10
26.0102892787
 20
59.1599073265
 10
26.1708570235
 20
59.1114230443
 10
26.3519053663
 20
59.0456681977
 10
26.5447141867
 20
58.9666532434
 10
26.7433862905
 20
58.8777389421
 10
26.9434266472
 20
58.7821237792
 10
27.1411317856
 20
58.6827991115
 10
27.3340946087
 20
58.5819474929
 10
27.5209940805
 20
58.4810148835
 10
27.7009517477
 20
58.3810564289
 10
27.8727532362
 20
58.2832059519
 10
28.0347227672
 20
58.1888055873
 10
28.1853977427
 20
58.0990518945
 10
28.3239611559
 20
58.0148072181
 10
28.3885967823
 20
57.974943109
 10
28.5084315054
 20
57.9000582213
 10
28.6155595259
 20
57.8319983493
 10
28.7099029273
 20
57.7711293346
 10
28.7914538567
 20
57.7177407906
 10
28.8602576768
 20
57.6720592648
 10
28.9163776641
 20
57.6342745534
 10
28.9594390254
 20
57.6048577664
  0
LINE
  5
34A
100
AcDbEntity
  8
0
100
AcDbLine
 62
7
  6
CONTINUOUS
 10
34.7654206598
 20
55.9367683277
 11
34.4604862473
 21
55.9927478466
  0
LWPOLYLINE
  5
34B
100
AcDbEntity
  8
0
100
AcDbPolyline
 62
7
  6
CONTINUOUS
 90
3
 70
0
 10
42.2148174701
 20
56.2313190676
 10
42.5310307053
 20
56.1685073763
 10
42.4827536395
 20
56.1991556845
  0
LWPOLYLINE
  5
34C
100
AcDbEntity
  8
0
100
AcDbPolyline
 62
7
  6
CONTINUOUS
 90
3
 70
0
 10
35.2810534652
 20
55.6051070995
 10
34.7096598779
 20
55.7275430529
 10
34.767941196
 20
55.6895274943
  0
LWPOLYLINE
  5
34D
100
AcDbEntity
  8
0
100
AcDbPolyline
 62
7
  6
CONTINUOUS
 90
18
 70
0
 10
43.1534450526
 20
54.0352051192
 10
43.0887706083
 20
54.063852704
 10
42.8843109172
 20
54.1604507157
 10
42.6811043923
 20
54.2614429946
 10
42.4822856291
 20
54.3644818428
 10
42.2905211673
 20
54.467531874
 10
42.1083332485
 20
54.5686183878
 10
41.9372041713
 20
54.6661967063
 10
41.7781063464
 20
54.7590625848
 10
41.6313491513
 20
54.8464913606
 10
41.496807448
 20
54.9281099
 10
41.3743065639
 20
55.003656462
 10
41.2636677794
 20
55.0729360146
 10
41.1647558325
 20
55.1357769773
 10
41.0776401353
 20
55.1919156786
 10
41.0027523963
 20
55.2408756984
 10
40.9399260306
 20
55.2825591695
 10
40.9086003428
 20
55.3036549837
  0
LWPOLYLINE
  5
34E
100
AcDbEntity
  8
0
100
AcDbPolyline
 62
7
  6
CONTINUOUS
 90
15
 70
0
 10
41.771116343
 20
53.0713213958
 10
41.6427298977
 20
53.1380682875
 10
41.4647665706
 20
53.2335799469
 10
41.2918807341
 20
53.3289583753
 10
41.1257809908
 20
53.4228695703
 10
40.9679833608
 20
53.5141112676
 10
40.8198246274
 20
53.6016054325
 10
40.6823175701
 20
53.6844613978
 10
40.5558564418
 20
53.76209439
 10
40.4406685717
 20
53.8340305198
 10
40.3369154212
 20
53.8998658931
 10
40.2447043289
 20
53.9592575672
 10
40.1640932992
 20
54.0119187761
 10
40.0951365763
 20
54.0575870424
 10
40.0503024272
 20
54.087683924
  0
LINE
  5
34F
100
AcDbEntity
  8
0
100
AcDbLine
 62
7
  6
CONTINUOUS
 10
38.1691172405
 20
54.1768805859
 11
37.8435802549
 21
54.3648252003
  0
LINE
  5
350
100
AcDbEntity
  8
0
100
AcDbLine
 62
7
  6
CONTINUOUS
 10
37.4076089006
 20
54.6165276848
 11
35.6934114249
 21
55.6061976695
  0
LINE
  5
351
100
AcDbEntity
  8
0
100
AcDbLine
 62
7
  6
CONTINUOUS
 10
32.7377829581
 20
57.3125919566
 11
32.694974204
 21
57.3373070432
  0
LINE
  5
352
100
AcDbEntity
  8
0
100
AcDbLine
 62
7
  6
CONTINUOUS
 10
32.1337241564
 20
57.6613375787
 11
30.3175620312
 21
58.7098755495
  0
LINE
  5
353
100
AcDbEntity
  8
0
100
AcDbLine
 62
7
  6
CONTINUOUS
 10
39.268226514
 20
54.1196709105
 11
39.2377456708
 21
54.1372686354
  0
LINE
  5
354
100
AcDbEntity
  8
0
100
AcDbLine
 62
7
  6
CONTINUOUS
 10
38.8146987982
 20
54.3815093357
 11
38.7718460837
 21
54.4062498023
  0
LINE
  5
355
100
AcDbEntity
  8
0
100
AcDbLine
 62
7
  6
CONTINUOUS
 10
35.3689075953
 20
56.3708928085
 11
34.772084943
 21
56.7154607323
  0
LINE
  5
356
100
AcDbEntity
  8
0
100
AcDbLine
 62
7
  6
CONTINUOUS
 10
33.8848485349
 20
57.227695323
 11
33.7895441643
 21
57.2827180823
  0
LINE
  5
357
100
AcDbEntity
  8
0
100
AcDbLine
 62
7
  6
CONTINUOUS
 10
33.3445450106
 20
57.5396326512
 11
33.2112192839
 21
57.616606554
  0
LWPOLYLINE
  5
358
100
AcDbEntity
  8
0
100
AcDbPolyline
 62
7
  6
CONTINUOUS
 90
19
 70
0
 10
40.2241175322
 20
54.5772753147
 10
40.2242702481
 20
54.5771738736
 10
40.2337942577
 20
54.5706770406
 10
40.2551957051
 20
54.5557101407
 10
40.2877644155
 20
54.532493285
 10
40.3320214774
 20
54.5004364602
 10
40.38876062
 20
54.458753472
 10
40.4588320136
 20
54.4065805339
 10
40.5431833809
 20
54.3429187295
 10
40.6422187779
 20
54.2671061174
 10
40.7559062049
 20
54.1787426952
 10
40.884067717
 20
54.0774629505
 10
41.0261860535
 20
53.9630758101
 10
41.1813193861
 20
53.8356282652
 10
41.3480814886
 20
53.6954286283
 10
41.5241827822
 20
53.5436058756
 10
41.707009061
 20
53.3816312424
 10
41.8939298169
 20
53.2108476268
 10
41.9389676064
 20
53.1681686169
  0
LINE
  5
359
100
AcDbEntity
  8
0
100
AcDbLine
 62
7
  6
CONTINUOUS
 10
40.3338291063
 20
54.4986088465
 11
40.3418857794
 21
54.4931897242
  0
LINE
  5
35A
100
AcDbEntity
  8
0
100
AcDbLine
 62
7
  6
CONTINUOUS
 10
39.4728090727
 20
53.2845457795
 11
39.4823693917
 21
53.2781016551
  0
LWPOLYLINE
  5
35B
100
AcDbEntity
  8
0
100
AcDbPolyline
 62
7
  6
CONTINUOUS
 90
3
 70
0
 10
39.3677380421
 20
53.3593898852
 10
39.3801072212
 20
53.3509556282
 10
39.4264662604
 20
53.3162045898
  0
LINE
  5
35C
100
AcDbEntity
  8
0
100
AcDbLine
 62
7
  6
CONTINUOUS
 10
39.4264662604
 20
53.3162045898
 11
39.4728090727
 21
53.2845457795
  0
LWPOLYLINE
  5
35D
100
AcDbEntity
  8
0
100
AcDbPolyline
 62
7
  6
CONTINUOUS
 90
14
 70
0
 10
39.4025705295
 20
53.3352927684
 10
39.4356164554
 20
53.3118393009
 10
39.4797795357
 20
53.2799972593
 10
39.5356008713
 20
53.2391397146
 10
39.6036404384
 20
53.1885924704
 10
39.6843963882
 20
53.1276874834
 10
39.7782329387
 20
53.0558157057
 10
39.8851310658
 20
52.9726488112
 10
39.9432143425
 20
52.9269337402
 10
40.0679269263
 20
52.8275921862
 10
40.2033455843
 20
52.7179256526
 10
40.3487880416
 20
52.5980270428
 10
40.5034138298
 20
52.4680257103
 10
40.5926105712
 20
52.3913443331
  0
LWPOLYLINE
  5
35E
100
AcDbEntity
  8
0
100
AcDbPolyline
 62
7
  6
CONTINUOUS
 90
12
 70
0
 10
30.6015607758
 20
60.0882016778
 10
30.6504311371
 20
60.0529182093
 10
30.6890195296
 20
60.0254706208
 10
30.718670142
 20
60.0047782154
 10
30.7431524827
 20
59.9882218143
 10
30.7781733184
 20
59.9665623891
 10
30.8726302728
 20
59.9242024754
 10
30.9986715632
 20
59.9005293923
 10
31.1398297846
 20
59.9151277092
 10
31.2781473427
 20
59.9721412002
 10
31.3974058923
 20
60.0700230974
 10
31.4295221433
 20
60.1106602691
  0
LWPOLYLINE
  5
35F
100
AcDbEntity
  8
0
100
AcDbPolyline
 62
7
  6
CONTINUOUS
 90
17
 70
0
 10
30.3155420095
 20
59.6783933854
 10
30.3067928276
 20
59.6847242764
 10
30.2520113638
 20
59.7249199659
 10
30.1859760957
 20
59.7740553458
 10
30.1081875593
 20
59.832769137
 10
30.0182027894
 20
59.9016990049
 10
29.9152921036
 20
59.981744354
 10
29.7990955263
 20
60.0735321002
 10
29.6696333568
 20
60.1774507218
 10
29.5272346158
 20
60.2937340717
 10
29.372820234
 20
60.4222409711
 10
29.2077629595
 20
60.5625782003
 10
29.0338029415
 20
60.7141987159
 10
28.8536120104
 20
60.8759418569
 10
28.6708420791
 20
61.0459542439
 10
28.4898382479
 20
61.2215347117
 10
28.3556847262
 20
61.358308204
  0
LWPOLYLINE
  5
360
100
AcDbEntity
  8
0
100
AcDbPolyline
 62
7
  6
CONTINUOUS
 90
12
 70
0
 10
31.4552849987
 20
61.3076882524
 10
31.498756957
 20
61.2761456544
 10
31.5448465042
 20
61.2433292603
 10
31.5771622736
 20
61.2208462744
 10
31.6033425548
 20
61.2033412282
 10
31.6500488896
 20
61.1759226633
 10
31.748513644
 20
61.1366103651
 10
31.8735923751
 20
61.1191034926
 10
32.0113172444
 20
61.1388903218
 10
32.1437615573
 20
61.1982066146
 10
32.2564597651
 20
61.2947182849
 10
32.283712903
 20
61.3297797326
  0
LWPOLYLINE
  5
361
100
AcDbEntity
  8
0
100
AcDbPolyline
 62
7
  6
CONTINUOUS
 90
17
 70
0
 10
31.1681056499
 20
60.8987796391
 10
31.1132749405
 20
60.9390737199
 10
31.0471383945
 20
60.9882882359
 10
30.9706869652
 20
61.0458990871
 10
30.8838431473
 20
61.112197548
 10
30.7865085453
 20
61.1875288291
 10
30.6785940257
 20
61.2722783547
 10
30.5600632426
 20
61.3668482721
 10
30.4311203082
 20
61.4715162662
 10
30.2922293322
 20
61.5864134809
 10
30.1443852087
 20
61.7112018681
 10
29.9891662519
 20
61.845041507
 10
29.8284267095
 20
61.9869158993
 10
29.6641070366
 20
62.1358235762
 10
29.4987303257
 20
62.2903647788
 10
29.3354915597
 20
62.4486660463
 10
29.2088542999
 20
62.5773077173
  0
LWPOLYLINE
  5
362
100
AcDbEntity
  8
0
100
AcDbPolyline
 62
7
  6
CONTINUOUS
 90
24
 70
0
 10
41.4977448619
 20
52.9135908686
 10
41.4880503334
 20
52.9223848789
 10
41.3188047339
 20
53.071576047
 10
41.1535250932
 20
53.2136841091
 10
40.9943638534
 20
53.3475674387
 10
40.8430064242
 20
53.4724231368
 10
40.7707138446
 20
53.5312541245
 10
40.6337039166
 20
53.6413656818
 10
40.5077060435
 20
53.7410282231
 10
40.393612467
 20
53.8299068173
 10
40.2920950154
 20
53.9078004503
 10
40.2035223796
 20
53.974720246
 10
40.1276322535
 20
54.0311825223
 10
40.0638631638
 20
54.0779036596
 10
40.0115417321
 20
54.1156388838
 10
39.9699478007
 20
54.1451347837
 10
39.9379743202
 20
54.1673649015
 10
39.9129703344
 20
54.1842715922
 10
39.8848743541
 20
54.2021155746
 10
39.804238071
 20
54.2419852329
 10
39.6790868371
 20
54.2728103861
 10
39.5334844443
 20
54.2652411629
 10
39.3889397766
 20
54.2123040409
 10
39.2626539939
 20
54.1153946615
  0
LWPOLYLINE
  5
363
100
AcDbEntity
  8
0
100
AcDbPolyline
 62
7
  6
CONTINUOUS
 90
3
 70
0
 10
40.5575900911
 20
52.3711381332
 10
40.4613659975
 20
52.4621251619
 10
40.4485258948
 20
52.5141726355
  0
LWPOLYLINE
  5
364
100
AcDbEntity
  8
0
100
AcDbPolyline
 62
7
  6
CONTINUOUS
 90
3
 70
0
 10
36.8323175349
 20
59.2687930526
 10
36.8987050066
 20
59.1664844996
 10
36.8905045554
 20
58.664991048
  0
LINE
  5
365
100
AcDbEntity
  8
0
100
AcDbLine
 62
7
  6
CONTINUOUS
 10
42.3240893329
 20
56.5900001646
 11
42.3227098206
 21
56.5938302738
  0
LINE
  5
366
100
AcDbEntity
  8
0
100
AcDbLine
 62
7
  6
CONTINUOUS
 10
48.1793670851
 20
20.8866535194
 11
48.1308757006
 21
24.066531869
  0
LINE
  5
367
100
AcDbEntity
  8
0
100
AcDbLine
 62
7
  6
CONTINUOUS
 10
48.4261367841
 20
37.7294974202
 11
48.426132237
 21
37.1564776487
  0
LINE
  5
368
100
AcDbEntity
  8
0
100
AcDbLine
 62
7
  6
CONTINUOUS
 10
50.1156838864
 20
45.3040424058
 11
48.4261367841
 21
37.7294974202
  0
LINE
  5
369
100
AcDbEntity
  8
0
100
AcDbLine
 62
7
  6
CONTINUOUS
 10
44.1653354238
 20
29.2403250988
 11
50.1054319187
 21
32.6698209378
  0
LWPOLYLINE
  5
36A
100
AcDbEntity
  8
0
100
AcDbPolyline
 62
7
  6
CONTINUOUS
 90
24
 70
0
 10
26.687868361
 20
60.4111744641
 10
26.6936241996
 20
60.4107317632
 10
26.7891110547
 20
60.396731708
 10
26.937361671
 20
60.3582068614
 10
27.113231759
 20
60.2993669686
 10
27.305510228
 20
60.2247029507
 10
27.5078374434
 20
60.1376260357
 10
27.7153311176
 20
60.0411139086
 10
27.9239781481
 20
59.9381896763
 10
28.1307495193
 20
59.8314286176
 10
28.3335454393
 20
59.7227613355
 10
28.5295871425
 20
59.6143666797
 10
28.716387611
 20
59.5082140147
 10
28.891816049
 20
59.4060292786
 10
29.0540500537
 20
59.3093219036
 10
29.2018962996
 20
59.2192410522
 10
29.2703129485
 20
59.1769099876
 10
29.3960331787
 20
59.0980240958
 10
29.5068793462
 20
59.0272320399
 10
29.6026552902
 20
58.9650495665
 10
29.6825122889
 20
58.9123937193
 10
29.7461662376
 20
58.86980089
 10
29.7948881053
 20
58.8367305265
 10
29.8305596597
 20
58.8121575875
  0
LWPOLYLINE
  5
36B
100
AcDbEntity
  8
0
100
AcDbPolyline
 62
7
  6
CONTINUOUS
 90
5
 70
0
 10
41.6074487206
 20
57.2849415828
 10
41.3773328617
 20
57.3857990899
 10
40.484840154
 20
57.3742499807
 10
39.5432708986
 20
56.841871809
 10
38.75173146
 20
55.9427136152
  0
LWPOLYLINE
  5
36C
100
AcDbEntity
  8
0
100
AcDbPolyline
 62
7
  6
CONTINUOUS
 90
18
 70
0
 10
44.0023785724
 20
55.2565197217
 10
43.8996223041
 20
55.3028247041
 10
43.7082683694
 20
55.3940838978
 10
43.5162347999
 20
55.4900192825
 10
43.3262998297
 20
55.5887489612
 10
43.1408475567
 20
55.688603444
 10
42.9618141555
 20
55.7880418625
 10
42.7907185622
 20
55.8856437842
 10
42.6288377605
 20
55.9801667201
 10
42.4772525053
 20
56.0705274848
 10
42.3368788113
 20
56.1557815177
 10
42.271144282
 20
56.1962315079
 10
42.1488906617
 20
56.272386736
 10
42.0397033883
 20
56.3414876739
 10
41.9445369394
 20
56.4026575725
 10
41.8638729957
 20
56.4553250894
 10
41.7972291232
 20
56.499523166
 10
41.7612809701
 20
56.5237372673
  0
LWPOLYLINE
  5
36D
100
AcDbEntity
  8
0
100
AcDbPolyline
 62
7
  6
CONTINUOUS
 90
6
 70
0
 10
41.0322954067
 20
57.6133260588
 10
40.8264534895
 20
57.707478598
 10
39.8926954342
 20
57.6916016543
 10
39.4062905959
 20
57.4718447636
 10
38.517939372
 20
56.7129006296
 10
37.909219778
 20
55.7758994895
  0
LINE
  5
36E
100
AcDbEntity
  8
0
100
AcDbLine
 62
7
  6
CONTINUOUS
 10
36.8852971199
 20
60.0112136716
 11
36.8858797135
 21
60.010879109
  0
LINE
  5
36F
100
AcDbEntity
  8
0
100
AcDbLine
 62
7
  6
CONTINUOUS
 10
41.6074487319
 20
57.2849414437
 11
41.6079311522
 21
57.2846638033
  0
LINE
  5
370
100
AcDbEntity
  8
0
100
AcDbLine
 62
7
  6
CONTINUOUS
 10
36.3172906187
 20
60.3397903659
 11
36.3173534388
 21
60.3397541664
  0
LINE
  5
371
100
AcDbEntity
  8
0
100
AcDbLine
 62
7
  6
CONTINUOUS
 10
35.7463713239
 20
60.6647921729
 11
35.7469775876
 21
60.6644425105
  0
LINE
  5
372
100
AcDbEntity
  8
0
100
AcDbLine
 62
7
  6
CONTINUOUS
 10
37.4417120167
 20
59.6863027438
 11
37.4431934544
 21
59.6854479891
  0
LINE
  5
373
100
AcDbEntity
  8
0
100
AcDbLine
 62
7
  6
CONTINUOUS
 10
27.706000269
 20
63.2689982353
 11
26.9047861651
 21
63.7315707754
  0
LINE
  5
374
100
AcDbEntity
  8
0
100
AcDbLine
 62
7
  6
CONTINUOUS
 10
40.7184266736
 20
56.1922452991
 11
40.6088465039
 21
56.2555100083
  0
LINE
  5
375
100
AcDbEntity
  8
0
100
AcDbLine
 62
7
  6
CONTINUOUS
 10
40.1439098315
 20
56.5239352487
 11
40.0318247053
 21
56.5886461625
  0
LINE
  5
376
100
AcDbEntity
  8
0
100
AcDbLine
 62
7
  6
CONTINUOUS
 10
36.6165038262
 20
58.5604379835
 11
36.0653108427
 21
58.8786622017
  0
LINE
  5
377
100
AcDbEntity
  8
0
100
AcDbLine
 62
7
  6
CONTINUOUS
 10
35.6406437651
 20
59.1238383067
 11
35.5150958666
 21
59.1963217799
  0
LINE
  5
378
100
AcDbEntity
  8
0
100
AcDbLine
 62
7
  6
CONTINUOUS
 10
35.0447334096
 20
59.4678795276
 11
34.9508167794
 21
59.5221010927
  0
LINE
  5
379
100
AcDbEntity
  8
0
100
AcDbLine
 62
7
  6
CONTINUOUS
 10
34.4780347407
 20
59.7950557549
 11
34.3749469041
 21
59.8545721987
  0
LINE
  5
37A
100
AcDbEntity
  8
0
100
AcDbLine
 62
7
  6
CONTINUOUS
 10
51.9491309285
 20
50.2856888638
 11
50.8894575495
 21
50.8974777339
  0
LINE
  5
37B
100
AcDbEntity
  8
0
100
AcDbLine
 62
7
  6
CONTINUOUS
 10
39.4600177459
 20
57.4961185999
 11
37.4533815629
 21
58.6546243314
  0
LINE
  5
37C
100
AcDbEntity
  8
0
100
AcDbLine
 62
7
  6
CONTINUOUS
 10
34.3606851996
 20
60.4401530153
 11
34.1520714665
 21
60.5605934855
  0
LINE
  5
37D
100
AcDbEntity
  8
0
100
AcDbLine
 62
7
  6
CONTINUOUS
 10
33.7031080863
 20
60.81979675
 11
32.3686378578
 21
61.5902360659
  0
LINE
  5
37E
100
AcDbEntity
  8
0
100
AcDbLine
 62
7
  6
CONTINUOUS
 10
50.6448348759
 20
51.3454840426
 11
49.7609472822
 21
51.8557852382
  0
LINE
  5
37F
100
AcDbEntity
  8
0
100
AcDbLine
 62
7
  6
CONTINUOUS
 10
28.6337907658
 20
64.7432921174
 11
28.0825226222
 21
65.0615609848
  0
LINE
  5
380
100
AcDbEntity
  8
0
100
AcDbLine
 62
7
  6
CONTINUOUS
 10
42.4806485142
 20
56.200372641
 11
42.4827536139
 21
56.1991556801
  0
LINE
  5
381
100
AcDbEntity
  8
0
100
AcDbLine
 62
7
  6
CONTINUOUS
 10
41.032298347
 20
57.6133245923
 11
41.0331249033
 21
57.6128463717
  0
LINE
  5
382
100
AcDbEntity
  8
0
100
AcDbLine
 62
7
  6
CONTINUOUS
 10
37.1938663028
 20
59.2528680005
 11
37.1944291265
 21
59.2525423605
  0
LWPOLYLINE
  5
383
100
AcDbEntity
  8
0
100
AcDbPolyline
 62
7
  6
CONTINUOUS
 90
4
 70
0
 10
37.1938663028
 20
59.2528680005
 10
37.2013474066
 20
59.2484509535
 10
37.4784589715
 20
58.7864609418
 10
37.4702266032
 20
58.6533422834
  0
LINE
  5
384
100
AcDbEntity
  8
0
100
AcDbLine
 62
7
  6
CONTINUOUS
 10
43.2535465447
 20
55.9616868106
 11
42.3240879842
 21
56.5900010763
  0
LINE
  5
385
100
AcDbEntity
  8
0
100
AcDbLine
 62
7
  6
CONTINUOUS
 10
41.1478321373
 20
55.7451315349
 11
41.2035440319
 21
55.7071517507
  0
LWPOLYLINE
  5
386
100
AcDbEntity
  8
0
100
AcDbPolyline
 62
7
  6
CONTINUOUS
 90
21
 70
0
 10
41.0781909609
 20
55.7964235809
 10
41.0902964905
 20
55.7881315076
 10
41.1155794511
 20
55.7703628239
 10
41.1538414063
 20
55.742953306
 10
41.2053327734
 20
55.7054793544
 10
41.2697993168
 20
55.6578920746
 10
41.3467861849
 20
55.6002793991
 10
41.4356741215
 20
55.5328380228
 10
41.536216407
 20
55.4554588861
 10
41.6483876706
 20
55.367817461
 10
41.7088309273
 20
55.3200261558
 10
41.8384117165
 20
55.216226278
 10
41.9794737411
 20
55.1010976312
 10
42.131340156
 20
54.9745476189
 10
42.292786391
 20
54.836952661
 10
42.461910556
 20
54.6892935639
 10
42.6362706882
 20
54.5329292918
 10
42.8130931275
 20
54.3693846321
 10
42.9891078834
 20
54.2004433558
 10
43.1597378692
 20
54.0288777989
 10
43.2547129361
 20
53.927330486
  0
LWPOLYLINE
  5
387
100
AcDbEntity
  8
0
100
AcDbPolyline
 62
7
  6
CONTINUOUS
 90
17
 70
0
 10
32.0219394235
 20
62.1181127883
 10
32.0115456579
 20
62.1256761236
 10
31.9482368741
 20
62.1723874832
 10
31.8718327238
 20
62.2295308237
 10
31.7821144898
 20
62.2975690188
 10
31.678928185
 20
62.3769711388
 10
31.5623720615
 20
62.4680766693
 10
31.4327773603
 20
62.5711138176
 10
31.2907089056
 20
62.6862047243
 10
31.137057219
 20
62.8132955076
 10
30.9733522564
 20
62.9518019116
 10
30.8012565167
 20
63.1009612545
 10
30.622849424
 20
63.2597638115
 10
30.4408384109
 20
63.4268130272
 10
30.2585725327
 20
63.6003588352
 10
30.0810658921
 20
63.7773608094
 10
29.9569862599
 20
63.9088838597
  0
LWPOLYLINE
  5
388
100
AcDbEntity
  8
0
100
AcDbPolyline
 62
7
  6
CONTINUOUS
 90
3
 70
0
 10
42.4806485142
 20
56.200372641
 10
42.6129033153
 20
56.1026652103
 10
42.6940086501
 20
55.9421131415
  0
LWPOLYLINE
  5
389
100
AcDbEntity
  8
0
100
AcDbPolyline
 62
7
  6
CONTINUOUS
 90
26
 70
0
 10
42.832161318
 20
53.6835256486
 10
42.6878264762
 20
53.8228310748
 10
42.5267998664
 20
53.9733056913
 10
42.3644650057
 20
54.1208179958
 10
42.2028875458
 20
54.2640321252
 10
42.0440136234
 20
54.401687296
 10
41.8896494425
 20
54.5326186668
 10
41.741444346
 20
54.6557756057
 10
41.6007772761
 20
54.7704079147
 10
41.4687111672
 20
54.8761133015
 10
41.346179651
 20
54.9725690883
 10
41.2339952949
 20
55.0595182731
 10
41.1327762855
 20
55.1368249911
 10
41.0433657794
 20
55.2041570002
 10
40.9664558046
 20
55.2612808228
 10
40.9023684884
 20
55.3082192822
 10
40.8509608415
 20
55.3453089207
 10
40.8114863846
 20
55.3732856327
 10
40.782161414
 20
55.3935843433
 10
40.7575364072
 20
55.4099548183
 10
40.7106811451
 20
55.4372884775
 10
40.5954057843
 20
55.480621866
 10
40.4462252244
 20
55.4915470286
 10
40.287497971
 20
55.4507583523
 10
40.139475648
 20
55.3533107277
 10
40.0785427987
 20
55.2829927473
  0
LWPOLYLINE
  5
38A
100
AcDbEntity
  8
0
100
AcDbPolyline
 62
7
  6
CONTINUOUS
 90
25
 70
0
 10
44.1305402769
 20
54.4326674278
 10
44.0280380182
 20
54.5510234934
 10
43.7977431963
 20
54.7924506792
 10
43.5611064465
 20
55.0240490268
 10
43.3277676011
 20
55.2413656256
 10
43.1034169669
 20
55.4424516228
 10
42.891053801
 20
55.6268787045
 10
42.6932214915
 20
55.7940198721
 10
42.5130206853
 20
55.9424726377
 10
42.3521882739
 20
56.0719748556
 10
42.2107166145
 20
56.183633537
 10
42.1469904335
 20
56.233247714
 10
42.0328216737
 20
56.321059905
 10
41.9351967901
 20
56.3950132283
 10
41.8527466303
 20
56.456590528
 10
41.7841951222
 20
56.5070904301
 10
41.7283913501
 20
56.5476311538
 10
41.6841492982
 20
56.5792835413
 10
41.6502753725
 20
56.6030558729
 10
41.6245054333
 20
56.6206296682
 10
41.5939063339
 20
56.6401084512
 10
41.4978771682
 20
56.6854253031
 10
41.3584498859
 20
56.7121442065
 10
41.2022727336
 20
56.6918324295
 10
41.0509041167
 20
56.618946673
  0
LINE
  5
38B
100
AcDbEntity
  8
0
100
AcDbLine
 62
7
  6
CONTINUOUS
 10
41.2116259922
 20
57.3836547959
 11
41.0331249033
 21
57.6128463717
  0
LWPOLYLINE
  5
38C
100
AcDbEntity
  8
0
100
AcDbPolyline
 62
7
  6
CONTINUOUS
 90
3
 70
0
 10
41.9162593465
 20
56.9243410889
 10
41.7294424826
 20
57.2037124597
 10
41.6079311522
 20
57.2846638033
  0
LINE
  5
38D
100
AcDbEntity
  8
0
100
AcDbLine
 62
7
  6
CONTINUOUS
 10
50.2305182931
 20
38.1982342054
 11
50.2305182903
 21
32.5976039213
  0
LINE
  5
38E
100
AcDbEntity
  8
0
100
AcDbLine
 62
7
  6
CONTINUOUS
 10
51.0013477891
 20
25.7237898095
 11
51.0013477891
 21
22.515915113
  0
LINE
  5
38F
100
AcDbEntity
  8
0
100
AcDbLine
 62
7
  6
CONTINUOUS
 10
51.4763558297
 20
35.0044874833
 11
51.4763558297
 21
31.8783355545
  0
LINE
  5
390
100
AcDbEntity
  8
0
100
AcDbLine
 62
7
  6
CONTINUOUS
 10
51.0440143369
 20
56.787359198
 11
51.0435347831
 21
50.808523214
  0
LINE
  5
391
100
AcDbEntity
  8
0
100
AcDbLine
 62
7
  6
CONTINUOUS
 10
46.0038207092
 20
28.178899137
 11
51.9439172041
 21
31.6083949761
  0
LINE
  5
392
100
AcDbEntity
  8
0
100
AcDbLine
 62
7
  6
CONTINUOUS
 10
30.0710152752
 20
17.9437247417
 11
31.2749302009
 21
18.6388012933
  0
LINE
  5
393
100
AcDbEntity
  8
0
100
AcDbLine
 62
7
  6
CONTINUOUS
 10
23.9544850017
 20
61.7588761769
 11
20.4925614688
 21
61.6471190537
  0
LWPOLYLINE
  5
394
100
AcDbEntity
  8
0
100
AcDbPolyline
 62
7
  6
CONTINUOUS
 90
27
 70
0
 10
28.4011882741
 20
62.8467198863
 10
28.4538424721
 20
62.8423387598
 10
28.5827277771
 20
62.8150702937
 10
28.7495172559
 20
62.7635127613
 10
28.9396719128
 20
62.6924680736
 10
29.1417927179
 20
62.6077428502
 10
29.3488614353
 20
62.5137670782
 10
29.5563906008
 20
62.4137785543
 10
29.7613308758
 20
62.310173425
 10
29.9607173846
 20
62.2051822295
 10
30.1513857713
 20
62.1011506365
 10
30.3309964643
 20
62.0001741659
 10
30.4982995052
 20
61.9037086226
 10
30.653185811
 20
61.8124338897
 10
30.795782551
 20
61.7267698723
 10
30.9262798716
 20
61.6470023781
 10
31.0448576267
 20
61.5733485994
 10
31.1514495545
 20
61.5061230235
 10
31.2455037689
 20
61.4459136482
 10
31.3266330394
 20
61.3931913828
 10
31.3951853192
 20
61.3479681098
 10
31.4517544604
 20
61.3100884671
 10
31.4969565074
 20
61.2793581334
 10
31.5313720263
 20
61.2555850894
 10
31.5553944178
 20
61.2386929569
 10
31.5688215569
 20
61.2290413424
 10
31.5695967131
 20
61.2284734947
  0
LWPOLYLINE
  5
395
100
AcDbEntity
  8
0
100
AcDbPolyline
 62
7
  6
CONTINUOUS
 90
24
 70
0
 10
27.5466578426
 20
61.6280237414
 10
27.6066289658
 20
61.6227336986
 10
27.7405295235
 20
61.5930455362
 10
27.9171165121
 20
61.5369271369
 10
28.1185523585
 20
61.4601657995
 10
28.3346381221
 20
61.3680236499
 10
28.5596566897
 20
61.2641515143
 10
28.7877407503
 20
61.1522328155
 10
29.0138349402
 20
61.035584848
 10
29.2337604465
 20
60.9171344935
 10
29.4442158032
 20
60.7996443293
 10
29.6425732299
 20
60.6855391708
 10
29.8267201785
 20
60.5768545314
 10
29.9950415919
 20
60.4752453678
 10
30.1459175707
 20
60.3822969654
 10
30.214257712
 20
60.339583711
 10
30.335981515
 20
60.2624696866
 10
30.4375820506
 20
60.1969391223
 10
30.5205527454
 20
60.1424841513
 10
30.5868070616
 20
60.0982653309
 10
30.6380900414
 20
60.0634687358
 10
30.6758537597
 20
60.0374087643
 10
30.7013066207
 20
60.0195175676
 10
30.7158185966
 20
60.0090750114
  0
LINE
  5
396
100
AcDbEntity
  8
0
100
AcDbLine
 62
7
  6
CONTINUOUS
 10
42.5184413437
 20
60.0902090521
 11
42.3950788366
 21
60.1037721586
  0
LINE
  5
397
100
AcDbEntity
  8
0
100
AcDbLine
 62
7
  6
CONTINUOUS
 10
42.2127975011
 20
60.4858610539
 11
42.3361600082
 21
60.4722979474
  0
LINE
  5
398
100
AcDbEntity
  8
0
100
AcDbLine
 62
7
  6
CONTINUOUS
 10
29.6793009529
 20
63.8966016232
 11
29.1840775864
 21
64.0897049104
  0
LWPOLYLINE
  5
399
100
AcDbEntity
  8
0
100
AcDbPolyline
 62
7
  6
CONTINUOUS
 90
3
 70
0
 10
36.3172905152
 20
60.3397904139
 10
36.1250182104
 20
60.4223906242
 10
35.3461566496
 20
60.3804977507
  0
LWPOLYLINE
  5
39A
100
AcDbEntity
  8
0
100
AcDbPolyline
 62
7
  6
CONTINUOUS
 90
3
 70
0
 10
36.885879729
 20
60.0108789675
 10
36.700255126
 20
60.0918054352
 10
35.9381439383
 20
60.0639197741
  0
LWPOLYLINE
  5
39B
100
AcDbEntity
  8
0
100
AcDbPolyline
 62
7
  6
CONTINUOUS
 90
6
 70
0
 10
37.4431965933
 20
59.6854464075
 10
37.2540138817
 20
59.7687907802
 10
36.4176079894
 20
59.7050833541
 10
35.9794083955
 20
59.4648988326
 10
35.1685291401
 20
58.6485240386
 10
34.6382782475
 20
57.6639153469
  0
LWPOLYLINE
  5
39C
100
AcDbEntity
  8
0
100
AcDbPolyline
 62
7
  6
CONTINUOUS
 90
3
 70
0
 10
35.7469775469
 20
60.6644425599
 10
35.5904233832
 20
60.7367500189
 10
34.8065556284
 20
60.7175424789
  0
LINE
  5
39D
100
AcDbEntity
  8
0
100
AcDbLine
 62
7
  6
CONTINUOUS
 10
46.5420506476
 20
55.8240664161
 11
44.969218915
 21
56.7321206973
  0
LINE
  5
39E
100
AcDbEntity
  8
0
100
AcDbLine
 62
7
  6
CONTINUOUS
 10
44.2621091899
 20
57.1403614518
 11
43.8037484554
 21
57.4049901586
  0
LINE
  5
39F
100
AcDbEntity
  8
0
100
AcDbLine
 62
7
  6
CONTINUOUS
 10
42.9656347644
 20
57.888864377
 11
31.7462670548
 21
64.3662228068
  0
LINE
  5
3A0
100
AcDbEntity
  8
0
100
AcDbLine
 62
7
  6
CONTINUOUS
 10
31.0391573296
 20
64.7744635614
 11
30.5956292805
 21
65.030528807
  0
LINE
  5
3A1
100
AcDbEntity
  8
0
100
AcDbLine
 62
7
  6
CONTINUOUS
 10
29.7169777922
 20
65.5378070041
 11
28.0339409978
 21
66.5094867681
  0
LINE
  5
3A2
100
AcDbEntity
  8
0
100
AcDbLine
 62
7
  6
CONTINUOUS
 10
44.779537143
 20
57.130304544
 11
44.387107069
 21
57.3568690273
  0
LINE
  5
3A3
100
AcDbEntity
  8
0
100
AcDbLine
 62
7
  6
CONTINUOUS
 10
31.5565852828
 20
64.7644066535
 11
31.1641552088
 21
64.9909711368
  0
LINE
  5
3A4
100
AcDbEntity
  8
0
100
AcDbLine
 62
7
  6
CONTINUOUS
 10
49.73532091
 20
55.0645782922
 11
49.8767428551
 21
54.9829301413
  0
LINE
  5
3A5
100
AcDbEntity
  8
0
100
AcDbLine
 62
7
  6
CONTINUOUS
 10
43.8135885851
 20
56.7901509999
 11
43.540537409
 21
56.9747336769
  0
LINE
  5
3A6
100
AcDbEntity
  8
0
100
AcDbLine
 62
7
  6
CONTINUOUS
 10
43.8135885851
 20
56.7901509999
 11
43.8144253288
 21
56.789514353
  0
LWPOLYLINE
  5
3A7
100
AcDbEntity
  8
0
100
AcDbPolyline
 62
7
  6
CONTINUOUS
 90
6
 70
0
 10
43.2542180126
 20
55.9630787132
 10
43.6692617375
 20
55.5870193935
 10
44.0716914977
 20
55.1877513597
 10
44.3533773187
 20
54.8648419156
 10
44.4456377187
 20
54.7404854838
 10
44.5003924326
 20
54.6460656041
  0
LWPOLYLINE
  5
3A8
100
AcDbEntity
  8
0
100
AcDbPolyline
 62
7
  6
CONTINUOUS
 90
6
 70
0
 10
45.3529959926
 20
55.1380028337
 10
45.2924169187
 20
55.2601317256
 10
45.1270377873
 20
55.4844859201
 10
44.6697542678
 20
55.9937384594
 10
44.066287529
 20
56.5653463466
 10
43.8130438319
 20
56.7878918949
  0
LINE
  5
3A9
100
AcDbEntity
  8
0
100
AcDbLine
 62
7
  6
CONTINUOUS
 10
51.9439172041
 20
31.6083949761
 11
51.9439172041
 21
26.2679792666
  0
LINE
  5
3AA
100
AcDbEntity
  8
0
100
AcDbLine
 62
7
  6
CONTINUOUS
 10
51.9439172041
 20
26.2679792666
 11
51.0013477891
 21
25.7237898095
  0
LINE
  5
3AB
100
AcDbEntity
  8
0
100
AcDbLine
 62
7
  6
CONTINUOUS
 10
48.1308757006
 20
24.066531869
 11
46.0038207092
 21
22.8384834276
  0
LINE
  5
3AC
100
AcDbEntity
  8
0
100
AcDbLine
 62
7
  6
CONTINUOUS
 10
46.2900526794
 20
22.9830208241
 11
42.3890041417
 21
20.7315735208
  0
LINE
  5
3AD
100
AcDbEntity
  8
0
100
AcDbLine
 62
7
  6
CONTINUOUS
 10
34.9222012745
 20
16.4221902829
 11
30.1418591972
 21
13.663268374
  0
LINE
  5
3AE
100
AcDbEntity
  8
0
100
AcDbLine
 62
7
  6
CONTINUOUS
 10
29.0185560622
 20
64.8327398094
 11
28.6552077214
 21
64.7803584743
  0
LWPOLYLINE
  5
3AF
100
AcDbEntity
  8
0
100
AcDbPolyline
 62
7
  6
CONTINUOUS
 90
4
 70
0
 10
29.4392032398
 20
65.0423714529
 10
29.1121053826
 20
65.0486418984
 10
28.9022900204
 20
64.9848244083
 10
28.6551096904
 20
64.7802182676
  0
LINE
  5
3B0
100
AcDbEntity
  8
0
100
AcDbLine
 62
7
  6
CONTINUOUS
 10
34.5907513712
 20
64.6671594474
 11
34.4673888641
 21
64.6807225538
  0
LINE
  5
3B1
100
AcDbEntity
  8
0
100
AcDbLine
 62
7
  6
CONTINUOUS
 10
34.2851075286
 20
65.0628114491
 11
34.4084700357
 21
65.0492483427
  0
LINE
  5
3B2
100
AcDbEntity
  8
0
100
AcDbLine
 62
7
  6
CONTINUOUS
 10
48.3995291378
 20
56.8957987724
 11
49.4601937256
 21
56.2834376406
  0
LINE
  5
3B3
100
AcDbEntity
  8
0
100
AcDbLine
 62
7
  6
CONTINUOUS
 10
28.4589686839
 20
68.4089025054
 11
27.3983040962
 21
69.0212636372
  0
LINE
  5
3B4
100
AcDbEntity
  8
0
100
AcDbLine
 62
7
  6
CONTINUOUS
 10
49.8944739869
 20
56.1998534136
 11
45.9700150123
 21
58.4655896012
  0
LINE
  5
3B5
100
AcDbEntity
  8
0
100
AcDbLine
 62
7
  6
CONTINUOUS
 10
44.5795184171
 20
59.2683750233
 11
42.9234663689
 21
60.2244754893
  0
LINE
  5
3B6
100
AcDbEntity
  8
0
100
AcDbLine
 62
7
  6
CONTINUOUS
 10
42.3594863122
 20
60.5500821606
 11
34.9957762904
 21
64.8014259457
  0
LINE
  5
3B7
100
AcDbEntity
  8
0
100
AcDbLine
 62
7
  6
CONTINUOUS
 10
34.4317961379
 20
65.1270326724
 11
32.7470631521
 21
66.0996917107
  0
LINE
  5
3B8
100
AcDbEntity
  8
0
100
AcDbLine
 62
7
  6
CONTINUOUS
 10
31.3596759646
 20
66.9006819561
 11
28.1154944523
 21
68.7736686529
  0
LINE
  5
3B9
100
AcDbEntity
  8
0
100
AcDbLine
 62
7
  6
CONTINUOUS
 10
30.0420330152
 20
68.9108950328
 11
28.9813684275
 21
69.5232561646
  0
LINE
  5
3BA
100
AcDbEntity
  8
0
100
AcDbLine
 62
7
  6
CONTINUOUS
 10
49.9833254846
 20
57.3997397246
 11
51.0439900723
 21
56.7873785928
  0
LINE
  5
3BB
100
AcDbEntity
  8
0
100
AcDbLine
 62
7
  6
CONTINUOUS
 10
50.6448344386
 20
51.345484295
 11
51.1963991013
 21
50.335340213
  0
LINE
  5
3BC
100
AcDbEntity
  8
0
100
AcDbLine
 62
7
  6
CONTINUOUS
 10
52.1149022151
 20
48.6524818417
 11
52.779813991
 21
47.4343612704
  0
LINE
  5
3BD
100
AcDbEntity
  8
0
100
AcDbLine
 62
7
  6
CONTINUOUS
 10
36.6187144909
 20
15.4427300791
 11
42.4145839129
 21
18.7867725779
  0
LINE
  5
3BE
100
AcDbEntity
  8
0
100
AcDbLine
 62
7
  6
CONTINUOUS
 10
51.0013477891
 20
22.515915113
 11
48.1793670851
 21
20.8866535194
  0
ARC
  5
3BF
100
AcDbEntity
  8
0
100
AcDbCircle
 62
7
  6
CONTINUOUS
 10
26.3487978251
 20
35.1228435461
 40
22.9334877102
100
AcDbArc
 50
49.991429589
 51
53.396612295
  0
ARC
  5
3C0
100
AcDbEntity
  8
0
100
AcDbCircle
 62
7
  6
CONTINUOUS
 10
26.0800864186
 20
34.6763760696
 40
21.9642089302
100
AcDbArc
 50
51.7292776174
 51
53.4287126268
  0
ARC
  5
3C1
100
AcDbEntity
  8
0
100
AcDbCircle
 62
7
  6
CONTINUOUS
 10
37.2927304614
 20
51.5327277411
 40
2.7749608141
100
AcDbArc
 50
325.8157501443
 51
327.2214406188
  0
ARC
  5
3C2
100
AcDbEntity
  8
0
100
AcDbCircle
 62
7
  6
CONTINUOUS
 10
38.3733729878
 20
69.8888205301
 40
16.466549973
100
AcDbArc
 50
227.2608989789
 51
227.5771852751
  0
ARC
  5
3C3
100
AcDbEntity
  8
0
100
AcDbCircle
 62
7
  6
CONTINUOUS
 10
33.6827731874
 20
62.900413381
 40
4.7739322845
100
AcDbArc
 50
152.8213454917
 51
153.0811579873
  0
ARC
  5
3C4
100
AcDbEntity
  8
0
100
AcDbCircle
 62
7
  6
CONTINUOUS
 10
33.6602636743
 20
62.9116683342
 40
4.7487662771
100
AcDbArc
 50
153.0792851759
 51
156.5953130356
  0
ARC
  5
3C5
100
AcDbEntity
  8
0
100
AcDbCircle
 62
7
  6
CONTINUOUS
 10
37.8581544743
 20
56.6073039695
 40
4.5706795109
100
AcDbArc
 50
146.9255924062
 51
147.1240824692
  0
ARC
  5
3C6
100
AcDbEntity
  8
0
100
AcDbCircle
 62
7
  6
CONTINUOUS
 10
25.4048413118
 20
58.4114883136
 40
3.678009682
100
AcDbArc
 50
335.4915376618
 51
339.8964946692
  0
ARC
  5
3C7
100
AcDbEntity
  8
0
100
AcDbCircle
 62
7
  6
CONTINUOUS
 10
35.9687998136
 20
57.871975147
 40
3.5925358559
100
AcDbArc
 50
133.8680594749
 51
134.8974814188
  0
ARC
  5
3C8
100
AcDbEntity
  8
0
100
AcDbCircle
 62
7
  6
CONTINUOUS
 10
34.1266904031
 20
59.3959533678
 40
1.7497779354
100
AcDbArc
 50
358.8178376776
 51
2.8835096447
  0
ARC
  5
3C9
100
AcDbEntity
  8
0
100
AcDbCircle
 62
7
  6
CONTINUOUS
 10
37.1770580976
 20
58.1092843678
 40
1.7061647425
100
AcDbArc
 50
108.1816447562
 51
112.3989920318
  0
ARC
  5
3CA
100
AcDbEntity
  8
0
100
AcDbCircle
 62
7
  6
CONTINUOUS
 10
35.1242182458
 20
57.2379099707
 40
1.67345716
100
AcDbArc
 50
287.0672002986
 51
288.2426642324
  0
ARC
  5
3CB
100
AcDbEntity
  8
0
100
AcDbCircle
 62
7
  6
CONTINUOUS
 10
34.1683799618
 20
56.9938786418
 40
1.3630359412
100
AcDbArc
 50
206.9908415028
 51
207.6165098815
  0
ARC
  5
3CC
100
AcDbEntity
  8
0
100
AcDbCircle
 62
7
  6
CONTINUOUS
 10
36.3208772379
 20
58.4631988292
 40
1.25033487
100
AcDbArc
 50
8.4987379173
 51
11.2290642463
  0
ARC
  5
3CD
100
AcDbEntity
  8
0
100
AcDbCircle
 62
7
  6
CONTINUOUS
 10
32.7985922082
 20
65.1060376476
 40
1.0936920481
100
AcDbArc
 50
123.4781439845
 51
126.9527904262
  0
ARC
  5
3CE
100
AcDbEntity
  8
0
100
AcDbCircle
 62
7
  6
CONTINUOUS
 10
33.185880607
 20
57.9943764008
 40
0.8377220485
100
AcDbArc
 50
272.3093954604
 51
276.1390757842
  0
ARC
  5
3CF
100
AcDbEntity
  8
0
100
AcDbCircle
 62
7
  6
CONTINUOUS
 10
30.0893915387
 20
64.5966234355
 40
0.8313186659
100
AcDbArc
 50
201.5665168638
 51
202.5400835125
  0
ARC
  5
3D0
100
AcDbEntity
  8
0
100
AcDbCircle
 62
7
  6
CONTINUOUS
 10
31.1317772397
 20
65.5178822007
 40
0.8045844971
100
AcDbArc
 50
292.7545294916
 51
296.3679016226
  0
ARC
  5
3D1
100
AcDbEntity
  8
0
100
AcDbCircle
 62
7
  6
CONTINUOUS
 10
29.9673700864
 20
64.5772943278
 40
0.7073545414
100
AcDbArc
 50
180.7254178808
 51
183.3134125953
  0
ARC
  5
3D2
100
AcDbEntity
  8
0
100
AcDbCircle
 62
7
  6
CONTINUOUS
 10
36.8828507895
 20
58.7146682473
 40
0.6216024681
100
AcDbArc
 50
58.7624122355
 51
59.9169077053
  0
ARC
  5
3D3
100
AcDbEntity
  8
0
100
AcDbCircle
 62
7
  6
CONTINUOUS
 10
34.1643585763
 20
59.4901554548
 40
0.4208621004
100
AcDbArc
 50
59.9773449781
 51
63.6792820881
  0
ARC
  5
3D4
100
AcDbEntity
  8
0
100
AcDbCircle
 62
7
  6
CONTINUOUS
 10
27.0463711852
 20
62.2716442938
 40
0.1212203459
100
AcDbArc
 50
139.6200154347
 51
144.8436264153
  0
ARC
  5
3D5
100
AcDbEntity
  8
0
100
AcDbCircle
 62
7
  6
CONTINUOUS
 10
40.3744584135
 20
40.4722945346
 40
3.8090437211
100
AcDbArc
 50
163.6475270785
 51
164.4021456464
  0
ARC
  5
3D6
100
AcDbEntity
  8
0
100
AcDbCircle
 62
7
  6
CONTINUOUS
 10
49.4939007156
 20
49.6945240897
 40
2.845679415
100
AcDbArc
 50
338.4610087837
 51
339.5390079085
  0
ARC
  5
3D7
100
AcDbEntity
  8
0
100
AcDbCircle
 62
7
  6
CONTINUOUS
 10
42.5696244145
 20
50.8954642001
 40
2.7221221664
100
AcDbArc
 50
201.8297770681
 51
204.6689113318
  0
ARC
  5
3D8
100
AcDbEntity
  8
0
100
AcDbCircle
 62
7
  6
CONTINUOUS
 10
51.6735368534
 20
49.1162315287
 40
1.3091548489
100
AcDbArc
 50
111.3745032228
 51
112.7024810705
  0
ARC
  5
3D9
100
AcDbEntity
  8
0
100
AcDbCircle
 62
7
  6
CONTINUOUS
 10
40.4251376736
 20
42.57258193
 40
0.8802554478
100
AcDbArc
 50
48.944648622
 51
57.1679537374
  0
ARC
  5
3DA
100
AcDbEntity
  8
0
100
AcDbCircle
 62
7
  6
CONTINUOUS
 10
40.4299553339
 20
42.5798350711
 40
0.8715488752
100
AcDbArc
 50
57.1755538654
 51
60.0016623502
  0
ARC
  5
3DB
100
AcDbEntity
  8
0
100
AcDbCircle
 62
7
  6
CONTINUOUS
 10
40.4354450298
 20
42.5248863931
 40
0.867619251
100
AcDbArc
 50
60.0028233267
 51
61.7874855035
  0
ARC
  5
3DC
100
AcDbEntity
  8
0
100
AcDbCircle
 62
7
  6
CONTINUOUS
 10
43.2506592169
 20
53.0804445789
 40
4.5721232662
100
AcDbArc
 50
142.4177108945
 51
142.7167793504
  0
ARC
  5
3DD
100
AcDbEntity
  8
0
100
AcDbCircle
 62
7
  6
CONTINUOUS
 10
43.9512543498
 20
52.7894229261
 40
4.0074024903
100
AcDbArc
 50
133.192975218
 51
133.6358328782
  0
ARC
  5
3DE
100
AcDbEntity
  8
0
100
AcDbCircle
 62
7
  6
CONTINUOUS
 10
43.8589846992
 20
52.8884869691
 40
3.8720249589
100
AcDbArc
 50
130.3774390788
 51
133.2009025436
  0
ARC
  5
3DF
100
AcDbEntity
  8
0
100
AcDbCircle
 62
7
  6
CONTINUOUS
 10
41.7566014117
 20
53.2849253948
 40
2.4342654824
100
AcDbArc
 50
178.3900887976
 51
178.707793135
  0
ARC
  5
3E0
100
AcDbEntity
  8
0
100
AcDbCircle
 62
7
  6
CONTINUOUS
 10
42.3709518134
 20
54.6361985526
 40
2.1656083704
100
AcDbArc
 50
110.5217498659
 51
111.2385400943
  0
ARC
  5
3E1
100
AcDbEntity
  8
0
100
AcDbCircle
 62
7
  6
CONTINUOUS
 10
42.3527674263
 20
54.68484082
 40
2.1136782094
100
AcDbArc
 50
109.6571731577
 51
110.5223403783
  0
ARC
  5
3E2
100
AcDbEntity
  8
0
100
AcDbCircle
 62
7
  6
CONTINUOUS
 10
41.9973504966
 20
52.9448245088
 40
2.1117476124
100
AcDbArc
 50
179.7690228622
 51
181.2876109175
  0
ARC
  5
3E3
100
AcDbEntity
  8
0
100
AcDbCircle
 62
7
  6
CONTINUOUS
 10
40.4049459114
 20
53.5457168319
 40
1.6441734213
100
AcDbArc
 50
189.0789789405
 51
191.9098851096
  0
ARC
  5
3E4
100
AcDbEntity
  8
0
100
AcDbCircle
 62
7
  6
CONTINUOUS
 10
46.0219428616
 20
57.4713758388
 40
1.0943790587
100
AcDbArc
 50
123.5193061861
 51
126.9518596147
  0
ARC
  5
3E5
100
AcDbEntity
  8
0
100
AcDbCircle
 62
7
  6
CONTINUOUS
 10
42.0406555439
 20
55.4373605428
 40
0.8807851808
100
AcDbArc
 50
47.0554685967
 51
59.8718098738
  0
ARC
  5
3E6
100
AcDbEntity
  8
0
100
AcDbCircle
 62
7
  6
CONTINUOUS
 10
44.3547290999
 20
57.8837800912
 40
0.8045844971
100
AcDbArc
 50
292.7545294917
 51
296.3679016226
  0
ARC
  5
3E7
100
AcDbEntity
  8
0
100
AcDbCircle
 62
7
  6
CONTINUOUS
 10
38.8278878436
 20
54.5143086054
 40
0.6220653745
100
AcDbArc
 50
250.34760396
 51
256.8461070444
  0
SPLINE
  5
3E8
100
AcDbEntity
  8
0
100
AcDbSpline
 62
7
  6
CONTINUOUS
 70
0
 71
3
 72
20
 73
16
 74
0
 42
0.0000001
 43
0.0000001
 44
0.0000000001
 40
0.0
 40
0.0
 40
0.0
 40
0.0
 40
0.1419216362
 40
0.2894231673
 40
0.4361328478
 40
0.507267007
 40
0.5759229256
 40
0.6414809628
 40
0.7034589349
 40
0.7615321732
 40
0.8155988619
 40
0.8658215885
 40
0.9126833019
 40
0.957023714
 40
1.0
 40
1.0
 40
1.0
 40
1.0
 10
16.2258888436
 20
50.5012702035
 30
0.0
 10
16.0470136195
 20
50.6692872963
 30
0.0
 10
15.7120407548
 20
51.0446053988
 30
0.0
 10
15.2984387413
 20
51.6780998023
 30
0.0
 10
15.032254411
 20
52.2539710348
 30
0.0
 10
14.8782635374
 20
52.7253164295
 30
0.0
 10
14.7961166965
 20
53.0712354347
 30
0.0
 10
14.7475829294
 20
53.4075003675
 30
0.0
 10
14.7333522464
 20
53.7287319957
 30
0.0
 10
14.7538638015
 20
54.0298367729
 30
0.0
 10
14.808863878
 20
54.3060638676
 30
0.0
 10
14.897831666
 20
54.5530175131
 30
0.0
 10
15.0198835505
 20
54.7665728542
 30
0.0
 10
15.1733399234
 20
54.9427300739
 30
0.0
 10
15.2959948575
 20
55.0332735175
 30
0.0
 10
15.3603521885
 20
55.0704320229
 30
0.0
  0
SPLINE
  5
3E9
100
AcDbEntity
  8
0
100
AcDbSpline
 62
7
  6
CONTINUOUS
 70
0
 71
3
 72
9
 73
5
 74
0
 42
0.0000001
 43
0.0000001
 44
0.0000000001
 40
0.0
 40
0.0
 40
0.0
 40
0.0
 40
0.5226219791
 40
1.0
 40
1.0
 40
1.0
 40
1.0
 10
49.076738807
 20
55.2965917666
 30
0.0
 10
49.0542870973
 20
55.2387590316
 30
0.0
 10
49.0196253536
 20
55.1246443574
 30
0.0
 10
49.0056023159
 20
55.0058281762
 30
0.0
 10
49.0056023159
 20
54.9491609398
 30
0.0
  0
SPLINE
  5
3EA
100
AcDbEntity
  8
0
100
AcDbSpline
 62
7
  6
CONTINUOUS
 70
0
 71
3
 72
11
 73
7
 74
0
 42
0.0000001
 43
0.0000001
 44
0.0000000001
 40
0.0
 40
0.0
 40
0.0
 40
0.0
 40
0.2895066623
 40
0.5491404931
 40
0.7822868613
 40
1.0
 40
1.0
 40
1.0
 40
1.0
 10
49.0056023159
 20
54.9491609398
 30
0.0
 10
49.0056023159
 20
54.9111864001
 30
0.0
 10
49.011412687
 20
54.8389184638
 30
0.0
 10
49.0406109982
 20
54.7395992031
 30
0.0
 10
49.0899069604
 20
54.6589952222
 30
0.0
 10
49.1362206406
 20
54.6201270913
 30
0.0
 10
49.1609554893
 20
54.6058543168
 30
0.0
  0
SPLINE
  5
3EB
100
AcDbEntity
  8
0
100
AcDbSpline
 62
7
  6
CONTINUOUS
 70
0
 71
3
 72
13
 73
9
 74
0
 42
0.0000001
 43
0.0000001
 44
0.0000000001
 40
0.0
 40
0.0
 40
0.0
 40
0.0
 40
0.1174864641
 40
0.2353608097
 40
0.3545324349
 40
0.4758110807
 40
0.7285261818
 40
1.0
 40
1.0
 40
1.0
 40
1.0
 10
43.2057243795
 20
60.6542688708
 30
0.0
 10
43.1694921979
 20
60.675084761
 30
0.0
 10
43.0926292475
 20
60.7098046929
 30
0.0
 10
42.969143544
 20
60.7386955962
 30
0.0
 10
42.8411881844
 20
60.744715839
 30
0.0
 10
42.666305219
 20
60.7242157434
 30
0.0
 10
42.4473082337
 20
60.6462035577
 30
0.0
 10
42.2891948891
 20
60.5449046826
 30
0.0
 10
42.2127848438
 20
60.4858773932
 30
0.0
  0
SPLINE
  5
3EC
100
AcDbEntity
  8
0
100
AcDbSpline
 62
7
  6
CONTINUOUS
 70
0
 71
3
 72
9
 73
5
 74
0
 42
0.0000001
 43
0.0000001
 44
0.0000000001
 40
0.0
 40
0.0
 40
0.0
 40
0.0
 40
0.2633574008
 40
1.0
 40
1.0
 40
1.0
 40
1.0
 10
42.981791132
 20
60.202045122
 30
0.0
 10
42.9797176329
 20
60.203983517
 30
0.0
 10
42.9716810541
 20
60.2111616675
 30
0.0
 10
42.9629677504
 20
60.2176250315
 30
0.0
 10
42.956137278
 20
60.2216722449
 30
0.0
  0
SPLINE
  5
3ED
100
AcDbEntity
  8
0
100
AcDbSpline
 62
7
  6
CONTINUOUS
 70
0
 71
3
 72
11
 73
7
 74
0
 42
0.0000001
 43
0.0000001
 44
0.0000000001
 40
0.0
 40
0.0
 40
0.0
 40
0.0
 40
0.2497269538
 40
0.4996167586
 40
0.7498395011
 40
1.0
 40
1.0
 40
1.0
 40
1.0
 10
29.0821922729
 20
14.2775785626
 30
0.0
 10
29.1704430442
 20
14.2266281086
 30
0.0
 10
29.3464999208
 20
14.1238270888
 30
0.0
 10
29.6112565966
 20
13.9704456994
 30
0.0
 10
29.8766138309
 20
13.817751015
 30
0.0
 10
30.0534556036
 20
13.7156809402
 30
0.0
 10
30.141859585
 20
13.6646420324
 30
0.0
  0
SPLINE
  5
3EE
100
AcDbEntity
  8
0
100
AcDbSpline
 62
7
  6
CONTINUOUS
 70
0
 71
3
 72
9
 73
5
 74
0
 42
0.0000001
 43
0.0000001
 44
0.0000000001
 40
0.0
 40
0.0
 40
0.0
 40
0.0
 40
0.2459506611
 40
1.0
 40
1.0
 40
1.0
 40
1.0
 10
42.9561372368
 20
60.2216722274
 30
0.0
 10
42.9544500165
 20
60.2226719462
 30
0.0
 10
42.9474905591
 20
60.2265674832
 30
0.0
 10
42.9401233367
 20
60.2297255643
 30
0.0
 10
42.9344427536
 20
60.2316960373
 30
0.0
  0
SPLINE
  5
3EF
100
AcDbEntity
  8
0
100
AcDbSpline
 62
7
  6
CONTINUOUS
 70
0
 71
3
 72
14
 73
10
 74
0
 42
0.0000001
 43
0.0000001
 44
0.0000000001
 40
0.0
 40
0.0
 40
0.0
 40
0.0
 40
0.064063804
 40
0.1427492457
 40
0.2386347537
 40
0.3543188762
 40
0.4901077972
 40
0.6441625022
 40
1.0
 40
1.0
 40
1.0
 40
1.0
 10
42.9344427536
 20
60.2316960373
 30
0.0
 10
42.9252793289
 20
60.2348746336
 30
0.0
 10
42.9040814458
 20
60.2396966932
 30
0.0
 10
42.8679590887
 20
60.242537235
 30
0.0
 10
42.8239531501
 20
60.2394027286
 30
0.0
 10
42.7724269662
 20
60.2281526795
 30
0.0
 10
42.7143083432
 20
60.2079640006
 30
0.0
 10
42.6257338489
 20
60.166275801
 30
0.0
 10
42.5610872088
 20
60.1231271612
 30
0.0
 10
42.518454001
 20
60.0901927128
 30
0.0
  0
SPLINE
  5
3F0
100
AcDbEntity
  8
0
100
AcDbSpline
 62
7
  6
CONTINUOUS
 70
0
 71
3
 72
13
 73
9
 74
0
 42
0.0000001
 43
0.0000001
 44
0.0000000001
 40
0.0
 40
0.0
 40
0.0
 40
0.0
 40
0.2669609928
 40
0.5186339319
 40
0.6406237254
 40
0.7611765783
 40
0.8808010176
 40
1.0
 40
1.0
 40
1.0
 40
1.0
 10
43.5703642605
 20
59.8561834844
 30
0.0
 10
43.573393838
 20
59.9381360351
 30
0.0
 10
43.5656054304
 20
60.0983893183
 30
0.0
 10
43.512541699
 20
60.2901803842
 30
0.0
 10
43.4425692322
 20
60.4254772612
 30
0.0
 10
43.3767761619
 20
60.5157707521
 30
0.0
 10
43.2980319631
 20
60.5938345603
 30
0.0
 10
43.2374746128
 20
60.6360279308
 30
0.0
 10
43.2057243624
 20
60.6542688871
 30
0.0
  0
SPLINE
  5
3F1
100
AcDbEntity
  8
0
100
AcDbSpline
 62
7
  6
CONTINUOUS
 70
0
 71
3
 72
15
 73
11
 74
0
 42
0.0000001
 43
0.0000001
 44
0.0000000001
 40
0.0
 40
0.0
 40
0.0
 40
0.0
 40
0.0977141964
 40
0.2027167259
 40
0.3160406641
 40
0.43801579
 40
0.5683489841
 40
0.7062602185
 40
0.8506284612
 40
1.0
 40
1.0
 40
1.0
 40
1.0
 10
14.3373730044
 20
24.3321075553
 30
0.0
 10
14.4959693711
 20
23.9804113145
 30
0.0
 10
14.9028030536
 20
23.2843109407
 30
0.0
 10
15.717550829
 20
22.3322594279
 30
0.0
 10
16.7399628953
 20
21.4534636087
 30
0.0
 10
17.9514866192
 20
20.6619599887
 30
0.0
 10
19.3314539773
 20
19.9702435494
 30
0.0
 10
20.8562396695
 20
19.3895959721
 30
0.0
 10
22.4995187939
 20
18.9299586899
 30
0.0
 10
23.6402042345
 20
18.7122198878
 30
0.0
 10
24.2234027239
 20
18.6244985268
 30
0.0
  0
SPLINE
  5
3F2
100
AcDbEntity
  8
0
100
AcDbSpline
 62
7
  6
CONTINUOUS
 70
0
 71
3
 72
11
 73
7
 74
0
 42
0.0000001
 43
0.0000001
 44
0.0000000001
 40
0.0
 40
0.0
 40
0.0
 40
0.0
 40
0.2504610836
 40
0.5008249637
 40
0.7504669735
 40
1.0
 40
1.0
 40
1.0
 40
1.0
 10
9.1405407277
 20
25.7876901614
 30
0.0
 10
9.0519905045
 20
25.8388135
 30
0.0
 10
8.8754619755
 20
25.9419675966
 30
0.0
 10
8.6106282737
 20
26.0960034211
 30
0.0
 10
8.3451377338
 20
26.2481438108
 30
0.0
 10
8.1680982348
 20
26.3490653959
 30
0.0
 10
8.0798761251
 20
26.3999993025
 30
0.0
  0
SPLINE
  5
3F3
100
AcDbEntity
  8
0
100
AcDbSpline
 62
7
  6
CONTINUOUS
 70
0
 71
3
 72
11
 73
7
 74
0
 42
0.0000001
 43
0.0000001
 44
0.0000000001
 40
0.0
 40
0.0
 40
0.0
 40
0.0
 40
0.2811256001
 40
0.5379240459
 40
0.7745743708
 40
1.0
 40
1.0
 40
1.0
 40
1.0
 10
31.4429775408
 20
64.7759181952
 30
0.0
 10
31.4068665783
 20
64.7608139446
 30
0.0
 10
31.3353227036
 20
64.7371980977
 30
0.0
 10
31.227529597
 20
64.7235370662
 30
0.0
 10
31.1270027016
 20
64.7345225863
 30
0.0
 10
31.0663438039
 20
64.7587775322
 30
0.0
 10
31.0391676218
 20
64.7744813339
 30
0.0
  0
SPLINE
  5
3F4
100
AcDbEntity
  8
0
100
AcDbSpline
 62
7
  6
CONTINUOUS
 70
0
 71
3
 72
9
 73
5
 74
0
 42
0.0000001
 43
0.0000001
 44
0.0000000001
 40
0.0
 40
0.0
 40
0.0
 40
0.0
 40
0.2394906388
 40
1.0
 40
1.0
 40
1.0
 40
1.0
 10
32.3432429409
 20
66.0982370769
 30
0.0
 10
32.3308468949
 20
66.0930521422
 30
0.0
 10
32.2796730904
 20
66.0700085088
 30
0.0
 10
32.2308863915
 20
66.0418106276
 30
0.0
 10
32.1952910566
 20
66.0182821416
 30
0.0
  0
SPLINE
  5
3F5
100
AcDbEntity
  8
0
100
AcDbSpline
 62
7
  6
CONTINUOUS
 70
0
 71
3
 72
17
 73
13
 74
0
 42
0.0000001
 43
0.0000001
 44
0.0000000001
 40
0.0
 40
0.0
 40
0.0
 40
0.0
 40
0.1356441599
 40
0.2805349373
 40
0.4276845681
 40
0.569744086
 40
0.7001704132
 40
0.8145648452
 40
0.8655469373
 40
0.9127892047
 40
0.9571730892
 40
1.0
 40
1.0
 40
1.0
 40
1.0
 10
32.1411118256
 20
65.9800409901
 30
0.0
 10
32.0735803027
 20
65.9293092874
 30
0.0
 10
31.9450571379
 20
65.8091886667
 30
0.0
 10
31.7832930905
 20
65.5963167833
 30
0.0
 10
31.6547513278
 20
65.3572501675
 30
0.0
 10
31.5687939272
 20
65.1091547517
 30
0.0
 10
31.531498629
 20
64.869754912
 30
0.0
 10
31.544138074
 20
64.6835447061
 30
0.0
 10
31.5838506298
 20
64.5566330721
 30
0.0
 10
31.6254101979
 20
64.4775109423
 30
0.0
 10
31.6792931423
 20
64.412576918
 30
0.0
 10
31.7231878946
 20
64.3795842117
 30
0.0
 10
31.746277522
 20
64.3662408433
 30
0.0
  0
SPLINE
  5
3F6
100
AcDbEntity
  8
0
100
AcDbSpline
 62
7
  6
CONTINUOUS
 70
0
 71
3
 72
13
 73
9
 74
0
 42
0.0000001
 43
0.0000001
 44
0.0000000001
 40
0.0
 40
0.0
 40
0.0
 40
0.0
 40
0.1174864623
 40
0.2353608126
 40
0.3545324329
 40
0.4758110826
 40
0.7285261783
 40
1.0
 40
1.0
 40
1.0
 40
1.0
 10
35.2780343897
 20
65.2312192825
 30
0.0
 10
35.2418022083
 20
65.2520351699
 30
0.0
 10
35.1649392526
 20
65.2867550865
 30
0.0
 10
35.0414535556
 20
65.3156459999
 30
0.0
 10
34.913498196
 20
65.3216662324
 30
0.0
 10
34.738615238
 20
65.3011661328
 30
0.0
 10
34.5196182555
 20
65.2231539521
 30
0.0
 10
34.3615049159
 20
65.1218550774
 30
0.0
 10
34.2850948712
 20
65.0628277884
 30
0.0
  0
SPLINE
  5
3F7
100
AcDbEntity
  8
0
100
AcDbSpline
 62
7
  6
CONTINUOUS
 70
0
 71
3
 72
9
 73
5
 74
0
 42
0.0000001
 43
0.0000001
 44
0.0000000001
 40
0.0
 40
0.0
 40
0.0
 40
0.0
 40
0.2633577562
 40
1.0
 40
1.0
 40
1.0
 40
1.0
 10
35.0541017649
 20
64.7789949483
 30
0.0
 10
35.0520282135
 20
64.7809334021
 30
0.0
 10
35.0439914301
 20
64.7881117489
 30
0.0
 10
35.0352779095
 20
64.7945752996
 30
0.0
 10
35.0284472638
 20
64.7986226224
 30
0.0
  0
SPLINE
  5
3F8
100
AcDbEntity
  8
0
100
AcDbSpline
 62
7
  6
CONTINUOUS
 70
0
 71
3
 72
9
 73
5
 74
0
 42
0.0000001
 43
0.0000001
 44
0.0000000001
 40
0.0
 40
0.0
 40
0.0
 40
0.0
 40
0.2459504765
 40
1.0
 40
1.0
 40
1.0
 40
1.0
 10
35.0284473045
 20
64.7986226397
 30
0.0
 10
35.0267600729
 20
64.7996223636
 30
0.0
 10
35.0198005625
 20
64.80351792
 30
0.0
 10
35.0124332798
 20
64.806676004
 30
0.0
 10
35.0067526505
 20
64.8086464764
 30
0.0
  0
SPLINE
  5
3F9
100
AcDbEntity
  8
0
100
AcDbSpline
 62
7
  6
CONTINUOUS
 70
0
 71
3
 72
14
 73
10
 74
0
 42
0.0000001
 43
0.0000001
 44
0.0000000001
 40
0.0
 40
0.0
 40
0.0
 40
0.0
 40
0.0640639082
 40
0.1427494026
 40
0.2386349032
 40
0.3543190456
 40
0.490107962
 40
0.644162631
 40
1.0
 40
1.0
 40
1.0
 40
1.0
 10
35.0067526505
 20
64.8086464764
 30
0.0
 10
34.9975892054
 20
64.8118250531
 30
0.0
 10
34.9763913037
 20
64.816647094
 30
0.0
 10
34.9402689344
 20
64.8194876383
 30
0.0
 10
34.8962630004
 20
64.816353101
 30
0.0
 10
34.8447368396
 20
64.8051030218
 30
0.0
 10
34.7866182411
 20
64.7849143412
 30
0.0
 10
34.6980438041
 20
64.7432261498
 30
0.0
 10
34.6333972078
 20
64.7000775345
 30
0.0
 10
34.5907640285
 20
64.6671431081
 30
0.0
  0
SPLINE
  5
3FA
100
AcDbEntity
  8
0
100
AcDbSpline
 62
7
  6
CONTINUOUS
 70
0
 71
3
 72
11
 73
7
 74
0
 42
0.0000001
 43
0.0000001
 44
0.0000000001
 40
0.0
 40
0.0
 40
0.0
 40
0.0
 40
0.2811256001
 40
0.5379240459
 40
0.7745743708
 40
1.0
 40
1.0
 40
1.0
 40
1.0
 10
44.6659294011
 20
57.1418160856
 30
0.0
 10
44.6298184386
 20
57.1267118351
 30
0.0
 10
44.5582745638
 20
57.1030959882
 30
0.0
 10
44.4504814573
 20
57.0894349567
 30
0.0
 10
44.3499545619
 20
57.1004204768
 30
0.0
 10
44.2892956642
 20
57.1246754227
 30
0.0
 10
44.262119482
 20
57.1403792244
 30
0.0
  0
SPLINE
  5
3FB
100
AcDbEntity
  8
0
100
AcDbSpline
 62
7
  6
CONTINUOUS
 70
0
 71
3
 72
13
 73
9
 74
0
 42
0.0000001
 43
0.0000001
 44
0.0000000001
 40
0.0
 40
0.0
 40
0.0
 40
0.0
 40
0.2669610481
 40
0.518633997
 40
0.640623779
 40
0.7611766241
 40
0.8808010357
 40
1.0
 40
1.0
 40
1.0
 40
1.0
 10
35.6426742235
 20
64.4331321402
 30
0.0
 10
35.6457039096
 20
64.5150848564
 30
0.0
 10
35.6379156733
 20
64.6753384665
 30
0.0
 10
35.5848520607
 20
64.8671299705
 30
0.0
 10
35.5148795749
 20
65.0024271551
 30
0.0
 10
35.4490864544
 20
65.0927208484
 30
0.0
 10
35.3703421636
 20
65.1707848369
 30
0.0
 10
35.3097847102
 20
65.2129782773
 30
0.0
 10
35.2780344066
 20
65.2312192665
 30
0.0
  0
SPLINE
  5
3FC
100
AcDbEntity
  8
0
100
AcDbSpline
 62
7
  6
CONTINUOUS
 70
0
 71
3
 72
9
 73
5
 74
0
 42
0.0000001
 43
0.0000001
 44
0.0000000001
 40
0.0
 40
0.0
 40
0.0
 40
0.0
 40
0.2394513582
 40
1.0
 40
1.0
 40
1.0
 40
1.0
 10
45.5661948011
 20
58.4641349674
 30
0.0
 10
45.5537447465
 20
58.4589274423
 30
0.0
 10
45.502342118
 20
58.4357735065
 30
0.0
 10
45.4533481172
 20
58.407421428
 30
0.0
 10
45.4176071153
 20
58.3837594367
 30
0.0
  0
SPLINE
  5
3FD
100
AcDbEntity
  8
0
100
AcDbSpline
 62
7
  6
CONTINUOUS
 70
0
 71
3
 72
17
 73
13
 74
0
 42
0.0000001
 43
0.0000001
 44
0.0000000001
 40
0.0
 40
0.0
 40
0.0
 40
0.0
 40
0.1356441599
 40
0.2805349373
 40
0.4276845681
 40
0.569744086
 40
0.7001704132
 40
0.8145648452
 40
0.8655469373
 40
0.9127892047
 40
0.9571730892
 40
1.0
 40
1.0
 40
1.0
 40
1.0
 10
45.3640636858
 20
58.3459388806
 30
0.0
 10
45.296532163
 20
58.2952071779
 30
0.0
 10
45.1680089981
 20
58.1750865572
 30
0.0
 10
45.0062449507
 20
57.9622146737
 30
0.0
 10
44.8777031881
 20
57.723148058
 30
0.0
 10
44.7917457874
 20
57.4750526422
 30
0.0
 10
44.7544504892
 20
57.2356528025
 30
0.0
 10
44.7670899343
 20
57.0494425966
 30
0.0
 10
44.8068024901
 20
56.9225309626
 30
0.0
 10
44.8483620582
 20
56.8434088327
 30
0.0
 10
44.9022450025
 20
56.7784748085
 30
0.0
 10
44.9461397548
 20
56.7454821022
 30
0.0
 10
44.9692293823
 20
56.7321387337
 30
0.0
  0
SPLINE
  5
3FE
100
AcDbEntity
  8
0
100
AcDbSpline
 62
7
  6
CONTINUOUS
 70
0
 71
3
 72
19
 73
15
 74
0
 42
0.0000001
 43
0.0000001
 44
0.0000000001
 40
0.0
 40
0.0
 40
0.0
 40
0.0
 40
0.0261712506
 40
0.0576491402
 40
0.0959085285
 40
0.1412443238
 40
0.1932521382
 40
0.2513816185
 40
0.3149232054
 40
0.3831272817
 40
0.5302455762
 40
0.686437548
 40
0.8451672774
 40
1.0
 40
1.0
 40
1.0
 40
1.0
 10
32.1554026714
 20
66.0808118927
 30
0.0
 10
32.1298156425
 20
66.088063492
 30
0.0
 10
32.0718856137
 20
66.0988549312
 30
0.0
 10
31.9739727421
 20
66.0996959621
 30
0.0
 10
31.857974629
 20
66.0818696729
 30
0.0
 10
31.7253672288
 20
66.0431270097
 30
0.0
 10
31.5798592862
 20
65.9807058486
 30
0.0
 10
31.4255371427
 20
65.8944996785
 30
0.0
 10
31.2663625674
 20
65.7849948444
 30
0.0
 10
31.0468836193
 20
65.6053150151
 30
0.0
 10
30.7836073594
 20
65.3327401716
 30
0.0
 10
30.504233881
 20
64.9538481737
 30
0.0
 10
30.2705637273
 20
64.5362302914
 30
0.0
 10
30.1509315023
 20
64.2397249567
 30
0.0
 10
30.1024001843
 20
64.0900584712
 30
0.0
  0
SPLINE
  5
3FF
100
AcDbEntity
  8
0
100
AcDbSpline
 62
7
  6
CONTINUOUS
 70
0
 71
3
 72
12
 73
8
 74
0
 42
0.0000001
 43
0.0000001
 44
0.0000000001
 40
0.0
 40
0.0
 40
0.0
 40
0.0
 40
0.2609629592
 40
0.5119207781
 40
0.6351259872
 40
0.7573869032
 40
1.0
 40
1.0
 40
1.0
 40
1.0
 10
33.4746051535
 20
65.6949806617
 30
0.0
 10
33.456918241
 20
65.8223450598
 30
0.0
 10
33.4018233789
 20
66.0700865251
 30
0.0
 10
33.2735781834
 20
66.3584089599
 30
0.0
 10
33.1365241346
 20
66.561733182
 30
0.0
 10
32.9782025197
 20
66.7433227453
 30
0.0
 10
32.8339678835
 20
66.8552604153
 30
0.0
 10
32.7303849046
 20
66.9149391758
 30
0.0
  0
SPLINE
  5
400
100
AcDbEntity
  8
0
100
AcDbSpline
 62
7
  6
CONTINUOUS
 70
0
 71
3
 72
19
 73
15
 74
0
 42
0.0000001
 43
0.0000001
 44
0.0000000001
 40
0.0
 40
0.0
 40
0.0
 40
0.0
 40
0.0537032105
 40
0.1076257498
 40
0.1619386168
 40
0.216998244
 40
0.2731502231
 40
0.3307284568
 40
0.3900622844
 40
0.4513354245
 40
0.579837019
 40
0.715722297
 40
0.8568114321
 40
1.0
 40
1.0
 40
1.0
 40
1.0
 10
32.7319895392
 20
66.9139861156
 30
0.0
 10
32.667375828
 20
66.951419164
 30
0.0
 10
32.5311759457
 20
67.0154310956
 30
0.0
 10
32.3135080777
 20
67.0766358768
 30
0.0
 10
32.0870592977
 20
67.1029495768
 30
0.0
 10
31.8562618133
 20
67.0954340108
 30
0.0
 10
31.6241770551
 20
67.0564394891
 30
0.0
 10
31.3929551785
 20
66.9878676286
 30
0.0
 10
31.1640875789
 20
66.8918033723
 30
0.0
 10
30.858936648
 20
66.7269367183
 30
0.0
 10
30.4912680507
 20
66.4587884016
 30
0.0
 10
30.0887128853
 20
66.0615691033
 30
0.0
 10
29.7294694435
 20
65.5989101148
 30
0.0
 10
29.5268900698
 20
65.2581045687
 30
0.0
 10
29.4359469835
 20
65.0809859322
 30
0.0
  0
SPLINE
  5
401
100
AcDbEntity
  8
0
100
AcDbSpline
 62
7
  6
CONTINUOUS
 70
0
 71
3
 72
13
 73
9
 74
0
 42
0.0000001
 43
0.0000001
 44
0.0000000001
 40
0.0
 40
0.0
 40
0.0
 40
0.0
 40
0.2810284396
 40
0.4102059469
 40
0.5326067954
 40
0.6505707077
 40
0.7666245526
 40
1.0
 40
1.0
 40
1.0
 40
1.0
 10
29.6793009861
 20
63.8966017486
 30
0.0
 10
29.7252948482
 20
63.8786647491
 30
0.0
 10
29.7983113397
 20
63.8633057087
 30
0.0
 10
29.8917780265
 20
63.8755486643
 30
0.0
 10
29.9530394275
 20
63.898828327
 30
0.0
 10
30.0052593125
 20
63.9343704884
 30
0.0
 10
30.0618451218
 20
63.9945669344
 30
0.0
 10
30.0897510433
 20
64.0510543169
 30
0.0
 10
30.10237822
 20
64.0900578582
 30
0.0
  0
SPLINE
  5
402
100
AcDbEntity
  8
0
100
AcDbSpline
 62
7
  6
CONTINUOUS
 70
0
 71
3
 72
21
 73
17
 74
0
 42
0.0000001
 43
0.0000001
 44
0.0000000001
 40
0.0
 40
0.0
 40
0.0
 40
0.0
 40
0.0586332266
 40
0.1219931467
 40
0.1893862934
 40
0.2600189119
 40
0.4066905697
 40
0.5529746253
 40
0.6231519142
 40
0.6899374372
 40
0.752527086
 40
0.8104101597
 40
0.863443166
 40
0.9119795742
 40
0.9569778204
 40
1.0
 40
1.0
 40
1.0
 40
1.0
 10
36.7432353955
 20
58.6520662559
 30
0.0
 10
36.676539631
 20
58.6241692
 30
0.0
 10
36.5423726658
 20
58.5548073256
 30
0.0
 10
36.3502223873
 20
58.4211997295
 30
0.0
 10
36.163507131
 20
58.2567355533
 30
0.0
 10
35.9248823251
 20
57.9986078399
 30
0.0
 10
35.6688107628
 20
57.6274650746
 30
0.0
 10
35.4814772402
 20
57.2178862259
 30
0.0
 10
35.3831658211
 20
56.8822300532
 30
0.0
 10
35.3387876483
 20
56.639702401
 30
0.0
 10
35.3239218019
 20
56.4086970744
 30
0.0
 10
35.3389173739
 20
56.1945331868
 30
0.0
 10
35.3837782263
 20
56.0021025086
 30
0.0
 10
35.4580319551
 20
55.8358881027
 30
0.0
 10
35.5605711876
 20
55.7003000039
 30
0.0
 10
35.6474922227
 20
55.6327561169
 30
0.0
 10
35.6934305185
 20
55.6062305069
 30
0.0
  0
SPLINE
  5
403
100
AcDbEntity
  8
0
100
AcDbSpline
 62
7
  6
CONTINUOUS
 70
0
 71
3
 72
9
 73
5
 74
0
 42
0.0000001
 43
0.0000001
 44
0.0000000001
 40
0.0
 40
0.0
 40
0.0
 40
0.0
 40
0.2424239618
 40
1.0
 40
1.0
 40
1.0
 40
1.0
 10
41.9839516529
 20
55.1308879152
 30
0.0
 10
41.9569196954
 20
55.1089762963
 30
0.0
 10
41.847599479
 20
55.0159085878
 30
0.0
 10
41.7469208388
 20
54.9128314775
 30
0.0
 10
41.6756535496
 20
54.8306994169
 30
0.0
  0
SPLINE
  5
404
100
AcDbEntity
  8
0
100
AcDbSpline
 62
7
  6
CONTINUOUS
 70
0
 71
3
 72
9
 73
5
 74
0
 42
0.0000001
 43
0.0000001
 44
0.0000000001
 40
0.0
 40
0.0
 40
0.0
 40
0.0
 40
0.2566881171
 40
1.0
 40
1.0
 40
1.0
 40
1.0
 10
41.1156550758
 20
53.8601101198
 30
0.0
 10
41.104383759
 20
53.8274035316
 30
0.0
 10
41.0628915948
 20
53.6991751444
 30
0.0
 10
41.0312482098
 20
53.5676834006
 30
0.0
 10
41.0144101405
 20
53.4689312965
 30
0.0
  0
SPLINE
  5
405
100
AcDbEntity
  8
0
100
AcDbSpline
 62
7
  6
CONTINUOUS
 70
0
 71
3
 72
11
 73
7
 74
0
 42
0.0000001
 43
0.0000001
 44
0.0000000001
 40
0.0
 40
0.0
 40
0.0
 40
0.0
 40
0.2290759258
 40
0.4749160761
 40
0.7334910494
 40
1.0
 40
1.0
 40
1.0
 40
1.0
 10
38.4289555444
 20
43.8585108797
 30
0.0
 10
38.3159577253
 20
43.7932719479
 30
0.0
 10
38.0921781242
 20
43.6394130444
 30
0.0
 10
37.7804302396
 20
43.3598777565
 30
0.0
 10
37.4884314873
 20
43.0307770978
 30
0.0
 10
37.3142074056
 20
42.7869191419
 30
0.0
 10
37.2322983645
 20
42.659114287
 30
0.0
  0
SPLINE
  5
406
100
AcDbEntity
  8
0
100
AcDbSpline
 62
7
  6
CONTINUOUS
 70
0
 71
3
 72
11
 73
7
 74
0
 42
0.0000001
 43
0.0000001
 44
0.0000000001
 40
0.0
 40
0.0
 40
0.0
 40
0.0
 40
0.2646930017
 40
0.4990959981
 40
0.7315679392
 40
1.0
 40
1.0
 40
1.0
 40
1.0
 10
28.8587761839
 20
57.1472926196
 30
0.0
 10
28.8611165389
 20
57.1536906877
 30
0.0
 10
28.8643806769
 20
57.1662844869
 30
0.0
 10
28.8629932572
 20
57.1855428033
 30
0.0
 10
28.8534332771
 20
57.2025657115
 30
0.0
 10
28.8428962994
 20
57.2105222394
 30
0.0
 10
28.8369128355
 20
57.2139763972
 30
0.0
  0
SPLINE
  5
407
100
AcDbEntity
  8
0
100
AcDbSpline
 62
7
  6
CONTINUOUS
 70
0
 71
3
 72
11
 73
7
 74
0
 42
0.0000001
 43
0.0000001
 44
0.0000000001
 40
0.0
 40
0.0
 40
0.0
 40
0.0
 40
0.2812032047
 40
0.5379199886
 40
0.7745450934
 40
1.0
 40
1.0
 40
1.0
 40
1.0
 10
50.8993069579
 20
47.2398202774
 30
0.0
 10
50.8357853973
 20
47.2132509062
 30
0.0
 10
50.7099780434
 20
47.1716858575
 30
0.0
 10
50.5204175317
 20
47.1477243828
 30
0.0
 10
50.3436456201
 20
47.1670027339
 30
0.0
 10
50.2369864075
 20
47.2096904217
 30
0.0
 10
50.1891788036
 20
47.2372932731
 30
0.0
  0
SPLINE
  5
408
100
AcDbEntity
  8
0
100
AcDbSpline
 62
7
  6
CONTINUOUS
 70
0
 71
3
 72
14
 73
10
 74
0
 42
0.0000001
 43
0.0000001
 44
0.0000000001
 40
0.0
 40
0.0
 40
0.0
 40
0.0
 40
0.2081922128
 40
0.3964401168
 40
0.5617549614
 40
0.7015957648
 40
0.8148088533
 40
0.9010061544
 40
1.0
 40
1.0
 40
1.0
 40
1.0
 10
38.3467877399
 20
50.6372314011
 30
0.0
 10
38.3601064361
 20
50.6295420222
 30
0.0
 10
38.3852916211
 20
50.6145827621
 30
0.0
 10
38.4203133689
 20
50.5923390994
 30
0.0
 10
38.4503561671
 20
50.571601388
 30
0.0
 10
38.4748099699
 20
50.5528999148
 30
0.0
 10
38.4937719461
 20
50.535887562
 30
0.0
 10
38.5079579198
 20
50.5204242016
 30
0.0
 10
38.5159754008
 20
50.5054593089
 30
0.0
 10
38.5130091547
 20
50.4987753257
 30
0.0
  0
SPLINE
  5
409
100
AcDbEntity
  8
0
100
AcDbSpline
 62
7
  6
CONTINUOUS
 70
0
 71
3
 72
20
 73
16
 74
0
 42
0.0000001
 43
0.0000001
 44
0.0000000001
 40
0.0
 40
0.0
 40
0.0
 40
0.0
 40
0.0135282879
 40
0.0229708142
 40
0.0346981632
 40
0.0654695873
 40
0.1061676318
 40
0.156313579
 40
0.2151242445
 40
0.2816424268
 40
0.3546429652
 40
0.51479087
 40
0.6838794255
 40
0.8497594315
 40
1.0
 40
1.0
 40
1.0
 40
1.0
 10
37.6000934535
 20
50.9068161394
 30
0.0
 10
37.6015687566
 20
50.9101405099
 30
0.0
 10
37.6072947737
 20
50.9140660754
 30
0.0
 10
37.6162661006
 20
50.916257645
 30
0.0
 10
37.6302431364
 20
50.9176900826
 30
0.0
 10
37.6526404734
 20
50.9163086322
 30
0.0
 10
37.6849495364
 20
50.9111407596
 30
0.0
 10
37.7241927116
 20
50.9021622362
 30
0.0
 10
37.7696632122
 20
50.8895528663
 30
0.0
 10
37.8205134093
 20
50.8734811825
 30
0.0
 10
37.8966175582
 20
50.8470220924
 30
0.0
 10
37.997394798
 20
50.8076942122
 30
0.0
 10
38.1194243731
 20
50.7544441081
 30
0.0
 10
38.2368939389
 20
50.6976539561
 30
0.0
 10
38.3118074116
 20
50.6574268462
 30
0.0
 10
38.3467877399
 20
50.6372314011
 30
0.0
  0
SPLINE
  5
40A
100
AcDbEntity
  8
0
100
AcDbSpline
 62
7
  6
CONTINUOUS
 70
0
 71
3
 72
9
 73
5
 74
0
 42
0.0000001
 43
0.0000001
 44
0.0000000001
 40
0.0
 40
0.0
 40
0.0
 40
0.0
 40
0.5132702515
 40
1.0
 40
1.0
 40
1.0
 40
1.0
 10
37.6000734536
 20
50.9068250734
 30
0.0
 10
37.5222268173
 20
50.732657647
 30
0.0
 10
37.3961335312
 20
50.3811939616
 30
0.0
 10
37.3315057934
 20
50.0125906401
 30
0.0
 10
37.3192124376
 20
49.832100289
 30
0.0
  0
SPLINE
  5
40B
100
AcDbEntity
  8
0
100
AcDbSpline
 62
7
  6
CONTINUOUS
 70
0
 71
3
 72
10
 73
6
 74
0
 42
0.0000001
 43
0.0000001
 44
0.0000000001
 40
0.0
 40
0.0
 40
0.0
 40
0.0
 40
0.5297397508
 40
0.7746214806
 40
1.0
 40
1.0
 40
1.0
 40
1.0
 10
38.5130291547
 20
50.4987663917
 30
0.0
 10
38.4577977026
 20
50.37519625
 30
0.0
 10
38.3900599322
 20
50.1879740371
 30
0.0
 10
38.3351689517
 20
49.9381874813
 30
0.0
 10
38.3205062174
 20
49.8186743783
 30
0.0
 10
38.316704049
 20
49.7612144501
 30
0.0
  0
SPLINE
  5
40C
100
AcDbEntity
  8
0
100
AcDbSpline
 62
7
  6
CONTINUOUS
 70
0
 71
3
 72
14
 73
10
 74
0
 42
0.0000001
 43
0.0000001
 44
0.0000000001
 40
0.0
 40
0.0
 40
0.0
 40
0.0
 40
0.1080457164
 40
0.2181358425
 40
0.3321070103
 40
0.4514807217
 40
0.5774287264
 40
0.7107563961
 40
1.0
 40
1.0
 40
1.0
 40
1.0
 10
39.7343232645
 20
43.9878007542
 30
0.0
 10
39.691520893
 20
44.0125138152
 30
0.0
 10
39.6006489461
 20
44.0550968948
 30
0.0
 10
39.4535856828
 20
44.0957061701
 30
0.0
 10
39.2968442028
 20
44.1132219197
 30
0.0
 10
39.1320672459
 20
44.1074980272
 30
0.0
 10
38.9607873373
 20
44.0787777009
 30
0.0
 10
38.7195021229
 20
44.0083855027
 30
0.0
 10
38.5435410078
 20
43.924666433
 30
0.0
 10
38.4289555444
 20
43.8585108797
 30
0.0
  0
SPLINE
  5
40D
100
AcDbEntity
  8
0
100
AcDbSpline
 62
7
  6
CONTINUOUS
 70
0
 71
3
 72
15
 73
11
 74
0
 42
0.0000001
 43
0.0000001
 44
0.0000000001
 40
0.0
 40
0.0
 40
0.0
 40
0.0
 40
0.0954086068
 40
0.19547586
 40
0.3038335219
 40
0.4226175198
 40
0.5525266778
 40
0.6930660652
 40
0.8428920859
 40
1.0
 40
1.0
 40
1.0
 40
1.0
 10
51.9491129153
 20
50.2856577925
 30
0.0
 10
51.9965736575
 20
50.2582552098
 30
0.0
 10
52.0862486392
 20
50.1878824836
 30
0.0
 10
52.1908094083
 20
50.0459442361
 30
0.0
 10
52.2649751317
 20
49.8716895217
 30
0.0
 10
52.3077198534
 20
49.6700288929
 30
0.0
 10
52.3185410782
 20
49.4459112558
 30
0.0
 10
52.2975651886
 20
49.2047784743
 30
0.0
 10
52.2453507211
 20
48.9525905082
 30
0.0
 10
52.1915916942
 20
48.784312552
 30
0.0
 10
52.160047352
 20
48.6997610796
 30
0.0
  0
SPLINE
  5
40E
100
AcDbEntity
  8
0
100
AcDbSpline
 62
7
  6
CONTINUOUS
 70
0
 71
3
 72
13
 73
9
 74
0
 42
0.0000001
 43
0.0000001
 44
0.0000000001
 40
0.0
 40
0.0
 40
0.0
 40
0.0
 40
0.2668410261
 40
0.5315478236
 40
0.6585560861
 40
0.779774508
 40
0.8939574434
 40
1.0
 40
1.0
 40
1.0
 40
1.0
 10
52.1408604729
 20
48.6497775289
 30
0.0
 10
52.0780871141
 20
48.4907233527
 30
0.0
 10
51.9247382554
 20
48.1844907523
 30
0.0
 10
51.6748161776
 20
47.8417215817
 30
0.0
 10
51.4465496528
 20
47.604622715
 30
0.0
 10
51.2695172347
 20
47.4536414918
 30
0.0
 10
51.0881233465
 20
47.3304942895
 30
0.0
 10
50.9619967235
 20
47.266041731
 30
0.0
 10
50.8993069579
 20
47.2398202774
 30
0.0
  0
SPLINE
  5
40F
100
AcDbEntity
  8
0
100
AcDbSpline
 62
7
  6
CONTINUOUS
 70
0
 71
3
 72
17
 73
13
 74
0
 42
0.0000001
 43
0.0000001
 44
0.0000000001
 40
0.0
 40
0.0
 40
0.0
 40
0.0
 40
0.1343971181
 40
0.2827112993
 40
0.4356142478
 40
0.5838128029
 40
0.7183262836
 40
0.832469802
 40
0.881107972
 40
0.9243953932
 40
0.963402246
 40
1.0
 40
1.0
 40
1.0
 40
1.0
 10
34.4673888641
 20
64.6807225538
 30
0.0
 10
34.4493378104
 20
64.6911440988
 30
0.0
 10
34.4136717884
 20
64.7171051169
 30
0.0
 10
34.3654464776
 20
64.7646919234
 30
0.0
 10
34.3227145232
 20
64.8200169104
 30
0.0
 10
34.2887654652
 20
64.8786978229
 30
0.0
 10
34.2662256539
 20
64.9362186198
 30
0.0
 10
34.2577918753
 20
64.982081293
 30
0.0
 10
34.2592522039
 20
65.0141463254
 30
0.0
 10
34.2639649314
 20
65.034057123
 30
0.0
 10
34.2724257672
 20
65.0506667702
 30
0.0
 10
34.280616236
 20
65.0593410057
 30
0.0
 10
34.2851030918
 20
65.0628171888
 30
0.0
  0
SPLINE
  5
410
100
AcDbEntity
  8
0
100
AcDbSpline
 62
7
  6
CONTINUOUS
 70
0
 71
3
 72
17
 73
13
 74
0
 42
0.0000001
 43
0.0000001
 44
0.0000000001
 40
0.0
 40
0.0
 40
0.0
 40
0.0
 40
0.1343971181
 40
0.2827112993
 40
0.4356142478
 40
0.5838128029
 40
0.7183262836
 40
0.832469802
 40
0.881107972
 40
0.9243953932
 40
0.963402246
 40
1.0
 40
1.0
 40
1.0
 40
1.0
 10
42.3950788366
 20
60.1037721586
 30
0.0
 10
42.3770277829
 20
60.1141937035
 30
0.0
 10
42.341361761
 20
60.1401547217
 30
0.0
 10
42.2931364502
 20
60.1877415282
 30
0.0
 10
42.2504044958
 20
60.2430665151
 30
0.0
 10
42.2164554378
 20
60.3017474276
 30
0.0
 10
42.1939156264
 20
60.3592682245
 30
0.0
 10
42.1854818478
 20
60.4051308978
 30
0.0
 10
42.1869421765
 20
60.4371959302
 30
0.0
 10
42.1916549039
 20
60.4571067278
 30
0.0
 10
42.2001157397
 20
60.473716375
 30
0.0
 10
42.2083062085
 20
60.4823906105
 30
0.0
 10
42.2127930643
 20
60.4858667936
 30
0.0
  0
SPLINE
  5
411
100
AcDbEntity
  8
0
100
AcDbSpline
 62
7
  6
CONTINUOUS
 70
0
 71
3
 72
11
 73
7
 74
0
 42
0.0000001
 43
0.0000001
 44
0.0000000001
 40
0.0
 40
0.0
 40
0.0
 40
0.0
 40
0.2254575734
 40
0.4620879776
 40
0.7188060647
 40
1.0
 40
1.0
 40
1.0
 40
1.0
 10
37.4533624694
 20
58.654591494
 30
0.0
 10
37.4055552752
 20
58.68219624
 30
0.0
 10
37.2988934371
 20
58.7248833858
 30
0.0
 10
37.1221196491
 20
58.7441620092
 30
0.0
 10
36.9325601234
 20
58.7201987716
 30
0.0
 10
36.8067547926
 20
58.6786347221
 30
0.0
 10
36.7432353955
 20
58.6520662559
 30
0.0
  0
SPLINE
  5
412
100
AcDbEntity
  8
0
100
AcDbSpline
 62
7
  6
CONTINUOUS
 70
0
 71
3
 72
9
 73
5
 74
0
 42
0.0000001
 43
0.0000001
 44
0.0000000001
 40
0.0
 40
0.0
 40
0.0
 40
0.0
 40
0.2468396679
 40
1.0
 40
1.0
 40
1.0
 40
1.0
 10
34.7908081425
 20
60.1460496822
 30
0.0
 10
34.7954187002
 20
60.1404544466
 30
0.0
 10
34.8137271279
 20
60.1174838873
 30
0.0
 10
34.8305513092
 20
60.0933364883
 30
0.0
 10
34.8423734038
 20
60.074638822
 30
0.0
  0
SPLINE
  5
413
100
AcDbEntity
  8
0
100
AcDbSpline
 62
7
  6
CONTINUOUS
 70
0
 71
3
 72
20
 73
16
 74
0
 42
0.0000001
 43
0.0000001
 44
0.0000000001
 40
0.0
 40
0.0
 40
0.0
 40
0.0
 40
0.1419216362
 40
0.2894231673
 40
0.4361328478
 40
0.507267007
 40
0.5759229256
 40
0.6414809628
 40
0.7034589349
 40
0.7615321732
 40
0.8155988619
 40
0.8658215885
 40
0.9126833019
 40
0.957023714
 40
1.0
 40
1.0
 40
1.0
 40
1.0
 10
25.0011918957
 20
45.4349619923
 30
0.0
 10
24.8223166716
 20
45.6029790851
 30
0.0
 10
24.4873438069
 20
45.9782971876
 30
0.0
 10
24.0737417934
 20
46.6117915911
 30
0.0
 10
23.8075574631
 20
47.1876628236
 30
0.0
 10
23.6535665895
 20
47.6590082183
 30
0.0
 10
23.5714197486
 20
48.0049272235
 30
0.0
 10
23.5228859815
 20
48.3411921563
 30
0.0
 10
23.5086552984
 20
48.6624237844
 30
0.0
 10
23.5291668536
 20
48.9635285617
 30
0.0
 10
23.5841669301
 20
49.2397556563
 30
0.0
 10
23.673134718
 20
49.4867093019
 30
0.0
 10
23.7951866026
 20
49.700264643
 30
0.0
 10
23.9486429755
 20
49.8764218627
 30
0.0
 10
24.0712979096
 20
49.9669653063
 30
0.0
 10
24.1356552406
 20
50.0041238117
 30
0.0
  0
SPLINE
  5
414
100
AcDbEntity
  8
0
100
AcDbSpline
 62
7
  6
CONTINUOUS
 70
0
 71
3
 72
10
 73
6
 74
0
 42
0.0000001
 43
0.0000001
 44
0.0000000001
 40
0.0
 40
0.0
 40
0.0
 40
0.0
 40
0.2345850156
 40
0.4759846445
 40
1.0
 40
1.0
 40
1.0
 40
1.0
 10
28.1154840143
 20
68.7736506062
 30
0.0
 10
28.0949178962
 20
68.7855248438
 30
0.0
 10
28.0504420707
 20
68.8051841788
 30
0.0
 10
27.9508187164
 20
68.8261159144
 30
0.0
 10
27.8716031355
 20
68.8191570041
 30
0.0
 10
27.8198864375
 20
68.8073471523
 30
0.0
  0
SPLINE
  5
415
100
AcDbEntity
  8
0
100
AcDbSpline
 62
7
  6
CONTINUOUS
 70
0
 71
3
 72
11
 73
7
 74
0
 42
0.0000001
 43
0.0000001
 44
0.0000000001
 40
0.0
 40
0.0
 40
0.0
 40
0.0
 40
0.2254293877
 40
0.4620862908
 40
0.7188859188
 40
1.0
 40
1.0
 40
1.0
 40
1.0
 10
32.7470526848
 20
66.0996736743
 30
0.0
 10
32.7198765874
 20
66.1153785913
 30
0.0
 10
32.6592151204
 20
66.1396312973
 30
0.0
 10
32.558687226
 20
66.1506184905
 30
0.0
 10
32.4508947995
 20
66.1369555212
 30
0.0
 10
32.3793523793
 20
66.11334069
 30
0.0
 10
32.3432429409
 20
66.0982370769
 30
0.0
  0
SPLINE
  5
416
100
AcDbEntity
  8
0
100
AcDbSpline
 62
7
  6
CONTINUOUS
 70
0
 71
3
 72
12
 73
8
 74
0
 42
0.0000001
 43
0.0000001
 44
0.0000000001
 40
0.0
 40
0.0
 40
0.0
 40
0.0
 40
0.1040652977
 40
0.2108625624
 40
0.4408227696
 40
0.7030553408
 40
1.0
 40
1.0
 40
1.0
 40
1.0
 10
49.8944635508
 20
56.1998353701
 30
0.0
 10
49.9139105672
 20
56.1886072719
 30
0.0
 10
49.951110103
 20
56.1617751216
 30
0.0
 10
50.0161159083
 20
56.0916006518
 30
0.0
 10
50.0753856709
 20
55.9737980994
 30
0.0
 10
50.1060881466
 20
55.804717398
 30
0.0
 10
50.1018458848
 20
55.6832577954
 30
0.0
 10
50.0943620774
 20
55.6196203338
 30
0.0
  0
SPLINE
  5
417
100
AcDbEntity
  8
0
100
AcDbSpline
 62
7
  6
CONTINUOUS
 70
0
 71
3
 72
11
 73
7
 74
0
 42
0.0000001
 43
0.0000001
 44
0.0000000001
 40
0.0
 40
0.0
 40
0.0
 40
0.0
 40
0.2254293877
 40
0.4620862908
 40
0.7188859188
 40
1.0
 40
1.0
 40
1.0
 40
1.0
 10
45.9700045451
 20
58.4655715648
 30
0.0
 10
45.9428284476
 20
58.4812764817
 30
0.0
 10
45.8821669806
 20
58.5055291878
 30
0.0
 10
45.7816390863
 20
58.5165163809
 30
0.0
 10
45.6738466598
 20
58.5028534116
 30
0.0
 10
45.6023042396
 20
58.4792385805
 30
0.0
 10
45.5661948011
 20
58.4641349674
 30
0.0
  0
SPLINE
  5
418
100
AcDbEntity
  8
0
100
AcDbSpline
 62
7
  6
CONTINUOUS
 70
0
 71
3
 72
11
 73
7
 74
0
 42
0.0000001
 43
0.0000001
 44
0.0000000001
 40
0.0
 40
0.0
 40
0.0
 40
0.0
 40
0.2602719233
 40
0.5112253184
 40
0.7566967207
 40
1.0
 40
1.0
 40
1.0
 40
1.0
 10
46.6896092695
 20
58.1136920499
 30
0.0
 10
46.6698303154
 20
58.2355126581
 30
0.0
 10
46.611618253
 20
58.4723788947
 30
0.0
 10
46.4587330346
 20
58.7998669547
 30
0.0
 10
46.2410434074
 20
59.079057202
 30
0.0
 10
46.0547684875
 20
59.2220505812
 30
0.0
 10
45.9549413995
 20
59.2798840061
 30
0.0
  0
SPLINE
  5
419
100
AcDbEntity
  8
0
100
AcDbSpline
 62
7
  6
CONTINUOUS
 70
0
 71
3
 72
19
 73
15
 74
0
 42
0.0000001
 43
0.0000001
 44
0.0000000001
 40
0.0
 40
0.0
 40
0.0
 40
0.0
 40
0.0526441785
 40
0.1055441286
 40
0.1591021028
 40
0.2137418275
 40
0.2700021331
 40
0.3282879728
 40
0.3888780856
 40
0.4518526313
 40
0.5841826188
 40
0.722652188
 40
0.8628504598
 40
1.0
 40
1.0
 40
1.0
 40
1.0
 10
45.9533367646
 20
59.2808370664
 30
0.0
 10
45.8759998172
 20
59.325394321
 30
0.0
 10
45.711458023
 20
59.3992501965
 30
0.0
 10
45.446957304
 20
59.45972716
 30
0.0
 10
45.1726018359
 20
59.4706042564
 30
0.0
 10
44.8948969887
 20
59.4350120503
 30
0.0
 10
44.6180412971
 20
59.3565126806
 30
0.0
 10
44.3446257172
 20
59.2388371091
 30
0.0
 10
44.076786798
 20
59.084889618
 30
0.0
 10
43.7241867211
 20
58.8310506759
 30
0.0
 10
43.3133406543
 20
58.4374732347
 30
0.0
 10
42.890303106
 20
57.8805867026
 30
0.0
 10
42.5491612882
 20
57.2609125813
 30
0.0
 10
42.3850329971
 20
56.817846919
 30
0.0
 10
42.3227180622
 20
56.5938251636
 30
0.0
  0
SPLINE
  5
41A
100
AcDbEntity
  8
0
100
AcDbSpline
 62
7
  6
CONTINUOUS
 70
0
 71
3
 72
17
 73
13
 74
0
 42
0.0000001
 43
0.0000001
 44
0.0000000001
 40
0.0
 40
0.0
 40
0.0
 40
0.0
 40
0.0268770122
 40
0.0582527229
 40
0.0955814783
 40
0.1391622237
 40
0.2443022748
 40
0.3709244906
 40
0.5146259971
 40
0.6706400339
 40
0.8340734518
 40
1.0
 40
1.0
 40
1.0
 40
1.0
 10
45.3779829477
 20
58.4466918522
 30
0.0
 10
45.3566143005
 20
58.4529790214
 30
0.0
 10
45.3091016573
 20
58.4627809222
 30
0.0
 10
45.2296828635
 20
58.4663670864
 30
0.0
 10
45.1367838804
 20
58.4575442353
 30
0.0
 10
44.98578759
 20
58.4247590897
 30
0.0
 10
44.7730372712
 20
58.3375489897
 30
0.0
 10
44.5084767129
 20
58.1716384488
 30
0.0
 10
44.2380795571
 20
57.9425321119
 30
0.0
 10
43.9775714869
 20
57.6594389376
 30
0.0
 10
43.7396910696
 20
57.3341085088
 30
0.0
 10
43.6028239013
 20
57.0972258933
 30
0.0
 10
43.5405673919
 20
56.9746140922
 30
0.0
  0
SPLINE
  5
41B
100
AcDbEntity
  8
0
100
AcDbSpline
 62
7
  6
CONTINUOUS
 70
0
 71
3
 72
9
 73
5
 74
0
 42
0.0000001
 43
0.0000001
 44
0.0000000001
 40
0.0
 40
0.0
 40
0.0
 40
0.0
 40
0.2606797209
 40
1.0
 40
1.0
 40
1.0
 40
1.0
 10
33.9147964949
 20
60.2850292739
 30
0.0
 10
33.935162099
 20
60.2935476618
 30
0.0
 10
34.0140778677
 20
60.3242544432
 30
0.0
 10
34.0963043314
 20
60.3468259507
 30
0.0
 10
34.1580125363
 20
60.3574048551
 30
0.0
  0
SPLINE
  5
41C
100
AcDbEntity
  8
0
100
AcDbSpline
 62
7
  6
CONTINUOUS
 70
0
 71
3
 72
11
 73
7
 74
0
 42
0.0000001
 43
0.0000001
 44
0.0000000001
 40
0.0
 40
0.0
 40
0.0
 40
0.0
 40
0.2618745959
 40
0.5230394511
 40
0.7722665103
 40
1.0
 40
1.0
 40
1.0
 40
1.0
 10
33.2840974305
 20
59.377731763
 30
0.0
 10
33.2178491698
 20
59.2932331487
 30
0.0
 10
33.0984151625
 20
59.1139900094
 30
0.0
 10
32.9626268256
 20
58.8266856611
 30
0.0
 10
32.8761248593
 20
58.5354217266
 30
0.0
 10
32.8537972672
 20
58.3395901607
 30
0.0
 10
32.8540172658
 20
58.2462163077
 30
0.0
  0
SPLINE
  5
41D
100
AcDbEntity
  8
0
100
AcDbSpline
 62
7
  6
CONTINUOUS
 70
0
 71
3
 72
20
 73
16
 74
0
 42
0.0000001
 43
0.0000001
 44
0.0000000001
 40
0.0
 40
0.0
 40
0.0
 40
0.0
 40
0.0023016053
 40
0.0060224569
 40
0.019037272
 40
0.0399143001
 40
0.0687086983
 40
0.1053824745
 40
0.1498711753
 40
0.2021002045
 40
0.261990392
 40
0.4044256029
 40
0.5764725224
 40
0.7761403548
 40
1.0
 40
1.0
 40
1.0
 40
1.0
 10
32.2837128886
 20
61.3297797121
 30
0.0
 10
32.2841356457
 20
61.3303829338
 30
0.0
 10
32.2841683455
 20
61.3325384028
 30
0.0
 10
32.2814384187
 20
61.33797274
 30
0.0
 10
32.273726855
 20
61.347384199
 30
0.0
 10
32.2596351424
 20
61.3616067957
 30
0.0
 10
32.2391768467
 20
61.3802294989
 30
0.0
 10
32.2124110565
 20
61.4030688122
 30
0.0
 10
32.1793155354
 20
61.4300450899
 30
0.0
 10
32.1399300763
 20
61.4610453657
 30
0.0
 10
32.0752227328
 20
61.5105476985
 30
0.0
 10
31.97876436
 20
61.5816370588
 30
0.0
 10
31.844612511
 20
61.6769373224
 30
0.0
 10
31.6876489087
 20
61.7850880032
 30
0.0
 10
31.5751034584
 20
61.8606361516
 30
0.0
 10
31.5154038705
 20
61.9002460032
 30
0.0
  0
SPLINE
  5
41E
100
AcDbEntity
  8
0
100
AcDbSpline
 62
7
  6
CONTINUOUS
 70
0
 71
3
 72
13
 73
9
 74
0
 42
0.0000001
 43
0.0000001
 44
0.0000000001
 40
0.0
 40
0.0
 40
0.0
 40
0.0
 40
0.2378209946
 40
0.5035353637
 40
0.6376633005
 40
0.7676132684
 40
0.889625405
 40
1.0
 40
1.0
 40
1.0
 40
1.0
 10
31.5154038705
 20
61.9002460032
 30
0.0
 10
31.3041114411
 20
62.0404356104
 30
0.0
 10
30.8513420316
 20
62.3291472178
 30
0.0
 10
30.2657612936
 20
62.6749981825
 30
0.0
 10
29.7699180033
 20
62.9456975022
 30
0.0
 10
29.4037957436
 20
63.1340058826
 30
0.0
 10
29.0551024644
 20
63.3004645785
 30
0.0
 10
28.8274945768
 20
63.3986587248
 30
0.0
 10
28.7181255425
 20
63.4421083635
 30
0.0
  0
SPLINE
  5
41F
100
AcDbEntity
  8
0
100
AcDbSpline
 62
7
  6
CONTINUOUS
 70
0
 71
3
 72
17
 73
13
 74
0
 42
0.0000001
 43
0.0000001
 44
0.0000000001
 40
0.0
 40
0.0
 40
0.0
 40
0.0
 40
0.198245052
 40
0.3755415458
 40
0.5308767545
 40
0.6640788012
 40
0.7753881118
 40
0.8658704394
 40
0.9041676187
 40
0.9385919839
 40
0.9701003856
 40
1.0
 40
1.0
 40
1.0
 40
1.0
 10
28.7181255425
 20
63.4421083635
 30
0.0
 10
28.658890061
 20
63.4656411694
 30
0.0
 10
28.5459513061
 20
63.5084403504
 30
0.0
 10
28.3837413461
 20
63.5617891578
 30
0.0
 10
28.2389342996
 20
63.60040772
 30
0.0
 10
28.1124184347
 20
63.6242230016
 30
0.0
 10
28.0048880202
 20
63.6331744172
 30
0.0
 10
27.9272865089
 20
63.6279449121
 30
0.0
 10
27.876382745
 20
63.6145547713
 30
0.0
 10
27.845532954
 20
63.6010353671
 30
0.0
 10
27.8200228453
 20
63.583371421
 30
0.0
 10
27.8066210737
 20
63.568572956
 30
0.0
 10
27.8010934675
 20
63.5607079176
 30
0.0
  0
SPLINE
  5
420
100
AcDbEntity
  8
0
100
AcDbSpline
 62
7
  6
CONTINUOUS
 70
0
 71
3
 72
17
 73
13
 74
0
 42
0.0000001
 43
0.0000001
 44
0.0000000001
 40
0.0
 40
0.0
 40
0.0
 40
0.0
 40
0.035632905
 40
0.0669492013
 40
0.1079162764
 40
0.1582194233
 40
0.2171361542
 40
0.3564998566
 40
0.5162682555
 40
0.6848898412
 40
0.8503152675
 40
1.0
 40
1.0
 40
1.0
 40
1.0
 10
35.0957244026
 20
57.4661312537
 30
0.0
 10
35.0938164019
 20
57.4617177585
 30
0.0
 10
35.0828139397
 20
57.4591411597
 30
0.0
 10
35.0689964013
 20
57.4593383464
 30
0.0
 10
35.0522687347
 20
57.4611912269
 30
0.0
 10
35.0324467119
 20
57.4649965814
 30
0.0
 10
34.9998088309
 20
57.4729566646
 30
0.0
 10
34.9536412283
 20
57.4872546765
 30
0.0
 10
34.8943783469
 20
57.5090574118
 30
0.0
 10
34.8329192013
 20
57.5348601342
 30
0.0
 10
34.7738756776
 20
57.5627358793
 30
0.0
 10
34.7363115937
 20
57.5827177115
 30
0.0
 10
34.7188192619
 20
57.5928166855
 30
0.0
  0
SPLINE
  5
421
100
AcDbEntity
  8
0
100
AcDbSpline
 62
7
  6
CONTINUOUS
 70
0
 71
3
 72
20
 73
16
 74
0
 42
0.0000001
 43
0.0000001
 44
0.0000000001
 40
0.0
 40
0.0
 40
0.0
 40
0.0
 40
0.0023014863
 40
0.0060439904
 40
0.0191554143
 40
0.0401778996
 40
0.0691448189
 40
0.1059976717
 40
0.1506518895
 40
0.203012919
 40
0.2629817089
 40
0.4053346311
 40
0.5768920451
 40
0.776200348
 40
1.0
 40
1.0
 40
1.0
 40
1.0
 10
31.429522129
 20
60.1106602486
 30
0.0
 10
31.4299449323
 20
60.1112638474
 30
0.0
 10
31.4299608831
 20
60.1134317237
 30
0.0
 10
31.4271841765
 20
60.1188821074
 30
0.0
 10
31.4193917518
 20
60.1283474779
 30
0.0
 10
31.4051780549
 20
60.1426480155
 30
0.0
 10
31.3845765608
 20
60.1613712608
 30
0.0
 10
31.3576612382
 20
60.1843175216
 30
0.0
 10
31.3244261909
 20
60.2113984412
 30
0.0
 10
31.2849267372
 20
60.2424896233
 30
0.0
 10
31.2201618104
 20
60.2920522578
 30
0.0
 10
31.1238033662
 20
60.3631130973
 30
0.0
 10
30.9898677008
 20
60.4583470219
 30
0.0
 10
30.8330676899
 20
60.5663930444
 30
0.0
 10
30.7205659101
 20
60.6418886124
 30
0.0
 10
30.6608452292
 20
60.6814976391
 30
0.0
  0
SPLINE
  5
422
100
AcDbEntity
  8
0
100
AcDbSpline
 62
7
  6
CONTINUOUS
 70
0
 71
3
 72
24
 73
20
 74
0
 42
0.0000001
 43
0.0000001
 44
0.0000000001
 40
0.0
 40
0.0
 40
0.0
 40
0.0
 40
0.1434553254
 40
0.3034832078
 40
0.4684846144
 40
0.5492415989
 40
0.6269098213
 40
0.7000606953
 40
0.7672881861
 40
0.8272273987
 40
0.8786569487
 40
0.9010159779
 40
0.9211373839
 40
0.9390469801
 40
0.9548015455
 40
0.9685083264
 40
0.9803583703
 40
0.9906794849
 40
1.0
 40
1.0
 40
1.0
 40
1.0
 10
30.6608452292
 20
60.6814976391
 30
0.0
 10
30.4953981207
 20
60.7912284534
 30
0.0
 10
30.1419956294
 20
61.0182710123
 30
0.0
 10
29.587477547
 20
61.354359143
 30
0.0
 10
29.0979519113
 20
61.629825829
 30
0.0
 10
28.7015418535
 20
61.8377259206
 30
0.0
 10
28.4145103092
 20
61.9803427624
 30
0.0
 10
28.1408535958
 20
62.1075921821
 30
0.0
 10
27.88578196
 20
62.2163396723
 30
0.0
 10
27.6544501639
 20
62.3036062365
 30
0.0
 10
27.4774780757
 20
62.3584253171
 30
0.0
 10
27.3509313155
 20
62.3882448533
 30
0.0
 10
27.2686210304
 20
62.4030066955
 30
0.0
 10
27.1945745358
 20
62.4112396013
 30
0.0
 10
27.128938435
 20
62.4129298266
 30
0.0
 10
27.071823929
 20
62.4080488466
 30
0.0
 10
27.0232862033
 20
62.3964668005
 30
0.0
 10
26.9834401214
 20
62.3779194945
 30
0.0
 10
26.9623852021
 20
62.3600040632
 30
0.0
 10
26.9540298082
 20
62.3501773591
 30
0.0
  0
SPLINE
  5
423
100
AcDbEntity
  8
0
100
AcDbSpline
 62
7
  6
CONTINUOUS
 70
0
 71
3
 72
9
 73
5
 74
0
 42
0.0000001
 43
0.0000001
 44
0.0000000001
 40
0.0
 40
0.0
 40
0.0
 40
0.0
 40
0.2630030668
 40
1.0
 40
1.0
 40
1.0
 40
1.0
 10
39.6482938652
 20
57.0483027179
 30
0.0
 10
39.6720127546
 20
57.0564542154
 30
0.0
 10
39.7631035449
 20
57.0846132466
 30
0.0
 10
39.8582050361
 20
57.1008616295
 30
0.0
 10
39.9284356652
 20
57.1035370303
 30
0.0
  0
SPLINE
  5
424
100
AcDbEntity
  8
0
100
AcDbSpline
 62
7
  6
CONTINUOUS
 70
0
 71
3
 72
9
 73
5
 74
0
 42
0.0000001
 43
0.0000001
 44
0.0000000001
 40
0.0
 40
0.0
 40
0.0
 40
0.0
 40
0.2522495737
 40
1.0
 40
1.0
 40
1.0
 40
1.0
 10
38.6913271731
 20
54.4665451376
 30
0.0
 10
38.6974724961
 20
54.4607179927
 30
0.0
 10
38.7224864052
 20
54.4383156479
 30
0.0
 10
38.7501234188
 20
54.4188335336
 30
0.0
 10
38.7718592618
 20
54.4062725097
 30
0.0
  0
SPLINE
  5
425
100
AcDbEntity
  8
0
100
AcDbSpline
 62
7
  6
CONTINUOUS
 70
0
 71
3
 72
9
 73
5
 74
0
 42
0.0000001
 43
0.0000001
 44
0.0000000001
 40
0.0
 40
0.0
 40
0.0
 40
0.0
 40
0.4665825947
 40
1.0
 40
1.0
 40
1.0
 40
1.0
 10
36.8914056405
 20
59.2947283363
 30
0.0
 10
36.9340939613
 20
59.2091190026
 30
0.0
 10
36.9956470157
 20
59.010490183
 30
0.0
 10
37.009969895
 20
58.8045240596
 30
0.0
 10
37.0081174697
 20
58.6951746183
 30
0.0
  0
SPLINE
  5
426
100
AcDbEntity
  8
0
100
AcDbSpline
 62
7
  6
CONTINUOUS
 70
0
 71
3
 72
11
 73
7
 74
0
 42
0.0000001
 43
0.0000001
 44
0.0000000001
 40
0.0
 40
0.0
 40
0.0
 40
0.0
 40
0.2755353713
 40
0.5334894131
 40
0.7740555782
 40
1.0
 40
1.0
 40
1.0
 40
1.0
 10
35.3957964904
 20
56.1129314661
 30
0.0
 10
35.3262110155
 20
56.0745002468
 30
0.0
 10
35.1874091602
 20
56.0070886614
 30
0.0
 10
34.9751763178
 20
55.9353136724
 30
0.0
 10
34.7683852427
 20
55.8993189471
 30
0.0
 10
34.63293191
 20
55.8993746461
 30
0.0
 10
34.5680470014
 20
55.9056286981
 30
0.0
  0
SPLINE
  5
427
100
AcDbEntity
  8
0
100
AcDbSpline
 62
7
  6
CONTINUOUS
 70
0
 71
3
 72
9
 73
5
 74
0
 42
0.0000001
 43
0.0000001
 44
0.0000000001
 40
0.0
 40
0.0
 40
0.0
 40
0.0
 40
0.2530663976
 40
1.0
 40
1.0
 40
1.0
 40
1.0
 10
34.5680470014
 20
55.9056286981
 30
0.0
 10
34.5565049124
 20
55.9067412037
 30
0.0
 10
34.51097484
 20
55.9119126785
 30
0.0
 10
34.4657955109
 20
55.9202276549
 30
0.0
 10
34.4325245517
 20
55.9282510769
 30
0.0
  0
SPLINE
  5
428
100
AcDbEntity
  8
0
100
AcDbSpline
 62
7
  6
CONTINUOUS
 70
0
 71
3
 72
9
 73
5
 74
0
 42
0.0000001
 43
0.0000001
 44
0.0000000001
 40
0.0
 40
0.0
 40
0.0
 40
0.0
 40
0.4815399947
 40
1.0
 40
1.0
 40
1.0
 40
1.0
 10
33.7797132192
 20
55.7086949172
 30
0.0
 10
33.7063257191
 20
55.7730007568
 30
0.0
 10
33.5723515038
 20
55.9288547722
 30
0.0
 10
33.4837223598
 20
56.1133597181
 30
0.0
 10
33.4476272327
 20
56.2120209282
 30
0.0
  0
SPLINE
  5
429
100
AcDbEntity
  8
0
100
AcDbSpline
 62
7
  6
CONTINUOUS
 70
0
 71
3
 72
15
 73
11
 74
0
 42
0.0000001
 43
0.0000001
 44
0.0000000001
 40
0.0
 40
0.0
 40
0.0
 40
0.0
 40
0.1027506584
 40
0.2138407622
 40
0.3327395199
 40
0.4584982146
 40
0.5899665641
 40
0.7255043962
 40
0.8629576536
 40
1.0
 40
1.0
 40
1.0
 40
1.0
 10
33.4476272327
 20
56.2120209282
 30
0.0
 10
33.4120092042
 20
56.309378053
 30
0.0
 10
33.3574011357
 20
56.5193782306
 30
0.0
 10
33.322962063
 20
56.8543035936
 30
0.0
 10
33.3327270672
 20
57.2140052205
 30
0.0
 10
33.3869710527
 20
57.5904006356
 30
0.0
 10
33.4864257544
 20
57.9747474909
 30
0.0
 10
33.6273926423
 20
58.3583362119
 30
0.0
 10
33.8044928654
 20
58.7327588346
 30
0.0
 10
33.9444242203
 20
58.9722448173
 30
0.0
 10
34.019477987
 20
59.0883670517
 30
0.0
  0
SPLINE
  5
42A
100
AcDbEntity
  8
0
100
AcDbSpline
 62
7
  6
CONTINUOUS
 70
0
 71
3
 72
14
 73
10
 74
0
 42
0.0000001
 43
0.0000001
 44
0.0000000001
 40
0.0
 40
0.0
 40
0.0
 40
0.0
 40
0.1080452483
 40
0.2181360002
 40
0.3321100528
 40
0.4514868298
 40
0.5774360308
 40
0.7107592851
 40
1.0
 40
1.0
 40
1.0
 40
1.0
 10
24.1356552406
 20
50.0041238117
 30
0.0
 10
24.1848386913
 20
50.0325212528
 30
0.0
 10
24.2892571234
 20
50.0814556696
 30
0.0
 10
24.4582464835
 20
50.1281245252
 30
0.0
 10
24.6383602047
 20
50.1482479506
 30
0.0
 10
24.827707293
 20
50.1416738077
 30
0.0
 10
25.0245224533
 20
50.1086685027
 30
0.0
 10
25.3017793776
 20
50.0277898144
 30
0.0
 10
25.5039694776
 20
49.9315871557
 30
0.0
 10
25.6356375386
 20
49.8555703015
 30
0.0
  0
SPLINE
  5
42B
100
AcDbEntity
  8
0
100
AcDbSpline
 62
7
  6
CONTINUOUS
 70
0
 71
3
 72
20
 73
16
 74
0
 42
0.0000001
 43
0.0000001
 44
0.0000000001
 40
0.0
 40
0.0
 40
0.0
 40
0.0
 40
0.0022489536
 40
0.0059688682
 40
0.0192338622
 40
0.0408646835
 40
0.0709559887
 40
0.1092951601
 40
0.1556301053
 40
0.2096988441
 40
0.2712350097
 40
0.4156330502
 40
0.5866678866
 40
0.782177015
 40
1.0
 40
1.0
 40
1.0
 40
1.0
 10
30.5766965272
 20
58.8920878984
 30
0.0
 10
30.5771141616
 20
58.8926840706
 30
0.0
 10
30.5770960505
 20
58.8948568748
 30
0.0
 10
30.5741697243
 20
58.9003255737
 30
0.0
 10
30.565987044
 20
58.9099533471
 30
0.0
 10
30.5509752883
 20
58.924620493
 30
0.0
 10
30.5291465031
 20
58.9439871379
 30
0.0
 10
30.5006554814
 20
58.9678102399
 30
0.0
 10
30.4656279203
 20
58.9959192433
 30
0.0
 10
30.4242582404
 20
59.0281029842
 30
0.0
 10
30.3572153319
 20
59.0789689293
 30
0.0
 10
30.2588658764
 20
59.1511885402
 30
0.0
 10
30.1240804345
 20
59.2470147212
 30
0.0
 10
29.968461324
 20
59.3545210698
 30
0.0
 10
29.8574478403
 20
59.4291811399
 30
0.0
 10
29.7987193389
 20
59.4681857407
 30
0.0
  0
SPLINE
  5
42C
100
AcDbEntity
  8
0
100
AcDbSpline
 62
7
  6
CONTINUOUS
 70
0
 71
3
 72
11
 73
7
 74
0
 42
0.0000001
 43
0.0000001
 44
0.0000000001
 40
0.0
 40
0.0
 40
0.0
 40
0.0
 40
0.2318891995
 40
0.4931628717
 40
0.7577268566
 40
1.0
 40
1.0
 40
1.0
 40
1.0
 10
29.7987193389
 20
59.4681857407
 30
0.0
 10
29.6116838626
 20
59.5924055644
 30
0.0
 10
29.2090148264
 20
59.8492380785
 30
0.0
 10
28.5786579552
 20
60.2248756949
 30
0.0
 10
27.9271113441
 20
60.5838145133
 30
0.0
 10
27.485871169
 20
60.7995296747
 30
0.0
 10
27.2711443085
 20
60.8939820347
 30
0.0
  0
SPLINE
  5
42D
100
AcDbEntity
  8
0
100
AcDbSpline
 62
7
  6
CONTINUOUS
 70
0
 71
3
 72
9
 73
5
 74
0
 42
0.0000001
 43
0.0000001
 44
0.0000000001
 40
0.0
 40
0.0
 40
0.0
 40
0.0
 40
0.2590569588
 40
1.0
 40
1.0
 40
1.0
 40
1.0
 10
27.2711443085
 20
60.8939820347
 30
0.0
 10
27.2490110596
 20
60.9037178339
 30
0.0
 10
27.1634125385
 20
60.9409315202
 30
0.0
 10
27.0771521673
 20
60.9766343873
 30
0.0
 10
27.0128147056
 20
61.0020026198
 30
0.0
  0
SPLINE
  5
42E
100
AcDbEntity
  8
0
100
AcDbSpline
 62
7
  6
CONTINUOUS
 70
0
 71
3
 72
17
 73
13
 74
0
 42
0.0000001
 43
0.0000001
 44
0.0000000001
 40
0.0
 40
0.0
 40
0.0
 40
0.0
 40
0.1955806204
 40
0.3725949965
 40
0.5294186905
 40
0.6646614919
 40
0.7773981515
 40
0.8678066352
 40
0.9056297561
 40
0.939501662
 40
0.9705065245
 40
1.0
 40
1.0
 40
1.0
 40
1.0
 10
27.0128147056
 20
61.0020026198
 30
0.0
 10
26.9543415529
 20
61.0250585579
 30
0.0
 10
26.8422620822
 20
61.0672857872
 30
0.0
 10
26.6807535747
 20
61.1209710833
 30
0.0
 10
26.5354029233
 20
61.161244272
 30
0.0
 10
26.4077835256
 20
61.1873228103
 30
0.0
 10
26.2994372354
 20
61.1985743303
 30
0.0
 10
26.2214448208
 20
61.194624345
 30
0.0
 10
26.1708251389
 20
61.1815678985
 30
0.0
 10
26.1404537353
 20
61.1681976846
 30
0.0
 10
26.1154463601
 20
61.1506546215
 30
0.0
 10
26.1023249344
 20
61.1360258613
 30
0.0
 10
26.0968781156
 20
61.1282687491
 30
0.0
  0
SPLINE
  5
42F
100
AcDbEntity
  8
0
100
AcDbSpline
 62
7
  6
CONTINUOUS
 70
0
 71
3
 72
14
 73
10
 74
0
 42
0.0000001
 43
0.0000001
 44
0.0000000001
 40
0.0
 40
0.0
 40
0.0
 40
0.0
 40
0.2892438856
 40
0.4225653924
 40
0.5485134551
 40
0.6678898471
 40
0.7818641437
 40
0.8919544
 40
1.0
 40
1.0
 40
1.0
 40
1.0
 10
27.6862385141
 20
51.0394784357
 30
0.0
 10
27.5545689419
 20
51.1154961624
 30
0.0
 10
27.3523783544
 20
51.211700289
 30
0.0
 10
27.075120661
 20
51.2925769845
 30
0.0
 10
26.8783072087
 20
51.3255834831
 30
0.0
 10
26.6889607873
 20
51.3321546717
 30
0.0
 10
26.5088467247
 20
51.3120361728
 30
0.0
 10
26.3398578918
 20
51.2653639446
 30
0.0
 10
26.2354395657
 20
51.2164299849
 30
0.0
 10
26.1862554908
 20
51.1880331965
 30
0.0
  0
SPLINE
  5
430
100
AcDbEntity
  8
0
100
AcDbSpline
 62
7
  6
CONTINUOUS
 70
0
 71
3
 72
20
 73
16
 74
0
 42
0.0000001
 43
0.0000001
 44
0.0000000001
 40
0.0
 40
0.0
 40
0.0
 40
0.0
 40
0.0022447773
 40
0.0059317014
 40
0.0190336348
 40
0.0403667763
 40
0.0701656659
 40
0.1083232815
 40
0.1545740086
 40
0.2086404813
 40
0.2702406701
 40
0.4149024092
 40
0.586275904
 40
0.7820711651
 40
1.0
 40
1.0
 40
1.0
 40
1.0
 10
29.7214381346
 20
57.6738334714
 30
0.0
 10
29.7218562707
 20
57.674430608
 30
0.0
 10
29.7218557903
 20
57.6765932371
 30
0.0
 10
29.7189835308
 20
57.6820470654
 30
0.0
 10
29.7109100766
 20
57.6916080929
 30
0.0
 10
29.6960590784
 20
57.7061934216
 30
0.0
 10
29.6743578689
 20
57.7254730952
 30
0.0
 10
29.6459094186
 20
57.7492584549
 30
0.0
 10
29.6108228104
 20
57.7773947728
 30
0.0
 10
29.5693053747
 20
57.8096621564
 30
0.0
 10
29.5019283581
 20
57.8607281391
 30
0.0
 10
29.4030409561
 20
57.9332700193
 30
0.0
 10
29.2675350048
 20
58.0295348692
 30
0.0
 10
29.1111756872
 20
58.1374997198
 30
0.0
 10
28.9996780069
 20
58.2124693874
 30
0.0
 10
28.9407225801
 20
58.2516205424
 30
0.0
  0
SPLINE
  5
431
100
AcDbEntity
  8
0
100
AcDbSpline
 62
7
  6
CONTINUOUS
 70
0
 71
3
 72
24
 73
20
 74
0
 42
0.0000001
 43
0.0000001
 44
0.0000000001
 40
0.0
 40
0.0
 40
0.0
 40
0.0
 40
0.1432162079
 40
0.3042761047
 40
0.387525665
 40
0.4704292225
 40
0.551379033
 40
0.6287824863
 40
0.7012274406
 40
0.767679071
 40
0.8271797758
 40
0.878827161
 40
0.921833742
 40
0.939929456
 40
0.9557185633
 40
0.9692641198
 40
0.9808055177
 40
0.9908218687
 40
1.0
 40
1.0
 40
1.0
 40
1.0
 10
28.9407225801
 20
58.2516205424
 30
0.0
 10
28.775886513
 20
58.3610849761
 30
0.0
 10
28.4219096552
 20
58.5880020773
 30
0.0
 10
27.963217116
 20
58.864324904
 30
0.0
 10
27.5709442214
 20
59.0890917499
 30
0.0
 10
27.2718949938
 20
59.2538341175
 30
0.0
 10
26.9768599501
 20
59.4090062089
 30
0.0
 10
26.6911945653
 20
59.5507876412
 30
0.0
 10
26.4196983618
 20
59.6758068147
 30
0.0
 10
26.1668947243
 20
59.7819208544
 30
0.0
 10
25.9367222377
 20
59.8672684082
 30
0.0
 10
25.7330717677
 20
59.9299954114
 30
0.0
 10
25.5807171124
 20
59.9640586284
 30
0.0
 10
25.4751170427
 20
59.9765403559
 30
0.0
 10
25.4095003879
 20
59.9784547506
 30
0.0
 10
25.3530746327
 20
59.9732234434
 30
0.0
 10
25.305945944
 20
59.9604735921
 30
0.0
 10
25.2681743545
 20
59.9400502719
 30
0.0
 10
25.249227409
 20
59.9207755597
 30
0.0
 10
25.2419201237
 20
59.9104118552
 30
0.0
  0
SPLINE
  5
432
100
AcDbEntity
  8
0
100
AcDbSpline
 62
7
  6
CONTINUOUS
 70
0
 71
3
 72
9
 73
5
 74
0
 42
0.0000001
 43
0.0000001
 44
0.0000000001
 40
0.0
 40
0.0
 40
0.0
 40
0.0
 40
0.2362371028
 40
1.0
 40
1.0
 40
1.0
 40
1.0
 10
36.439792677
 20
59.1637003146
 30
0.0
 10
36.4421027819
 20
59.1285623224
 30
0.0
 10
36.4469525931
 20
58.979506102
 30
0.0
 10
36.4327446615
 20
58.8301081288
 30
0.0
 10
36.4137219419
 20
58.7178610115
 30
0.0
  0
SPLINE
  5
433
100
AcDbEntity
  8
0
100
AcDbSpline
 62
7
  6
CONTINUOUS
 70
0
 71
3
 72
9
 73
5
 74
0
 42
0.0000001
 43
0.0000001
 44
0.0000000001
 40
0.0
 40
0.0
 40
0.0
 40
0.0
 40
0.2597835872
 40
1.0
 40
1.0
 40
1.0
 40
1.0
 10
35.0043477395
 20
56.5454796953
 30
0.0
 10
34.9732234588
 20
56.5246182196
 30
0.0
 10
34.851712317
 20
56.4469361074
 30
0.0
 10
34.723053631
 20
56.380032842
 30
0.0
 10
34.624349291
 20
56.3393428918
 30
0.0
  0
SPLINE
  5
434
100
AcDbEntity
  8
0
100
AcDbSpline
 62
7
  6
CONTINUOUS
 70
0
 71
3
 72
22
 73
18
 74
0
 42
0.0000001
 43
0.0000001
 44
0.0000000001
 40
0.0
 40
0.0
 40
0.0
 40
0.0
 40
0.045092715
 40
0.0914580923
 40
0.140038282
 40
0.1915435106
 40
0.2464999211
 40
0.3052753846
 40
0.3678213546
 40
0.4337139764
 40
0.5023622729
 40
0.573081691
 40
0.7177104865
 40
0.790291449
 40
0.8620449831
 40
0.9322040863
 40
1.0
 40
1.0
 40
1.0
 40
1.0
 10
32.82321207
 20
56.2357149777
 30
0.0
 10
32.7618526177
 20
56.2713095536
 30
0.0
 10
32.6448306423
 20
56.3571054785
 30
0.0
 10
32.4959991031
 20
56.5212714164
 30
0.0
 10
32.3744222257
 20
56.7183651453
 30
0.0
 10
32.2820277262
 20
56.9451585646
 30
0.0
 10
32.2205924957
 20
57.1986455567
 30
0.0
 10
32.1924101471
 20
57.4752585497
 30
0.0
 10
32.1964350672
 20
57.7702864844
 30
0.0
 10
32.2310718979
 20
58.0788222248
 30
0.0
 10
32.2950816066
 20
58.3957210986
 30
0.0
 10
32.4187291415
 20
58.82538965
 30
0.0
 10
32.5947966569
 20
59.2451333288
 30
0.0
 10
32.8187025205
 20
59.64112042
 30
0.0
 10
33.0065610568
 20
59.9218260463
 30
0.0
 10
33.2103708877
 20
60.1816122234
 30
0.0
 10
33.3574905486
 20
60.3415478267
 30
0.0
 10
33.4330427491
 20
60.4168228803
 30
0.0
  0
SPLINE
  5
435
100
AcDbEntity
  8
0
100
AcDbSpline
 62
7
  6
CONTINUOUS
 70
0
 71
3
 72
15
 73
11
 74
0
 42
0.0000001
 43
0.0000001
 44
0.0000000001
 40
0.0
 40
0.0
 40
0.0
 40
0.0
 40
0.03542838
 40
0.0756974815
 40
0.171101305
 40
0.2852603885
 40
0.41461411
 40
0.5550679013
 40
0.7023549833
 40
1.0
 40
1.0
 40
1.0
 40
1.0
 10
26.0500215147
 20
59.1553252779
 30
0.0
 10
26.0560886724
 20
59.1350417962
 30
0.0
 10
26.0718080742
 20
59.0925169674
 30
0.0
 10
26.1158588648
 20
59.0001405754
 30
0.0
 10
26.1948446008
 20
58.8729834906
 30
0.0
 10
26.3162575791
 20
58.7107431451
 30
0.0
 10
26.4638693966
 20
58.5349502011
 30
0.0
 10
26.6317584857
 20
58.350662808
 30
0.0
 10
26.8752294795
 20
58.0994199214
 30
0.0
 10
27.067533735
 20
57.915650738
 30
0.0
 10
27.1981669233
 20
57.7949362313
 30
0.0
  0
SPLINE
  5
436
100
AcDbEntity
  8
0
100
AcDbSpline
 62
7
  6
CONTINUOUS
 70
0
 71
3
 72
13
 73
9
 74
0
 42
0.0000001
 43
0.0000001
 44
0.0000000001
 40
0.0
 40
0.0
 40
0.0
 40
0.0
 40
0.0952686892
 40
0.1814140647
 40
0.2949797637
 40
0.4351474056
 40
0.6005417135
 40
1.0
 40
1.0
 40
1.0
 40
1.0
 10
33.9272644402
 20
59.1395763557
 30
0.0
 10
33.9291372708
 20
59.1425322745
 30
0.0
 10
33.9377049173
 20
59.1425206489
 30
0.0
 10
33.9475936151
 20
59.1401254817
 30
0.0
 10
33.9596609021
 20
59.1360509097
 30
0.0
 10
33.9737734368
 20
59.1300973981
 30
0.0
 10
33.9972034173
 20
59.1189649157
 30
0.0
 10
34.0153979199
 20
59.1089885237
 30
0.0
 10
34.0281018308
 20
59.1016476392
 30
0.0
  0
SPLINE
  5
437
100
AcDbEntity
  8
0
100
AcDbSpline
 62
7
  6
CONTINUOUS
 70
0
 71
3
 72
15
 73
11
 74
0
 42
0.0000001
 43
0.0000001
 44
0.0000000001
 40
0.0
 40
0.0
 40
0.0
 40
0.0
 40
0.126223148
 40
0.2559422767
 40
0.3871487646
 40
0.5179409718
 40
0.6463476739
 40
0.7705132777
 40
0.8888670289
 40
1.0
 40
1.0
 40
1.0
 40
1.0
 10
37.8370672893
 20
40.8432992922
 30
0.0
 10
37.8708860549
 20
40.9644523571
 30
0.0
 10
37.951681512
 20
41.2068400735
 30
0.0
 10
38.1064170285
 20
41.5607706887
 30
0.0
 10
38.2935928901
 20
41.9038896707
 30
0.0
 10
38.5089255608
 20
42.2285018487
 30
0.0
 10
38.7476997097
 20
42.5273828506
 30
0.0
 10
39.0045996406
 20
42.7939704351
 30
0.0
 10
39.2739214262
 20
43.0222188896
 30
0.0
 10
39.4644213485
 20
43.1499524795
 30
0.0
 10
39.5603311046
 20
43.2053256725
 30
0.0
  0
SPLINE
  5
438
100
AcDbEntity
  8
0
100
AcDbSpline
 62
7
  6
CONTINUOUS
 70
0
 71
3
 72
14
 73
10
 74
0
 42
0.0000001
 43
0.0000001
 44
0.0000000001
 40
0.0
 40
0.0
 40
0.0
 40
0.0
 40
0.2892510001
 40
0.422574097
 40
0.5485230589
 40
0.6679023646
 40
0.7818806969
 40
0.8919666902
 40
1.0
 40
1.0
 40
1.0
 40
1.0
 10
39.5603311046
 20
43.2053256725
 30
0.0
 10
39.6749195963
 20
43.2714829741
 30
0.0
 10
39.8508813072
 20
43.3552055633
 30
0.0
 10
40.0921697454
 20
43.4255923116
 30
0.0
 10
40.2634502081
 20
43.454317908
 30
0.0
 10
40.4282341422
 20
43.4600294677
 30
0.0
 10
40.584979409
 20
43.4425134718
 30
0.0
 10
40.7320383306
 20
43.4019067973
 30
0.0
 10
40.8229088986
 20
43.3593388609
 30
0.0
 10
40.8657078724
 20
43.3346311807
 30
0.0
  0
SPLINE
  5
439
100
AcDbEntity
  8
0
100
AcDbSpline
 62
7
  6
CONTINUOUS
 70
0
 71
3
 72
18
 73
14
 74
0
 42
0.0000001
 43
0.0000001
 44
0.0000000001
 40
0.0
 40
0.0
 40
0.0
 40
0.0
 40
0.0592714163
 40
0.1219274686
 40
0.2550300361
 40
0.3945482553
 40
0.5346520977
 40
0.6694521446
 40
0.7332598778
 40
0.7939162343
 40
0.8510330663
 40
0.9044197186
 40
1.0
 40
1.0
 40
1.0
 40
1.0
 10
39.569240613
 20
43.1475172125
 30
0.0
 10
39.4892473172
 20
43.1013333373
 30
0.0
 10
39.3299710944
 20
42.9969707195
 30
0.0
 10
39.0197310967
 20
42.7478127002
 30
0.0
 10
38.657733795
 20
42.3674450122
 30
0.0
 10
38.2881306112
 20
41.838386029
 30
0.0
 10
37.9970085154
 20
41.2594334879
 30
0.0
 10
37.8315186928
 20
40.7556179954
 30
0.0
 10
37.7556152442
 20
40.3582777654
 30
0.0
 10
37.728540619
 20
40.076178457
 30
0.0
 10
37.7307512426
 20
39.8087675424
 30
0.0
 10
37.771072997
 20
39.4899526797
 30
0.0
 10
37.8462306178
 20
39.2649682566
 30
0.0
 10
37.9194788251
 20
39.1352713278
 30
0.0
  0
SPLINE
  5
43A
100
AcDbEntity
  8
0
100
AcDbSpline
 62
7
  6
CONTINUOUS
 70
0
 71
3
 72
10
 73
6
 74
0
 42
0.0000001
 43
0.0000001
 44
0.0000000001
 40
0.0
 40
0.0
 40
0.0
 40
0.0
 40
0.5117504582
 40
0.7574917601
 40
1.0
 40
1.0
 40
1.0
 40
1.0
 10
37.9194788251
 20
39.1352713278
 30
0.0
 10
37.9621620394
 20
39.0596942997
 30
0.0
 10
38.0387632782
 20
38.9542406689
 30
0.0
 10
38.1647789982
 20
38.8401153711
 30
0.0
 10
38.2336394746
 20
38.7934937945
 30
0.0
 10
38.2692625382
 20
38.772931914
 30
0.0
  0
SPLINE
  5
43B
100
AcDbEntity
  8
0
100
AcDbSpline
 62
7
  6
CONTINUOUS
 70
0
 71
3
 72
13
 73
9
 74
0
 42
0.0000001
 43
0.0000001
 44
0.0000000001
 40
0.0
 40
0.0
 40
0.0
 40
0.0
 40
0.0826941108
 40
0.1784124407
 40
0.2875131526
 40
0.4095419922
 40
0.6872051939
 40
1.0
 40
1.0
 40
1.0
 40
1.0
 10
26.9048353572
 20
60.3730434509
 30
0.0
 10
26.9118926341
 20
60.3495353809
 30
0.0
 10
26.9308559695
 20
60.2999297502
 30
0.0
 10
26.9691773209
 20
60.2235801081
 30
0.0
 10
27.0192717181
 20
60.1404110487
 30
0.0
 10
27.1046576672
 20
60.0157802808
 30
0.0
 10
27.235681736
 20
59.8495302539
 30
0.0
 10
27.3514320792
 20
59.7178722759
 30
0.0
 10
27.4140426599
 20
59.6493203326
 30
0.0
  0
SPLINE
  5
43C
100
AcDbEntity
  8
0
100
AcDbSpline
 62
7
  6
CONTINUOUS
 70
0
 71
3
 72
9
 73
5
 74
0
 42
0.0000001
 43
0.0000001
 44
0.0000000001
 40
0.0
 40
0.0
 40
0.0
 40
0.0
 40
0.4868061232
 40
1.0
 40
1.0
 40
1.0
 40
1.0
 10
33.3751731252
 20
55.9183370566
 30
0.0
 10
33.288998401
 20
55.968196431
 30
0.0
 10
33.1262454633
 20
56.0977584488
 30
0.0
 10
33.0092883501
 20
56.269043801
 30
0.0
 10
32.960634647
 20
56.3620414543
 30
0.0
  0
SPLINE
  5
43D
100
AcDbEntity
  8
0
100
AcDbSpline
 62
7
  6
CONTINUOUS
 70
0
 71
3
 72
9
 73
5
 74
0
 42
0.0000001
 43
0.0000001
 44
0.0000000001
 40
0.0
 40
0.0
 40
0.0
 40
0.0
 40
0.2439928799
 40
1.0
 40
1.0
 40
1.0
 40
1.0
 10
32.9538071475
 20
56.3752674103
 30
0.0
 10
32.9448986565
 20
56.3927576466
 30
0.0
 10
32.90992596
 20
56.4652202655
 30
0.0
 10
32.88098333
 20
56.5405448796
 30
0.0
 10
32.8621920032
 20
56.5983868833
 30
0.0
  0
SPLINE
  5
43E
100
AcDbEntity
  8
0
100
AcDbSpline
 62
7
  6
CONTINUOUS
 70
0
 71
3
 72
24
 73
20
 74
0
 42
0.0000001
 43
0.0000001
 44
0.0000000001
 40
0.0
 40
0.0
 40
0.0
 40
0.0
 40
0.0572678138
 40
0.1192074109
 40
0.1855048571
 40
0.2556650648
 40
0.3288498868
 40
0.4037915674
 40
0.4790761254
 40
0.5532557526
 40
0.6249494428
 40
0.6930829766
 40
0.7568374058
 40
0.8154831493
 40
0.8685323329
 40
0.9160249054
 40
0.9591109097
 40
0.9796998175
 40
1.0
 40
1.0
 40
1.0
 40
1.0
 10
32.8621920032
 20
56.5983868833
 30
0.0
 10
32.8279905408
 20
56.7036631707
 30
0.0
 10
32.7776817184
 20
56.9298575531
 30
0.0
 10
32.7538865006
 20
57.2887060006
 30
0.0
 10
32.7793536231
 20
57.672408425
 30
0.0
 10
32.8557241792
 20
58.0712980633
 30
0.0
 10
32.9800342578
 20
58.4752597888
 30
0.0
 10
33.1462443453
 20
58.8744901646
 30
0.0
 10
33.3491108021
 20
59.2585543785
 30
0.0
 10
33.5830179974
 20
59.6171323843
 30
0.0
 10
33.8431789943
 20
59.9397313565
 30
0.0
 10
34.1229135554
 20
60.2176590679
 30
0.0
 10
34.4130167425
 20
60.4459966
 30
0.0
 10
34.7054701265
 20
60.6198785048
 30
0.0
 10
34.9926095372
 20
60.7347314341
 30
0.0
 10
35.2681336556
 20
60.7847608958
 30
0.0
 10
35.4853410185
 20
60.7670282867
 30
0.0
 10
35.6408304342
 20
60.7187870788
 30
0.0
 10
35.7123726374
 20
60.6843809535
 30
0.0
 10
35.7463712719
 20
60.6647922029
 30
0.0
  0
SPLINE
  5
43F
100
AcDbEntity
  8
0
100
AcDbSpline
 62
7
  6
CONTINUOUS
 70
0
 71
3
 72
19
 73
15
 74
0
 42
0.0000001
 43
0.0000001
 44
0.0000000001
 40
0.0
 40
0.0
 40
0.0
 40
0.0
 40
0.0126553733
 40
0.0218977525
 40
0.0336777556
 40
0.065057354
 40
0.1063594191
 40
0.156605562
 40
0.2149660116
 40
0.3535720989
 40
0.5140805255
 40
0.6831073844
 40
0.8492968087
 40
1.0
 40
1.0
 40
1.0
 40
1.0
 10
39.9333805427
 20
55.6175782704
 30
0.0
 10
39.9344048776
 20
55.6189276348
 30
0.0
 10
39.934524086
 20
55.6222848804
 30
0.0
 10
39.9330417204
 20
55.6264769394
 30
0.0
 10
39.9298137331
 20
55.6327604159
 30
0.0
 10
39.923143714
 20
55.6419191182
 30
0.0
 10
39.9123911621
 20
55.6543897072
 30
0.0
 10
39.8984163979
 20
55.6688037153
 30
0.0
 10
39.8744259313
 20
55.691608376
 30
0.0
 10
39.8380589466
 20
55.7227571454
 30
0.0
 10
39.788672663
 20
55.761357229
 30
0.0
 10
39.7348925503
 20
55.8002612008
 30
0.0
 10
39.6808950084
 20
55.8365481051
 30
0.0
 10
39.6448192686
 20
55.8589038141
 30
0.0
 10
39.6273459054
 20
55.8689870537
 30
0.0
  0
SPLINE
  5
440
100
AcDbEntity
  8
0
100
AcDbSpline
 62
7
  6
CONTINUOUS
 70
0
 71
3
 72
9
 73
5
 74
0
 42
0.0000001
 43
0.0000001
 44
0.0000000001
 40
0.0
 40
0.0
 40
0.0
 40
0.0
 40
0.2481389738
 40
1.0
 40
1.0
 40
1.0
 40
1.0
 10
28.046627841
 20
57.6702220824
 30
0.0
 10
28.043085302
 20
57.6722669471
 30
0.0
 10
28.0285118164
 20
57.6799854087
 30
0.0
 10
28.0128003463
 20
57.6855273556
 30
0.0
 10
28.0007463504
 20
57.6884095926
 30
0.0
  0
SPLINE
  5
441
100
AcDbEntity
  8
0
100
AcDbSpline
 62
7
  6
CONTINUOUS
 70
0
 71
3
 72
11
 73
7
 74
0
 42
0.0000001
 43
0.0000001
 44
0.0000000001
 40
0.0
 40
0.0
 40
0.0
 40
0.0
 40
0.2016192256
 40
0.434438535
 40
0.7021774301
 40
1.0
 40
1.0
 40
1.0
 40
1.0
 10
28.0007463504
 20
57.6884095926
 30
0.0
 10
27.9743330308
 20
57.6947252947
 30
0.0
 10
27.9140815842
 20
57.6951724016
 30
0.0
 10
27.8234742837
 20
57.6643025871
 30
0.0
 10
27.7321525647
 20
57.6060309892
 30
0.0
 10
27.676516776
 20
57.5533411319
 30
0.0
 10
27.6496099026
 20
57.5235863849
 30
0.0
  0
SPLINE
  5
442
100
AcDbEntity
  8
0
100
AcDbSpline
 62
7
  6
CONTINUOUS
 70
0
 71
3
 72
13
 73
9
 74
0
 42
0.0000001
 43
0.0000001
 44
0.0000000001
 40
0.0
 40
0.0
 40
0.0
 40
0.0
 40
0.0691539813
 40
0.163171481
 40
0.2802819263
 40
0.4142307562
 40
0.7055819977
 40
1.0
 40
1.0
 40
1.0
 40
1.0
 10
28.8369128355
 20
57.2139763972
 30
0.0
 10
28.8252547869
 20
57.2207064019
 30
0.0
 10
28.7942455298
 20
57.2300898031
 30
0.0
 10
28.7398286705
 20
57.2348219194
 30
0.0
 10
28.6725512666
 20
57.2328675836
 30
0.0
 10
28.5674737435
 20
57.2222015937
 30
0.0
 10
28.4292423946
 20
57.1986481161
 30
0.0
 10
28.3177638578
 20
57.1746257775
 30
0.0
 10
28.2619738473
 20
57.1615145723
 30
0.0
  0
SPLINE
  5
443
100
AcDbEntity
  8
0
100
AcDbSpline
 62
7
  6
CONTINUOUS
 70
0
 71
3
 72
21
 73
17
 74
0
 42
0.0000001
 43
0.0000001
 44
0.0000000001
 40
0.0
 40
0.0
 40
0.0
 40
0.0
 40
0.0586332266
 40
0.1219931467
 40
0.1893862934
 40
0.2600189119
 40
0.4066905697
 40
0.5529746253
 40
0.6231519142
 40
0.6899374372
 40
0.752527086
 40
0.8104101597
 40
0.863443166
 40
0.9119795742
 40
0.9569778204
 40
1.0
 40
1.0
 40
1.0
 40
1.0
 10
51.1682737885
 20
50.3239548637
 30
0.0
 10
51.101578024
 20
50.2960578078
 30
0.0
 10
50.9674110588
 20
50.2266959334
 30
0.0
 10
50.7752607803
 20
50.0930883373
 30
0.0
 10
50.588545524
 20
49.9286241611
 30
0.0
 10
50.3499207181
 20
49.6704964477
 30
0.0
 10
50.0938491558
 20
49.2993536824
 30
0.0
 10
49.9065156332
 20
48.8897748337
 30
0.0
 10
49.8082042141
 20
48.554118661
 30
0.0
 10
49.7638260413
 20
48.3115910088
 30
0.0
 10
49.7489601949
 20
48.0805856822
 30
0.0
 10
49.7639557669
 20
47.8664217946
 30
0.0
 10
49.8088166193
 20
47.6739911164
 30
0.0
 10
49.8830703481
 20
47.5077767104
 30
0.0
 10
49.9856095806
 20
47.3721886117
 30
0.0
 10
50.0725306157
 20
47.3046447247
 30
0.0
 10
50.1184689115
 20
47.2781191147
 30
0.0
  0
SPLINE
  5
444
100
AcDbEntity
  8
0
100
AcDbSpline
 62
7
  6
CONTINUOUS
 70
0
 71
3
 72
15
 73
11
 74
0
 42
0.0000001
 43
0.0000001
 44
0.0000000001
 40
0.0
 40
0.0
 40
0.0
 40
0.0
 40
0.1068803704
 40
0.223771174
 40
0.3487753714
 40
0.4795353631
 40
0.6131144809
 40
0.7464015543
 40
0.8763149612
 40
1.0
 40
1.0
 40
1.0
 40
1.0
 10
49.1176555856
 20
51.5078530518
 30
0.0
 10
49.0365623458
 20
51.4739339167
 30
0.0
 10
48.8735913757
 20
51.3861692368
 30
0.0
 10
48.6439227437
 20
51.2129133987
 30
0.0
 10
48.4248498743
 20
50.9974420783
 30
0.0
 10
48.2238497809
 20
50.7473234533
 30
0.0
 10
48.0477567836
 20
50.4710118672
 30
0.0
 10
47.902616479
 20
50.1780175249
 30
0.0
 10
47.7933957518
 20
49.8784846197
 30
0.0
 10
47.7455864233
 20
49.6747846794
 30
0.0
 10
47.7292428151
 20
49.5743844261
 30
0.0
  0
SPLINE
  5
445
100
AcDbEntity
  8
0
100
AcDbSpline
 62
7
  6
CONTINUOUS
 70
0
 71
3
 72
14
 73
10
 74
0
 42
0.0000001
 43
0.0000001
 44
0.0000000001
 40
0.0
 40
0.0
 40
0.0
 40
0.0
 40
0.2892528327
 40
0.4225736876
 40
0.548522262
 40
0.6679021305
 40
0.7818810423
 40
0.8919661197
 40
1.0
 40
1.0
 40
1.0
 40
1.0
 10
40.4531277694
 20
42.6372162693
 30
0.0
 10
40.567243002
 20
42.7031003363
 30
0.0
 10
40.742476153
 20
42.7864782241
 30
0.0
 10
40.9827668486
 20
42.8565710779
 30
0.0
 10
41.1533377395
 20
42.8851792463
 30
0.0
 10
41.3174403349
 20
42.8908646385
 30
0.0
 10
41.4735378766
 20
42.8734256616
 30
0.0
 10
41.6199880998
 20
42.8329842489
 30
0.0
 10
41.7104824971
 20
42.7905925347
 30
0.0
 10
41.753104786
 20
42.7659871383
 30
0.0
  0
SPLINE
  5
446
100
AcDbEntity
  8
0
100
AcDbSpline
 62
7
  6
CONTINUOUS
 70
0
 71
3
 72
18
 73
14
 74
0
 42
0.0000001
 43
0.0000001
 44
0.0000000001
 40
0.0
 40
0.0
 40
0.0
 40
0.0
 40
0.015077442
 40
0.0373756753
 40
0.0690527992
 40
0.1102976257
 40
0.1607838191
 40
0.2197763226
 40
0.3590019828
 40
0.5183102236
 40
0.6862697509
 40
0.850967303
 40
1.0
 40
1.0
 40
1.0
 40
1.0
 10
38.3663907323
 20
55.5774693078
 30
0.0
 10
38.3654898684
 20
55.5756442919
 30
0.0
 10
38.3610472515
 20
55.5724102613
 30
0.0
 10
38.3517874269
 20
55.5709085967
 30
0.0
 10
38.3388931781
 20
55.5709732419
 30
0.0
 10
38.3223342087
 20
55.572984108
 30
0.0
 10
38.3023443507
 20
55.5768273194
 30
0.0
 10
38.2697367106
 20
55.5848615763
 30
0.0
 10
38.2236089165
 20
55.5991812473
 30
0.0
 10
38.1645080749
 20
55.6209714129
 30
0.0
 10
38.1032653155
 20
55.6467103307
 30
0.0
 10
38.044458495
 20
55.6744937997
 30
0.0
 10
38.0070482692
 20
55.6943997309
 30
0.0
 10
37.9896260065
 20
55.7044582514
 30
0.0
  0
SPLINE
  5
447
100
AcDbEntity
  8
0
100
AcDbSpline
 62
7
  6
CONTINUOUS
 70
0
 71
3
 72
9
 73
5
 74
0
 42
0.0000001
 43
0.0000001
 44
0.0000000001
 40
0.0
 40
0.0
 40
0.0
 40
0.0
 40
0.2556994855
 40
1.0
 40
1.0
 40
1.0
 40
1.0
 10
27.9513067299
 20
50.8672088814
 30
0.0
 10
27.9294633022
 20
50.8829959707
 30
0.0
 10
27.843304393
 20
50.9437121217
 30
0.0
 10
27.7541791779
 20
51.000253771
 30
0.0
 10
27.6862385141
 20
51.0394784357
 30
0.0
  0
SPLINE
  5
448
100
AcDbEntity
  8
0
100
AcDbSpline
 62
7
  6
CONTINUOUS
 70
0
 71
3
 72
11
 73
7
 74
0
 42
0.0000001
 43
0.0000001
 44
0.0000000001
 40
0.0
 40
0.0
 40
0.0
 40
0.0
 40
0.2812032047
 40
0.5379199886
 40
0.7745450934
 40
1.0
 40
1.0
 40
1.0
 40
1.0
 10
51.238984761
 20
50.2831307882
 30
0.0
 10
51.3025063216
 20
50.3097001594
 30
0.0
 10
51.4283136755
 20
50.3512652081
 30
0.0
 10
51.6178741872
 20
50.3752266828
 30
0.0
 10
51.7946460988
 20
50.3559483317
 30
0.0
 10
51.9013053114
 20
50.313260644
 30
0.0
 10
51.9491129153
 20
50.2856577925
 30
0.0
  0
SPLINE
  5
449
100
AcDbEntity
  8
0
100
AcDbSpline
 62
7
  6
CONTINUOUS
 70
0
 71
3
 72
28
 73
24
 74
0
 42
0.0000001
 43
0.0000001
 44
0.0000000001
 40
0.0
 40
0.0
 40
0.0
 40
0.0
 40
0.0213861943
 40
0.0436781933
 40
0.0671406237
 40
0.0919738079
 40
0.1462370412
 40
0.2072480548
 40
0.2744448925
 40
0.3464297874
 40
0.421557984
 40
0.4597908853
 40
0.4981912958
 40
0.5746465144
 40
0.6492515537
 40
0.72032563
 40
0.754091815
 40
0.786468713
 40
0.8467872599
 40
0.901690262
 40
0.9521472585
 40
0.9762693332
 40
1.0
 40
1.0
 40
1.0
 40
1.0
 10
38.5363642058
 20
52.9593022688
 30
0.0
 10
38.5022397145
 20
52.990851319
 30
0.0
 10
38.4379487455
 20
53.0613462865
 30
0.0
 10
38.3571801047
 20
53.1834461531
 30
0.0
 10
38.2910738387
 20
53.3223842483
 30
0.0
 10
38.2214098722
 20
53.5346056172
 30
0.0
 10
38.1782613077
 20
53.8385815618
 30
0.0
 10
38.1981886731
 20
54.236357095
 30
0.0
 10
38.283304312
 20
54.6642783388
 30
0.0
 10
38.4294407719
 20
55.1075302703
 30
0.0
 10
38.5978244246
 20
55.474402759
 30
0.0
 10
38.7598739186
 20
55.7618102445
 30
0.0
 10
38.9398268305
 20
56.041799826
 30
0.0
 10
39.1913125834
 20
56.3689560094
 30
0.0
 10
39.5266206838
 20
56.7175293601
 30
0.0
 10
39.8292716008
 20
56.9653273319
 30
0.0
 10
40.0789838901
 20
57.1287890346
 30
0.0
 10
40.3201797568
 20
57.2609594811
 30
0.0
 10
40.6210600028
 20
57.3779552834
 30
0.0
 10
40.978805501
 20
57.4382036806
 30
0.0
 10
41.2630288037
 20
57.4168898007
 30
0.0
 10
41.4683176393
 20
57.3553940496
 30
0.0
 10
41.5627461549
 20
57.3106515467
 30
0.0
 10
41.6074486767
 20
57.2849414757
 30
0.0
  0
SPLINE
  5
44A
100
AcDbEntity
  8
0
100
AcDbSpline
 62
7
  6
CONTINUOUS
 70
0
 71
3
 72
9
 73
5
 74
0
 42
0.0000001
 43
0.0000001
 44
0.0000000001
 40
0.0
 40
0.0
 40
0.0
 40
0.0
 40
0.4999368359
 40
1.0
 40
1.0
 40
1.0
 40
1.0
 10
19.7133313436
 20
63.3620712213
 30
0.0
 10
19.53657624
 20
63.4641185193
 30
0.0
 10
19.1831552821
 20
63.6684708216
 30
0.0
 10
18.8294665233
 20
63.8723592689
 30
0.0
 10
18.6526667559
 20
63.974432353
 30
0.0
  0
SPLINE
  5
44B
100
AcDbEntity
  8
0
100
AcDbSpline
 62
7
  6
CONTINUOUS
 70
0
 71
3
 72
11
 73
7
 74
0
 42
0.0000001
 43
0.0000001
 44
0.0000000001
 40
0.0
 40
0.0
 40
0.0
 40
0.0
 40
0.1827045904
 40
0.4014615991
 40
0.6740416073
 40
1.0
 40
1.0
 40
1.0
 40
1.0
 10
33.3583421585
 20
60.4798586793
 30
0.0
 10
33.3641952986
 20
60.4850181426
 30
0.0
 10
33.3805744532
 20
60.4925101405
 30
0.0
 10
33.4099063572
 20
60.4920121873
 30
0.0
 10
33.4436461289
 20
60.4821771765
 30
0.0
 10
33.466638835
 20
60.4707469496
 30
0.0
 10
33.4786942082
 20
60.4637869341
 30
0.0
  0
SPLINE
  5
44C
100
AcDbEntity
  8
0
100
AcDbSpline
 62
7
  6
CONTINUOUS
 70
0
 71
3
 72
11
 73
7
 74
0
 42
0.0000001
 43
0.0000001
 44
0.0000000001
 40
0.0
 40
0.0
 40
0.0
 40
0.0
 40
0.3001844149
 40
0.5633133583
 40
0.7921293035
 40
1.0
 40
1.0
 40
1.0
 40
1.0
 10
37.4657372459
 20
49.6287581927
 30
0.0
 10
37.4429524293
 20
49.6419127151
 30
0.0
 10
37.4019355169
 20
49.6699207967
 30
0.0
 10
37.3531435626
 20
49.7201679577
 30
0.0
 10
37.3233445097
 20
49.7748970164
 30
0.0
 10
37.3179913582
 20
49.813922276
 30
0.0
 10
37.3192372281
 20
49.8320983355
 30
0.0
  0
SPLINE
  5
44D
100
AcDbEntity
  8
0
100
AcDbSpline
 62
7
  6
CONTINUOUS
 70
0
 71
3
 72
14
 73
10
 74
0
 42
0.0000001
 43
0.0000001
 44
0.0000000001
 40
0.0
 40
0.0
 40
0.0
 40
0.0
 40
0.2081922128
 40
0.3964401168
 40
0.5617549614
 40
0.7015957648
 40
0.8148088533
 40
0.9010061544
 40
1.0
 40
1.0
 40
1.0
 40
1.0
 10
37.7663148684
 20
50.768360064
 30
0.0
 10
37.7529961722
 20
50.7760494429
 30
0.0
 10
37.7278109872
 20
50.791008703
 30
0.0
 10
37.6927892393
 20
50.8132523657
 30
0.0
 10
37.6627464412
 20
50.8339900771
 30
0.0
 10
37.6382926384
 20
50.8526915503
 30
0.0
 10
37.6193306622
 20
50.8697039031
 30
0.0
 10
37.6051446884
 20
50.8851672635
 30
0.0
 10
37.5971272075
 20
50.9001321562
 30
0.0
 10
37.6000934535
 20
50.9068161394
 30
0.0
  0
SPLINE
  5
44E
100
AcDbEntity
  8
0
100
AcDbSpline
 62
7
  6
CONTINUOUS
 70
0
 71
3
 72
17
 73
13
 74
0
 42
0.0000001
 43
0.0000001
 44
0.0000000001
 40
0.0
 40
0.0
 40
0.0
 40
0.0
 40
0.0397712443
 40
0.0815690494
 40
0.1270629769
 40
0.1772550793
 40
0.2927892454
 40
0.4267897438
 40
0.573089895
 40
0.7232406756
 40
0.8683401038
 40
1.0
 40
1.0
 40
1.0
 40
1.0
 10
38.3166802027
 20
49.761216293
 30
0.0
 10
38.3158315036
 20
49.7484940368
 30
0.0
 10
38.3103925966
 20
49.7225180769
 30
0.0
 10
38.2916019713
 20
49.6859194793
 30
0.0
 10
38.2628716509
 20
49.6520690394
 30
0.0
 10
38.2099520657
 20
49.6093212138
 30
0.0
 10
38.1220204761
 20
49.5676261208
 30
0.0
 10
37.9979897482
 20
49.5380592333
 30
0.0
 10
37.8597100747
 20
49.5287886209
 30
0.0
 10
37.718101564
 20
49.5405293868
 30
0.0
 10
37.5844828045
 20
49.5724171189
 30
0.0
 10
37.5022921591
 20
49.6076536812
 30
0.0
 10
37.4657372459
 20
49.6287581927
 30
0.0
  0
SPLINE
  5
44F
100
AcDbEntity
  8
0
100
AcDbSpline
 62
7
  6
CONTINUOUS
 70
0
 71
3
 72
20
 73
16
 74
0
 42
0.0000001
 43
0.0000001
 44
0.0000000001
 40
0.0
 40
0.0
 40
0.0
 40
0.0
 40
0.0135282879
 40
0.0229708142
 40
0.0346981632
 40
0.0654695873
 40
0.1061676318
 40
0.156313579
 40
0.2151242445
 40
0.2816424268
 40
0.3546429652
 40
0.51479087
 40
0.6838794255
 40
0.8497594315
 40
1.0
 40
1.0
 40
1.0
 40
1.0
 10
38.5130091547
 20
50.4987753257
 30
0.0
 10
38.5115338517
 20
50.4954509552
 30
0.0
 10
38.5058078346
 20
50.4915253897
 30
0.0
 10
38.4968365077
 20
50.4893338201
 30
0.0
 10
38.4828594719
 20
50.4879013825
 30
0.0
 10
38.4604621348
 20
50.4892828329
 30
0.0
 10
38.4281530719
 20
50.4944507055
 30
0.0
 10
38.3889098967
 20
50.5034292289
 30
0.0
 10
38.3434393961
 20
50.5160385988
 30
0.0
 10
38.2925891989
 20
50.5321102826
 30
0.0
 10
38.2164850501
 20
50.5585693727
 30
0.0
 10
38.1157078103
 20
50.5978972528
 30
0.0
 10
37.9936782352
 20
50.651147357
 30
0.0
 10
37.8762086694
 20
50.7079375089
 30
0.0
 10
37.8012951967
 20
50.7481646189
 30
0.0
 10
37.7663148684
 20
50.768360064
 30
0.0
  0
SPLINE
  5
450
100
AcDbEntity
  8
0
100
AcDbSpline
 62
7
  6
CONTINUOUS
 70
0
 71
3
 72
9
 73
5
 74
0
 42
0.0000001
 43
0.0000001
 44
0.0000000001
 40
0.0
 40
0.0
 40
0.0
 40
0.0
 40
0.503037705
 40
1.0
 40
1.0
 40
1.0
 40
1.0
 10
29.0162044825
 20
64.8346108385
 30
0.0
 10
28.9769616969
 20
64.7786557125
 30
0.0
 10
28.9191321358
 20
64.6519607284
 30
0.0
 10
28.9104496395
 20
64.5127366684
 30
0.0
 10
28.9193732801
 20
64.4458098762
 30
0.0
  0
SPLINE
  5
451
100
AcDbEntity
  8
0
100
AcDbSpline
 62
7
  6
CONTINUOUS
 70
0
 71
3
 72
11
 73
7
 74
0
 42
0.0000001
 43
0.0000001
 44
0.0000000001
 40
0.0
 40
0.0
 40
0.0
 40
0.0
 40
0.2600741527
 40
0.5127026916
 40
0.7582957611
 40
1.0
 40
1.0
 40
1.0
 40
1.0
 10
28.9193732801
 20
64.4458098762
 30
0.0
 10
28.9246926217
 20
64.405915119
 30
0.0
 10
28.9445668788
 20
64.3281417774
 30
0.0
 10
29.001708536
 20
64.2241508952
 30
0.0
 10
29.0825774771
 20
64.1410950296
 30
0.0
 10
29.1492300282
 20
64.1032983028
 30
0.0
 10
29.1840776204
 20
64.0897049977
 30
0.0
  0
SPLINE
  5
452
100
AcDbEntity
  8
0
100
AcDbSpline
 62
7
  6
CONTINUOUS
 70
0
 71
3
 72
9
 73
5
 74
0
 42
0.0000001
 43
0.0000001
 44
0.0000000001
 40
0.0
 40
0.0
 40
0.0
 40
0.0
 40
0.2495896196
 40
1.0
 40
1.0
 40
1.0
 40
1.0
 10
27.9924073738
 20
61.1944443924
 30
0.0
 10
27.9830670261
 20
61.1811217074
 30
0.0
 10
27.9437068134
 20
61.1291203039
 30
0.0
 10
27.8975085092
 20
61.0823594311
 30
0.0
 10
27.8600618803
 20
61.0508819385
 30
0.0
  0
SPLINE
  5
453
100
AcDbEntity
  8
0
100
AcDbSpline
 62
7
  6
CONTINUOUS
 70
0
 71
3
 72
9
 73
5
 74
0
 42
0.0000001
 43
0.0000001
 44
0.0000000001
 40
0.0
 40
0.0
 40
0.0
 40
0.0
 40
0.2411728598
 40
1.0
 40
1.0
 40
1.0
 40
1.0
 10
29.2611980197
 20
64.5364108402
 30
0.0
 10
29.2623655026
 20
64.516180869
 30
0.0
 10
29.2707310616
 20
64.4325292287
 30
0.0
 10
29.2928362066
 20
64.3503403625
 30
0.0
 10
29.3162722823
 20
64.2910463752
 30
0.0
  0
SPLINE
  5
454
100
AcDbEntity
  8
0
100
AcDbSpline
 62
7
  6
CONTINUOUS
 70
0
 71
3
 72
10
 73
6
 74
0
 42
0.0000001
 43
0.0000001
 44
0.0000000001
 40
0.0
 40
0.0
 40
0.0
 40
0.0
 40
0.2484483219
 40
0.5023966564
 40
1.0
 40
1.0
 40
1.0
 40
1.0
 10
29.3215759878
 20
64.2779543216
 30
0.0
 10
29.3385248929
 20
64.2371169084
 30
0.0
 10
29.3795411965
 20
64.1570262336
 30
0.0
 10
29.4857104215
 20
64.0140707488
 30
0.0
 10
29.5967973712
 20
63.9287770701
 30
0.0
 10
29.6793009861
 20
63.8966017486
 30
0.0
  0
SPLINE
  5
455
100
AcDbEntity
  8
0
100
AcDbSpline
 62
7
  6
CONTINUOUS
 70
0
 71
3
 72
22
 73
18
 74
0
 42
0.0000001
 43
0.0000001
 44
0.0000000001
 40
0.0
 40
0.0
 40
0.0
 40
0.0
 40
0.0428367639
 40
0.0874182638
 40
0.1352084826
 40
0.1871252203
 40
0.2435782764
 40
0.304545015
 40
0.3696501224
 40
0.4382665546
 40
0.5095733069
 40
0.5826166403
 40
0.7296339594
 40
0.8016274503
 40
0.8712322662
 40
0.9376228864
 40
1.0
 40
1.0
 40
1.0
 40
1.0
 10
39.1531641289
 20
38.2626560333
 30
0.0
 10
39.0890255203
 20
38.2996558327
 30
0.0
 10
38.9674984782
 20
38.3926773566
 30
0.0
 10
38.8212751984
 20
38.5776079344
 30
0.0
 10
38.7120461357
 20
38.8037470963
 30
0.0
 10
38.6412918317
 20
39.0655790699
 30
0.0
 10
38.6097847414
 20
39.3576006175
 30
0.0
 10
38.6178656459
 20
39.673797602
 30
0.0
 10
38.665115001
 20
40.0076560038
 30
0.0
 10
38.7505170708
 20
40.3521855234
 30
0.0
 10
38.872277404
 20
40.7001552571
 30
0.0
 10
39.0798940046
 20
41.1595151087
 30
0.0
 10
39.3458333643
 20
41.5920907639
 30
0.0
 10
39.6601180151
 20
41.9801722738
 30
0.0
 10
39.9113617297
 20
42.2381483859
 30
0.0
 10
40.1741925739
 20
42.4592468838
 30
0.0
 10
40.3597509722
 20
42.5833054721
 30
0.0
 10
40.4531277694
 20
42.6372162693
 30
0.0
  0
SPLINE
  5
456
100
AcDbEntity
  8
0
100
AcDbSpline
 62
7
  6
CONTINUOUS
 70
0
 71
3
 72
14
 73
10
 74
0
 42
0.0000001
 43
0.0000001
 44
0.0000000001
 40
0.0
 40
0.0
 40
0.0
 40
0.0
 40
0.3052820879
 40
0.444724523
 40
0.5738016959
 40
0.6923403287
 40
0.8012805128
 40
0.9027138221
 40
1.0
 40
1.0
 40
1.0
 40
1.0
 10
31.053413667
 20
65.6068740301
 30
0.0
 10
31.0331105883
 20
65.5416947162
 30
0.0
 10
31.0117437672
 20
65.4435613616
 30
0.0
 10
31.0069508136
 20
65.3150663826
 30
0.0
 10
31.0152297545
 20
65.2285940016
 30
0.0
 10
31.0353352896
 20
65.1510408492
 30
0.0
 10
31.066904371
 20
65.0840289434
 30
0.0
 10
31.1096572739
 20
65.0293378583
 30
0.0
 10
31.1453224434
 20
65.0018627787
 30
0.0
 10
31.1641587049
 20
64.9909771739
 30
0.0
  0
SPLINE
  5
457
100
AcDbEntity
  8
0
100
AcDbSpline
 62
7
  6
CONTINUOUS
 70
0
 71
3
 72
9
 73
5
 74
0
 42
0.0000001
 43
0.0000001
 44
0.0000000001
 40
0.0
 40
0.0
 40
0.0
 40
0.0
 40
0.2632433809
 40
1.0
 40
1.0
 40
1.0
 40
1.0
 10
29.2600722384
 20
64.5683388004
 30
0.0
 10
29.2598157249
 20
64.588905172
 30
0.0
 10
29.2622912991
 20
64.6669562888
 30
0.0
 10
29.2793380391
 20
64.7451571966
 30
0.0
 10
29.3021878163
 20
64.7979928834
 30
0.0
  0
SPLINE
  5
458
100
AcDbEntity
  8
0
100
AcDbSpline
 62
7
  6
CONTINUOUS
 70
0
 71
3
 72
13
 73
9
 74
0
 42
0.0000001
 43
0.0000001
 44
0.0000000001
 40
0.0
 40
0.0
 40
0.0
 40
0.0
 40
0.1079326558
 40
0.2181749074
 40
0.3324316557
 40
0.4520994942
 40
0.7112091127
 40
1.0
 40
1.0
 40
1.0
 40
1.0
 10
40.8456061717
 20
43.2894326652
 30
0.0
 10
40.8031502437
 20
43.3122093688
 30
0.0
 10
40.7133004042
 20
43.3511322845
 30
0.0
 10
40.5687720707
 20
43.3872925814
 30
0.0
 10
40.4152305576
 20
43.4015124488
 30
0.0
 10
40.1947803291
 20
43.3907492541
 30
0.0
 10
39.9028200903
 20
43.3181024695
 30
0.0
 10
39.6808822114
 20
43.2119731346
 30
0.0
 10
39.569240613
 20
43.1475172125
 30
0.0
  0
SPLINE
  5
459
100
AcDbEntity
  8
0
100
AcDbSpline
 62
7
  6
CONTINUOUS
 70
0
 71
3
 72
21
 73
17
 74
0
 42
0.0000001
 43
0.0000001
 44
0.0000000001
 40
0.0
 40
0.0
 40
0.0
 40
0.0
 40
0.0430191408
 40
0.0880144378
 40
0.1365490951
 40
0.1895802297
 40
0.2474625684
 40
0.3100507731
 40
0.376834522
 40
0.4470102871
 40
0.5932941176
 40
0.7399723114
 40
0.8106082364
 40
0.8780051022
 40
0.9413669645
 40
1.0
 40
1.0
 40
1.0
 40
1.0
 10
50.1891788036
 20
47.2372932731
 30
0.0
 10
50.143242859
 20
47.2638154779
 30
0.0
 10
50.0563304606
 20
47.3313578974
 30
0.0
 10
49.9537879189
 20
47.466931076
 30
0.0
 10
49.8795409784
 20
47.6331399618
 30
0.0
 10
49.8346674936
 20
47.8255616037
 30
0.0
 10
49.8196725788
 20
48.0397212735
 30
0.0
 10
49.8345323549
 20
48.2707216087
 30
0.0
 10
49.878901705
 20
48.5132452187
 30
0.0
 10
49.977210389
 20
48.8488977568
 30
0.0
 10
50.1645359403
 20
49.2584863356
 30
0.0
 10
50.4206087147
 20
49.6296434969
 30
0.0
 10
50.6592425086
 20
49.8877857263
 30
0.0
 10
50.8459646419
 20
50.0522590255
 30
0.0
 10
51.0381205406
 20
50.1858704852
 30
0.0
 10
51.1722892038
 20
50.255233819
 30
0.0
 10
51.238984761
 20
50.2831307882
 30
0.0
  0
SPLINE
  5
45A
100
AcDbEntity
  8
0
100
AcDbSpline
 62
7
  6
CONTINUOUS
 70
0
 71
3
 72
11
 73
7
 74
0
 42
0.0000001
 43
0.0000001
 44
0.0000000001
 40
0.0
 40
0.0
 40
0.0
 40
0.0
 40
0.2027482033
 40
0.4610220763
 40
0.7416710488
 40
1.0
 40
1.0
 40
1.0
 40
1.0
 10
34.0638475562
 20
60.5098366294
 30
0.0
 10
34.046697253
 20
60.5271325054
 30
0.0
 10
34.0051116667
 20
60.5638500622
 30
0.0
 10
33.9350512893
 20
60.6189298505
 30
0.0
 10
33.8568766676
 20
60.6743323702
 30
0.0
 10
33.8021830619
 20
60.709092404
 30
0.0
 10
33.7753061671
 20
60.7246094354
 30
0.0
  0
SPLINE
  5
45B
100
AcDbEntity
  8
0
100
AcDbSpline
 62
7
  6
CONTINUOUS
 70
0
 71
3
 72
12
 73
8
 74
0
 42
0.0000001
 43
0.0000001
 44
0.0000000001
 40
0.0
 40
0.0
 40
0.0
 40
0.0
 40
0.3960593233
 40
0.7001651119
 40
0.8984512056
 40
0.9594561344
 40
1.0
 40
1.0
 40
1.0
 40
1.0
 10
33.7753061671
 20
60.7246094354
 30
0.0
 10
33.7633142981
 20
60.7315327875
 30
0.0
 10
33.74184012
 20
60.7433663206
 30
0.0
 10
33.7134660295
 20
60.7567094793
 30
0.0
 10
33.6946512521
 20
60.7632540989
 30
0.0
 10
33.6842078488
 20
60.7642509703
 30
0.0
 10
33.680558533
 20
60.763206532
 30
0.0
 10
33.6794950779
 20
60.7622693399
 30
0.0
  0
SPLINE
  5
45C
100
AcDbEntity
  8
0
100
AcDbSpline
 62
7
  6
CONTINUOUS
 70
0
 71
3
 72
10
 73
6
 74
0
 42
0.0000001
 43
0.0000001
 44
0.0000000001
 40
0.0
 40
0.0
 40
0.0
 40
0.0
 40
0.2258823544
 40
0.4687653745
 40
1.0
 40
1.0
 40
1.0
 40
1.0
 10
38.7813710788
 20
53.2862731919
 30
0.0
 10
38.768499241
 20
53.3665334839
 30
0.0
 10
38.7533883557
 20
53.5350884608
 30
0.0
 10
38.7623230152
 20
53.8953289504
 30
0.0
 10
38.8122384927
 20
54.1716323855
 30
0.0
 10
38.8613757364
 20
54.3563793211
 30
0.0
  0
SPLINE
  5
45D
100
AcDbEntity
  8
0
100
AcDbSpline
 62
7
  6
CONTINUOUS
 70
0
 71
3
 72
10
 73
6
 74
0
 42
0.0000001
 43
0.0000001
 44
0.0000000001
 40
0.0
 40
0.0
 40
0.0
 40
0.0
 40
0.4878254488
 40
0.7432650685
 40
1.0
 40
1.0
 40
1.0
 40
1.0
 10
38.8613757364
 20
54.3563793211
 30
0.0
 10
38.9316150297
 20
54.6204660543
 30
0.0
 10
39.0869676471
 20
55.0109544208
 30
0.0
 10
39.3624804054
 20
55.4989958215
 30
0.0
 10
39.5257272301
 20
55.7356053247
 30
0.0
 10
39.6128451638
 20
55.8500330099
 30
0.0
  0
SPLINE
  5
45E
100
AcDbEntity
  8
0
100
AcDbSpline
 62
7
  6
CONTINUOUS
 70
0
 71
3
 72
9
 73
5
 74
0
 42
0.0000001
 43
0.0000001
 44
0.0000000001
 40
0.0
 40
0.0
 40
0.0
 40
0.0
 40
0.5088911855
 40
1.0
 40
1.0
 40
1.0
 40
1.0
 10
34.0281075177
 20
59.10164477
 30
0.0
 10
34.100175842
 20
59.2110777243
 30
0.0
 10
34.2511125888
 20
59.4201345634
 30
0.0
 10
34.4201520099
 20
59.6149294769
 30
0.0
 10
34.5076931787
 20
59.7061819227
 30
0.0
  0
SPLINE
  5
45F
100
AcDbEntity
  8
0
100
AcDbSpline
 62
7
  6
CONTINUOUS
 70
0
 71
3
 72
11
 73
7
 74
0
 42
0.0000001
 43
0.0000001
 44
0.0000000001
 40
0.0
 40
0.0
 40
0.0
 40
0.0
 40
0.2771766018
 40
0.5373105899
 40
0.778266733
 40
1.0
 40
1.0
 40
1.0
 40
1.0
 10
34.5076931787
 20
59.7061819227
 30
0.0
 10
34.5843370767
 20
59.7860751118
 30
0.0
 10
34.7398044118
 20
59.9345630958
 30
0.0
 10
34.985814644
 20
60.1256652737
 30
0.0
 10
35.2343745209
 20
60.274027368
 30
0.0
 10
35.4052361615
 20
60.346520521
 30
0.0
 10
35.4893156101
 20
60.3743538261
 30
0.0
  0
SPLINE
  5
460
100
AcDbEntity
  8
0
100
AcDbSpline
 62
7
  6
CONTINUOUS
 70
0
 71
3
 72
11
 73
7
 74
0
 42
0.0000001
 43
0.0000001
 44
0.0000000001
 40
0.0
 40
0.0
 40
0.0
 40
0.0
 40
0.2778852457
 40
0.5337867391
 40
0.7720867682
 40
1.0
 40
1.0
 40
1.0
 40
1.0
 10
35.4893156101
 20
60.3743538261
 30
0.0
 10
35.564251801
 20
60.3991603859
 30
0.0
 10
35.712034427
 20
60.436430874
 30
0.0
 10
35.9321606068
 20
60.451704465
 30
0.0
 10
36.1369271439
 20
60.4227476768
 30
0.0
 10
36.2611950432
 20
60.3721111273
 30
0.0
 10
36.3172905121
 20
60.3397904274
 30
0.0
  0
SPLINE
  5
461
100
AcDbEntity
  8
0
100
AcDbSpline
 62
7
  6
CONTINUOUS
 70
0
 71
3
 72
17
 73
13
 74
0
 42
0.0000001
 43
0.0000001
 44
0.0000000001
 40
0.0
 40
0.0
 40
0.0
 40
0.0
 40
0.1368398165
 40
0.2879150185
 40
0.4433589399
 40
0.5934542089
 40
0.7288979585
 40
0.8424129878
 40
0.889811527
 40
0.9310982056
 40
0.9671795623
 40
1.0
 40
1.0
 40
1.0
 40
1.0
 10
33.4786942082
 20
60.4637869341
 30
0.0
 10
33.496363955
 20
60.4535855318
 30
0.0
 10
33.5316201144
 20
60.4287620412
 30
0.0
 10
33.5805311619
 20
60.3840904123
 30
0.0
 10
33.6253435656
 20
60.3326428235
 30
0.0
 10
33.6627177835
 20
60.278336699
 30
0.0
 10
33.689866872
 20
60.2252168594
 30
0.0
 10
33.7033312569
 20
60.1827053376
 30
0.0
 10
33.7063252374
 20
60.1525946344
 30
0.0
 10
33.7049229829
 20
60.1339162573
 30
0.0
 10
33.6998508532
 20
60.1180914593
 30
0.0
 10
33.6937941996
 20
60.1095280576
 30
0.0
 10
33.6903164605
 20
60.1060852791
 30
0.0
  0
SPLINE
  5
462
100
AcDbEntity
  8
0
100
AcDbSpline
 62
7
  6
CONTINUOUS
 70
0
 71
3
 72
9
 73
5
 74
0
 42
0.0000001
 43
0.0000001
 44
0.0000000001
 40
0.0
 40
0.0
 40
0.0
 40
0.0
 40
0.2338815537
 40
1.0
 40
1.0
 40
1.0
 40
1.0
 10
49.499480519
 20
51.5928441467
 30
0.0
 10
49.4688722614
 20
51.5926529255
 30
0.0
 10
49.338046584
 20
51.5840400575
 30
0.0
 10
49.2101545502
 20
51.5465428967
 30
0.0
 10
49.1176555856
 20
51.5078530518
 30
0.0
  0
SPLINE
  5
463
100
AcDbEntity
  8
0
100
AcDbSpline
 62
7
  6
CONTINUOUS
 70
0
 71
3
 72
13
 73
9
 74
0
 42
0.0000001
 43
0.0000001
 44
0.0000000001
 40
0.0
 40
0.0
 40
0.0
 40
0.0
 40
0.3916398755
 40
0.5555657793
 40
0.6946856903
 40
0.8077943569
 40
0.8949015984
 40
1.0
 40
1.0
 40
1.0
 40
1.0
 10
34.7188192619
 20
57.5928166855
 30
0.0
 10
34.7061677951
 20
57.6001208479
 30
0.0
 10
34.6884655035
 20
57.6109215238
 30
0.0
 10
34.6672519665
 20
57.6258577861
 30
0.0
 10
34.6550964382
 20
57.6354457468
 30
0.0
 10
34.645758585
 20
57.6442420697
 30
0.0
 10
34.6385977658
 20
57.6525447161
 30
0.0
 10
34.6350524822
 20
57.6604814823
 30
0.0
 10
34.6366082826
 20
57.6640798255
 30
0.0
  0
SPLINE
  5
464
100
AcDbEntity
  8
0
100
AcDbSpline
 62
7
  6
CONTINUOUS
 70
0
 71
3
 72
15
 73
11
 74
0
 42
0.0000001
 43
0.0000001
 44
0.0000000001
 40
0.0
 40
0.0
 40
0.0
 40
0.0
 40
0.1370251453
 40
0.2742338568
 40
0.4095710715
 40
0.5410453859
 40
0.6669497692
 40
0.7860864776
 40
0.8973934827
 40
1.0
 40
1.0
 40
1.0
 40
1.0
 10
34.7203902155
 20
57.5925077186
 30
0.0
 10
34.7672490768
 20
57.7131722724
 30
0.0
 10
34.8714305487
 20
57.9507495975
 30
0.0
 10
35.0553595582
 20
58.2916057598
 30
0.0
 10
35.2638504393
 20
58.6118349018
 30
0.0
 10
35.4929754298
 20
58.9042927618
 30
0.0
 10
35.7390086789
 20
59.1619722951
 30
0.0
 10
35.9955038816
 20
59.380975397
 30
0.0
 10
36.2564000343
 20
59.5579857146
 30
0.0
 10
36.4372846281
 20
59.6498270787
 30
0.0
 10
36.5269170078
 20
59.686723651
 30
0.0
  0
SPLINE
  5
465
100
AcDbEntity
  8
0
100
AcDbSpline
 62
7
  6
CONTINUOUS
 70
0
 71
3
 72
11
 73
7
 74
0
 42
0.0000001
 43
0.0000001
 44
0.0000000001
 40
0.0
 40
0.0
 40
0.0
 40
0.0
 40
0.2777567508
 40
0.5324854856
 40
0.7704626454
 40
1.0
 40
1.0
 40
1.0
 40
1.0
 10
36.6446825405
 20
59.7302638232
 30
0.0
 10
36.7169782939
 20
59.7538992688
 30
0.0
 10
36.8592253286
 20
59.7894297499
 30
0.0
 10
37.0713759454
 20
59.8011736524
 30
0.0
 10
37.2681058532
 20
59.7683103791
 30
0.0
 10
37.3872368103
 20
59.7176553092
 30
0.0
 10
37.4417150642
 20
59.6863009845
 30
0.0
  0
SPLINE
  5
466
100
AcDbEntity
  8
0
100
AcDbSpline
 62
7
  6
CONTINUOUS
 70
0
 71
3
 72
19
 73
15
 74
0
 42
0.0000001
 43
0.0000001
 44
0.0000000001
 40
0.0
 40
0.0
 40
0.0
 40
0.0
 40
0.1499967431
 40
0.3153780529
 40
0.4837042314
 40
0.6438094379
 40
0.7824538289
 40
0.8410217966
 40
0.891583563
 40
0.9333095378
 40
0.9652375341
 40
0.9773355066
 40
0.9869041855
 40
1.0
 40
1.0
 40
1.0
 40
1.0
 10
34.0281018406
 20
59.1016476292
 30
0.0
 10
34.0454723786
 20
59.0916140469
 30
0.0
 10
34.0813395818
 20
59.069384615
 30
0.0
 10
34.1350381333
 20
59.0332958237
 30
0.0
 10
34.1885719647
 20
58.994598865
 30
0.0
 10
34.2378657245
 20
58.9562090759
 30
0.0
 10
34.2741809484
 20
58.9251018444
 30
0.0
 10
34.2982089769
 20
58.9022740182
 30
0.0
 10
34.3122950426
 20
58.887821108
 30
0.0
 10
34.3232349086
 20
58.875304827
 30
0.0
 10
34.3300893181
 20
58.8660883404
 30
0.0
 10
34.3335155137
 20
58.8597363771
 30
0.0
 10
34.3351459392
 20
58.8554535406
 30
0.0
 10
34.3352654842
 20
58.8520276027
 30
0.0
 10
34.3343371087
 20
58.8505425086
 30
0.0
  0
SPLINE
  5
467
100
AcDbEntity
  8
0
100
AcDbSpline
 62
7
  6
CONTINUOUS
 70
0
 71
3
 72
17
 73
13
 74
0
 42
0.0000001
 43
0.0000001
 44
0.0000000001
 40
0.0
 40
0.0
 40
0.0
 40
0.0
 40
0.1343971181
 40
0.2827112993
 40
0.4356142478
 40
0.5838128029
 40
0.7183262836
 40
0.832469802
 40
0.881107972
 40
0.9243953932
 40
0.963402246
 40
1.0
 40
1.0
 40
1.0
 40
1.0
 10
34.4084700357
 20
65.0492483427
 30
0.0
 10
34.4265210894
 20
65.0388267977
 30
0.0
 10
34.4621871113
 20
65.0128657796
 30
0.0
 10
34.5104124221
 20
64.9652789731
 30
0.0
 10
34.5531443765
 20
64.9099539861
 30
0.0
 10
34.5870934345
 20
64.8512730736
 30
0.0
 10
34.6096332458
 20
64.7937522767
 30
0.0
 10
34.6180670245
 20
64.7478896035
 30
0.0
 10
34.6166066958
 20
64.7158245711
 30
0.0
 10
34.6118939684
 20
64.6959137735
 30
0.0
 10
34.6034331326
 20
64.6793041263
 30
0.0
 10
34.5952426638
 20
64.6706298908
 30
0.0
 10
34.590755808
 20
64.6671537077
 30
0.0
  0
SPLINE
  5
468
100
AcDbEntity
  8
0
100
AcDbSpline
 62
7
  6
CONTINUOUS
 70
0
 71
3
 72
13
 73
9
 74
0
 42
0.0000001
 43
0.0000001
 44
0.0000000001
 40
0.0
 40
0.0
 40
0.0
 40
0.0
 40
0.3045829217
 40
0.5717200893
 40
0.69025535
 40
0.7995717291
 40
0.9017467664
 40
1.0
 40
1.0
 40
1.0
 40
1.0
 10
44.2680646365
 20
57.9448491058
 30
0.0
 10
44.2503287023
 20
57.8821871557
 30
0.0
 10
44.2271671843
 20
57.7613191853
 30
0.0
 10
44.2323846911
 20
57.6118453001
 30
0.0
 10
44.2611875407
 20
57.509500975
 30
0.0
 10
44.2926355729
 20
57.4457905443
 30
0.0
 10
44.334435426
 20
57.3937003461
 30
0.0
 10
44.3689216983
 20
57.3673865354
 30
0.0
 10
44.3871105652
 20
57.3568750644
 30
0.0
  0
SPLINE
  5
469
100
AcDbEntity
  8
0
100
AcDbSpline
 62
7
  6
CONTINUOUS
 70
0
 71
3
 72
17
 73
13
 74
0
 42
0.0000001
 43
0.0000001
 44
0.0000000001
 40
0.0
 40
0.0
 40
0.0
 40
0.0
 40
0.1343971181
 40
0.2827112993
 40
0.4356142478
 40
0.5838128029
 40
0.7183262836
 40
0.832469802
 40
0.881107972
 40
0.9243953932
 40
0.963402246
 40
1.0
 40
1.0
 40
1.0
 40
1.0
 10
42.3361600082
 20
60.4722979474
 30
0.0
 10
42.3542110619
 20
60.4618764025
 30
0.0
 10
42.3898770839
 20
60.4359153844
 30
0.0
 10
42.4381023946
 20
60.3883285778
 30
0.0
 10
42.4808343491
 20
60.3330035909
 30
0.0
 10
42.5147834071
 20
60.2743226784
 30
0.0
 10
42.5373232184
 20
60.2168018815
 30
0.0
 10
42.545756997
 20
60.1709392082
 30
0.0
 10
42.5442966684
 20
60.1388741758
 30
0.0
 10
42.5395839409
 20
60.1189633782
 30
0.0
 10
42.5311231051
 20
60.102353731
 30
0.0
 10
42.5229326363
 20
60.0936794955
 30
0.0
 10
42.5184457805
 20
60.0902033125
 30
0.0
  0
SPLINE
  5
46A
100
AcDbEntity
  8
0
100
AcDbSpline
 62
7
  6
CONTINUOUS
 70
0
 71
3
 72
14
 73
10
 74
0
 42
0.0000001
 43
0.0000001
 44
0.0000000001
 40
0.0
 40
0.0
 40
0.0
 40
0.0
 40
0.3955974782
 40
0.5598270483
 40
0.699396487
 40
0.8129727344
 40
0.899742934
 40
0.9601954206
 40
1.0
 40
1.0
 40
1.0
 40
1.0
 10
39.6273458958
 20
55.8689870639
 30
0.0
 10
39.6147553388
 20
55.8762499903
 30
0.0
 10
39.5966944514
 20
55.8861314129
 30
0.0
 10
39.573492321
 20
55.8971929777
 30
0.0
 10
39.5593491027
 20
55.9031382587
 30
0.0
 10
39.547548397
 20
55.9072657745
 30
0.0
 10
39.5381771239
 20
55.9094188924
 30
0.0
 10
39.531302734
 20
55.9099327122
 30
0.0
 10
39.5275685933
 20
55.9083573562
 30
0.0
 10
39.526688639
 20
55.9071891805
 30
0.0
  0
SPLINE
  5
46B
100
AcDbEntity
  8
0
100
AcDbSpline
 62
7
  6
CONTINUOUS
 70
0
 71
3
 72
9
 73
5
 74
0
 42
0.0000001
 43
0.0000001
 44
0.0000000001
 40
0.0
 40
0.0
 40
0.0
 40
0.0
 40
0.5066985415
 40
1.0
 40
1.0
 40
1.0
 40
1.0
 10
39.6273406627
 20
55.8689905021
 30
0.0
 10
39.7068052368
 20
55.9711503101
 30
0.0
 10
39.8722661182
 20
56.1662078949
 30
0.0
 10
40.0543372805
 20
56.3459498023
 30
0.0
 10
40.1482402299
 20
56.4299699619
 30
0.0
  0
SPLINE
  5
46C
100
AcDbEntity
  8
0
100
AcDbSpline
 62
7
  6
CONTINUOUS
 70
0
 71
3
 72
10
 73
6
 74
0
 42
0.0000001
 43
0.0000001
 44
0.0000000001
 40
0.0
 40
0.0
 40
0.0
 40
0.0
 40
0.2756146166
 40
0.5353038737
 40
1.0
 40
1.0
 40
1.0
 40
1.0
 10
40.1482402299
 20
56.4299699619
 30
0.0
 10
40.2423722805
 20
56.5141951111
 30
0.0
 10
40.4335595498
 20
56.6690514136
 30
0.0
 10
40.820883494
 20
56.9145974609
 30
0.0
 10
41.1375214674
 20
57.0357984141
 30
0.0
 10
41.3470426662
 20
57.0739509489
 30
0.0
  0
SPLINE
  5
46D
100
AcDbEntity
  8
0
100
AcDbSpline
 62
7
  6
CONTINUOUS
 70
0
 71
3
 72
9
 73
5
 74
0
 42
0.0000001
 43
0.0000001
 44
0.0000000001
 40
0.0
 40
0.0
 40
0.0
 40
0.0
 40
0.2572265538
 40
1.0
 40
1.0
 40
1.0
 40
1.0
 10
41.3470426662
 20
57.0739509489
 30
0.0
 10
41.3717477016
 20
57.0784495855
 30
0.0
 10
41.4681615414
 20
57.0937825387
 30
0.0
 10
41.5660717916
 20
57.100201243
 30
0.0
 10
41.6385748333
 20
57.0990659584
 30
0.0
  0
SPLINE
  5
46E
100
AcDbEntity
  8
0
100
AcDbSpline
 62
7
  6
CONTINUOUS
 70
0
 71
3
 72
9
 73
5
 74
0
 42
0.0000001
 43
0.0000001
 44
0.0000000001
 40
0.0
 40
0.0
 40
0.0
 40
0.0
 40
0.2562609909
 40
1.0
 40
1.0
 40
1.0
 40
1.0
 10
41.6385748333
 20
57.0990659584
 30
0.0
 10
41.6630552704
 20
57.0986826329
 30
0.0
 10
41.7585123053
 20
57.0945759577
 30
0.0
 10
41.8536050163
 20
57.0795470933
 30
0.0
 10
41.9223534463
 20
57.0615795058
 30
0.0
  0
SPLINE
  5
46F
100
AcDbEntity
  8
0
100
AcDbSpline
 62
7
  6
CONTINUOUS
 70
0
 71
3
 72
11
 73
7
 74
0
 42
0.0000001
 43
0.0000001
 44
0.0000000001
 40
0.0
 40
0.0
 40
0.0
 40
0.0
 40
0.2253409703
 40
0.4684139587
 40
0.7275421632
 40
1.0
 40
1.0
 40
1.0
 40
1.0
 10
38.1754954574
 20
54.5448854008
 30
0.0
 10
38.1645583559
 20
54.6116410208
 30
0.0
 10
38.1529794847
 20
54.7523504245
 30
0.0
 10
38.1634906913
 20
54.9709918862
 30
0.0
 10
38.2010158407
 20
55.2009356343
 30
0.0
 10
38.2425308199
 20
55.3553182225
 30
0.0
 10
38.26737217
 20
55.4332442986
 30
0.0
  0
SPLINE
  5
470
100
AcDbEntity
  8
0
100
AcDbSpline
 62
7
  6
CONTINUOUS
 70
0
 71
3
 72
22
 73
18
 74
0
 42
0.0000001
 43
0.0000001
 44
0.0000000001
 40
0.0
 40
0.0
 40
0.0
 40
0.0
 40
0.1476934794
 40
0.221908379
 40
0.2955136389
 40
0.3679194815
 40
0.4385987808
 40
0.5071619838
 40
0.5732773968
 40
0.6366370614
 40
0.6969842487
 40
0.7541505229
 40
0.8081063283
 40
0.8590294957
 40
0.9074300969
 40
0.9541298691
 40
1.0
 40
1.0
 40
1.0
 40
1.0
 10
37.991184722
 20
55.7041562708
 30
0.0
 10
38.0756138566
 20
55.8792711383
 30
0.0
 10
38.2194771859
 20
56.1346238445
 30
0.0
 10
38.44073085
 20
56.4547431029
 30
0.0
 10
38.6204852969
 20
56.6824392993
 30
0.0
 10
38.811937646
 20
56.8941703816
 30
0.0
 10
39.0136059299
 20
57.0867547957
 30
0.0
 10
39.2229721229
 20
57.2581560377
 30
0.0
 10
39.4373430003
 20
57.4069725299
 30
0.0
 10
39.6541848275
 20
57.5317557065
 30
0.0
 10
39.8709710261
 20
57.6310796044
 30
0.0
 10
40.0852273763
 20
57.7034864035
 30
0.0
 10
40.2945235427
 20
57.7474894686
 30
0.0
 10
40.4965660297
 20
57.7614126518
 30
0.0
 10
40.6888529498
 20
57.7436089064
 30
0.0
 10
40.8689347172
 20
57.6953705665
 30
0.0
 10
40.980020555
 20
57.643538916
 30
0.0
 10
41.0322955087
 20
57.6133262309
 30
0.0
  0
SPLINE
  5
471
100
AcDbEntity
  8
0
100
AcDbSpline
 62
7
  6
CONTINUOUS
 70
0
 71
3
 72
13
 73
9
 74
0
 42
0.0000001
 43
0.0000001
 44
0.0000000001
 40
0.0
 40
0.0
 40
0.0
 40
0.0
 40
0.3916398772
 40
0.5555658286
 40
0.6946857866
 40
0.8077944292
 40
0.8949016289
 40
1.0
 40
1.0
 40
1.0
 40
1.0
 10
37.9896260065
 20
55.7044582514
 30
0.0
 10
37.9769745396
 20
55.7117624139
 30
0.0
 10
37.9592722469
 20
55.7225630919
 30
0.0
 10
37.938058707
 20
55.7374993567
 30
0.0
 10
37.9259031755
 20
55.7470873178
 30
0.0
 10
37.9165653229
 20
55.755883641
 30
0.0
 10
37.9094045089
 20
55.7641862867
 30
0.0
 10
37.9058592251
 20
55.7721230502
 30
0.0
 10
37.9074150259
 20
55.775721392
 30
0.0
  0
SPLINE
  5
472
100
AcDbEntity
  8
0
100
AcDbSpline
 62
7
  6
CONTINUOUS
 70
0
 71
3
 72
9
 73
5
 74
0
 42
0.0000001
 43
0.0000001
 44
0.0000000001
 40
0.0
 40
0.0
 40
0.0
 40
0.0
 40
0.246452741
 40
1.0
 40
1.0
 40
1.0
 40
1.0
 10
32.7108600874
 20
57.3668272219
 30
0.0
 10
32.7053334542
 20
57.3731702032
 30
0.0
 10
32.6834060583
 20
57.3993378916
 30
0.0
 10
32.6634805311
 20
57.4271713523
 30
0.0
 10
32.6496202301
 20
57.448840906
 30
0.0
  0
SPLINE
  5
473
100
AcDbEntity
  8
0
100
AcDbSpline
 62
7
  6
CONTINUOUS
 70
0
 71
3
 72
11
 73
7
 74
0
 42
0.0000001
 43
0.0000001
 44
0.0000000001
 40
0.0
 40
0.0
 40
0.0
 40
0.0
 40
0.2970310602
 40
0.437939996
 40
0.5709138338
 40
1.0
 40
1.0
 40
1.0
 40
1.0
 10
49.73532091
 20
55.0645782922
 30
0.0
 10
49.6939615853
 20
55.0006408774
 30
0.0
 10
49.6246189737
 20
54.9113979587
 30
0.0
 10
49.5179915016
 20
54.8102824037
 30
0.0
 10
49.3758879443
 20
54.7018390782
 30
0.0
 10
49.2265128879
 20
54.6407101114
 30
0.0
 10
49.1174270741
 20
54.6548840509
 30
0.0
  0
SPLINE
  5
474
100
AcDbEntity
  8
0
100
AcDbSpline
 62
7
  6
CONTINUOUS
 70
0
 71
3
 72
9
 73
5
 74
0
 42
0.0000001
 43
0.0000001
 44
0.0000000001
 40
0.0
 40
0.0
 40
0.0
 40
0.0
 40
0.2429521538
 40
1.0
 40
1.0
 40
1.0
 40
1.0
 10
40.3132415065
 20
49.6302697868
 30
0.0
 10
40.3135928925
 20
49.6366579493
 30
0.0
 10
40.3155276451
 20
49.6629239154
 30
0.0
 10
40.3193368205
 20
49.6890419155
 30
0.0
 10
40.3231146681
 20
49.7086165314
 30
0.0
  0
SPLINE
  5
475
100
AcDbEntity
  8
0
100
AcDbSpline
 62
7
  6
CONTINUOUS
 70
0
 71
3
 72
9
 73
5
 74
0
 42
0.0000001
 43
0.0000001
 44
0.0000000001
 40
0.0
 40
0.0
 40
0.0
 40
0.0
 40
0.2557927572
 40
1.0
 40
1.0
 40
1.0
 40
1.0
 10
49.4112651875
 20
56.1599656869
 30
0.0
 10
49.4178586322
 20
56.1635869848
 30
0.0
 10
49.4438089381
 20
56.1774237848
 30
0.0
 10
49.4704629062
 20
56.1899534787
 30
0.0
 10
49.4906537757
 20
56.1983987798
 30
0.0
  0
SPLINE
  5
476
100
AcDbEntity
  8
0
100
AcDbSpline
 62
7
  6
CONTINUOUS
 70
0
 71
3
 72
11
 73
7
 74
0
 42
0.0000001
 43
0.0000001
 44
0.0000000001
 40
0.0
 40
0.0
 40
0.0
 40
0.0
 40
0.28120217
 40
0.5379236619
 40
0.7745480397
 40
1.0
 40
1.0
 40
1.0
 40
1.0
 10
49.4906537757
 20
56.1983987798
 30
0.0
 10
49.5267746854
 20
56.213507191
 30
0.0
 10
49.5983148558
 20
56.2371417443
 30
0.0
 10
49.7061075471
 20
56.2507679405
 30
0.0
 10
49.8066270229
 20
56.239802298
 30
0.0
 10
49.8672784243
 20
56.2155312106
 30
0.0
 10
49.8944635508
 20
56.1998353701
 30
0.0
  0
SPLINE
  5
477
100
AcDbEntity
  8
0
100
AcDbSpline
 62
7
  6
CONTINUOUS
 70
0
 71
3
 72
9
 73
5
 74
0
 42
0.0000001
 43
0.0000001
 44
0.0000000001
 40
0.0
 40
0.0
 40
0.0
 40
0.0
 40
0.2459069865
 40
1.0
 40
1.0
 40
1.0
 40
1.0
 10
42.6407256886
 20
56.0821072809
 30
0.0
 10
42.6541074638
 20
56.0696853697
 30
0.0
 10
42.707000065
 20
56.0175430952
 30
0.0
 10
42.7535706466
 20
55.9590581776
 30
0.0
 10
42.7847226719
 20
55.9125330815
 30
0.0
  0
SPLINE
  5
478
100
AcDbEntity
  8
0
100
AcDbSpline
 62
7
  6
CONTINUOUS
 70
0
 71
3
 72
9
 73
5
 74
0
 42
0.0000001
 43
0.0000001
 44
0.0000000001
 40
0.0
 40
0.0
 40
0.0
 40
0.0
 40
0.4996428499
 40
1.0
 40
1.0
 40
1.0
 40
1.0
 10
39.6539338032
 20
51.8490360881
 30
0.0
 10
39.8305850977
 20
51.7470487229
 30
0.0
 10
40.1848979498
 20
51.5442415672
 30
0.0
 10
40.5376945519
 20
51.3388081248
 30
0.0
 10
40.7145983909
 20
51.2366749563
 30
0.0
  0
LINE
  5
479
100
AcDbEntity
  8
0
100
AcDbLine
 62
7
  6
CONTINUOUS
 10
42.8226420682
 20
56.738162599
 11
42.7887427714
 21
56.726454625
  0
SPLINE
  5
47A
100
AcDbEntity
  8
0
100
AcDbSpline
 62
7
  6
CONTINUOUS
 70
0
 71
3
 72
10
 73
6
 74
0
 42
0.0000001
 43
0.0000001
 44
0.0000000001
 40
0.0
 40
0.0
 40
0.0
 40
0.0
 40
0.2339089731
 40
0.4797289017
 40
1.0
 40
1.0
 40
1.0
 40
1.0
 10
25.6356375386
 20
49.8555703015
 30
0.0
 10
25.7156129302
 20
49.8093975421
 30
0.0
 10
25.8750673104
 20
49.706597921
 30
0.0
 10
26.1877232268
 20
49.465020322
 30
0.0
 10
26.4043959018
 20
49.251896088
 30
0.0
 10
26.5410366759
 20
49.0985352216
 30
0.0
  0
SPLINE
  5
47B
100
AcDbEntity
  8
0
100
AcDbSpline
 62
7
  6
CONTINUOUS
 70
0
 71
3
 72
9
 73
5
 74
0
 42
0.0000001
 43
0.0000001
 44
0.0000000001
 40
0.0
 40
0.0
 40
0.0
 40
0.0
 40
0.2658638361
 40
1.0
 40
1.0
 40
1.0
 40
1.0
 10
42.7887427714
 20
56.726454625
 30
0.0
 10
42.7681248514
 20
56.7193373673
 30
0.0
 10
42.6905590574
 20
56.6926129321
 30
0.0
 10
42.6128959503
 20
56.6661554576
 30
0.0
 10
42.55563924
 20
56.6474672191
 30
0.0
  0
LINE
  5
47C
100
AcDbEntity
  8
0
100
AcDbLine
 62
7
  6
CONTINUOUS
 10
42.55563924
 20
56.6474672191
 11
42.544527848
 21
56.643852212
  0
SPLINE
  5
47D
100
AcDbEntity
  8
0
100
AcDbSpline
 62
7
  6
CONTINUOUS
 70
0
 71
3
 72
20
 73
16
 74
0
 42
0.0000001
 43
0.0000001
 44
0.0000000001
 40
0.0
 40
0.0
 40
0.0
 40
0.0
 40
0.0022963677
 40
0.0060643751
 40
0.0193010477
 40
0.0405184129
 40
0.0697226767
 40
0.106830238
 40
0.1517320595
 40
0.2043093715
 40
0.2644390267
 40
0.406851387
 40
0.5779592898
 40
0.7765910678
 40
1.0
 40
1.0
 40
1.0
 40
1.0
 10
39.2210882987
 20
54.0644102414
 30
0.0
 10
39.2215130275
 20
54.065014792
 30
0.0
 10
39.2235764829
 20
54.0657517193
 30
0.0
 10
39.2297069254
 20
54.0649351301
 30
0.0
 10
39.24140803
 20
54.0607292874
 30
0.0
 10
39.2599185848
 20
54.052069534
 30
0.0
 10
39.2848319494
 20
54.0388709544
 30
0.0
 10
39.3159078649
 20
54.0211448769
 30
0.0
 10
39.3530488737
 20
53.9988710659
 30
0.0
 10
39.396098915
 20
53.9720722313
 30
0.0
 10
39.4651959578
 20
53.9277610084
 30
0.0
 10
39.5652468852
 20
53.8610952215
 30
0.0
 10
39.7007950663
 20
53.7673870408
 30
0.0
 10
39.8561395275
 20
53.6565255189
 30
0.0
 10
39.9656606919
 20
53.5762486261
 30
0.0
 10
40.0234022475
 20
53.5334397462
 30
0.0
  0
SPLINE
  5
47E
100
AcDbEntity
  8
0
100
AcDbSpline
 62
7
  6
CONTINUOUS
 70
0
 71
3
 72
15
 73
11
 74
0
 42
0.0000001
 43
0.0000001
 44
0.0000000001
 40
0.0
 40
0.0
 40
0.0
 40
0.0
 40
0.3761371657
 40
0.5388791661
 40
0.6815018421
 40
0.8014040045
 40
0.8958217388
 40
0.9622333659
 40
0.9845417248
 40
1.0
 40
1.0
 40
1.0
 40
1.0
 10
42.544527848
 20
56.643852212
 30
0.0
 10
42.5172988349
 20
56.6350229743
 30
0.0
 10
42.4782014707
 20
56.6226333012
 30
0.0
 10
42.4284187395
 20
56.6080736919
 30
0.0
 10
42.3971755678
 20
56.5996392881
 30
0.0
 10
42.37073294
 20
56.5933318553
 30
0.0
 10
42.3497531713
 20
56.5894224632
 30
0.0
 10
42.3357993813
 20
56.5879302336
 30
0.0
 10
42.327900733
 20
56.5884942237
 30
0.0
 10
42.3250626137
 20
56.5893423194
 30
0.0
 10
42.3240879511
 20
56.590001073
 30
0.0
  0
SPLINE
  5
47F
100
AcDbEntity
  8
0
100
AcDbSpline
 62
7
  6
CONTINUOUS
 70
0
 71
3
 72
20
 73
16
 74
0
 42
0.0000001
 43
0.0000001
 44
0.0000000001
 40
0.0
 40
0.0
 40
0.0
 40
0.0
 40
0.0022960261
 40
0.006087268
 40
0.0194300726
 40
0.0408117091
 40
0.0702175403
 40
0.1075443904
 40
0.1526640364
 40
0.2054386738
 40
0.2657261898
 40
0.408260216
 40
0.5791049685
 40
0.7770743444
 40
1.0
 40
1.0
 40
1.0
 40
1.0
 10
38.365848006
 20
52.8461423602
 30
0.0
 10
38.3662719359
 20
52.8467457498
 30
0.0
 10
38.3683493577
 20
52.8474682116
 30
0.0
 10
38.3744987546
 20
52.846610286
 30
0.0
 10
38.3862592155
 20
52.8423465584
 30
0.0
 10
38.4048552444
 20
52.8336015348
 30
0.0
 10
38.4298759833
 20
52.8203089885
 30
0.0
 10
38.4610614186
 20
52.8024885813
 30
0.0
 10
38.498301858
 20
52.7801324554
 30
0.0
 10
38.5414263833
 20
52.7532739298
 30
0.0
 10
38.6105289362
 20
52.7089551119
 30
0.0
 10
38.7104203878
 20
52.6424222322
 30
0.0
 10
38.8455508503
 20
52.5490737725
 30
0.0
 10
39.000302158
 20
52.438737715
 30
0.0
 10
39.1093392395
 20
52.3588264714
 30
0.0
 10
39.166855949
 20
52.3161872134
 30
0.0
  0
LINE
  5
480
100
AcDbEntity
  8
0
100
AcDbLine
 62
7
  6
CONTINUOUS
 10
39.6842328419
 20
51.9203220804
 11
39.6999571669
 21
51.9079223153
  0
LINE
  5
481
100
AcDbEntity
  8
0
100
AcDbLine
 62
7
  6
CONTINUOUS
 10
39.6999571669
 20
51.9079223153
 11
39.7198006574
 21
51.8922434954
  0
SPLINE
  5
482
100
AcDbEntity
  8
0
100
AcDbSpline
 62
7
  6
CONTINUOUS
 70
0
 71
3
 72
9
 73
5
 74
0
 42
0.0000001
 43
0.0000001
 44
0.0000000001
 40
0.0
 40
0.0
 40
0.0
 40
0.0
 40
0.533845908
 40
1.0
 40
1.0
 40
1.0
 40
1.0
 10
42.0146084939
 20
49.4986245226
 30
0.0
 10
42.0161031029
 20
49.4790128185
 30
0.0
 10
42.0149677861
 20
49.4415901889
 30
0.0
 10
42.0004645674
 20
49.4065091781
 30
0.0
 10
41.9906146292
 20
49.3924398724
 30
0.0
  0
SPLINE
  5
483
100
AcDbEntity
  8
0
100
AcDbSpline
 62
7
  6
CONTINUOUS
 70
0
 71
3
 72
12
 73
8
 74
0
 42
0.0000001
 43
0.0000001
 44
0.0000000001
 40
0.0
 40
0.0
 40
0.0
 40
0.0
 40
0.0824680199
 40
0.1777938849
 40
0.4074483781
 40
0.685379436
 40
1.0
 40
1.0
 40
1.0
 40
1.0
 10
44.4338597268
 20
54.7746803514
 30
0.0
 10
44.4093541524
 20
54.7731175982
 30
0.0
 10
44.3562632068
 20
54.7736756199
 30
0.0
 10
44.2355651167
 20
54.7871521342
 30
0.0
 10
44.060242465
 20
54.8281600528
 30
0.0
 10
43.8276371976
 20
54.9048875425
 30
0.0
 10
43.6633278417
 20
54.9694079349
 30
0.0
 10
43.5767931764
 20
55.0052928638
 30
0.0
  0
SPLINE
  5
484
100
AcDbEntity
  8
0
100
AcDbSpline
 62
7
  6
CONTINUOUS
 70
0
 71
3
 72
13
 73
9
 74
0
 42
0.0000001
 43
0.0000001
 44
0.0000000001
 40
0.0
 40
0.0
 40
0.0
 40
0.0
 40
0.1007888391
 40
0.1870187713
 40
0.2997194802
 40
0.4387969687
 40
0.6033394512
 40
1.0
 40
1.0
 40
1.0
 40
1.0
 10
43.2532458907
 20
55.9619292173
 30
0.0
 10
43.2481377655
 20
55.9657049966
 30
0.0
 10
43.2471551217
 20
55.9800537514
 30
0.0
 10
43.2502850567
 20
55.9978554014
 30
0.0
 10
43.256131304
 20
56.0186737501
 30
0.0
 10
43.2651227211
 20
56.0432280243
 30
0.0
 10
43.2823369465
 20
56.0839310418
 30
0.0
 10
43.2980002546
 20
56.1156554602
 30
0.0
 10
43.3095286566
 20
56.1378377473
 30
0.0
  0
SPLINE
  5
485
100
AcDbEntity
  8
0
100
AcDbSpline
 62
7
  6
CONTINUOUS
 70
0
 71
3
 72
26
 73
22
 74
0
 42
0.0000001
 43
0.0000001
 44
0.0000000001
 40
0.0
 40
0.0
 40
0.0
 40
0.0
 40
0.1611517846
 40
0.3244286718
 40
0.4855583613
 40
0.5637372747
 40
0.6392921367
 40
0.7112750102
 40
0.7785649605
 40
0.8398158654
 40
0.8934826164
 40
0.9169416757
 40
0.9378611838
 40
0.9560250225
 40
0.9712453181
 40
0.9833509485
 40
0.9922123576
 40
0.9954048807
 40
0.9977625491
 40
0.9992852122
 40
1.0
 40
1.0
 40
1.0
 40
1.0
 10
42.8226420682
 20
56.738162599
 30
0.0
 10
42.861022473
 20
56.7514279145
 30
0.0
 10
42.9382840813
 20
56.7781489235
 30
0.0
 10
43.0540261403
 20
56.8178283558
 30
0.0
 10
43.1501640904
 20
56.8502170447
 30
0.0
 10
43.2254965659
 20
56.875119469
 30
0.0
 10
43.2795752365
 20
56.8927430494
 30
0.0
 10
43.3311210623
 20
56.9092814708
 30
0.0
 10
43.3793086891
 20
56.9244865225
 30
0.0
 10
43.4231597746
 20
56.9380949281
 30
0.0
 10
43.4565064635
 20
56.9482863666
 30
0.0
 10
43.4801505831
 20
56.9554519742
 30
0.0
 10
43.4952365149
 20
56.960012128
 30
0.0
 10
43.5083329951
 20
56.963975982
 30
0.0
 10
43.5192998874
 20
56.967317387
 30
0.0
 10
43.5280024506
 20
56.9700253585
 30
0.0
 10
43.5338086529
 20
56.9718891176
 30
0.0
 10
43.5372228885
 20
56.9730882686
 30
0.0
 10
43.5389180968
 20
56.9737082517
 30
0.0
 10
43.539926205
 20
56.9741897685
 30
0.0
 10
43.5404847391
 20
56.974452011
 30
0.0
 10
43.5405661936
 20
56.9746126578
 30
0.0
  0
SPLINE
  5
486
100
AcDbEntity
  8
0
100
AcDbSpline
 62
7
  6
CONTINUOUS
 70
0
 71
3
 72
17
 73
13
 74
0
 42
0.0000001
 43
0.0000001
 44
0.0000000001
 40
0.0
 40
0.0
 40
0.0
 40
0.0
 40
0.3806270442
 40
0.5491461286
 40
0.6958334687
 40
0.7596003863
 40
0.8163621199
 40
0.8656924626
 40
0.9072947637
 40
0.9411057791
 40
0.9672724131
 40
1.0
 40
1.0
 40
1.0
 40
1.0
 10
43.5121888517
 20
56.465539536
 30
0.0
 10
43.5450189647
 20
56.5123509745
 30
0.0
 10
43.5939382096
 20
56.5788421417
 30
0.0
 10
43.6597717656
 20
56.6600484811
 30
0.0
 10
43.6972947556
 20
56.7028897916
 30
0.0
 10
43.7249890462
 20
56.7319566501
 30
0.0
 10
43.7431933369
 20
56.7498361272
 30
0.0
 10
43.7597046041
 20
56.7646937172
 30
0.0
 10
43.7742846507
 20
56.7764062469
 30
0.0
 10
43.7871361388
 20
56.7849483705
 30
0.0
 10
43.7991337572
 20
56.7911699636
 30
0.0
 10
43.809507056
 20
56.7928915114
 30
0.0
 10
43.8135755716
 20
56.7901317504
 30
0.0
  0
SPLINE
  5
487
100
AcDbEntity
  8
0
100
AcDbSpline
 62
7
  6
CONTINUOUS
 70
0
 71
3
 72
9
 73
5
 74
0
 42
0.0000001
 43
0.0000001
 44
0.0000000001
 40
0.0
 40
0.0
 40
0.0
 40
0.0
 40
0.2556994855
 40
1.0
 40
1.0
 40
1.0
 40
1.0
 10
19.1760036778
 20
55.9335170927
 30
0.0
 10
19.1541602501
 20
55.949304182
 30
0.0
 10
19.0680013409
 20
56.010020333
 30
0.0
 10
18.9788761258
 20
56.0665619822
 30
0.0
 10
18.910935462
 20
56.1057866469
 30
0.0
  0
SPLINE
  5
488
100
AcDbEntity
  8
0
100
AcDbSpline
 62
7
  6
CONTINUOUS
 70
0
 71
3
 72
9
 73
5
 74
0
 42
0.0000001
 43
0.0000001
 44
0.0000000001
 40
0.0
 40
0.0
 40
0.0
 40
0.0
 40
0.4942127982
 40
1.0
 40
1.0
 40
1.0
 40
1.0
 10
34.5190730763
 20
55.2560861057
 30
0.0
 10
34.4645058599
 20
55.2877793416
 30
0.0
 10
34.3600596374
 20
55.362697018
 30
0.0
 10
34.2709973515
 20
55.4551872705
 30
0.0
 10
34.2301554689
 20
55.5052141126
 30
0.0
  0
SPLINE
  5
489
100
AcDbEntity
  8
0
100
AcDbSpline
 62
7
  6
CONTINUOUS
 70
0
 71
3
 72
22
 73
18
 74
0
 42
0.0000001
 43
0.0000001
 44
0.0000000001
 40
0.0
 40
0.0
 40
0.0
 40
0.0
 40
0.0543023068
 40
0.1120681996
 40
0.1730843528
 40
0.2369115421
 40
0.3029989326
 40
0.370733057
 40
0.5084888043
 40
0.5773525835
 40
0.645342726
 40
0.711801953
 40
0.7760692297
 40
0.8375095563
 40
0.8955522246
 40
0.9497511885
 40
1.0
 40
1.0
 40
1.0
 40
1.0
 10
33.9446628238
 20
56.1163068775
 30
0.0
 10
33.9255664444
 20
56.1995875736
 30
0.0
 10
33.8978565558
 20
56.3743053632
 30
0.0
 10
33.8877002444
 20
56.6469727292
 30
0.0
 10
33.9060492528
 20
56.9341450191
 30
0.0
 10
33.9517203818
 20
57.2314228617
 30
0.0
 10
34.0234935293
 20
57.534357359
 30
0.0
 10
34.1530761056
 20
57.9418471066
 30
0.0
 10
34.3289188968
 20
58.3381694524
 30
0.0
 10
34.5473463705
 20
58.7113201916
 30
0.0
 10
34.7285382743
 20
58.9753172316
 30
0.0
 10
34.9237742214
 20
59.2198931735
 30
0.0
 10
35.1297402513
 20
59.4416725348
 30
0.0
 10
35.3431548686
 20
59.6372290186
 30
0.0
 10
35.5607609642
 20
59.8032716089
 30
0.0
 10
35.7797034115
 20
59.9363121186
 30
0.0
 10
35.9300981067
 20
60.0039464021
 30
0.0
 10
36.0043213198
 20
60.0311868846
 30
0.0
  0
SPLINE
  5
48A
100
AcDbEntity
  8
0
100
AcDbSpline
 62
7
  6
CONTINUOUS
 70
0
 71
3
 72
11
 73
7
 74
0
 42
0.0000001
 43
0.0000001
 44
0.0000000001
 40
0.0
 40
0.0
 40
0.0
 40
0.0
 40
0.2796359692
 40
0.5358355421
 40
0.7734351369
 40
1.0
 40
1.0
 40
1.0
 40
1.0
 10
36.0043213198
 20
60.0311868846
 30
0.0
 10
36.083777921
 20
60.0603480602
 30
0.0
 10
36.2407082473
 20
60.1047833683
 30
0.0
 10
36.4753811999
 20
60.1261239187
 30
0.0
 10
36.6935679584
 20
60.0983252171
 30
0.0
 10
36.8258143445
 20
60.0453368307
 30
0.0
 10
36.8852971764
 20
60.011213639
 30
0.0
  0
SPLINE
  5
48B
100
AcDbEntity
  8
0
100
AcDbSpline
 62
7
  6
CONTINUOUS
 70
0
 71
3
 72
21
 73
17
 74
0
 42
0.0000001
 43
0.0000001
 44
0.0000000001
 40
0.0
 40
0.0
 40
0.0
 40
0.0
 40
0.0022481118
 40
0.0058859015
 40
0.0113372249
 40
0.0187280708
 40
0.0395192746
 40
0.0684974102
 40
0.1057912068
 40
0.1514335785
 40
0.2051758763
 40
0.2666979026
 40
0.4117861072
 40
0.5841022315
 40
0.7810415216
 40
1.0
 40
1.0
 40
1.0
 40
1.0
 10
40.9326124542
 20
56.5017293917
 30
0.0
 10
40.9330340567
 20
56.5023298273
 30
0.0
 10
40.9350415574
 20
56.5030954979
 30
0.0
 10
40.9387072217
 20
56.5026492787
 30
0.0
 10
40.9439380073
 20
56.5013057148
 30
0.0
 10
40.9542257395
 20
56.4974621636
 30
0.0
 10
40.9711103919
 20
56.4894739782
 30
0.0
 10
40.9961523324
 20
56.4760477773
 30
0.0
 10
41.0277702188
 20
56.4577521903
 30
0.0
 10
41.0658754303
 20
56.4345629538
 30
0.0
 10
41.1102919708
 20
56.4065473982
 30
0.0
 10
41.1815832693
 20
56.3603194375
 30
0.0
 10
41.2842632528
 20
56.2913914056
 30
0.0
 10
41.4222009603
 20
56.1957340169
 30
0.0
 10
41.578497524
 20
56.0842745636
 30
0.0
 10
41.6880470563
 20
56.0041372124
 30
0.0
 10
41.7454824985
 20
55.9616252309
 30
0.0
  0
SPLINE
  5
48C
100
AcDbEntity
  8
0
100
AcDbSpline
 62
7
  6
CONTINUOUS
 70
0
 71
3
 72
12
 73
8
 74
0
 42
0.0000001
 43
0.0000001
 44
0.0000000001
 40
0.0
 40
0.0
 40
0.0
 40
0.0
 40
0.2290647507
 40
0.4864267834
 40
0.7507937504
 40
0.8786667883
 40
1.0
 40
1.0
 40
1.0
 40
1.0
 10
41.7454824985
 20
55.9616252309
 30
0.0
 10
41.9115889294
 20
55.8386782623
 30
0.0
 10
42.2601636773
 20
55.5719374138
 30
0.0
 10
42.7854577269
 20
55.1441641116
 30
0.0
 10
43.2283920089
 20
54.7601859397
 30
0.0
 10
43.5690234268
 20
54.4460535656
 30
0.0
 10
43.7304454364
 20
54.2895032391
 30
0.0
 10
43.8077417276
 20
54.2119937789
 30
0.0
  0
SPLINE
  5
48D
100
AcDbEntity
  8
0
100
AcDbSpline
 62
7
  6
CONTINUOUS
 70
0
 71
3
 72
14
 73
10
 74
0
 42
0.0000001
 43
0.0000001
 44
0.0000000001
 40
0.0
 40
0.0
 40
0.0
 40
0.0
 40
0.1080452483
 40
0.2181360002
 40
0.3321100528
 40
0.4514868298
 40
0.5774360308
 40
0.7107592851
 40
1.0
 40
1.0
 40
1.0
 40
1.0
 10
15.3603521885
 20
55.0704320229
 30
0.0
 10
15.4095356392
 20
55.098829464
 30
0.0
 10
15.5139540713
 20
55.1477638809
 30
0.0
 10
15.6829434314
 20
55.1944327364
 30
0.0
 10
15.8630571526
 20
55.2145561618
 30
0.0
 10
16.0524042409
 20
55.2079820189
 30
0.0
 10
16.2492194012
 20
55.1749767139
 30
0.0
 10
16.5264763255
 20
55.0940980256
 30
0.0
 10
16.7286664256
 20
54.9978953669
 30
0.0
 10
16.8603344865
 20
54.9218785127
 30
0.0
  0
SPLINE
  5
48E
100
AcDbEntity
  8
0
100
AcDbSpline
 62
7
  6
CONTINUOUS
 70
0
 71
3
 72
9
 73
5
 74
0
 42
0.0000001
 43
0.0000001
 44
0.0000000001
 40
0.0
 40
0.0
 40
0.0
 40
0.0
 40
0.4696414733
 40
1.0
 40
1.0
 40
1.0
 40
1.0
 10
43.3095286566
 20
56.1378377473
 30
0.0
 10
43.3373581108
 20
56.19138558
 30
0.0
 10
43.4022074299
 20
56.3024774267
 30
0.0
 10
43.4730578874
 20
56.4097439093
 30
0.0
 10
43.5121888517
 20
56.465539536
 30
0.0
  0
SPLINE
  5
48F
100
AcDbEntity
  8
0
100
AcDbSpline
 62
7
  6
CONTINUOUS
 70
0
 71
3
 72
12
 73
8
 74
0
 42
0.0000001
 43
0.0000001
 44
0.0000000001
 40
0.0
 40
0.0
 40
0.0
 40
0.0
 40
0.2733307833
 40
0.5407588424
 40
0.7871337627
 40
0.8983354172
 40
1.0
 40
1.0
 40
1.0
 40
1.0
 10
43.5123196248
 20
56.4649525836
 30
0.0
 10
43.6643188103
 20
56.3391594856
 30
0.0
 10
43.961844188
 20
56.0863913094
 30
0.0
 10
44.3837992028
 20
55.705755726
 30
0.0
 10
44.7066449731
 20
55.3903068349
 30
0.0
 10
44.9330289495
 20
55.1480798079
 30
0.0
 10
45.0340059453
 20
55.0321993108
 30
0.0
 10
45.0809389452
 20
54.9757836635
 30
0.0
  0
SPLINE
  5
490
100
AcDbEntity
  8
0
100
AcDbSpline
 62
7
  6
CONTINUOUS
 70
0
 71
3
 72
11
 73
7
 74
0
 42
0.0000001
 43
0.0000001
 44
0.0000000001
 40
0.0
 40
0.0
 40
0.0
 40
0.0
 40
0.2451703568
 40
0.4923692541
 40
0.7434581891
 40
1.0
 40
1.0
 40
1.0
 40
1.0
 10
13.8920744967
 20
26.34120151
 30
0.0
 10
13.89202782
 20
26.171827343
 30
0.0
 10
13.9107820199
 20
25.831379397
 30
0.0
 10
13.9952990251
 20
25.3237791646
 30
0.0
 10
14.1357661363
 20
24.8206144162
 30
0.0
 10
14.2645193074
 20
24.4936687252
 30
0.0
 10
14.3373754771
 20
24.3321061277
 30
0.0
  0
SPLINE
  5
491
100
AcDbEntity
  8
0
100
AcDbSpline
 62
7
  6
CONTINUOUS
 70
0
 71
3
 72
21
 73
17
 74
0
 42
0.0000001
 43
0.0000001
 44
0.0000000001
 40
0.0
 40
0.0
 40
0.0
 40
0.0
 40
0.002255194
 40
0.0058862027
 40
0.011315234
 40
0.0186669156
 40
0.0393214179
 40
0.0680705817
 40
0.1050248713
 40
0.1502663632
 40
0.2037263558
 40
0.2650934993
 40
0.4101966937
 40
0.5828636979
 40
0.7803721781
 40
1.0
 40
1.0
 40
1.0
 40
1.0
 10
40.0782920574
 20
55.2826355969
 30
0.0
 10
40.0787140762
 20
55.2832366138
 30
0.0
 10
40.0807103394
 20
55.2840110757
 30
0.0
 10
40.084365454
 20
55.283586079
 30
0.0
 10
40.0895675102
 20
55.2822700789
 30
0.0
 10
40.0997850948
 20
55.2784898899
 30
0.0
 10
40.116532861
 20
55.2706155718
 30
0.0
 10
40.14134408
 20
55.2573752206
 30
0.0
 10
40.1726495891
 20
55.2393283059
 30
0.0
 10
40.2104161653
 20
55.2164091003
 30
0.0
 10
40.2545203843
 20
55.188623212
 30
0.0
 10
40.3255528642
 20
55.1425874567
 30
0.0
 10
40.4280640772
 20
55.0737656306
 30
0.0
 10
40.56594265
 20
54.9781276167
 30
0.0
 10
40.722313237
 20
54.8665976931
 30
0.0
 10
40.8319516494
 20
54.7863974667
 30
0.0
 10
40.8894404771
 20
54.7438517563
 30
0.0
  0
SPLINE
  5
492
100
AcDbEntity
  8
0
100
AcDbSpline
 62
7
  6
CONTINUOUS
 70
0
 71
3
 72
10
 73
6
 74
0
 42
0.0000001
 43
0.0000001
 44
0.0000000001
 40
0.0
 40
0.0
 40
0.0
 40
0.0
 40
0.4732939504
 40
0.7359396141
 40
1.0
 40
1.0
 40
1.0
 40
1.0
 10
40.8894404771
 20
54.7438517563
 30
0.0
 10
41.1458761809
 20
54.5540715915
 30
0.0
 10
41.5375413805
 20
54.2492841599
 30
0.0
 10
42.0555118803
 20
53.8178996418
 30
0.0
 10
42.3226941404
 20
53.5840244851
 30
0.0
 10
42.4548113377
 20
53.4647545031
 30
0.0
  0
SPLINE
  5
493
100
AcDbEntity
  8
0
100
AcDbSpline
 62
7
  6
CONTINUOUS
 70
0
 71
3
 72
12
 73
8
 74
0
 42
0.0000001
 43
0.0000001
 44
0.0000000001
 40
0.0
 40
0.0
 40
0.0
 40
0.0
 40
0.1046288248
 40
0.211876245
 40
0.4422420102
 40
0.7039734316
 40
1.0
 40
1.0
 40
1.0
 40
1.0
 10
31.0391676218
 20
64.7744813339
 30
0.0
 10
31.0201587378
 20
64.7854656489
 30
0.0
 10
30.983778783
 20
64.8116056964
 30
0.0
 10
30.9198800757
 20
64.8795819719
 30
0.0
 10
30.8609444252
 20
64.9934853044
 30
0.0
 10
30.8287374747
 20
65.1572133367
 30
0.0
 10
30.8310482713
 20
65.2750673827
 30
0.0
 10
30.8373304255
 20
65.3368643385
 30
0.0
  0
SPLINE
  5
494
100
AcDbEntity
  8
0
100
AcDbSpline
 62
7
  6
CONTINUOUS
 70
0
 71
3
 72
11
 73
7
 74
0
 42
0.0000001
 43
0.0000001
 44
0.0000000001
 40
0.0
 40
0.0
 40
0.0
 40
0.0
 40
0.1951184003
 40
0.4281810051
 40
0.6974247048
 40
1.0
 40
1.0
 40
1.0
 40
1.0
 10
27.7547321784
 20
61.6036711379
 30
0.0
 10
27.7633294166
 20
61.5739725349
 30
0.0
 10
27.7886181579
 20
61.5106855503
 30
0.0
 10
27.8409765887
 20
61.4132393936
 30
0.0
 10
27.9100110103
 20
61.3058728551
 30
0.0
 10
27.9633585628
 20
61.2325833034
 30
0.0
 10
27.9923943955
 20
61.1944300495
 30
0.0
  0
SPLINE
  5
495
100
AcDbEntity
  8
0
100
AcDbSpline
 62
7
  6
CONTINUOUS
 70
0
 71
3
 72
9
 73
5
 74
0
 42
0.0000001
 43
0.0000001
 44
0.0000000001
 40
0.0
 40
0.0
 40
0.0
 40
0.0
 40
0.4780737879
 40
1.0
 40
1.0
 40
1.0
 40
1.0
 10
28.1035990766
 20
61.4701758374
 30
0.0
 10
28.0976336043
 20
61.4228413556
 30
0.0
 10
28.0704378871
 20
61.3255643585
 30
0.0
 10
28.0222797047
 20
61.2371254638
 30
0.0
 10
27.992385021
 20
61.1944737635
 30
0.0
  0
LINE
  5
496
100
AcDbEntity
  8
0
100
AcDbLine
 62
7
  6
CONTINUOUS
 10
32.2669140664
 20
66.0522558298
 11
32.2125930303
 21
66.0655180142
  0
SPLINE
  5
497
100
AcDbEntity
  8
0
100
AcDbSpline
 62
7
  6
CONTINUOUS
 70
0
 71
3
 72
9
 73
5
 74
0
 42
0.0000001
 43
0.0000001
 44
0.0000000001
 40
0.0
 40
0.0
 40
0.0
 40
0.0
 40
0.2469619981
 40
1.0
 40
1.0
 40
1.0
 40
1.0
 10
32.2125930303
 20
66.0655180142
 30
0.0
 10
32.2078690262
 20
66.066687879
 30
0.0
 10
32.188752585
 20
66.0714708376
 30
0.0
 10
32.1697067066
 20
66.076555772
 30
0.0
 10
32.1554746286
 20
66.0807582826
 30
0.0
  0
SPLINE
  5
498
100
AcDbEntity
  8
0
100
AcDbSpline
 62
7
  6
CONTINUOUS
 70
0
 71
3
 72
14
 73
10
 74
0
 42
0.0000001
 43
0.0000001
 44
0.0000000001
 40
0.0
 40
0.0
 40
0.0
 40
0.0
 40
0.2892438856
 40
0.4225653924
 40
0.5485134551
 40
0.6678898471
 40
0.7818641437
 40
0.8919544
 40
1.0
 40
1.0
 40
1.0
 40
1.0
 10
18.910935462
 20
56.1057866469
 30
0.0
 10
18.7792658899
 20
56.1818043736
 30
0.0
 10
18.5770753023
 20
56.2780085002
 30
0.0
 10
18.2998176089
 20
56.3588851957
 30
0.0
 10
18.1030041566
 20
56.3918916943
 30
0.0
 10
17.9136577352
 20
56.3984628829
 30
0.0
 10
17.7335436726
 20
56.378344384
 30
0.0
 10
17.5645548397
 20
56.3316721559
 30
0.0
 10
17.4601365136
 20
56.2827381961
 30
0.0
 10
17.4109524388
 20
56.2543414077
 30
0.0
  0
SPLINE
  5
499
100
AcDbEntity
  8
0
100
AcDbSpline
 62
7
  6
CONTINUOUS
 70
0
 71
3
 72
12
 73
8
 74
0
 42
0.0000001
 43
0.0000001
 44
0.0000000001
 40
0.0
 40
0.0
 40
0.0
 40
0.0
 40
0.1046570146
 40
0.211927615
 40
0.442312584
 40
0.7040214176
 40
1.0
 40
1.0
 40
1.0
 40
1.0
 10
44.262119482
 20
57.1403792244
 30
0.0
 10
44.2431320405
 20
57.1513511488
 30
0.0
 10
44.2067917812
 20
57.1774564875
 30
0.0
 10
44.1429507523
 20
57.2453269793
 30
0.0
 10
44.0840307487
 20
57.3590373162
 30
0.0
 10
44.0517529743
 20
57.5225019198
 30
0.0
 10
44.0539693522
 20
57.6401778147
 30
0.0
 10
44.0601932876
 20
57.7018833358
 30
0.0
  0
SPLINE
  5
49A
100
AcDbEntity
  8
0
100
AcDbSpline
 62
7
  6
CONTINUOUS
 70
0
 71
3
 72
17
 73
13
 74
0
 42
0.0000001
 43
0.0000001
 44
0.0000000001
 40
0.0
 40
0.0
 40
0.0
 40
0.0
 40
0.1428191223
 40
0.2907665748
 40
0.4374471998
 40
0.5768604768
 40
0.7038995782
 40
0.8155583656
 40
0.8657196158
 40
0.9125797593
 40
0.9569567133
 40
1.0
 40
1.0
 40
1.0
 40
1.0
 10
28.3078522793
 20
68.0196459596
 30
0.0
 10
28.2493690456
 20
67.9630681147
 30
0.0
 10
28.1400861844
 20
67.8374779051
 30
0.0
 10
28.0055015822
 20
67.626737111
 30
0.0
 10
27.9033961895
 20
67.4005184411
 30
0.0
 10
27.8399928444
 20
67.1727289323
 30
0.0
 10
27.8192154326
 20
66.9570918952
 30
0.0
 10
27.8396994289
 20
66.7916851017
 30
0.0
 10
27.880875762
 20
66.6796319462
 30
0.0
 10
27.9213986129
 20
66.6094621085
 30
0.0
 10
27.9722455054
 20
66.5516036301
 30
0.0
 10
28.0127179077
 20
66.5217752811
 30
0.0
 10
28.033950057
 20
66.5095023652
 30
0.0
  0
SPLINE
  5
49B
100
AcDbEntity
  8
0
100
AcDbSpline
 62
7
  6
CONTINUOUS
 70
0
 71
3
 72
9
 73
5
 74
0
 42
0.0000001
 43
0.0000001
 44
0.0000000001
 40
0.0
 40
0.0
 40
0.0
 40
0.0
 40
0.2432189078
 40
1.0
 40
1.0
 40
1.0
 40
1.0
 10
42.9264359346
 20
53.7057752611
 30
0.0
 10
42.9097159526
 20
53.7120175385
 30
0.0
 10
42.8411070441
 20
53.7380458561
 30
0.0
 10
42.7730094262
 20
53.7654128096
 30
0.0
 10
42.7217214218
 20
53.7867048725
 30
0.0
  0
LINE
  5
49C
100
AcDbEntity
  8
0
100
AcDbLine
 62
7
  6
CONTINUOUS
 10
45.4898659267
 20
58.4181537202
 11
45.4355448905
 21
58.4314159047
  0
SPLINE
  5
49D
100
AcDbEntity
  8
0
100
AcDbSpline
 62
7
  6
CONTINUOUS
 70
0
 71
3
 72
9
 73
5
 74
0
 42
0.0000001
 43
0.0000001
 44
0.0000000001
 40
0.0
 40
0.0
 40
0.0
 40
0.0
 40
0.2469509725
 40
1.0
 40
1.0
 40
1.0
 40
1.0
 10
45.4355448905
 20
58.4314159047
 30
0.0
 10
45.4307354095
 20
58.4326069372
 30
0.0
 10
45.4112724711
 20
58.4374775532
 30
0.0
 10
45.3918828829
 20
58.4426630204
 30
0.0
 10
45.3773979844
 20
58.446960597
 30
0.0
  0
SPLINE
  5
49E
100
AcDbEntity
  8
0
100
AcDbSpline
 62
7
  6
CONTINUOUS
 70
0
 71
3
 72
9
 73
5
 74
0
 42
0.0000001
 43
0.0000001
 44
0.0000000001
 40
0.0
 40
0.0
 40
0.0
 40
0.0
 40
0.2421579213
 40
1.0
 40
1.0
 40
1.0
 40
1.0
 10
39.4134119032
 20
52.6985924071
 30
0.0
 10
39.4071752618
 20
52.7161048689
 30
0.0
 10
39.3830030581
 20
52.7889832036
 30
0.0
 10
39.3649657335
 20
52.8638450131
 30
0.0
 10
39.3542838151
 20
52.9210335319
 30
0.0
  0
SPLINE
  5
49F
100
AcDbEntity
  8
0
100
AcDbSpline
 62
7
  6
CONTINUOUS
 70
0
 71
3
 72
9
 73
5
 74
0
 42
0.0000001
 43
0.0000001
 44
0.0000000001
 40
0.0
 40
0.0
 40
0.0
 40
0.0
 40
0.2382478211
 40
1.0
 40
1.0
 40
1.0
 40
1.0
 10
39.3542838151
 20
52.9210335319
 30
0.0
 10
39.348153908
 20
52.953851636
 30
0.0
 10
39.3265467045
 20
53.0923615025
 30
0.0
 10
39.3205482262
 20
53.2331041319
 30
0.0
 10
39.3229549973
 20
53.3398213738
 30
0.0
  0
SPLINE
  5
4A0
100
AcDbEntity
  8
0
100
AcDbSpline
 62
7
  6
CONTINUOUS
 70
0
 71
3
 72
9
 73
5
 74
0
 42
0.0000001
 43
0.0000001
 44
0.0000000001
 40
0.0
 40
0.0
 40
0.0
 40
0.0
 40
0.4920924922
 40
1.0
 40
1.0
 40
1.0
 40
1.0
 10
39.4977104496
 20
54.2614344857
 30
0.0
 10
39.5606475039
 20
54.4450356726
 30
0.0
 10
39.7165118411
 20
54.808850524
 30
0.0
 10
39.916909522
 20
55.1498777239
 30
0.0
 10
40.0290983991
 20
55.3158426683
 30
0.0
  0
SPLINE
  5
4A1
100
AcDbEntity
  8
0
100
AcDbSpline
 62
7
  6
CONTINUOUS
 70
0
 71
3
 72
10
 73
6
 74
0
 42
0.0000001
 43
0.0000001
 44
0.0000000001
 40
0.0
 40
0.0
 40
0.0
 40
0.0
 40
0.2570253214
 40
0.5108453415
 40
1.0
 40
1.0
 40
1.0
 40
1.0
 10
40.0290983991
 20
55.3158426683
 30
0.0
 10
40.0875452385
 20
55.4023051296
 30
0.0
 10
40.2094943218
 20
55.570360958
 30
0.0
 10
40.4702844831
 20
55.881817687
 30
0.0
 10
40.6899682019
 20
56.0910357494
 30
0.0
 10
40.8449512967
 20
56.2152516457
 30
0.0
  0
SPLINE
  5
4A2
100
AcDbEntity
  8
0
100
AcDbSpline
 62
7
  6
CONTINUOUS
 70
0
 71
3
 72
9
 73
5
 74
0
 42
0.0000001
 43
0.0000001
 44
0.0000000001
 40
0.0
 40
0.0
 40
0.0
 40
0.0
 40
0.4936941547
 40
1.0
 40
1.0
 40
1.0
 40
1.0
 10
29.4410475116
 20
65.0465729804
 30
0.0
 10
29.4050199341
 20
65.0500088316
 30
0.0
 10
29.3308045211
 20
65.0469515331
 30
0.0
 10
29.2599260971
 20
65.0251445128
 30
0.0
 10
29.2260112756
 20
65.010066392
 30
0.0
  0
SPLINE
  5
4A3
100
AcDbEntity
  8
0
100
AcDbSpline
 62
7
  6
CONTINUOUS
 70
0
 71
3
 72
9
 73
5
 74
0
 42
0.0000001
 43
0.0000001
 44
0.0000000001
 40
0.0
 40
0.0
 40
0.0
 40
0.0
 40
0.4929119678
 40
1.0
 40
1.0
 40
1.0
 40
1.0
 10
29.2260112756
 20
65.010066392
 30
0.0
 10
29.1845730863
 20
64.9916434725
 30
0.0
 10
29.1056592105
 20
64.9417549832
 30
0.0
 10
29.0429923066
 20
64.8728068036
 30
0.0
 10
29.0162044825
 20
64.8346108385
 30
0.0
  0
SPLINE
  5
4A4
100
AcDbEntity
  8
0
100
AcDbSpline
 62
7
  6
CONTINUOUS
 70
0
 71
3
 72
10
 73
6
 74
0
 42
0.0000001
 43
0.0000001
 44
0.0000000001
 40
0.0
 40
0.0
 40
0.0
 40
0.0
 40
0.2339089703
 40
0.4797288986
 40
1.0
 40
1.0
 40
1.0
 40
1.0
 10
16.8603344865
 20
54.9218785127
 30
0.0
 10
16.9403098995
 20
54.875705741
 30
0.0
 10
17.0997643218
 20
54.7729060898
 30
0.0
 10
17.4124203175
 20
54.5313284131
 30
0.0
 10
17.6290930417
 20
54.3182041059
 30
0.0
 10
17.7657338436
 20
54.164843186
 30
0.0
  0
SPLINE
  5
4A5
100
AcDbEntity
  8
0
100
AcDbSpline
 62
7
  6
CONTINUOUS
 70
0
 71
3
 72
11
 73
7
 74
0
 42
0.0000001
 43
0.0000001
 44
0.0000000001
 40
0.0
 40
0.0
 40
0.0
 40
0.0
 40
0.2289673298
 40
0.4672795461
 40
0.7222589328
 40
1.0
 40
1.0
 40
1.0
 40
1.0
 10
37.2052063967
 20
59.2461534218
 30
0.0
 10
37.248054504
 20
59.2201653821
 30
0.0
 10
37.3293008239
 20
59.1561844973
 30
0.0
 10
37.4283655063
 20
59.0314088722
 30
0.0
 10
37.5038258546
 20
58.8792417478
 30
0.0
 10
37.5354273892
 20
58.7663011544
 30
0.0
 10
37.5472763229
 20
58.7066789543
 30
0.0
  0
SPLINE
  5
4A6
100
AcDbEntity
  8
0
100
AcDbSpline
 62
7
  6
CONTINUOUS
 70
0
 71
3
 72
11
 73
7
 74
0
 42
0.0000001
 43
0.0000001
 44
0.0000000001
 40
0.0
 40
0.0
 40
0.0
 40
0.0
 40
0.2741318206
 40
0.5293115676
 40
0.7690169541
 40
1.0
 40
1.0
 40
1.0
 40
1.0
 10
35.6153664108
 20
55.6381498804
 30
0.0
 10
35.5392590929
 20
55.6147880371
 30
0.0
 10
35.3887001773
 20
55.5801582967
 30
0.0
 10
35.164372376
 20
55.5685629339
 30
0.0
 10
34.9543510741
 20
55.601327732
 30
0.0
 10
34.826957892
 20
55.6553434515
 30
0.0
 10
34.7689108001
 20
55.6889650105
 30
0.0
  0
SPLINE
  5
4A7
100
AcDbEntity
  8
0
100
AcDbSpline
 62
7
  6
CONTINUOUS
 70
0
 71
3
 72
9
 73
5
 74
0
 42
0.0000001
 43
0.0000001
 44
0.0000000001
 40
0.0
 40
0.0
 40
0.0
 40
0.0
 40
0.2318924002
 40
1.0
 40
1.0
 40
1.0
 40
1.0
 10
29.4879759703
 20
63.9770731572
 30
0.0
 10
29.4918334562
 20
63.9679404971
 30
0.0
 10
29.5092477818
 20
63.9288865532
 30
0.0
 10
29.529380211
 20
63.891084758
 30
0.0
 10
29.545765552
 20
63.8626264633
 30
0.0
  0
SPLINE
  5
4A8
100
AcDbEntity
  8
0
100
AcDbSpline
 62
7
  6
CONTINUOUS
 70
0
 71
3
 72
10
 73
6
 74
0
 42
0.0000001
 43
0.0000001
 44
0.0000000001
 40
0.0
 40
0.0
 40
0.0
 40
0.0
 40
0.2091638375
 40
0.4478561717
 40
1.0
 40
1.0
 40
1.0
 40
1.0
 10
29.545765552
 20
63.8626264633
 30
0.0
 10
29.57037466
 20
63.8198850123
 30
0.0
 10
29.6276277227
 20
63.7309873084
 30
0.0
 10
29.7679852869
 20
63.5414029175
 30
0.0
 10
29.8903759987
 20
63.4003205377
 30
0.0
 10
29.9783529697
 20
63.3043507779
 30
0.0
  0
SPLINE
  5
4A9
100
AcDbEntity
  8
0
100
AcDbSpline
 62
7
  6
CONTINUOUS
 70
0
 71
3
 72
15
 73
11
 74
0
 42
0.0000001
 43
0.0000001
 44
0.0000000001
 40
0.0
 40
0.0
 40
0.0
 40
0.0
 40
0.0919832796
 40
0.1898233865
 40
0.2977236163
 40
0.4177124351
 40
0.5497616491
 40
0.6925734206
 40
0.8438870515
 40
1.0
 40
1.0
 40
1.0
 40
1.0
 10
49.1609554893
 20
54.6058543168
 30
0.0
 10
49.1842990494
 20
54.5923843589
 30
0.0
 10
49.2374038277
 20
54.5724171319
 30
0.0
 10
49.3256247094
 20
54.5679214473
 30
0.0
 10
49.4199332276
 20
54.5872342553
 30
0.0
 10
49.5173366663
 20
54.6291664444
 30
0.0
 10
49.6150141628
 20
54.6919663645
 30
0.0
 10
49.7099393276
 20
54.7736385135
 30
0.0
 10
49.7988746505
 20
54.8714520004
 30
0.0
 10
49.8518990093
 20
54.9445240193
 30
0.0
 10
49.8767428551
 20
54.9829301413
 30
0.0
  0
SPLINE
  5
4AA
100
AcDbEntity
  8
0
100
AcDbSpline
 62
7
  6
CONTINUOUS
 70
0
 71
3
 72
9
 73
5
 74
0
 42
0.0000001
 43
0.0000001
 44
0.0000000001
 40
0.0
 40
0.0
 40
0.0
 40
0.0
 40
0.2410381587
 40
1.0
 40
1.0
 40
1.0
 40
1.0
 10
39.9906562028
 20
52.3442343703
 30
0.0
 10
39.9825051596
 20
52.3646051416
 30
0.0
 10
39.9509439723
 20
52.4500133075
 30
0.0
 10
39.9282767968
 20
52.5386212286
 30
0.0
 10
39.91552841
 20
52.6065209241
 30
0.0
  0
SPLINE
  5
4AB
100
AcDbEntity
  8
0
100
AcDbSpline
 62
7
  6
CONTINUOUS
 70
0
 71
3
 72
9
 73
5
 74
0
 42
0.0000001
 43
0.0000001
 44
0.0000000001
 40
0.0
 40
0.0
 40
0.0
 40
0.0
 40
0.2409966612
 40
1.0
 40
1.0
 40
1.0
 40
1.0
 10
39.91552841
 20
52.6065209241
 30
0.0
 10
39.9111922527
 20
52.6296159055
 30
0.0
 10
39.8953192542
 20
52.7258401447
 30
0.0
 10
39.8878040433
 20
52.8233828293
 30
0.0
 10
39.8861361181
 20
52.8973710936
 30
0.0
  0
SPLINE
  5
4AC
100
AcDbEntity
  8
0
100
AcDbSpline
 62
7
  6
CONTINUOUS
 70
0
 71
3
 72
9
 73
5
 74
0
 42
0.0000001
 43
0.0000001
 44
0.0000000001
 40
0.0
 40
0.0
 40
0.0
 40
0.0
 40
0.2528879111
 40
1.0
 40
1.0
 40
1.0
 40
1.0
 10
40.8624177776
 20
55.3445472294
 30
0.0
 10
40.8880647621
 20
55.3750958864
 30
0.0
 10
40.9910982932
 20
55.4945248555
 30
0.0
 10
41.1005710626
 20
55.6084248636
 30
0.0
 10
41.1858568676
 20
55.68974213
 30
0.0
  0
SPLINE
  5
4AD
100
AcDbEntity
  8
0
100
AcDbSpline
 62
7
  6
CONTINUOUS
 70
0
 71
3
 72
13
 73
9
 74
0
 42
0.0000001
 43
0.0000001
 44
0.0000000001
 40
0.0
 40
0.0
 40
0.0
 40
0.0
 40
0.0848583575
 40
0.1825284554
 40
0.2925777065
 40
0.4143128195
 40
0.6893450933
 40
1.0
 40
1.0
 40
1.0
 40
1.0
 10
28.6144172788
 20
62.8074065682
 30
0.0
 10
28.6222280289
 20
62.7835489869
 30
0.0
 10
28.6426458246
 20
62.7334120224
 30
0.0
 10
28.6825101142
 20
62.656506791
 30
0.0
 10
28.7331577884
 20
62.5731650231
 30
0.0
 10
28.8176920782
 20
62.4492761179
 30
0.0
 10
28.9466286038
 20
62.2841840305
 30
0.0
 10
29.0610288422
 20
62.1539665242
 30
0.0
 10
29.1231028816
 20
62.0861978013
 30
0.0
  0
ENDSEC
  0
SECTION
  2
OBJECTS
  0
DICTIONARY
  5
C
100
AcDbDictionary
280
0
281
1
  3
ACAD_GROUP
350
D
  3
ACAD_MLINESTYLE
350
17
  3
ACAD_LAYOUT
350
1A
  3
ACAD_PLOTSETTINGS
350
19
  3
ACAD_PLOTSTYLENAME
350
E
  0
DICTIONARY
  5
D
102
{ACAD_REACTORS
330
C
102
}
100
AcDbDictionary
280
0
281
1
  0
ACDBDICTIONARYWDFLT
  5
E
102
{ACAD_REACTORS
330
C
102
}
100
AcDbDictionary
281
1
  3
Normal
350
F
100
AcDbDictionaryWithDefault
340
F
  0
DICTIONARY
  5
17
102
{ACAD_REACTORS
330
C
102
}
100
AcDbDictionary
280
0
281
1
  3
Standard
350
18
  0
DICTIONARY
  5
19
102
{ACAD_REACTORS
330
C
102
}
100
AcDbDictionary
281
1
  0
DICTIONARY
  5
1A
102
{ACAD_REACTORS
330
C
102
}
100
AcDbDictionary
281
1
  3
Model
350
4AE
  3
Layout1
350
4AF
  0
ACDBPLACEHOLDER
  5
F
102
{ACAD_REACTORS
330
E
102
}
  0
MLINESTYLE
  5
18
102
{ACAD_REACTORS
330
17
102
}
100
AcDbMlineStyle
  2
STANDARD
 70
0
  3

 62
256
 51
90.0
 52
90.0
 71
2
 49
0.5
 62
256
  6
BYLAYER
 49
-0.5
 62
256
  6
BYLAYER
  0
LAYOUT
  5
4AE
102
{ACAD_REACTORS
330
1A
102
}
100
AcDbPlotSettings
  1

  2
none_device
  4

  6

 40
0.0
 41
0.0
 42
0.0
 43
0.0
 44
210.0
 45
297.0
 46
0.0
 47
0.0
 48
0.0
 49
0.0
140
0.0
141
0.0
142
1.0
143
1.0
 70
1024
 72
1
 73
0
 74
0
  7

 75
0
147
1.0
148
0.0
149
0.0
100
AcDbLayout
  1
Model
 70
0
 71
0
 10
0.0
 20
0.0
 11
210.0
 21
297.0
 12
0.0
 22
0.0
 32
0.0
 14
0.0
 24
0.0
 34
0.0
 15
0.0
 25
0.0
 35
0.0
146
0.0
 13
0.0
 23
0.0
 33
0.0
 16
1.0
 26
0.0
 36
0.0
 17
0.0
 27
1.0
 37
0.0
 76
0
330
210
345
0
346
0
  0
LAYOUT
  5
4AF
102
{ACAD_REACTORS
330
1A
102
}
100
AcDbPlotSettings
  1

  2
none_device
  4

  6

 40
0.0
 41
0.0
 42
0.0
 43
0.0
 44
210.0
 45
297.0
 46
0.0
 47
0.0
 48
0.0
 49
0.0
140
0.0
141
0.0
142
1.0
143
1.0
 70
0
 72
1
 73
0
 74
0
  7

 75
0
147
1.0
148
0.0
149
0.0
100
AcDbLayout
  1
Layout1
 70
0
 71
1
 10
0.0
 20
0.0
 11
210.0
 21
297.0
 12
0.0
 22
0.0
 32
0.0
 14
0.0
 24
0.0
 34
0.0
 15
0.0
 25
0.0
 35
0.0
146
0.0
 13
0.0
 23
0.0
 33
0.0
 16
1.0
 26
0.0
 36
0.0
 17
0.0
 27
1.0
 37
0.0
 76
0
330
211
345
0
346
0
  0
ENDSEC
  0
EOF
