999
DXF file: C:\Users\sesa63760\Dev\_Creo\CAD\MCADID0001895_3D-CAD\drw0001_3.dxf
999
Pro/ENGINEER 2019471 by Parametric Technology Corporation
  0
SECTION
  2
HEADER
  9
$ACADVER
  1
AC1024
  9
$DWGCODEPAGE
  3
ANSI_1252
  9
$EXTMAX
 10
99.8609729682
 20
141.2319474836
 30
0.0
  9
$EXTMIN
 10
0.0
 20
0.0
 30
0.0
  9
$LIMMIN
 10
0.0
 20
0.0
  9
$LIMMAX
 10
99.8609729682
 20
141.2319474836
  9
$VIEWCTR
 10
49.9304864841
 20
70.6159737418
  9
$VIEWSIZE
 40
141.2319474836
  9
$CLAYER
  8
0
  9
$LTSCALE
 40
9.2062306508
  9
$CELTYPE
  6
BYLAYER
  9
$DIMSCALE
 40
1.0
  9
$DIMASZ
 40
1.1888211068
  9
$DIMEXO
 40
1.0
  9
$DIMDLI
 40
6.3606684496
  9
$DIMEXE
 40
1.0
  9
$DIMCEN
 40
1.5064741065
  9
$DIMLFAC
 40
1.0
  9
$DIMBLK
  1
_FILLED
  9
$DIMALT
 70
0
  9
$DIMALTF
 40
0.0393700787
  9
$DIMTXT
 40
1.6643495495
  9
$DIMTOL
 70
1
  9
$DIMLIM
 70
0
  9
$DIMTFAC
 40
1.0
  9
$DIMTP
 40
0.01
  9
$DIMTM
 40
0.01
  9
$DIMGAP
 40
0.625
  9
$DIMDSEP
 70
46
  9
$AUNITS
 70
0
  9
$PDMODE
 70
3
  9
$PDSIZE
 40
0.3125
  9
$HANDSEED
  5
330
  9
$TILEMODE
 70
1
  9
$MEASUREMENT
 70
1
  9
$INSUNITS
 70
4
  0
ENDSEC
  0
SECTION
  2
CLASSES
  0
CLASS
  1
ACDBDICTIONARYWDFLT
  2
AcDbDictionaryWithDefault
  3
AutoCAD 2000
 90
0
 91
1
280
0
281
0
  0
CLASS
  1
ACDBPLACEHOLDER
  2
AcDbPlaceHolder
  3
AutoCAD 2000
 90
0
 91
1
280
0
281
0
  0
CLASS
  1
LAYOUT
  2
AcDbLayout
  3
AutoCAD 2000
 90
0
 91
0
280
0
281
0
  0
ENDSEC
  0
SECTION
  2
TABLES
  0
TABLE
  2
VPORT
  5
8
100
AcDbSymbolTable
 70
2
  0
VPORT
  5
1F4
100
AcDbSymbolTableRecord
100
AcDbViewportTableRecord
  2
*ACTIVE
 70
0
 10
0.0
 20
0.0
 11
1.0
 21
1.0
 12
49.9304864841
 22
70.6159737418
 13
0.0
 23
0.0
 14
1.0
 24
1.0
 15
0.0
 25
0.0
 16
0.0
 26
0.0
 36
1.0
 17
0.0
 27
0.0
 37
0.0
 40
141.2319474836
 41
0.7070707071
 42
50.0
 43
0.0
 44
0.0
 50
0.0
 51
0.0
 71
0
 72
100
 73
1
 74
1
 75
0
 76
0
 77
0
 78
0
  0
ENDTAB
  0
TABLE
  2
LTYPE
  5
5
100
AcDbSymbolTable
 70
6
  0
LTYPE
  5
14
100
AcDbSymbolTableRecord
100
AcDbLinetypeTableRecord
  2
BYBLOCK
 70
0
  3

 72
65
 73
0
 40
0.0
  0
LTYPE
  5
15
100
AcDbSymbolTableRecord
100
AcDbLinetypeTableRecord
  2
BYLAYER
 70
0
  3

 72
65
 73
0
 40
0.0
  0
LTYPE
  5
16
100
AcDbSymbolTableRecord
100
AcDbLinetypeTableRecord
  2
CONTINUOUS
 70
64
  3
Solid line
 72
65
 73
0
 40
0.0
  0
LTYPE
  5
1F5
100
AcDbSymbolTableRecord
100
AcDbLinetypeTableRecord
  2
CENTER
 70
64
  3
____ _ ____ _ ____ _ ____ _ ____ _ ____ _ ____
 72
65
 73
4
 40
0.6
 49
0.375
 74
0
 49
-0.075
 74
0
 49
0.075
 74
0
 49
-0.075
 74
0
  0
LTYPE
  5
1F6
100
AcDbSymbolTableRecord
100
AcDbLinetypeTableRecord
  2
HIDDEN
 70
64
  3
- - - - - - - - - - - - - - - - - - - -
 72
65
 73
2
 40
0.2
 49
0.1
 74
0
 49
-0.1
 74
0
  0
LTYPE
  5
1F7
100
AcDbSymbolTableRecord
100
AcDbLinetypeTableRecord
  2
PHANTOM
 70
64
  3
_____ _ _ _____ _ _ _____ _ _ _____
 72
65
 73
6
 40
0.8
 49
0.45
 74
0
 49
-0.05
 74
0
 49
0.1
 74
0
 49
-0.05
 74
0
 49
0.1
 74
0
 49
-0.05
 74
0
  0
LTYPE
  5
1F8
100
AcDbSymbolTableRecord
100
AcDbLinetypeTableRecord
  2
DOT
 70
64
  3
. . . . . . . . . . . . . . . . . . . .
 72
65
 73
2
 40
0.2
 49
0.1
 74
0
 49
-0.1
 74
0
  0
LTYPE
  5
1F9
100
AcDbSymbolTableRecord
100
AcDbLinetypeTableRecord
  2
DASHED
 70
64
  3
- - - - - - - - - - - - - - - - - - - -
 72
65
 73
2
 40
0.2
 49
0.1
 74
0
 49
-0.1
 74
0
  0
ENDTAB
  0
TABLE
  2
LAYER
  5
2
100
AcDbSymbolTable
 70
36
  0
LAYER
  5
10
100
AcDbSymbolTableRecord
100
AcDbLayerTableRecord
  2
0
 70
0
 62
7
  6
CONTINUOUS
370
-3
390
F
  0
LAYER
  5
1FA
100
AcDbSymbolTableRecord
100
AcDbLayerTableRecord
  2
DEFAULT_1
 70
0
 62
7
  6
CENTER
370
-3
390
F
  0
LAYER
  5
1FB
100
AcDbSymbolTableRecord
100
AcDbLayerTableRecord
  2
DEFAULT_2
 70
0
 62
8
  6
HIDDEN
370
-3
390
F
  0
LAYER
  5
1FC
100
AcDbSymbolTableRecord
100
AcDbLayerTableRecord
  2
DEFAULT_3
 70
0
 62
7
  6
PHANTOM
370
-3
390
F
  0
LAYER
  5
1FD
100
AcDbSymbolTableRecord
100
AcDbLayerTableRecord
  2
00_COMPONENTS
 70
0
 62
7
  6
CONTINUOUS
370
-3
390
F
  0
LAYER
  5
1FE
100
AcDbSymbolTableRecord
100
AcDbLayerTableRecord
  2
01_1_DEFAULT_DATUMS
 70
0
 62
7
  6
CONTINUOUS
370
-3
390
F
  0
LAYER
  5
1FF
100
AcDbSymbolTableRecord
100
AcDbLayerTableRecord
  2
01_PLANES
 70
0
 62
7
  6
CONTINUOUS
370
-3
390
F
  0
LAYER
  5
200
100
AcDbSymbolTableRecord
100
AcDbLayerTableRecord
  2
02_COORD_SYS
 70
0
 62
7
  6
CONTINUOUS
370
-3
390
F
  0
LAYER
  5
201
100
AcDbSymbolTableRecord
100
AcDbLayerTableRecord
  2
03_AXES
 70
0
 62
7
  6
CONTINUOUS
370
-3
390
F
  0
LAYER
  5
202
100
AcDbSymbolTableRecord
100
AcDbLayerTableRecord
  2
04_POINTS
 70
0
 62
7
  6
CONTINUOUS
370
-3
390
F
  0
LAYER
  5
203
100
AcDbSymbolTableRecord
100
AcDbLayerTableRecord
  2
05_CURVES
 70
0
 62
7
  6
CONTINUOUS
370
-3
390
F
  0
LAYER
  5
204
100
AcDbSymbolTableRecord
100
AcDbLayerTableRecord
  2
06_SURFS
 70
0
 62
7
  6
CONTINUOUS
370
-3
390
F
  0
LAYER
  5
205
100
AcDbSymbolTableRecord
100
AcDbLayerTableRecord
  2
07_COSMETICS
 70
0
 62
7
  6
CONTINUOUS
370
-3
390
F
  0
LAYER
  5
206
100
AcDbSymbolTableRecord
100
AcDbLayerTableRecord
  2
10_NOTES
 70
0
 62
7
  6
CONTINUOUS
370
-3
390
F
  0
LAYER
  5
207
100
AcDbSymbolTableRecord
100
AcDbLayerTableRecord
  2
11_NOTES_PUB
 70
0
 62
7
  6
CONTINUOUS
370
-3
390
F
  0
LAYER
  5
208
100
AcDbSymbolTableRecord
100
AcDbLayerTableRecord
  2
13_REF_GTOL
 70
0
 62
7
  6
CONTINUOUS
370
-3
390
F
  0
LAYER
  5
209
100
AcDbSymbolTableRecord
100
AcDbLayerTableRecord
  2
16_MISC
 70
0
 62
7
  6
CONTINUOUS
370
-3
390
F
  0
LAYER
  5
20A
100
AcDbSymbolTableRecord
100
AcDbLayerTableRecord
  2
17_NO_PRINT
 70
0
 62
7
  6
CONTINUOUS
370
-3
390
F
  0
LAYER
  5
20B
100
AcDbSymbolTableRecord
100
AcDbLayerTableRecord
  2
18_DATUM_CAMS_JOINTS
 70
0
 62
7
  6
CONTINUOUS
370
-3
390
F
  0
LAYER
  5
20C
100
AcDbSymbolTableRecord
100
AcDbLayerTableRecord
  2
19_DATUM_FUNCTIONAL
 70
0
 62
7
  6
CONTINUOUS
370
-3
390
F
  0
LAYER
  5
20D
100
AcDbSymbolTableRecord
100
AcDbLayerTableRecord
  2
20_DATUM_KINEMATIC_SCHEME
 70
0
 62
7
  6
CONTINUOUS
370
-3
390
F
  0
ENDTAB
  0
TABLE
  2
STYLE
  5
3
100
AcDbSymbolTable
 70
1
  0
STYLE
  5
11
100
AcDbSymbolTableRecord
100
AcDbTextStyleTableRecord
  2
STANDARD
 70
0
 40
0.0
 41
0.8
 50
0.0
 71
0
 42
0.2
  3
txt
  4

  0
STYLE
  5
20E
100
AcDbSymbolTableRecord
100
AcDbTextStyleTableRecord
  2
TEXTSTYLE_1
 70
0
 40
0.0
 41
0.8
 50
0.0
 71
0
 42
0.2
  3
gdt
  4

  0
ENDTAB
  0
TABLE
  2
VIEW
  5
6
100
AcDbSymbolTable
 70
0
  0
ENDTAB
  0
TABLE
  2
UCS
  5
7
100
AcDbSymbolTable
 70
0
  0
ENDTAB
  0
TABLE
  2
APPID
  5
9
100
AcDbSymbolTable
 70
1
  0
APPID
  5
20F
100
AcDbSymbolTableRecord
100
AcDbRegAppTableRecord
  2
ACAD
 70
0
  0
ENDTAB
  0
TABLE
  2
BLOCK_RECORD
  5
1
100
AcDbSymbolTable
 70
0
  0
BLOCK_RECORD
  5
210
100
AcDbSymbolTableRecord
100
AcDbBlockTableRecord
  2
*Model_Space
  0
BLOCK_RECORD
  5
211
100
AcDbSymbolTableRecord
100
AcDbBlockTableRecord
  2
*Paper_Space
  0
BLOCK_RECORD
  5
212
100
AcDbSymbolTableRecord
100
AcDbBlockTableRecord
  2
_FILLED
  0
ENDTAB
  0
TABLE
  2
DIMSTYLE
  5
A
100
AcDbSymbolTable
 70
1
100
AcDbDimStyleTable
 71
0
  0
DIMSTYLE
105
213
100
AcDbSymbolTableRecord
100
AcDbDimStyleTableRecord
  2
STANDARD
 70
0
  3

  4

 40
1.0
 41
1.1888211068
 42
1.0
 43
0.38
 44
1.0
 45
0.0
 46
0.0
 47
0.01
 48
0.01
140
1.6643495495
141
0.09
142
0.0
143
25.4
144
1.0
145
0.0
146
1.0
147
0.625
 71
1
 72
0
 73
0
 74
0
 75
0
 76
0
 77
1
 78
8
 79
2
170
0
171
1
172
0
173
0
174
0
175
0
176
0
177
0
178
0
270
2
179
2
271
2
272
2
273
2
274
2
275
0
280
0
281
0
282
0
283
1
284
8
285
0
286
0
287
3
288
0
340
11
278
46
341
212
342
212
343
212
344
212
  0
ENDTAB
  0
ENDSEC
  0
SECTION
  2
BLOCKS
  0
BLOCK
  5
20
100
AcDbEntity
  8
0
100
AcDbBlockBegin
  2
*Model_Space
 70
0
 10
0.0
 20
0.0
 30
0.0
  3
*Model_Space
  1

  0
ENDBLK
  5
21
100
AcDbEntity
  8
0
100
AcDbBlockEnd
  0
BLOCK
  5
1C
100
AcDbEntity
  8
0
100
AcDbBlockBegin
  2
*Paper_Space
 70
0
 10
0.0
 20
0.0
 30
0.0
  3
*Paper_Space
  1

  0
ENDBLK
  5
1D
100
AcDbEntity
  8
0
100
AcDbBlockEnd
  0
BLOCK
  5
214
100
AcDbEntity
  8
0
100
AcDbBlockBegin
  2
_FILLED
 70
64
 10
0.0
 20
0.0
  3
_FILLED
  1

  0
SOLID
  5
215
100
AcDbEntity
  8
0
  6
BYBLOCK
 62
0
100
AcDbTrace
 10
0.0
 20
0.0
 11
-1.0
 21
0.25
 12
-1.0
 22
-0.25
 13
-1.0
 23
-0.25
  0
ENDBLK
  5
216
100
AcDbEntity
  8
0
  6
BYBLOCK
 62
0
100
AcDbBlockEnd
  0
ENDSEC
  0
SECTION
  2
ENTITIES
  0
LINE
  5
217
100
AcDbEntity
  8
0
100
AcDbLine
 62
7
  6
CONTINUOUS
 10
11.8134186504
 20
84.1117067834
 11
11.8134186504
 21
57.8117067834
  0
LINE
  5
218
100
AcDbEntity
  8
0
100
AcDbLine
 62
7
  6
CONTINUOUS
 10
14.3134186504
 20
81.5617067834
 11
14.3134186504
 21
60.3617067834
  0
LINE
  5
219
100
AcDbEntity
  8
0
100
AcDbLine
 62
7
  6
CONTINUOUS
 10
17.3134186504
 20
81.5617067834
 11
17.3134186504
 21
79.5617067834
  0
LINE
  5
21A
100
AcDbEntity
  8
0
100
AcDbLine
 62
7
  6
CONTINUOUS
 10
17.3134186504
 20
75.1617067834
 11
17.3134186504
 21
73.1617067834
  0
LINE
  5
21B
100
AcDbEntity
  8
0
100
AcDbLine
 62
7
  6
CONTINUOUS
 10
17.3134186504
 20
68.7617067834
 11
17.3134186504
 21
66.7617067834
  0
LINE
  5
21C
100
AcDbEntity
  8
0
100
AcDbLine
 62
7
  6
CONTINUOUS
 10
17.3134186504
 20
62.3617067834
 11
17.3134186504
 21
60.3617067834
  0
LINE
  5
21D
100
AcDbEntity
  8
0
100
AcDbLine
 62
7
  6
CONTINUOUS
 10
19.2134186559
 20
84.1117067834
 11
19.2134186559
 21
83.3117067834
  0
LINE
  5
21E
100
AcDbEntity
  8
0
100
AcDbLine
 62
7
  6
CONTINUOUS
 10
19.2134186559
 20
58.6117067834
 11
19.2134186559
 21
57.8117067834
  0
LINE
  5
21F
100
AcDbEntity
  8
0
100
AcDbLine
 62
7
  6
CONTINUOUS
 10
19.9134186504
 20
68.4617067834
 11
19.9134186504
 21
68.7617067834
  0
LINE
  5
220
100
AcDbEntity
  8
0
100
AcDbLine
 62
7
  6
CONTINUOUS
 10
19.9134186504
 20
73.1617067834
 11
19.9134186504
 21
73.4617067834
  0
LINE
  5
221
100
AcDbEntity
  8
0
100
AcDbLine
 62
7
  6
CONTINUOUS
 10
21.9134186504
 20
59.8617067834
 11
21.9134186504
 21
62.8617067834
  0
LINE
  5
222
100
AcDbEntity
  8
0
100
AcDbLine
 62
7
  6
CONTINUOUS
 10
21.9134186504
 20
66.7617067834
 11
21.9134186504
 21
67.4617067834
  0
LINE
  5
223
100
AcDbEntity
  8
0
100
AcDbLine
 62
7
  6
CONTINUOUS
 10
21.9134186504
 20
74.4617067834
 11
21.9134186504
 21
75.1617067834
  0
LINE
  5
224
100
AcDbEntity
  8
0
100
AcDbLine
 62
7
  6
CONTINUOUS
 10
21.9134186504
 20
79.0617067834
 11
21.9134186504
 21
82.0617067834
  0
LINE
  5
225
100
AcDbEntity
  8
0
100
AcDbLine
 62
7
  6
CONTINUOUS
 10
23.2134186559
 20
84.1117067834
 11
23.2134186559
 21
83.3117067834
  0
LINE
  5
226
100
AcDbEntity
  8
0
100
AcDbLine
 62
7
  6
CONTINUOUS
 10
23.2134186559
 20
58.6117067834
 11
23.2134186559
 21
57.8117067834
  0
LINE
  5
227
100
AcDbEntity
  8
0
100
AcDbLine
 62
7
  6
CONTINUOUS
 10
25.3134186504
 20
78.5617067834
 11
25.3134186504
 21
78.3617067834
  0
LINE
  5
228
100
AcDbEntity
  8
0
100
AcDbLine
 62
7
  6
CONTINUOUS
 10
25.3134186504
 20
63.5617067834
 11
25.3134186504
 21
63.3617067834
  0
LINE
  5
229
100
AcDbEntity
  8
0
100
AcDbLine
 62
7
  6
CONTINUOUS
 10
25.8134186504
 20
69.736961912
 11
25.8134186504
 21
72.1864516548
  0
LINE
  5
22A
100
AcDbEntity
  8
0
100
AcDbLine
 62
7
  6
CONTINUOUS
 10
27.6134186504
 20
75.4617067834
 11
27.6134186504
 21
74.261676719
  0
LINE
  5
22B
100
AcDbEntity
  8
0
100
AcDbLine
 62
7
  6
CONTINUOUS
 10
27.6134186504
 20
67.6617368478
 11
27.6134186504
 21
66.5617067834
  0
LINE
  5
22C
100
AcDbEntity
  8
0
100
AcDbLine
 62
7
  6
CONTINUOUS
 10
27.8134186504
 20
60.3617067834
 11
27.8134186504
 21
64.8966750959
  0
LINE
  5
22D
100
AcDbEntity
  8
0
100
AcDbLine
 62
7
  6
CONTINUOUS
 10
27.8134186504
 20
77.0267384709
 11
27.8134186504
 21
81.5617067834
  0
LINE
  5
22E
100
AcDbEntity
  8
0
100
AcDbLine
 62
7
  6
CONTINUOUS
 10
29.3134186504
 20
84.4117067834
 11
29.3134186504
 21
80.1617067834
  0
LINE
  5
22F
100
AcDbEntity
  8
0
100
AcDbLine
 62
7
  6
CONTINUOUS
 10
29.3134186504
 20
76.6617067834
 11
29.3134186504
 21
75.4617067834
  0
LINE
  5
230
100
AcDbEntity
  8
0
100
AcDbLine
 62
7
  6
CONTINUOUS
 10
29.3134186504
 20
66.5617067834
 11
29.3134186504
 21
65.2617067834
  0
LINE
  5
231
100
AcDbEntity
  8
0
100
AcDbLine
 62
7
  6
CONTINUOUS
 10
29.3134186504
 20
61.7617067834
 11
29.3134186504
 21
57.5117067834
  0
LINE
  5
232
100
AcDbEntity
  8
0
100
AcDbLine
 62
7
  6
CONTINUOUS
 10
28.0670538999
 20
68.3068557623
 11
27.9248053809
 21
67.3150662414
  0
LINE
  5
233
100
AcDbEntity
  8
0
100
AcDbLine
 62
7
  6
CONTINUOUS
 10
27.9248053784
 20
74.6083473248
 11
28.0670539002
 21
73.6165578045
  0
LINE
  5
234
100
AcDbEntity
  8
0
100
AcDbLine
 62
7
  6
CONTINUOUS
 10
29.5134186504
 20
69.2117067834
 11
29.5134186504
 21
72.7117067834
  0
LINE
  5
235
100
AcDbEntity
  8
0
100
AcDbLine
 62
7
  6
CONTINUOUS
 10
32.0134186504
 20
65.2617067834
 11
32.0134186504
 21
61.7617067834
  0
LINE
  5
236
100
AcDbEntity
  8
0
100
AcDbLine
 62
7
  6
CONTINUOUS
 10
32.0134186504
 20
76.6617067834
 11
32.0134186504
 21
80.1617067834
  0
LINE
  5
237
100
AcDbEntity
  8
0
100
AcDbLine
 62
7
  6
CONTINUOUS
 10
31.7061925108
 20
80.1617067834
 11
32.8359942087
 21
83.4282223883
  0
LINE
  5
238
100
AcDbEntity
  8
0
100
AcDbLine
 62
7
  6
CONTINUOUS
 10
31.4382271613
 20
76.3276756101
 11
31.5537597448
 21
76.6617067834
  0
LINE
  5
239
100
AcDbEntity
  8
0
100
AcDbLine
 62
7
  6
CONTINUOUS
 10
32.7643175443
 20
80.1617067834
 11
33.7810621055
 21
83.1013482987
  0
LINE
  5
23A
100
AcDbEntity
  8
0
100
AcDbLine
 62
7
  6
CONTINUOUS
 10
31.7061925108
 20
61.7617067834
 11
32.8359942087
 21
58.4951911785
  0
LINE
  5
23B
100
AcDbEntity
  8
0
100
AcDbLine
 62
7
  6
CONTINUOUS
 10
31.4382271595
 20
65.595737962
 11
31.5537597448
 21
65.2617067834
  0
LINE
  5
23C
100
AcDbEntity
  8
0
100
AcDbLine
 62
7
  6
CONTINUOUS
 10
32.7643175443
 20
61.7617067834
 11
33.7810621055
 21
58.8220652681
  0
LINE
  5
23D
100
AcDbEntity
  8
0
100
AcDbLine
 62
7
  6
CONTINUOUS
 10
33.5134186504
 20
65.2617067834
 11
33.5134186504
 21
61.7617067834
  0
LINE
  5
23E
100
AcDbEntity
  8
0
100
AcDbLine
 62
7
  6
CONTINUOUS
 10
33.5134186504
 20
76.6617067834
 11
33.5134186504
 21
80.1617067834
  0
LINE
  5
23F
100
AcDbEntity
  8
0
100
AcDbLine
 62
7
  6
CONTINUOUS
 10
33.8134186504
 20
61.7617067834
 11
33.8134186504
 21
65.2617234412
  0
LINE
  5
240
100
AcDbEntity
  8
0
100
AcDbLine
 62
7
  6
CONTINUOUS
 10
33.8134186504
 20
76.6616901256
 11
33.8134186504
 21
80.1617067834
  0
LINE
  5
241
100
AcDbEntity
  8
0
100
AcDbLine
 62
7
  6
CONTINUOUS
 10
35.1134186504
 20
81.8117067834
 11
35.1134186504
 21
77.1617067834
  0
LINE
  5
242
100
AcDbEntity
  8
0
100
AcDbLine
 62
7
  6
CONTINUOUS
 10
35.1134186504
 20
75.9617067834
 11
35.1134186504
 21
65.9617067834
  0
LINE
  5
243
100
AcDbEntity
  8
0
100
AcDbLine
 62
7
  6
CONTINUOUS
 10
35.1134186504
 20
64.7617067834
 11
35.1134186504
 21
60.1117067834
  0
LINE
  5
244
100
AcDbEntity
  8
0
100
AcDbLine
 62
7
  6
CONTINUOUS
 10
38.2134186559
 20
84.1117067834
 11
38.2134186559
 21
83.3117067834
  0
LINE
  5
245
100
AcDbEntity
  8
0
100
AcDbLine
 62
7
  6
CONTINUOUS
 10
38.2134186559
 20
58.6117067834
 11
38.2134186559
 21
57.8117067834
  0
LINE
  5
246
100
AcDbEntity
  8
0
100
AcDbLine
 62
7
  6
CONTINUOUS
 10
29.7024352965
 20
66.3511810219
 11
30.3827152288
 21
67.0845648667
  0
LINE
  5
247
100
AcDbEntity
  8
0
100
AcDbLine
 62
7
  6
CONTINUOUS
 10
90.5134186504
 20
57.5117067834
 11
53.2634186504
 21
57.5117067834
  0
LINE
  5
248
100
AcDbEntity
  8
0
100
AcDbLine
 62
7
  6
CONTINUOUS
 10
49.3634186504
 20
57.5117067834
 11
12.1134186504
 21
57.5117067834
  0
LINE
  5
249
100
AcDbEntity
  8
0
100
AcDbLine
 62
7
  6
CONTINUOUS
 10
53.9634186532
 20
57.6117067834
 11
52.9634186522
 21
57.6117067834
  0
LINE
  5
24A
100
AcDbEntity
  8
0
100
AcDbLine
 62
7
  6
CONTINUOUS
 10
49.6634186522
 20
57.6117067834
 11
48.6634186531
 21
57.6117067834
  0
LINE
  5
24B
100
AcDbEntity
  8
0
100
AcDbLine
 62
7
  6
CONTINUOUS
 10
52.9634186504
 20
57.8072887057
 11
49.6634186504
 21
57.8072887057
  0
LINE
  5
24C
100
AcDbEntity
  8
0
100
AcDbLine
 62
7
  6
CONTINUOUS
 10
83.4134186559
 20
57.8117067834
 11
79.4134186559
 21
57.8117067834
  0
LINE
  5
24D
100
AcDbEntity
  8
0
100
AcDbLine
 62
7
  6
CONTINUOUS
 10
42.4134186559
 20
57.8117067834
 11
38.2134186559
 21
57.8117067834
  0
LINE
  5
24E
100
AcDbEntity
  8
0
100
AcDbLine
 62
7
  6
CONTINUOUS
 10
23.2134186559
 20
57.8117067834
 11
19.2134186559
 21
57.8117067834
  0
LINE
  5
24F
100
AcDbEntity
  8
0
100
AcDbLine
 62
7
  6
CONTINUOUS
 10
60.2134186449
 20
57.8117067834
 11
64.4134186449
 21
57.8117067834
  0
LINE
  5
250
100
AcDbEntity
  8
0
100
AcDbLine
 62
7
  6
CONTINUOUS
 10
54.4634186532
 20
58.6117067834
 11
53.9634186532
 21
58.6117067834
  0
LINE
  5
251
100
AcDbEntity
  8
0
100
AcDbLine
 62
7
  6
CONTINUOUS
 10
48.6634186531
 20
58.6117067834
 11
48.1634186531
 21
58.6117067834
  0
LINE
  5
252
100
AcDbEntity
  8
0
100
AcDbLine
 62
7
  6
CONTINUOUS
 10
19.2134186559
 20
58.6117067834
 11
23.2134186559
 21
58.6117067834
  0
LINE
  5
253
100
AcDbEntity
  8
0
100
AcDbLine
 62
7
  6
CONTINUOUS
 10
38.2134186559
 20
58.6117067834
 11
42.4134186559
 21
58.6117067834
  0
LINE
  5
254
100
AcDbEntity
  8
0
100
AcDbLine
 62
7
  6
CONTINUOUS
 10
60.2134186449
 20
58.6117067834
 11
64.4134186449
 21
58.6117067834
  0
LINE
  5
255
100
AcDbEntity
  8
0
100
AcDbLine
 62
7
  6
CONTINUOUS
 10
79.4134186559
 20
58.6117067834
 11
83.4134186559
 21
58.6117067834
  0
LINE
  5
256
100
AcDbEntity
  8
0
100
AcDbLine
 62
7
  6
CONTINUOUS
 10
48.1634186532
 20
59.5617067834
 11
48.6634186531
 21
59.5617067834
  0
LINE
  5
257
100
AcDbEntity
  8
0
100
AcDbLine
 62
7
  6
CONTINUOUS
 10
53.9634186532
 20
59.5617067834
 11
54.4634186532
 21
59.5617067834
  0
LINE
  5
258
100
AcDbEntity
  8
0
100
AcDbLine
 62
7
  6
CONTINUOUS
 10
49.7293397678
 20
59.8074379775
 11
52.8974933815
 21
59.8074379775
  0
LINE
  5
259
100
AcDbEntity
  8
0
100
AcDbLine
 62
7
  6
CONTINUOUS
 10
14.8134186504
 20
59.8617067834
 11
27.3134186504
 21
59.8617067834
  0
LINE
  5
25A
100
AcDbEntity
  8
0
100
AcDbLine
 62
7
  6
CONTINUOUS
 10
70.8134186504
 20
59.8617067834
 11
87.8134186504
 21
59.8617067834
  0
LINE
  5
25B
100
AcDbEntity
  8
0
100
AcDbLine
 62
7
  6
CONTINUOUS
 10
35.1134186504
 20
60.1117067834
 11
47.7050949426
 21
60.1117067834
  0
LINE
  5
25C
100
AcDbEntity
  8
0
100
AcDbLine
 62
7
  6
CONTINUOUS
 10
54.9217423637
 20
60.1117067834
 11
65.1134186504
 21
60.1117067834
  0
LINE
  5
25D
100
AcDbEntity
  8
0
100
AcDbLine
 62
7
  6
CONTINUOUS
 10
52.8426275848
 20
60.0119458721
 11
52.2236815368
 21
60.0485908778
  0
LINE
  5
25E
100
AcDbEntity
  8
0
100
AcDbLine
 62
7
  6
CONTINUOUS
 10
50.5134186504
 20
60.1498478345
 11
49.8320189191
 21
60.1901904413
  0
LINE
  5
25F
100
AcDbEntity
  8
0
100
AcDbLine
 62
7
  6
CONTINUOUS
 10
30.3827152271
 20
74.8388486984
 11
29.702435295
 21
75.5722325434
  0
LINE
  5
260
100
AcDbEntity
  8
0
100
AcDbLine
 62
7
  6
CONTINUOUS
 10
42.4134186559
 20
84.1117067834
 11
42.4134186559
 21
83.3117067834
  0
LINE
  5
261
100
AcDbEntity
  8
0
100
AcDbLine
 62
7
  6
CONTINUOUS
 10
42.4134186559
 20
58.6117067834
 11
42.4134186559
 21
57.8117067834
  0
LINE
  5
262
100
AcDbEntity
  8
0
100
AcDbLine
 62
7
  6
CONTINUOUS
 10
50.5134186504
 20
60.4367067834
 11
49.9341375214
 21
60.4367067834
  0
LINE
  5
263
100
AcDbEntity
  8
0
100
AcDbLine
 62
7
  6
CONTINUOUS
 10
52.2134186504
 20
60.4617067834
 11
52.6677148717
 21
60.4617067834
  0
LINE
  5
264
100
AcDbEntity
  8
0
100
AcDbLine
 62
7
  6
CONTINUOUS
 10
68.8134186504
 20
61.7617067834
 11
66.4134186504
 21
61.7617067834
  0
LINE
  5
265
100
AcDbEntity
  8
0
100
AcDbLine
 62
7
  6
CONTINUOUS
 10
29.3134186504
 20
61.7617067834
 11
33.8134186504
 21
61.7617067834
  0
LINE
  5
266
100
AcDbEntity
  8
0
100
AcDbLine
 62
7
  6
CONTINUOUS
 10
33.8134186504
 20
61.8117067834
 11
33.5134186504
 21
61.8117067834
  0
LINE
  5
267
100
AcDbEntity
  8
0
100
AcDbLine
 62
7
  6
CONTINUOUS
 10
24.8134186504
 20
62.8617067834
 11
17.8134186504
 21
62.8617067834
  0
LINE
  5
268
100
AcDbEntity
  8
0
100
AcDbLine
 62
7
  6
CONTINUOUS
 10
74.8134186504
 20
62.8617067834
 11
84.8134186504
 21
62.8617067834
  0
LINE
  5
269
100
AcDbEntity
  8
0
100
AcDbLine
 62
7
  6
CONTINUOUS
 10
27.3134186504
 20
64.0617067834
 11
25.8134186504
 21
64.0617067834
  0
LINE
  5
26A
100
AcDbEntity
  8
0
100
AcDbLine
 62
7
  6
CONTINUOUS
 10
65.1134186504
 20
64.7617067834
 11
35.1134186504
 21
64.7617067834
  0
LINE
  5
26B
100
AcDbEntity
  8
0
100
AcDbLine
 62
7
  6
CONTINUOUS
 10
29.3134186504
 20
65.2617067834
 11
33.8134186504
 21
65.2617067834
  0
LINE
  5
26C
100
AcDbEntity
  8
0
100
AcDbLine
 62
7
  6
CONTINUOUS
 10
66.4134186504
 20
65.7617067834
 11
68.8134186504
 21
65.7617067834
  0
LINE
  5
26D
100
AcDbEntity
  8
0
100
AcDbLine
 62
7
  6
CONTINUOUS
 10
48.1634186532
 20
58.6117067834
 11
48.1634186532
 21
59.5617067835
  0
LINE
  5
26E
100
AcDbEntity
  8
0
100
AcDbLine
 62
7
  6
CONTINUOUS
 10
48.1634186531
 20
82.3617067834
 11
48.1634186531
 21
83.3117067834
  0
LINE
  5
26F
100
AcDbEntity
  8
0
100
AcDbLine
 62
7
  6
CONTINUOUS
 10
48.6634186531
 20
57.6117067834
 11
48.6634186531
 21
59.5617067834
  0
LINE
  5
270
100
AcDbEntity
  8
0
100
AcDbLine
 62
7
  6
CONTINUOUS
 10
48.6634186531
 20
82.3617067834
 11
48.6634186531
 21
84.3117067834
  0
LINE
  5
271
100
AcDbEntity
  8
0
100
AcDbLine
 62
7
  6
CONTINUOUS
 10
35.1134186504
 20
65.9617067834
 11
65.1134186504
 21
65.9617067834
  0
LINE
  5
272
100
AcDbEntity
  8
0
100
AcDbLine
 62
7
  6
CONTINUOUS
 10
84.8134186504
 20
66.2617067834
 11
74.8134186504
 21
66.2617067834
  0
LINE
  5
273
100
AcDbEntity
  8
0
100
AcDbLine
 62
7
  6
CONTINUOUS
 10
17.8134186504
 20
66.2617067834
 11
21.4134186504
 21
66.2617067834
  0
LINE
  5
274
100
AcDbEntity
  8
0
100
AcDbLine
 62
7
  6
CONTINUOUS
 10
27.6134186504
 20
66.5617067834
 11
29.3134186504
 21
66.5617067834
  0
LINE
  5
275
100
AcDbEntity
  8
0
100
AcDbLine
 62
7
  6
CONTINUOUS
 10
21.4134186504
 20
67.9617067834
 11
20.4134186504
 21
67.9617067834
  0
LINE
  5
276
100
AcDbEntity
  8
0
100
AcDbLine
 62
7
  6
CONTINUOUS
 10
49.6634186504
 20
84.3117067834
 11
49.6634186504
 21
82.3617067834
  0
LINE
  5
277
100
AcDbEntity
  8
0
100
AcDbLine
 62
7
  6
CONTINUOUS
 10
49.6634186504
 20
59.5617067834
 11
49.6634186504
 21
57.6117067834
  0
LINE
  5
278
100
AcDbEntity
  8
0
100
AcDbLine
 62
7
  6
CONTINUOUS
 10
50.5134186504
 20
59.8752473928
 11
50.5134186504
 21
60.9970811442
  0
LINE
  5
279
100
AcDbEntity
  8
0
100
AcDbLine
 62
7
  6
CONTINUOUS
 10
50.5134186504
 20
80.9263189112
 11
50.5134186504
 21
81.9396285623
  0
LINE
  5
27A
100
AcDbEntity
  8
0
100
AcDbLine
 62
7
  6
CONTINUOUS
 10
31.4382271516
 20
65.5957379848
 11
30.5225476588
 21
65.2495896384
  0
LINE
  5
27B
100
AcDbEntity
  8
0
100
AcDbLine
 62
7
  6
CONTINUOUS
 10
29.5134186504
 20
69.2117067834
 11
27.0634186504
 21
69.2117067834
  0
LINE
  5
27C
100
AcDbEntity
  8
0
100
AcDbLine
 62
7
  6
CONTINUOUS
 10
19.4134186504
 20
69.2617067834
 11
17.8134186504
 21
69.2617067834
  0
LINE
  5
27D
100
AcDbEntity
  8
0
100
AcDbLine
 62
7
  6
CONTINUOUS
 10
74.8134186504
 20
69.2617067834
 11
84.8134186504
 21
69.2617067834
  0
LINE
  5
27E
100
AcDbEntity
  8
0
100
AcDbLine
 62
7
  6
CONTINUOUS
 10
30.5225480975
 20
76.6738237615
 11
31.4382275668
 21
76.3276767572
  0
LINE
  5
27F
100
AcDbEntity
  8
0
100
AcDbLine
 62
7
  6
CONTINUOUS
 10
52.2134186504
 20
59.8752473928
 11
52.2134186504
 21
60.9159886996
  0
LINE
  5
280
100
AcDbEntity
  8
0
100
AcDbLine
 62
7
  6
CONTINUOUS
 10
52.2134186504
 20
81.007410562
 11
52.2134186504
 21
81.9396285623
  0
LINE
  5
281
100
AcDbEntity
  8
0
100
AcDbLine
 62
7
  6
CONTINUOUS
 10
52.9634186504
 20
57.6117067834
 11
52.9634186504
 21
59.5617067834
  0
LINE
  5
282
100
AcDbEntity
  8
0
100
AcDbLine
 62
7
  6
CONTINUOUS
 10
52.9634186504
 20
82.3617067834
 11
52.9634186504
 21
84.3117067834
  0
LINE
  5
283
100
AcDbEntity
  8
0
100
AcDbLine
 62
7
  6
CONTINUOUS
 10
53.9634186531
 20
84.3117067834
 11
53.9634186531
 21
82.3617067834
  0
LINE
  5
284
100
AcDbEntity
  8
0
100
AcDbLine
 62
7
  6
CONTINUOUS
 10
53.9634186531
 20
59.5617067834
 11
53.9634186531
 21
57.6117067834
  0
LINE
  5
285
100
AcDbEntity
  8
0
100
AcDbLine
 62
7
  6
CONTINUOUS
 10
54.4634186531
 20
83.3117067834
 11
54.4634186531
 21
82.3617067834
  0
LINE
  5
286
100
AcDbEntity
  8
0
100
AcDbLine
 62
7
  6
CONTINUOUS
 10
54.4634186532
 20
59.5617067833
 11
54.4634186532
 21
58.6117067834
  0
LINE
  5
287
100
AcDbEntity
  8
0
100
AcDbLine
 62
7
  6
CONTINUOUS
 10
84.8134186504
 20
72.6617067834
 11
74.8134186504
 21
72.6617067834
  0
LINE
  5
288
100
AcDbEntity
  8
0
100
AcDbLine
 62
7
  6
CONTINUOUS
 10
17.8134186504
 20
72.6617067834
 11
19.4134186504
 21
72.6617067834
  0
LINE
  5
289
100
AcDbEntity
  8
0
100
AcDbLine
 62
7
  6
CONTINUOUS
 10
27.0634186504
 20
72.7117067834
 11
29.5134186504
 21
72.7117067834
  0
LINE
  5
28A
100
AcDbEntity
  8
0
100
AcDbLine
 62
7
  6
CONTINUOUS
 10
20.4134186504
 20
73.9617067834
 11
21.4134186504
 21
73.9617067834
  0
LINE
  5
28B
100
AcDbEntity
  8
0
100
AcDbLine
 62
7
  6
CONTINUOUS
 10
33.7810621055
 20
58.8220652681
 11
32.8359942087
 21
58.4951911785
  0
LINE
  5
28C
100
AcDbEntity
  8
0
100
AcDbLine
 62
7
  6
CONTINUOUS
 10
29.3134186504
 20
75.4617067834
 11
27.6134186504
 21
75.4617067834
  0
LINE
  5
28D
100
AcDbEntity
  8
0
100
AcDbLine
 62
7
  6
CONTINUOUS
 10
21.4134186504
 20
75.6617067834
 11
17.8134186504
 21
75.6617067834
  0
LINE
  5
28E
100
AcDbEntity
  8
0
100
AcDbLine
 62
7
  6
CONTINUOUS
 10
74.8134186504
 20
75.6617067834
 11
84.8134186504
 21
75.6617067834
  0
LINE
  5
28F
100
AcDbEntity
  8
0
100
AcDbLine
 62
7
  6
CONTINUOUS
 10
65.1134186504
 20
75.9617067834
 11
35.1134186504
 21
75.9617067834
  0
LINE
  5
290
100
AcDbEntity
  8
0
100
AcDbLine
 62
7
  6
CONTINUOUS
 10
68.8134186504
 20
76.1617067834
 11
66.4134186504
 21
76.1617067834
  0
LINE
  5
291
100
AcDbEntity
  8
0
100
AcDbLine
 62
7
  6
CONTINUOUS
 10
29.3134186504
 20
76.6617067834
 11
33.8134186504
 21
76.6617067834
  0
LINE
  5
292
100
AcDbEntity
  8
0
100
AcDbLine
 62
7
  6
CONTINUOUS
 10
32.8359942087
 20
83.4282223883
 11
33.7810621055
 21
83.1013482987
  0
LINE
  5
293
100
AcDbEntity
  8
0
100
AcDbLine
 62
7
  6
CONTINUOUS
 10
35.1134186504
 20
77.1617067834
 11
65.1134186504
 21
77.1617067834
  0
LINE
  5
294
100
AcDbEntity
  8
0
100
AcDbLine
 62
7
  6
CONTINUOUS
 10
25.8134186504
 20
77.8617067834
 11
27.3134186504
 21
77.8617067834
  0
LINE
  5
295
100
AcDbEntity
  8
0
100
AcDbLine
 62
7
  6
CONTINUOUS
 10
84.8134186504
 20
79.0617067834
 11
74.8134186504
 21
79.0617067834
  0
LINE
  5
296
100
AcDbEntity
  8
0
100
AcDbLine
 62
7
  6
CONTINUOUS
 10
17.8134186504
 20
79.0617067834
 11
24.8134186504
 21
79.0617067834
  0
LINE
  5
297
100
AcDbEntity
  8
0
100
AcDbLine
 62
7
  6
CONTINUOUS
 10
60.2134186449
 20
84.1117067834
 11
60.2134186449
 21
83.3117067834
  0
LINE
  5
298
100
AcDbEntity
  8
0
100
AcDbLine
 62
7
  6
CONTINUOUS
 10
60.2134186449
 20
58.6117067834
 11
60.2134186449
 21
57.8117067834
  0
LINE
  5
299
100
AcDbEntity
  8
0
100
AcDbLine
 62
7
  6
CONTINUOUS
 10
52.813048532
 20
81.8011788406
 11
52.2236815368
 21
81.7662850773
  0
LINE
  5
29A
100
AcDbEntity
  8
0
100
AcDbLine
 62
7
  6
CONTINUOUS
 10
50.5134186504
 20
81.6650281205
 11
49.8606927776
 21
81.6263831636
  0
LINE
  5
29B
100
AcDbEntity
  8
0
100
AcDbLine
 62
7
  6
CONTINUOUS
 10
33.5134186504
 20
80.1117067834
 11
33.8134186504
 21
80.1117067834
  0
LINE
  5
29C
100
AcDbEntity
  8
0
100
AcDbLine
 62
7
  6
CONTINUOUS
 10
29.3134186504
 20
80.1617067834
 11
33.8134186504
 21
80.1617067834
  0
LINE
  5
29D
100
AcDbEntity
  8
0
100
AcDbLine
 62
7
  6
CONTINUOUS
 10
66.4134186504
 20
80.1617067834
 11
68.8134186504
 21
80.1617067834
  0
LINE
  5
29E
100
AcDbEntity
  8
0
100
AcDbLine
 62
7
  6
CONTINUOUS
 10
49.9841232163
 20
81.4367067834
 11
50.5134186504
 21
81.4367067834
  0
LINE
  5
29F
100
AcDbEntity
  8
0
100
AcDbLine
 62
7
  6
CONTINUOUS
 10
49.9591224291
 20
81.4617067834
 11
50.5134186504
 21
81.4617067834
  0
LINE
  5
2A0
100
AcDbEntity
  8
0
100
AcDbLine
 62
7
  6
CONTINUOUS
 10
52.2134186504
 20
81.4617067834
 11
52.6677005667
 21
81.4617067834
  0
LINE
  5
2A1
100
AcDbEntity
  8
0
100
AcDbLine
 62
7
  6
CONTINUOUS
 10
65.1134186504
 20
81.8117067834
 11
54.9217423637
 21
81.8117067834
  0
LINE
  5
2A2
100
AcDbEntity
  8
0
100
AcDbLine
 62
7
  6
CONTINUOUS
 10
47.7050949426
 20
81.8117067834
 11
35.1134186504
 21
81.8117067834
  0
LINE
  5
2A3
100
AcDbEntity
  8
0
100
AcDbLine
 62
7
  6
CONTINUOUS
 10
49.758462611
 20
82.0074379775
 11
52.8683806721
 21
82.0074379775
  0
LINE
  5
2A4
100
AcDbEntity
  8
0
100
AcDbLine
 62
7
  6
CONTINUOUS
 10
87.8134186504
 20
82.0617067834
 11
70.8134186504
 21
82.0617067834
  0
LINE
  5
2A5
100
AcDbEntity
  8
0
100
AcDbLine
 62
7
  6
CONTINUOUS
 10
27.3134186504
 20
82.0617067834
 11
14.8134186504
 21
82.0617067834
  0
LINE
  5
2A6
100
AcDbEntity
  8
0
100
AcDbLine
 62
7
  6
CONTINUOUS
 10
54.4634186531
 20
82.3617067834
 11
53.9634186532
 21
82.3617067834
  0
LINE
  5
2A7
100
AcDbEntity
  8
0
100
AcDbLine
 62
7
  6
CONTINUOUS
 10
48.6634186531
 20
82.3617067834
 11
48.1634186531
 21
82.3617067834
  0
LINE
  5
2A8
100
AcDbEntity
  8
0
100
AcDbLine
 62
7
  6
CONTINUOUS
 10
64.4134186449
 20
84.1117067834
 11
64.4134186449
 21
83.3117067834
  0
LINE
  5
2A9
100
AcDbEntity
  8
0
100
AcDbLine
 62
7
  6
CONTINUOUS
 10
64.4134186449
 20
58.6117067834
 11
64.4134186449
 21
57.8117067834
  0
LINE
  5
2AA
100
AcDbEntity
  8
0
100
AcDbLine
 62
7
  6
CONTINUOUS
 10
65.1134186504
 20
60.1117067834
 11
65.1134186504
 21
64.7617067834
  0
LINE
  5
2AB
100
AcDbEntity
  8
0
100
AcDbLine
 62
7
  6
CONTINUOUS
 10
65.1134186504
 20
65.9617067834
 11
65.1134186504
 21
75.9617067834
  0
LINE
  5
2AC
100
AcDbEntity
  8
0
100
AcDbLine
 62
7
  6
CONTINUOUS
 10
65.1134186504
 20
77.1617067834
 11
65.1134186504
 21
81.8117067834
  0
LINE
  5
2AD
100
AcDbEntity
  8
0
100
AcDbLine
 62
7
  6
CONTINUOUS
 10
19.2134186559
 20
83.3117067834
 11
23.2134186559
 21
83.3117067834
  0
LINE
  5
2AE
100
AcDbEntity
  8
0
100
AcDbLine
 62
7
  6
CONTINUOUS
 10
38.2134186559
 20
83.3117067834
 11
42.4134186559
 21
83.3117067834
  0
LINE
  5
2AF
100
AcDbEntity
  8
0
100
AcDbLine
 62
7
  6
CONTINUOUS
 10
48.1634186531
 20
83.3117067834
 11
48.6634186531
 21
83.3117067834
  0
LINE
  5
2B0
100
AcDbEntity
  8
0
100
AcDbLine
 62
7
  6
CONTINUOUS
 10
53.9634186532
 20
83.3117067834
 11
54.4634186532
 21
83.3117067834
  0
LINE
  5
2B1
100
AcDbEntity
  8
0
100
AcDbLine
 62
7
  6
CONTINUOUS
 10
60.2134186449
 20
83.3117067834
 11
64.4134186449
 21
83.3117067834
  0
LINE
  5
2B2
100
AcDbEntity
  8
0
100
AcDbLine
 62
7
  6
CONTINUOUS
 10
79.4134186559
 20
83.3117067834
 11
83.4134186559
 21
83.3117067834
  0
LINE
  5
2B3
100
AcDbEntity
  8
0
100
AcDbLine
 62
7
  6
CONTINUOUS
 10
52.9634186504
 20
84.0075872494
 11
49.6634186504
 21
84.0075872494
  0
LINE
  5
2B4
100
AcDbEntity
  8
0
100
AcDbLine
 62
7
  6
CONTINUOUS
 10
83.4134186559
 20
84.1117067834
 11
79.4134186559
 21
84.1117067834
  0
LINE
  5
2B5
100
AcDbEntity
  8
0
100
AcDbLine
 62
7
  6
CONTINUOUS
 10
42.4134186559
 20
84.1117067834
 11
38.2134186559
 21
84.1117067834
  0
LINE
  5
2B6
100
AcDbEntity
  8
0
100
AcDbLine
 62
7
  6
CONTINUOUS
 10
23.2134186559
 20
84.1117067834
 11
19.2134186559
 21
84.1117067834
  0
LINE
  5
2B7
100
AcDbEntity
  8
0
100
AcDbLine
 62
7
  6
CONTINUOUS
 10
60.2134186449
 20
84.1117067834
 11
64.4134186449
 21
84.1117067834
  0
LINE
  5
2B8
100
AcDbEntity
  8
0
100
AcDbLine
 62
7
  6
CONTINUOUS
 10
48.6634186531
 20
84.3117067834
 11
49.6634186522
 21
84.3117067834
  0
LINE
  5
2B9
100
AcDbEntity
  8
0
100
AcDbLine
 62
7
  6
CONTINUOUS
 10
52.9634186522
 20
84.3117067834
 11
53.9634186532
 21
84.3117067834
  0
LINE
  5
2BA
100
AcDbEntity
  8
0
100
AcDbLine
 62
7
  6
CONTINUOUS
 10
12.1134186504
 20
84.4117067834
 11
49.3634186504
 21
84.4117067834
  0
LINE
  5
2BB
100
AcDbEntity
  8
0
100
AcDbLine
 62
7
  6
CONTINUOUS
 10
53.2634186504
 20
84.4117067834
 11
90.5134186504
 21
84.4117067834
  0
LINE
  5
2BC
100
AcDbEntity
  8
0
100
AcDbLine
 62
7
  6
CONTINUOUS
 10
66.4134186504
 20
80.1617067834
 11
66.4134186504
 21
76.1617067834
  0
LINE
  5
2BD
100
AcDbEntity
  8
0
100
AcDbLine
 62
7
  6
CONTINUOUS
 10
66.4134186504
 20
61.7617067834
 11
66.4134186504
 21
65.7617067834
  0
LINE
  5
2BE
100
AcDbEntity
  8
0
100
AcDbLine
 62
7
  6
CONTINUOUS
 10
67.6134186504
 20
80.1617067834
 11
67.6134186504
 21
76.1617067834
  0
LINE
  5
2BF
100
AcDbEntity
  8
0
100
AcDbLine
 62
7
  6
CONTINUOUS
 10
67.6134186504
 20
61.7617067834
 11
67.6134186504
 21
65.7617067834
  0
LINE
  5
2C0
100
AcDbEntity
  8
0
100
AcDbLine
 62
7
  6
CONTINUOUS
 10
68.8134186504
 20
84.4117067834
 11
68.8134186504
 21
80.1617067834
  0
LINE
  5
2C1
100
AcDbEntity
  8
0
100
AcDbLine
 62
7
  6
CONTINUOUS
 10
68.8134186504
 20
76.1617067834
 11
68.8134186504
 21
65.7617067834
  0
LINE
  5
2C2
100
AcDbEntity
  8
0
100
AcDbLine
 62
7
  6
CONTINUOUS
 10
68.8134186504
 20
57.5117067834
 11
68.8134186504
 21
61.7617067834
  0
LINE
  5
2C3
100
AcDbEntity
  8
0
100
AcDbLine
 62
7
  6
CONTINUOUS
 10
70.3134186504
 20
81.5617067834
 11
70.3134186504
 21
60.3617067834
  0
LINE
  5
2C4
100
AcDbEntity
  8
0
100
AcDbLine
 62
7
  6
CONTINUOUS
 10
74.3134186504
 20
78.5617067834
 11
74.3134186504
 21
76.1617067833
  0
LINE
  5
2C5
100
AcDbEntity
  8
0
100
AcDbLine
 62
7
  6
CONTINUOUS
 10
74.3134186504
 20
72.1617067834
 11
74.3134186504
 21
69.7617067833
  0
LINE
  5
2C6
100
AcDbEntity
  8
0
100
AcDbLine
 62
7
  6
CONTINUOUS
 10
74.3134186504
 20
65.7617067834
 11
74.3134186504
 21
63.3617067833
  0
LINE
  5
2C7
100
AcDbEntity
  8
0
100
AcDbLine
 62
7
  6
CONTINUOUS
 10
79.4134186559
 20
84.1117067834
 11
79.4134186559
 21
83.3117067834
  0
LINE
  5
2C8
100
AcDbEntity
  8
0
100
AcDbLine
 62
7
  6
CONTINUOUS
 10
79.4134186559
 20
58.6117067834
 11
79.4134186559
 21
57.8117067834
  0
LINE
  5
2C9
100
AcDbEntity
  8
0
100
AcDbLine
 62
7
  6
CONTINUOUS
 10
80.7134186504
 20
82.0617067834
 11
80.7134186504
 21
79.0617067834
  0
LINE
  5
2CA
100
AcDbEntity
  8
0
100
AcDbLine
 62
7
  6
CONTINUOUS
 10
80.7134186504
 20
75.6617067834
 11
80.7134186504
 21
72.6617067834
  0
LINE
  5
2CB
100
AcDbEntity
  8
0
100
AcDbLine
 62
7
  6
CONTINUOUS
 10
80.7134186504
 20
69.2617067834
 11
80.7134186504
 21
66.2617067834
  0
LINE
  5
2CC
100
AcDbEntity
  8
0
100
AcDbLine
 62
7
  6
CONTINUOUS
 10
80.7134186504
 20
62.8617067834
 11
80.7134186504
 21
59.8617067834
  0
LINE
  5
2CD
100
AcDbEntity
  8
0
100
AcDbLine
 62
7
  6
CONTINUOUS
 10
83.4134186559
 20
84.1117067834
 11
83.4134186559
 21
83.3117067834
  0
LINE
  5
2CE
100
AcDbEntity
  8
0
100
AcDbLine
 62
7
  6
CONTINUOUS
 10
83.4134186559
 20
58.6117067834
 11
83.4134186559
 21
57.8117067834
  0
LINE
  5
2CF
100
AcDbEntity
  8
0
100
AcDbLine
 62
7
  6
CONTINUOUS
 10
85.3134186504
 20
81.5617067834
 11
85.3134186504
 21
79.5617067834
  0
LINE
  5
2D0
100
AcDbEntity
  8
0
100
AcDbLine
 62
7
  6
CONTINUOUS
 10
85.3134186504
 20
75.1617067834
 11
85.3134186504
 21
73.1617067834
  0
LINE
  5
2D1
100
AcDbEntity
  8
0
100
AcDbLine
 62
7
  6
CONTINUOUS
 10
85.3134186504
 20
68.7617067834
 11
85.3134186504
 21
66.7617067834
  0
LINE
  5
2D2
100
AcDbEntity
  8
0
100
AcDbLine
 62
7
  6
CONTINUOUS
 10
85.3134186504
 20
62.3617067834
 11
85.3134186504
 21
60.3617067834
  0
LINE
  5
2D3
100
AcDbEntity
  8
0
100
AcDbLine
 62
7
  6
CONTINUOUS
 10
88.3134186504
 20
60.3617067834
 11
88.3134186504
 21
81.5617067834
  0
LINE
  5
2D4
100
AcDbEntity
  8
0
100
AcDbLine
 62
7
  6
CONTINUOUS
 10
90.8134186504
 20
84.1117067834
 11
90.8134186504
 21
57.8117067834
  0
ARC
  5
2D5
100
AcDbEntity
  8
0
100
AcDbCircle
 62
7
  6
CONTINUOUS
 10
28.2548803135
 20
70.9565459179
 40
3.6548984618
100
AcDbArc
 50
233.8470723273
 51
235.4773305469
  0
ARC
  5
2D6
100
AcDbEntity
  8
0
100
AcDbCircle
 62
7
  6
CONTINUOUS
 10
27.5520938663
 20
70.8236165991
 40
3.6386070024
100
AcDbArc
 50
89.0342959065
 51
148.9066625362
  0
ARC
  5
2D7
100
AcDbEntity
  8
0
100
AcDbCircle
 62
7
  6
CONTINUOUS
 10
28.2511899168
 20
70.8527893107
 40
3.5536514066
100
AcDbArc
 50
259.6611514825
 51
261.3861831172
  0
ARC
  5
2D8
100
AcDbEntity
  8
0
100
AcDbCircle
 62
7
  6
CONTINUOUS
 10
27.5520938663
 20
70.8236165991
 40
3.4386070024
100
AcDbArc
 50
88.9781217822
 51
146.7192402329
  0
ARC
  5
2D9
100
AcDbEntity
  8
0
100
AcDbCircle
 62
7
  6
CONTINUOUS
 10
21.4134186504
 20
67.4617067834
 40
0.5
100
AcDbArc
 50
0.0
 51
90.0
  0
ARC
  5
2DA
100
AcDbEntity
  8
0
100
AcDbCircle
 62
7
  6
CONTINUOUS
 10
21.4134186504
 20
66.7617067834
 40
0.5
100
AcDbArc
 50
270.0
 51
360.0
  0
ARC
  5
2DB
100
AcDbEntity
  8
0
100
AcDbCircle
 62
7
  6
CONTINUOUS
 10
17.8134186504
 20
66.7617067834
 40
0.5
100
AcDbArc
 50
180.0
 51
270.0
  0
ARC
  5
2DC
100
AcDbEntity
  8
0
100
AcDbCircle
 62
7
  6
CONTINUOUS
 10
17.8134186504
 20
68.7617067834
 40
0.5
100
AcDbArc
 50
90.0
 51
180.0
  0
ARC
  5
2DD
100
AcDbEntity
  8
0
100
AcDbCircle
 62
7
  6
CONTINUOUS
 10
19.4134186504
 20
68.7617067834
 40
0.5
100
AcDbArc
 50
0.0
 51
90.0
  0
ARC
  5
2DE
100
AcDbEntity
  8
0
100
AcDbCircle
 62
7
  6
CONTINUOUS
 10
20.4134186504
 20
68.4617067834
 40
0.5
100
AcDbArc
 50
180.0
 51
270.0
  0
ARC
  5
2DF
100
AcDbEntity
  8
0
100
AcDbCircle
 62
7
  6
CONTINUOUS
 10
17.8134186504
 20
60.3617067834
 40
0.5
100
AcDbArc
 50
180.0
 51
270.0
  0
ARC
  5
2E0
100
AcDbEntity
  8
0
100
AcDbCircle
 62
7
  6
CONTINUOUS
 10
17.8134186504
 20
62.3617067834
 40
0.5
100
AcDbArc
 50
90.0
 51
180.0
  0
ARC
  5
2E1
100
AcDbEntity
  8
0
100
AcDbCircle
 62
7
  6
CONTINUOUS
 10
24.8134186504
 20
63.3617067834
 40
0.5
100
AcDbArc
 50
270.0000000002
 51
359.9999999946
  0
ARC
  5
2E2
100
AcDbEntity
  8
0
100
AcDbCircle
 62
7
  6
CONTINUOUS
 10
25.8134186504
 20
63.5617067834
 40
0.5
100
AcDbArc
 50
90.0
 51
180.0000000057
  0
ARC
  5
2E3
100
AcDbEntity
  8
0
100
AcDbCircle
 62
7
  6
CONTINUOUS
 10
27.3134186504
 20
63.5617067834
 40
0.5
100
AcDbArc
 50
0.0
 51
90.0
  0
ARC
  5
2E4
100
AcDbEntity
  8
0
100
AcDbCircle
 62
7
  6
CONTINUOUS
 10
14.8134186504
 20
60.3617067834
 40
0.5
100
AcDbArc
 50
180.0
 51
270.0
  0
ARC
  5
2E5
100
AcDbEntity
  8
0
100
AcDbCircle
 62
7
  6
CONTINUOUS
 10
27.3134186504
 20
60.3617067834
 40
0.5
100
AcDbArc
 50
270.0
 51
360.0
  0
ARC
  5
2E6
100
AcDbEntity
  8
0
100
AcDbCircle
 62
7
  6
CONTINUOUS
 10
27.3134186504
 20
64.8966750959
 40
0.5
100
AcDbArc
 50
0.0
 51
91.3922416604
  0
ARC
  5
2E7
100
AcDbEntity
  8
0
100
AcDbCircle
 62
7
  6
CONTINUOUS
 10
12.1134186504
 20
57.8117067834
 40
0.3
100
AcDbArc
 50
180.0
 51
270.0
  0
ARC
  5
2E8
100
AcDbEntity
  8
0
100
AcDbCircle
 62
7
  6
CONTINUOUS
 10
49.3634186504
 20
57.8117067834
 40
0.3
100
AcDbArc
 50
270.0
 51
318.1896851042
  0
ARC
  5
2E9
100
AcDbEntity
  8
0
100
AcDbCircle
 62
7
  6
CONTINUOUS
 10
27.1660142137
 20
70.9617067834
 40
5.5668226806
100
AcDbArc
 50
88.6077583388
 51
271.3922416611
  0
ARC
  5
2EA
100
AcDbEntity
  8
0
100
AcDbCircle
 62
7
  6
CONTINUOUS
 10
28.2593822436
 20
70.9617067832
 40
3.6617215055
100
AcDbArc
 50
126.1621316812
 51
233.8378334484
  0
ARC
  5
2EB
100
AcDbEntity
  8
0
100
AcDbCircle
 62
7
  6
CONTINUOUS
 10
28.2548804152
 20
70.9668675038
 40
3.6548986389
100
AcDbArc
 50
124.5226694785
 51
126.1528926874
  0
ARC
  5
2EC
100
AcDbEntity
  8
0
100
AcDbCircle
 62
7
  6
CONTINUOUS
 10
27.5520938663
 20
71.0997969676
 40
3.6386070024
100
AcDbArc
 50
211.0933374638
 51
270.9657040935
  0
ARC
  5
2ED
100
AcDbEntity
  8
0
100
AcDbCircle
 62
7
  6
CONTINUOUS
 10
27.5520938663
 20
71.0997969676
 40
3.4386070024
100
AcDbArc
 50
213.2807563554
 51
271.0218782178
  0
ARC
  5
2EE
100
AcDbEntity
  8
0
100
AcDbCircle
 62
7
  6
CONTINUOUS
 10
27.0634186504
 20
70.9617067834
 40
1.75
100
AcDbArc
 50
89.9999999997
 51
270.0000000003
  0
ARC
  5
2EF
100
AcDbEntity
  8
0
100
AcDbCircle
 62
7
  6
CONTINUOUS
 10
24.6134186504
 20
70.9617067834
 40
1.75
100
AcDbArc
 50
87.9031815977
 51
272.0964501084
  0
ARC
  5
2F0
100
AcDbEntity
  8
0
100
AcDbCircle
 62
7
  6
CONTINUOUS
 10
21.4134186504
 20
74.4617067834
 40
0.5
100
AcDbArc
 50
270.0
 51
360.0
  0
ARC
  5
2F1
100
AcDbEntity
  8
0
100
AcDbCircle
 62
7
  6
CONTINUOUS
 10
20.4134186504
 20
73.4617067834
 40
0.5
100
AcDbArc
 50
90.0
 51
180.0
  0
ARC
  5
2F2
100
AcDbEntity
  8
0
100
AcDbCircle
 62
7
  6
CONTINUOUS
 10
19.4134186504
 20
73.1617067834
 40
0.5
100
AcDbArc
 50
270.0
 51
360.0
  0
ARC
  5
2F3
100
AcDbEntity
  8
0
100
AcDbCircle
 62
7
  6
CONTINUOUS
 10
17.8134186504
 20
73.1617067834
 40
0.5
100
AcDbArc
 50
180.0
 51
270.0
  0
ARC
  5
2F4
100
AcDbEntity
  8
0
100
AcDbCircle
 62
7
  6
CONTINUOUS
 10
17.8134186504
 20
75.1617067834
 40
0.5
100
AcDbArc
 50
90.0
 51
180.0
  0
ARC
  5
2F5
100
AcDbEntity
  8
0
100
AcDbCircle
 62
7
  6
CONTINUOUS
 10
21.4134186504
 20
75.1617067834
 40
0.5
100
AcDbArc
 50
0.0
 51
90.0
  0
ARC
  5
2F6
100
AcDbEntity
  8
0
100
AcDbCircle
 62
7
  6
CONTINUOUS
 10
27.3134186504
 20
78.3617067834
 40
0.5
100
AcDbArc
 50
270.0
 51
360.0
  0
ARC
  5
2F7
100
AcDbEntity
  8
0
100
AcDbCircle
 62
7
  6
CONTINUOUS
 10
25.8134186504
 20
78.3617067834
 40
0.5
100
AcDbArc
 50
180.0
 51
270.0
  0
ARC
  5
2F8
100
AcDbEntity
  8
0
100
AcDbCircle
 62
7
  6
CONTINUOUS
 10
24.8134186504
 20
78.5617067834
 40
0.5
100
AcDbArc
 50
0.0
 51
90.0
  0
ARC
  5
2F9
100
AcDbEntity
  8
0
100
AcDbCircle
 62
7
  6
CONTINUOUS
 10
17.8134186504
 20
79.5617067834
 40
0.5
100
AcDbArc
 50
180.0
 51
270.0
  0
ARC
  5
2FA
100
AcDbEntity
  8
0
100
AcDbCircle
 62
7
  6
CONTINUOUS
 10
17.8134186504
 20
81.5617067834
 40
0.5
100
AcDbArc
 50
90.0
 51
180.0
  0
ARC
  5
2FB
100
AcDbEntity
  8
0
100
AcDbCircle
 62
7
  6
CONTINUOUS
 10
27.3134186504
 20
77.0267384709
 40
0.5
100
AcDbArc
 50
268.6077583397
 51
360.0
  0
ARC
  5
2FC
100
AcDbEntity
  8
0
100
AcDbCircle
 62
7
  6
CONTINUOUS
 10
27.3134186504
 20
81.5617067834
 40
0.5
100
AcDbArc
 50
0.0
 51
90.0
  0
ARC
  5
2FD
100
AcDbEntity
  8
0
100
AcDbCircle
 62
7
  6
CONTINUOUS
 10
14.8134186504
 20
81.5617067834
 40
0.5
100
AcDbArc
 50
90.0
 51
180.0
  0
ARC
  5
2FE
100
AcDbEntity
  8
0
100
AcDbCircle
 62
7
  6
CONTINUOUS
 10
12.1134186504
 20
84.1117067834
 40
0.3
100
AcDbArc
 50
90.0
 51
180.0
  0
ARC
  5
2FF
100
AcDbEntity
  8
0
100
AcDbCircle
 62
7
  6
CONTINUOUS
 10
49.3634186504
 20
84.1117067834
 40
0.3
100
AcDbArc
 50
41.8103148956
 51
90.0
  0
ARC
  5
300
100
AcDbEntity
  8
0
100
AcDbCircle
 62
7
  6
CONTINUOUS
 10
51.3134186531
 20
59.5617067834
 40
3.65
100
AcDbArc
 50
8.6666214167
 51
171.3333785833
  0
ARC
  5
301
100
AcDbEntity
  8
0
100
AcDbCircle
 62
7
  6
CONTINUOUS
 10
51.3134186531
 20
59.5617067834
 40
3.15
100
AcDbArc
 50
0.0
 51
179.9999999984
  0
ARC
  5
302
100
AcDbEntity
  8
0
100
AcDbCircle
 62
7
  6
CONTINUOUS
 10
51.3134186531
 20
59.5617067834
 40
2.65
100
AcDbArc
 50
0.0
 51
180.0
  0
ARC
  5
303
100
AcDbEntity
  8
0
100
AcDbCircle
 62
7
  6
CONTINUOUS
 10
51.3134186504
 20
59.5617067834
 40
1.65
100
AcDbArc
 50
359.9999997607
 51
179.9999997598
  0
ARC
  5
304
100
AcDbEntity
  8
0
100
AcDbCircle
 62
7
  6
CONTINUOUS
 10
87.8134186504
 20
60.3617067834
 40
0.5
100
AcDbArc
 50
270.0
 51
360.0
  0
ARC
  5
305
100
AcDbEntity
  8
0
100
AcDbCircle
 62
7
  6
CONTINUOUS
 10
70.8134186504
 20
60.3617067834
 40
0.5
100
AcDbArc
 50
180.0000000057
 51
270.0
  0
ARC
  5
306
100
AcDbEntity
  8
0
100
AcDbCircle
 62
7
  6
CONTINUOUS
 10
74.8134186504
 20
69.7617067834
 40
0.5
100
AcDbArc
 50
180.0000000057
 51
270.0
  0
ARC
  5
307
100
AcDbEntity
  8
0
100
AcDbCircle
 62
7
  6
CONTINUOUS
 10
84.8134186504
 20
68.7617067834
 40
0.5
100
AcDbArc
 50
0.0
 51
90.0
  0
ARC
  5
308
100
AcDbEntity
  8
0
100
AcDbCircle
 62
7
  6
CONTINUOUS
 10
84.8134186504
 20
66.7617067834
 40
0.5
100
AcDbArc
 50
270.0
 51
360.0
  0
ARC
  5
309
100
AcDbEntity
  8
0
100
AcDbCircle
 62
7
  6
CONTINUOUS
 10
74.8134186504
 20
65.7617067834
 40
0.5
100
AcDbArc
 50
90.0
 51
179.9999999943
  0
ARC
  5
30A
100
AcDbEntity
  8
0
100
AcDbCircle
 62
7
  6
CONTINUOUS
 10
74.8134186504
 20
63.3617067834
 40
0.5
100
AcDbArc
 50
180.0000000057
 51
270.0
  0
ARC
  5
30B
100
AcDbEntity
  8
0
100
AcDbCircle
 62
7
  6
CONTINUOUS
 10
84.8134186504
 20
62.3617067834
 40
0.5
100
AcDbArc
 50
0.0
 51
90.0
  0
ARC
  5
30C
100
AcDbEntity
  8
0
100
AcDbCircle
 62
7
  6
CONTINUOUS
 10
84.8134186504
 20
60.3617067834
 40
0.5
100
AcDbArc
 50
270.0000000001
 51
360.0
  0
ARC
  5
30D
100
AcDbEntity
  8
0
100
AcDbCircle
 62
7
  6
CONTINUOUS
 10
53.2634186504
 20
57.8117067834
 40
0.3
100
AcDbArc
 50
221.8103148958
 51
270.0
  0
ARC
  5
30E
100
AcDbEntity
  8
0
100
AcDbCircle
 62
7
  6
CONTINUOUS
 10
90.5134186504
 20
57.8117067834
 40
0.3
100
AcDbArc
 50
270.0
 51
360.0
  0
ARC
  5
30F
100
AcDbEntity
  8
0
100
AcDbCircle
 62
7
  6
CONTINUOUS
 10
51.3134186531
 20
82.3617067834
 40
3.65
100
AcDbArc
 50
188.6666214167
 51
351.3333785833
  0
ARC
  5
310
100
AcDbEntity
  8
0
100
AcDbCircle
 62
7
  6
CONTINUOUS
 10
51.3134186531
 20
82.3617067834
 40
3.15
100
AcDbArc
 50
180.0
 51
360.0
  0
ARC
  5
311
100
AcDbEntity
  8
0
100
AcDbCircle
 62
7
  6
CONTINUOUS
 10
51.3134186531
 20
82.3617067834
 40
2.65
100
AcDbArc
 50
180.0
 51
360.0
  0
ARC
  5
312
100
AcDbEntity
  8
0
100
AcDbCircle
 62
7
  6
CONTINUOUS
 10
51.3134186504
 20
82.3617067834
 40
1.65
100
AcDbArc
 50
180.0000002393
 51
0.0000002402
  0
ARC
  5
313
100
AcDbEntity
  8
0
100
AcDbCircle
 62
7
  6
CONTINUOUS
 10
87.8134186504
 20
81.5617067834
 40
0.5
100
AcDbArc
 50
0.0
 51
90.0
  0
ARC
  5
314
100
AcDbEntity
  8
0
100
AcDbCircle
 62
7
  6
CONTINUOUS
 10
70.8134186504
 20
81.5617067834
 40
0.5
100
AcDbArc
 50
90.0
 51
179.9999999943
  0
ARC
  5
315
100
AcDbEntity
  8
0
100
AcDbCircle
 62
7
  6
CONTINUOUS
 10
84.8134186504
 20
79.5617067834
 40
0.5
100
AcDbArc
 50
270.0
 51
360.0
  0
ARC
  5
316
100
AcDbEntity
  8
0
100
AcDbCircle
 62
7
  6
CONTINUOUS
 10
74.8134186504
 20
78.5617067834
 40
0.5
100
AcDbArc
 50
90.0
 51
179.9999999943
  0
ARC
  5
317
100
AcDbEntity
  8
0
100
AcDbCircle
 62
7
  6
CONTINUOUS
 10
74.8134186504
 20
76.1617067834
 40
0.5
100
AcDbArc
 50
180.0000000057
 51
270.0
  0
ARC
  5
318
100
AcDbEntity
  8
0
100
AcDbCircle
 62
7
  6
CONTINUOUS
 10
84.8134186504
 20
75.1617067834
 40
0.5
100
AcDbArc
 50
0.0
 51
90.0
  0
ARC
  5
319
100
AcDbEntity
  8
0
100
AcDbCircle
 62
7
  6
CONTINUOUS
 10
84.8134186504
 20
73.1617067834
 40
0.5
100
AcDbArc
 50
270.0
 51
360.0
  0
ARC
  5
31A
100
AcDbEntity
  8
0
100
AcDbCircle
 62
7
  6
CONTINUOUS
 10
74.8134186504
 20
72.1617067834
 40
0.5
100
AcDbArc
 50
90.0
 51
179.9999999943
  0
ARC
  5
31B
100
AcDbEntity
  8
0
100
AcDbCircle
 62
7
  6
CONTINUOUS
 10
84.8134186504
 20
81.5617067834
 40
0.5
100
AcDbArc
 50
0.0
 51
90.0
  0
ARC
  5
31C
100
AcDbEntity
  8
0
100
AcDbCircle
 62
7
  6
CONTINUOUS
 10
53.2634186504
 20
84.1117067834
 40
0.3
100
AcDbArc
 50
90.0
 51
138.1896851042
  0
ARC
  5
31D
100
AcDbEntity
  8
0
100
AcDbCircle
 62
7
  6
CONTINUOUS
 10
90.5134186504
 20
84.1117067834
 40
0.3
100
AcDbArc
 50
0.0
 51
90.0
  0
SPLINE
  5
31E
100
AcDbEntity
  8
0
100
AcDbSpline
 62
7
  6
CONTINUOUS
 70
0
 71
3
 72
12
 73
8
 74
0
 42
0.0000001
 43
0.0000001
 44
0.0000000001
 40
0.0
 40
0.0
 40
0.0
 40
0.0
 40
0.2607240277
 40
0.5087746958
 40
0.7576244301
 40
0.8776693291
 40
1.0
 40
1.0
 40
1.0
 40
1.0
 10
31.4382276592
 20
76.327676982
 30
0.0
 10
31.3774670657
 20
76.1797938074
 30
0.0
 10
31.2412350108
 20
75.8981142566
 30
0.0
 10
30.9911361204
 20
75.5055118967
 30
0.0
 10
30.7534330685
 20
75.2102106884
 30
0.0
 10
30.5474785079
 20
74.9902352049
 30
0.0
 10
30.4389776977
 20
74.8884644929
 30
0.0
 10
30.382715262
 20
74.8388487285
 30
0.0
  0
SPLINE
  5
31F
100
AcDbEntity
  8
0
100
AcDbSpline
 62
7
  6
CONTINUOUS
 70
0
 71
3
 72
15
 73
11
 74
0
 42
0.0000001
 43
0.0000001
 44
0.0000000001
 40
0.0
 40
0.0
 40
0.0
 40
0.0
 40
0.1251898315
 40
0.2372176466
 40
0.3591942322
 40
0.4885801193
 40
0.6175881081
 40
0.7430721938
 40
0.8661841848
 40
1.0
 40
1.0
 40
1.0
 40
1.0
 10
30.4939902333
 20
76.6610071121
 30
0.0
 10
30.472137763
 20
76.6087810235
 30
0.0
 10
30.4280760603
 20
76.5108301843
 30
0.0
 10
30.349273317
 20
76.3686661512
 30
0.0
 10
30.2635195942
 20
76.2284483948
 30
0.0
 10
30.1676677026
 20
76.0855298421
 30
0.0
 10
30.0628879757
 20
75.9469829878
 30
0.0
 10
29.9519096202
 20
75.8170960106
 30
0.0
 10
29.8330357968
 20
75.6913745992
 30
0.0
 10
29.7478223343
 20
75.6122576961
 30
0.0
 10
29.7024353074
 20
75.5722325538
 30
0.0
  0
SPLINE
  5
320
100
AcDbEntity
  8
0
100
AcDbSpline
 62
7
  6
CONTINUOUS
 70
0
 71
3
 72
9
 73
5
 74
0
 42
0.0000001
 43
0.0000001
 44
0.0000000001
 40
0.0
 40
0.0
 40
0.0
 40
0.0
 40
0.2659779908
 40
1.0
 40
1.0
 40
1.0
 40
1.0
 10
29.702435295
 20
75.5722325434
 30
0.0
 10
29.6786868819
 20
75.5490658997
 30
0.0
 10
29.5883511918
 20
75.4630498726
 30
0.0
 10
29.4934402067
 20
75.3818210082
 30
0.0
 10
29.421384614
 20
75.3253340986
 30
0.0
  0
SPLINE
  5
321
100
AcDbEntity
  8
0
100
AcDbSpline
 62
7
  6
CONTINUOUS
 70
0
 71
3
 72
15
 73
11
 74
0
 42
0.0000001
 43
0.0000001
 44
0.0000000001
 40
0.0
 40
0.0
 40
0.0
 40
0.0
 40
0.1233310576
 40
0.2489338602
 40
0.37775744
 40
0.509955743
 40
0.6424918313
 40
0.7654005397
 40
0.8747977868
 40
1.0
 40
1.0
 40
1.0
 40
1.0
 10
29.421384614
 20
75.3253340986
 30
0.0
 10
29.3672754069
 20
75.282915991
 30
0.0
 10
29.2553752123
 20
75.2006984543
 30
0.0
 10
29.0795938744
 20
75.0845775671
 30
0.0
 10
28.8933530422
 20
74.9758390543
 30
0.0
 10
28.6973320073
 20
74.8769769742
 30
0.0
 10
28.4988958301
 20
74.7911518611
 30
0.0
 10
28.3091625793
 20
74.7178545358
 30
0.0
 10
28.1206010319
 20
74.6528250267
 30
0.0
 10
27.9931455904
 20
74.622533342
 30
0.0
 10
27.9248053784
 20
74.6083473248
 30
0.0
  0
SPLINE
  5
322
100
AcDbEntity
  8
0
100
AcDbSpline
 62
7
  6
CONTINUOUS
 70
0
 71
3
 72
14
 73
10
 74
0
 42
0.0000001
 43
0.0000001
 44
0.0000000001
 40
0.0
 40
0.0
 40
0.0
 40
0.0
 40
0.1240009065
 40
0.2444732094
 40
0.3666871442
 40
0.4902246724
 40
0.6128960224
 40
0.7356480389
 40
1.0
 40
1.0
 40
1.0
 40
1.0
 10
30.3827152394
 20
74.8388487104
 30
0.0
 10
30.304273251
 20
74.7623283298
 30
0.0
 10
30.1438203232
 20
74.6172354546
 30
0.0
 10
29.8864916937
 20
74.4198087492
 30
0.0
 10
29.6167347364
 20
74.2405862668
 30
0.0
 10
29.3347052815
 20
74.0775096978
 30
0.0
 10
29.0425144703
 20
73.9322026429
 30
0.0
 10
28.6260286566
 20
73.7598865391
 30
0.0
 10
28.2957939673
 20
73.6640395379
 30
0.0
 10
28.067054247
 20
73.6165578764
 30
0.0
  0
SPLINE
  5
323
100
AcDbEntity
  8
0
100
AcDbSpline
 62
7
  6
CONTINUOUS
 70
0
 71
3
 72
13
 73
9
 74
0
 42
0.0000001
 43
0.0000001
 44
0.0000000001
 40
0.0
 40
0.0
 40
0.0
 40
0.0
 40
0.1240341806
 40
0.2440892385
 40
0.3661044423
 40
0.4905252863
 40
0.7393212251
 40
1.0
 40
1.0
 40
1.0
 40
1.0
 10
30.3827152638
 20
67.0845648367
 30
0.0
 10
30.4397660393
 20
67.0342538645
 30
0.0
 10
30.5491074921
 20
66.9318385536
 30
0.0
 10
30.702761923
 20
66.7679616606
 30
0.0
 10
30.8474685356
 20
66.5958581155
 30
0.0
 10
31.0313028761
 20
66.3539751259
 30
0.0
 10
31.2412949164
 20
66.0258228982
 30
0.0
 10
31.3774723964
 20
65.7436067752
 30
0.0
 10
31.438227623
 20
65.5957366728
 30
0.0
  0
SPLINE
  5
324
100
AcDbEntity
  8
0
100
AcDbSpline
 62
7
  6
CONTINUOUS
 70
0
 71
3
 72
15
 73
11
 74
0
 42
0.0000001
 43
0.0000001
 44
0.0000000001
 40
0.0
 40
0.0
 40
0.0
 40
0.0
 40
0.1353919062
 40
0.2587486527
 40
0.3817349543
 40
0.5082605042
 40
0.6380796186
 40
0.7661084686
 40
0.8802204081
 40
1.0
 40
1.0
 40
1.0
 40
1.0
 10
29.7024353087
 20
66.3511810118
 30
0.0
 10
29.7483570159
 20
66.3106843547
 30
0.0
 10
29.8341903506
 20
66.2310248257
 30
0.0
 10
29.9527924867
 20
66.1054513968
 30
0.0
 10
30.0619859165
 20
65.9768763942
 30
0.0
 10
30.1664226692
 20
65.8406843257
 30
0.0
 10
30.263859091
 20
65.6965960031
 30
0.0
 10
30.3499612884
 20
65.5520442466
 30
0.0
 10
30.4291074362
 20
65.4087024082
 30
0.0
 10
30.4730724387
 20
65.3123641341
 30
0.0
 10
30.4939911677
 20
65.2623993775
 30
0.0
  0
SPLINE
  5
325
100
AcDbEntity
  8
0
100
AcDbSpline
 62
7
  6
CONTINUOUS
 70
0
 71
3
 72
14
 73
10
 74
0
 42
0.0000001
 43
0.0000001
 44
0.0000000001
 40
0.0
 40
0.0
 40
0.0
 40
0.0
 40
0.1304032357
 40
0.2435407433
 40
0.3580345785
 40
0.4831054065
 40
0.6142428828
 40
0.7459460533
 40
1.0
 40
1.0
 40
1.0
 40
1.0
 10
27.9248053809
 20
67.3150662414
 30
0.0
 10
27.9933332733
 20
67.3008412657
 30
0.0
 10
28.1206983679
 20
67.2707859372
 30
0.0
 10
28.3034957533
 20
67.2109257577
 30
0.0
 10
28.4792549981
 20
67.1404493722
 30
0.0
 10
28.6615103982
 20
67.0605730493
 30
0.0
 10
28.8486433531
 20
66.9691337908
 30
0.0
 10
29.0915356167
 20
66.8348567074
 30
0.0
 10
29.2633212185
 20
66.71824158
 30
0.0
 10
29.372010929
 20
66.6359082869
 30
0.0
  0
SPLINE
  5
326
100
AcDbEntity
  8
0
100
AcDbSpline
 62
7
  6
CONTINUOUS
 70
0
 71
3
 72
9
 73
5
 74
0
 42
0.0000001
 43
0.0000001
 44
0.0000000001
 40
0.0
 40
0.0
 40
0.0
 40
0.0
 40
0.4806678525
 40
1.0
 40
1.0
 40
1.0
 40
1.0
 10
29.372010929
 20
66.6359082869
 30
0.0
 10
29.4277469012
 20
66.5936878585
 30
0.0
 10
29.5413371018
 20
66.5026414335
 30
0.0
 10
29.6483577583
 20
66.4039338123
 30
0.0
 10
29.7024352965
 20
66.3511810219
 30
0.0
  0
SPLINE
  5
327
100
AcDbEntity
  8
0
100
AcDbSpline
 62
7
  6
CONTINUOUS
 70
0
 71
3
 72
14
 73
10
 74
0
 42
0.0000001
 43
0.0000001
 44
0.0000000001
 40
0.0
 40
0.0
 40
0.0
 40
0.0
 40
0.1359663126
 40
0.2638745609
 40
0.5097489952
 40
0.6330560551
 40
0.7567365562
 40
0.8774353561
 40
1.0
 40
1.0
 40
1.0
 40
1.0
 10
28.0670542457
 20
68.3068556906
 30
0.0
 10
28.1847107202
 20
68.2824326261
 30
0.0
 10
28.4113428456
 20
68.2260903015
 30
0.0
 10
28.8388372645
 20
68.0830641377
 30
0.0
 10
29.2407819355
 20
67.9018264465
 30
0.0
 10
29.6175449048
 20
67.6827476923
 30
0.0
 10
29.8877956959
 20
67.5019090322
 30
0.0
 10
30.1454044521
 20
67.3044802474
 30
0.0
 10
30.3051772744
 20
67.1602033596
 30
0.0
 10
30.3827152403
 20
67.0845648554
 30
0.0
  0
SPLINE
  5
328
100
AcDbEntity
  8
0
100
AcDbSpline
 62
7
  6
CONTINUOUS
 70
0
 71
3
 72
14
 73
10
 74
0
 42
0.0000001
 43
0.0000001
 44
0.0000000001
 40
0.0
 40
0.0
 40
0.0
 40
0.0
 40
0.1309639709
 40
0.2614312128
 40
0.3835905768
 40
0.5064152313
 40
0.630257719
 40
0.7536071139
 40
1.0
 40
1.0
 40
1.0
 40
1.0
 10
28.0670539228
 20
73.6165577857
 30
0.0
 10
27.9564424681
 20
73.6076636226
 30
0.0
 10
27.736700069
 20
73.5760248808
 30
0.0
 10
27.4206560571
 20
73.4966747238
 30
0.0
 10
27.1251177771
 20
73.3764687299
 30
0.0
 10
26.850397033
 20
73.2263089282
 30
0.0
 10
26.5930892161
 20
73.0457580724
 30
0.0
 10
26.2822529056
 20
72.7649124395
 30
0.0
 10
26.0875637343
 20
72.5146468072
 30
0.0
 10
25.9797893554
 20
72.3358419845
 30
0.0
  0
SPLINE
  5
329
100
AcDbEntity
  8
0
100
AcDbSpline
 62
7
  6
CONTINUOUS
 70
0
 71
3
 72
14
 73
10
 74
0
 42
0.0000001
 43
0.0000001
 44
0.0000000001
 40
0.0
 40
0.0
 40
0.0
 40
0.0
 40
0.2463928861
 40
0.369742281
 40
0.4935847687
 40
0.6164094232
 40
0.7385687872
 40
0.869036029
 40
1.0
 40
1.0
 40
1.0
 40
1.0
 10
25.9797893554
 20
69.5875715823
 30
0.0
 10
26.0875637343
 20
69.4087667596
 30
0.0
 10
26.2822529056
 20
69.1585011273
 30
0.0
 10
26.593089216
 20
68.8776554944
 30
0.0
 10
26.8503970328
 20
68.6971046387
 30
0.0
 10
27.1251177769
 20
68.546944837
 30
0.0
 10
27.4206560568
 20
68.426738843
 30
0.0
 10
27.7367000686
 20
68.347388686
 30
0.0
 10
27.9564424677
 20
68.3157499442
 30
0.0
 10
28.0670539224
 20
68.3068557811
 30
0.0
  0
SPLINE
  5
32A
100
AcDbEntity
  8
0
100
AcDbSpline
 62
7
  6
CONTINUOUS
 70
0
 71
3
 72
9
 73
5
 74
0
 42
0.0000001
 43
0.0000001
 44
0.0000000001
 40
0.0
 40
0.0
 40
0.0
 40
0.0
 40
0.2384359383
 40
1.0
 40
1.0
 40
1.0
 40
1.0
 10
27.9248054019
 20
74.6083473109
 30
0.0
 10
27.8999095413
 20
74.6063454577
 30
0.0
 10
27.7956225929
 20
74.5964050037
 30
0.0
 10
27.6918986682
 20
74.5808871117
 30
0.0
 10
27.6134186504
 20
74.5665770777
 30
0.0
  0
SPLINE
  5
32B
100
AcDbEntity
  8
0
100
AcDbSpline
 62
7
  6
CONTINUOUS
 70
0
 71
3
 72
9
 73
5
 74
0
 42
0.0000001
 43
0.0000001
 44
0.0000000001
 40
0.0
 40
0.0
 40
0.0
 40
0.0
 40
0.2580948197
 40
1.0
 40
1.0
 40
1.0
 40
1.0
 10
27.7189461207
 20
67.3392220549
 30
0.0
 10
27.7365796566
 20
67.3365563945
 30
0.0
 10
27.8049812382
 20
67.3267708737
 30
0.0
 10
27.8737060371
 20
67.3191751086
 30
0.0
 10
27.9248054045
 20
67.3150662556
 30
0.0
  0
SPLINE
  5
32C
100
AcDbEntity
  8
0
100
AcDbSpline
 62
7
  6
CONTINUOUS
 70
0
 71
3
 72
37
 73
33
 74
0
 42
0.0000001
 43
0.0000001
 44
0.0000000001
 40
0.0
 40
0.0
 40
0.0
 40
0.0
 40
0.000675761
 40
0.0025122278
 40
0.0055346199
 40
0.009738268
 40
0.0151148762
 40
0.021655147
 40
0.0381852927
 40
0.0591766901
 40
0.0843959998
 40
0.1136051232
 40
0.1465510209
 40
0.2222880705
 40
0.3087016795
 40
0.4024648558
 40
0.499979892
 40
0.5974945849
 40
0.6912604197
 40
0.7776781114
 40
0.8534271077
 40
0.886377587
 40
0.915591078
 40
0.9408153515
 40
0.9618107494
 40
0.9783428307
 40
0.9848837454
 40
0.9902608675
 40
0.9944649053
 40
0.9974875683
 40
0.9993241923
 40
1.0
 40
1.0
 40
1.0
 40
1.0
 10
50.5134265121
 20
59.8752474035
 30
0.0
 10
50.5134265121
 20
59.8748643467
 30
0.0
 10
50.5154636585
 20
59.8746368804
 30
0.0
 10
50.5179746143
 20
59.8740709128
 30
0.0
 10
50.5234239535
 20
59.8736703899
 30
0.0
 10
50.5304058816
 20
59.8731549899
 30
0.0
 10
50.5395871889
 20
59.8726806489
 30
0.0
 10
50.5556708543
 20
59.8719736372
 30
0.0
 10
50.5806518146
 20
59.8711603506
 30
0.0
 10
50.6161980558
 20
59.8702625691
 30
0.0
 10
50.6589441937
 20
59.8694075464
 30
0.0
 10
50.7084652099
 20
59.868601745
 30
0.0
 10
50.7866231959
 20
59.8675612798
 30
0.0
 10
50.897209082
 20
59.8664871148
 30
0.0
 10
51.0422717993
 20
59.8655623092
 30
0.0
 10
51.1996812245
 20
59.8649899467
 30
0.0
 10
51.3633842544
 20
59.8647977071
 30
0.0
 10
51.5270887911
 20
59.8649898293
 30
0.0
 10
51.6845018443
 20
59.8655619071
 30
0.0
 10
51.8295751543
 20
59.8664868037
 30
0.0
 10
51.9401727262
 20
59.8675607692
 30
0.0
 10
52.0183425576
 20
59.8686012887
 30
0.0
 10
52.0678714597
 20
59.8694071884
 30
0.0
 10
52.1106251556
 20
59.8702622757
 30
0.0
 10
52.1461775744
 20
59.8711601084
 30
0.0
 10
52.171162266
 20
59.8719735198
 30
0.0
 10
52.1872476797
 20
59.8726805906
 30
0.0
 10
52.1964298726
 20
59.8731549513
 30
0.0
 10
52.2034124454
 20
59.8736703809
 30
0.0
 10
52.2088622965
 20
59.8740708847
 30
0.0
 10
52.2113734419
 20
59.8746369084
 30
0.0
 10
52.2134107895
 20
59.8748643202
 30
0.0
 10
52.2134107895
 20
59.8752474035
 30
0.0
  0
SPLINE
  5
32D
100
AcDbEntity
  8
0
100
AcDbSpline
 62
7
  6
CONTINUOUS
 70
0
 71
3
 72
37
 73
33
 74
0
 42
0.0000001
 43
0.0000001
 44
0.0000000001
 40
0.0
 40
0.0
 40
0.0
 40
0.0
 40
0.0006758577
 40
0.0025125876
 40
0.0055353191
 40
0.0097392979
 40
0.0151161438
 40
0.0216564755
 40
0.0381862213
 40
0.0591783301
 40
0.0843988526
 40
0.1136084908
 40
0.1465539708
 40
0.2222901669
 40
0.3087027688
 40
0.4024651508
 40
0.4999791503
 40
0.597492793
 40
0.6912578447
 40
0.7776745759
 40
0.8534229487
 40
0.8863731604
 40
0.9155874202
 40
0.940813141
 40
0.9618094233
 40
0.9783412308
 40
0.9848822758
 40
0.9902597001
 40
0.9944641244
 40
0.9974871706
 40
0.9993240862
 40
1.0
 40
1.0
 40
1.0
 40
1.0
 10
50.5134281651
 20
81.9396285623
 30
0.0
 10
50.5134281651
 20
81.9400116731
 30
0.0
 10
50.5154656773
 20
81.940239018
 30
0.0
 10
50.5179768869
 20
81.9408051041
 30
0.0
 10
50.5234268106
 20
81.9412055906
 30
0.0
 10
50.530409216
 20
81.9417210432
 30
0.0
 10
50.5395908666
 20
81.9421954089
 30
0.0
 10
50.5556744393
 20
81.9429024703
 30
0.0
 10
50.5806555587
 20
81.9437158681
 30
0.0
 10
50.6162025951
 20
81.9446135979
 30
0.0
 10
50.658950033
 20
81.9454685549
 30
0.0
 10
50.7084716951
 20
81.9462742913
 30
0.0
 10
50.786629099
 20
81.9473146881
 30
0.0
 10
50.8972134768
 20
81.948388725
 30
0.0
 10
51.0422744033
 20
81.9493134542
 30
0.0
 10
51.1996819096
 20
81.9498857526
 30
0.0
 10
51.3633829833
 20
81.9500779767
 30
0.0
 10
51.5270855703
 20
81.9498858674
 30
0.0
 10
51.6844967296
 20
81.9493138521
 30
0.0
 10
51.829568412
 20
81.9483890282
 30
0.0
 10
51.9401647175
 20
81.9473151965
 30
0.0
 10
52.0183343263
 20
81.9462747458
 30
0.0
 10
52.0678642364
 20
81.9454689158
 30
0.0
 10
52.1106196073
 20
81.9446138965
 30
0.0
 10
52.1461731238
 20
81.9437161159
 30
0.0
 10
52.1711581836
 20
81.9429025899
 30
0.0
 10
52.1872436518
 20
81.9421954692
 30
0.0
 10
52.1964262967
 20
81.9417210839
 30
0.0
 10
52.2034094368
 20
81.9412055986
 30
0.0
 10
52.2088599532
 20
81.9408051365
 30
0.0
 10
52.2113713841
 20
81.9402389838
 30
0.0
 10
52.2134091357
 20
81.9400117049
 30
0.0
 10
52.2134091357
 20
81.9396285623
 30
0.0
  0
ENDSEC
  0
SECTION
  2
OBJECTS
  0
DICTIONARY
  5
C
100
AcDbDictionary
280
0
281
1
  3
ACAD_GROUP
350
D
  3
ACAD_MLINESTYLE
350
17
  3
ACAD_LAYOUT
350
1A
  3
ACAD_PLOTSETTINGS
350
19
  3
ACAD_PLOTSTYLENAME
350
E
  0
DICTIONARY
  5
D
102
{ACAD_REACTORS
330
C
102
}
100
AcDbDictionary
280
0
281
1
  0
ACDBDICTIONARYWDFLT
  5
E
102
{ACAD_REACTORS
330
C
102
}
100
AcDbDictionary
281
1
  3
Normal
350
F
100
AcDbDictionaryWithDefault
340
F
  0
DICTIONARY
  5
17
102
{ACAD_REACTORS
330
C
102
}
100
AcDbDictionary
280
0
281
1
  3
Standard
350
18
  0
DICTIONARY
  5
19
102
{ACAD_REACTORS
330
C
102
}
100
AcDbDictionary
281
1
  0
DICTIONARY
  5
1A
102
{ACAD_REACTORS
330
C
102
}
100
AcDbDictionary
281
1
  3
Model
350
32E
  3
Layout1
350
32F
  0
ACDBPLACEHOLDER
  5
F
102
{ACAD_REACTORS
330
E
102
}
  0
MLINESTYLE
  5
18
102
{ACAD_REACTORS
330
17
102
}
100
AcDbMlineStyle
  2
STANDARD
 70
0
  3

 62
256
 51
90.0
 52
90.0
 71
2
 49
0.5
 62
256
  6
BYLAYER
 49
-0.5
 62
256
  6
BYLAYER
  0
LAYOUT
  5
32E
102
{ACAD_REACTORS
330
1A
102
}
100
AcDbPlotSettings
  1

  2
none_device
  4

  6

 40
0.0
 41
0.0
 42
0.0
 43
0.0
 44
210.0
 45
297.0
 46
0.0
 47
0.0
 48
0.0
 49
0.0
140
0.0
141
0.0
142
1.0
143
1.0
 70
1024
 72
1
 73
0
 74
0
  7

 75
0
147
1.0
148
0.0
149
0.0
100
AcDbLayout
  1
Model
 70
0
 71
0
 10
0.0
 20
0.0
 11
210.0
 21
297.0
 12
0.0
 22
0.0
 32
0.0
 14
0.0
 24
0.0
 34
0.0
 15
0.0
 25
0.0
 35
0.0
146
0.0
 13
0.0
 23
0.0
 33
0.0
 16
1.0
 26
0.0
 36
0.0
 17
0.0
 27
1.0
 37
0.0
 76
0
330
210
345
0
346
0
  0
LAYOUT
  5
32F
102
{ACAD_REACTORS
330
1A
102
}
100
AcDbPlotSettings
  1

  2
none_device
  4

  6

 40
0.0
 41
0.0
 42
0.0
 43
0.0
 44
210.0
 45
297.0
 46
0.0
 47
0.0
 48
0.0
 49
0.0
140
0.0
141
0.0
142
1.0
143
1.0
 70
0
 72
1
 73
0
 74
0
  7

 75
0
147
1.0
148
0.0
149
0.0
100
AcDbLayout
  1
Layout1
 70
0
 71
1
 10
0.0
 20
0.0
 11
210.0
 21
297.0
 12
0.0
 22
0.0
 32
0.0
 14
0.0
 24
0.0
 34
0.0
 15
0.0
 25
0.0
 35
0.0
146
0.0
 13
0.0
 23
0.0
 33
0.0
 16
1.0
 26
0.0
 36
0.0
 17
0.0
 27
1.0
 37
0.0
 76
0
330
211
345
0
346
0
  0
ENDSEC
  0
EOF
