999
DXF file: C:\Users\sesa63760\Dev\_Creo\CAD\MCADID0002098_3D-CAD\drw0001_1.dxf
999
Pro/ENGINEER 2019471 by Parametric Technology Corporation
  0
SECTION
  2
HEADER
  9
$ACADVER
  1
AC1024
  9
$DWGCODEPAGE
  3
ANSI_1252
  9
$EXTMAX
 10
128.1782567163
 20
181.2806773559
 30
0.0
  9
$EXTMIN
 10
0.0
 20
0.0
 30
0.0
  9
$LIMMIN
 10
0.0
 20
0.0
  9
$LIMMAX
 10
128.1782567163
 20
181.2806773559
  9
$VIEWCTR
 10
64.0891283581
 20
90.6403386779
  9
$VIEWSIZE
 40
181.2806773559
  9
$CLAYER
  8
0
  9
$LTSCALE
 40
11.8168145239
  9
$CELTYPE
  6
BYLAYER
  9
$DIMSCALE
 40
1.0
  9
$DIMASZ
 40
1.5259316276
  9
$DIMEXO
 40
1.0
  9
$DIMDLI
 40
8.1643445802
  9
$DIMEXE
 40
1.0
  9
$DIMCEN
 40
1.9336605585
  9
$DIMLFAC
 40
1.0
  9
$DIMBLK
  1
_FILLED
  9
$DIMALT
 70
0
  9
$DIMALTF
 40
0.0393700787
  9
$DIMTXT
 40
2.1363042786
  9
$DIMTOL
 70
1
  9
$DIMLIM
 70
0
  9
$DIMTFAC
 40
1.0
  9
$DIMTP
 40
0.01
  9
$DIMTM
 40
0.01
  9
$DIMGAP
 40
0.625
  9
$DIMDSEP
 70
46
  9
$AUNITS
 70
0
  9
$PDMODE
 70
3
  9
$PDSIZE
 40
0.3125
  9
$HANDSEED
  5
307
  9
$TILEMODE
 70
1
  9
$MEASUREMENT
 70
1
  9
$INSUNITS
 70
4
  0
ENDSEC
  0
SECTION
  2
CLASSES
  0
CLASS
  1
ACDBDICTIONARYWDFLT
  2
AcDbDictionaryWithDefault
  3
AutoCAD 2000
 90
0
 91
1
280
0
281
0
  0
CLASS
  1
ACDBPLACEHOLDER
  2
AcDbPlaceHolder
  3
AutoCAD 2000
 90
0
 91
1
280
0
281
0
  0
CLASS
  1
LAYOUT
  2
AcDbLayout
  3
AutoCAD 2000
 90
0
 91
0
280
0
281
0
  0
ENDSEC
  0
SECTION
  2
TABLES
  0
TABLE
  2
VPORT
  5
8
100
AcDbSymbolTable
 70
2
  0
VPORT
  5
1F4
100
AcDbSymbolTableRecord
100
AcDbViewportTableRecord
  2
*ACTIVE
 70
0
 10
0.0
 20
0.0
 11
1.0
 21
1.0
 12
64.0891283581
 22
90.6403386779
 13
0.0
 23
0.0
 14
1.0
 24
1.0
 15
0.0
 25
0.0
 16
0.0
 26
0.0
 36
1.0
 17
0.0
 27
0.0
 37
0.0
 40
181.2806773559
 41
0.7070707071
 42
50.0
 43
0.0
 44
0.0
 50
0.0
 51
0.0
 71
0
 72
100
 73
1
 74
1
 75
0
 76
0
 77
0
 78
0
  0
ENDTAB
  0
TABLE
  2
LTYPE
  5
5
100
AcDbSymbolTable
 70
6
  0
LTYPE
  5
14
100
AcDbSymbolTableRecord
100
AcDbLinetypeTableRecord
  2
BYBLOCK
 70
0
  3

 72
65
 73
0
 40
0.0
  0
LTYPE
  5
15
100
AcDbSymbolTableRecord
100
AcDbLinetypeTableRecord
  2
BYLAYER
 70
0
  3

 72
65
 73
0
 40
0.0
  0
LTYPE
  5
16
100
AcDbSymbolTableRecord
100
AcDbLinetypeTableRecord
  2
CONTINUOUS
 70
64
  3
Solid line
 72
65
 73
0
 40
0.0
  0
LTYPE
  5
1F5
100
AcDbSymbolTableRecord
100
AcDbLinetypeTableRecord
  2
CENTER
 70
64
  3
____ _ ____ _ ____ _ ____ _ ____ _ ____ _ ____
 72
65
 73
4
 40
0.6
 49
0.375
 74
0
 49
-0.075
 74
0
 49
0.075
 74
0
 49
-0.075
 74
0
  0
LTYPE
  5
1F6
100
AcDbSymbolTableRecord
100
AcDbLinetypeTableRecord
  2
HIDDEN
 70
64
  3
- - - - - - - - - - - - - - - - - - - -
 72
65
 73
2
 40
0.2
 49
0.1
 74
0
 49
-0.1
 74
0
  0
LTYPE
  5
1F7
100
AcDbSymbolTableRecord
100
AcDbLinetypeTableRecord
  2
PHANTOM
 70
64
  3
_____ _ _ _____ _ _ _____ _ _ _____
 72
65
 73
6
 40
0.8
 49
0.45
 74
0
 49
-0.05
 74
0
 49
0.1
 74
0
 49
-0.05
 74
0
 49
0.1
 74
0
 49
-0.05
 74
0
  0
LTYPE
  5
1F8
100
AcDbSymbolTableRecord
100
AcDbLinetypeTableRecord
  2
DOT
 70
64
  3
. . . . . . . . . . . . . . . . . . . .
 72
65
 73
2
 40
0.2
 49
0.1
 74
0
 49
-0.1
 74
0
  0
LTYPE
  5
1F9
100
AcDbSymbolTableRecord
100
AcDbLinetypeTableRecord
  2
DASHED
 70
64
  3
- - - - - - - - - - - - - - - - - - - -
 72
65
 73
2
 40
0.2
 49
0.1
 74
0
 49
-0.1
 74
0
  0
ENDTAB
  0
TABLE
  2
LAYER
  5
2
100
AcDbSymbolTable
 70
36
  0
LAYER
  5
10
100
AcDbSymbolTableRecord
100
AcDbLayerTableRecord
  2
0
 70
0
 62
7
  6
CONTINUOUS
370
-3
390
F
  0
LAYER
  5
1FA
100
AcDbSymbolTableRecord
100
AcDbLayerTableRecord
  2
DEFAULT_1
 70
0
 62
7
  6
CENTER
370
-3
390
F
  0
LAYER
  5
1FB
100
AcDbSymbolTableRecord
100
AcDbLayerTableRecord
  2
DEFAULT_2
 70
0
 62
8
  6
HIDDEN
370
-3
390
F
  0
LAYER
  5
1FC
100
AcDbSymbolTableRecord
100
AcDbLayerTableRecord
  2
DEFAULT_3
 70
0
 62
7
  6
PHANTOM
370
-3
390
F
  0
LAYER
  5
1FD
100
AcDbSymbolTableRecord
100
AcDbLayerTableRecord
  2
00_COMPONENTS
 70
0
 62
7
  6
CONTINUOUS
370
-3
390
F
  0
LAYER
  5
1FE
100
AcDbSymbolTableRecord
100
AcDbLayerTableRecord
  2
01_1_DEFAULT_DATUMS
 70
0
 62
7
  6
CONTINUOUS
370
-3
390
F
  0
LAYER
  5
1FF
100
AcDbSymbolTableRecord
100
AcDbLayerTableRecord
  2
01_PLANES
 70
0
 62
7
  6
CONTINUOUS
370
-3
390
F
  0
LAYER
  5
200
100
AcDbSymbolTableRecord
100
AcDbLayerTableRecord
  2
02_COORD_SYS
 70
0
 62
7
  6
CONTINUOUS
370
-3
390
F
  0
LAYER
  5
201
100
AcDbSymbolTableRecord
100
AcDbLayerTableRecord
  2
03_AXES
 70
0
 62
7
  6
CONTINUOUS
370
-3
390
F
  0
LAYER
  5
202
100
AcDbSymbolTableRecord
100
AcDbLayerTableRecord
  2
04_POINTS
 70
0
 62
7
  6
CONTINUOUS
370
-3
390
F
  0
LAYER
  5
203
100
AcDbSymbolTableRecord
100
AcDbLayerTableRecord
  2
05_CURVES
 70
0
 62
7
  6
CONTINUOUS
370
-3
390
F
  0
LAYER
  5
204
100
AcDbSymbolTableRecord
100
AcDbLayerTableRecord
  2
06_SURFS
 70
0
 62
7
  6
CONTINUOUS
370
-3
390
F
  0
LAYER
  5
205
100
AcDbSymbolTableRecord
100
AcDbLayerTableRecord
  2
07_COSMETICS
 70
0
 62
7
  6
CONTINUOUS
370
-3
390
F
  0
LAYER
  5
206
100
AcDbSymbolTableRecord
100
AcDbLayerTableRecord
  2
10_NOTES
 70
0
 62
7
  6
CONTINUOUS
370
-3
390
F
  0
LAYER
  5
207
100
AcDbSymbolTableRecord
100
AcDbLayerTableRecord
  2
11_NOTES_PUB
 70
0
 62
7
  6
CONTINUOUS
370
-3
390
F
  0
LAYER
  5
208
100
AcDbSymbolTableRecord
100
AcDbLayerTableRecord
  2
13_REF_GTOL
 70
0
 62
7
  6
CONTINUOUS
370
-3
390
F
  0
LAYER
  5
209
100
AcDbSymbolTableRecord
100
AcDbLayerTableRecord
  2
16_MISC
 70
0
 62
7
  6
CONTINUOUS
370
-3
390
F
  0
LAYER
  5
20A
100
AcDbSymbolTableRecord
100
AcDbLayerTableRecord
  2
17_NO_PRINT
 70
0
 62
7
  6
CONTINUOUS
370
-3
390
F
  0
LAYER
  5
20B
100
AcDbSymbolTableRecord
100
AcDbLayerTableRecord
  2
18_DATUM_CAMS_JOINTS
 70
0
 62
7
  6
CONTINUOUS
370
-3
390
F
  0
LAYER
  5
20C
100
AcDbSymbolTableRecord
100
AcDbLayerTableRecord
  2
19_DATUM_FUNCTIONAL
 70
0
 62
7
  6
CONTINUOUS
370
-3
390
F
  0
LAYER
  5
20D
100
AcDbSymbolTableRecord
100
AcDbLayerTableRecord
  2
20_DATUM_KINEMATIC_SCHEME
 70
0
 62
7
  6
CONTINUOUS
370
-3
390
F
  0
ENDTAB
  0
TABLE
  2
STYLE
  5
3
100
AcDbSymbolTable
 70
1
  0
STYLE
  5
11
100
AcDbSymbolTableRecord
100
AcDbTextStyleTableRecord
  2
STANDARD
 70
0
 40
0.0
 41
0.8
 50
0.0
 71
0
 42
0.2
  3
txt
  4

  0
STYLE
  5
20E
100
AcDbSymbolTableRecord
100
AcDbTextStyleTableRecord
  2
TEXTSTYLE_1
 70
0
 40
0.0
 41
0.8
 50
0.0
 71
0
 42
0.2
  3
gdt
  4

  0
ENDTAB
  0
TABLE
  2
VIEW
  5
6
100
AcDbSymbolTable
 70
0
  0
ENDTAB
  0
TABLE
  2
UCS
  5
7
100
AcDbSymbolTable
 70
0
  0
ENDTAB
  0
TABLE
  2
APPID
  5
9
100
AcDbSymbolTable
 70
1
  0
APPID
  5
20F
100
AcDbSymbolTableRecord
100
AcDbRegAppTableRecord
  2
ACAD
 70
0
  0
ENDTAB
  0
TABLE
  2
BLOCK_RECORD
  5
1
100
AcDbSymbolTable
 70
0
  0
BLOCK_RECORD
  5
210
100
AcDbSymbolTableRecord
100
AcDbBlockTableRecord
  2
*Model_Space
  0
BLOCK_RECORD
  5
211
100
AcDbSymbolTableRecord
100
AcDbBlockTableRecord
  2
*Paper_Space
  0
BLOCK_RECORD
  5
212
100
AcDbSymbolTableRecord
100
AcDbBlockTableRecord
  2
_FILLED
  0
ENDTAB
  0
TABLE
  2
DIMSTYLE
  5
A
100
AcDbSymbolTable
 70
1
100
AcDbDimStyleTable
 71
0
  0
DIMSTYLE
105
213
100
AcDbSymbolTableRecord
100
AcDbDimStyleTableRecord
  2
STANDARD
 70
0
  3

  4

 40
1.0
 41
1.5259316276
 42
1.0
 43
0.38
 44
1.0
 45
0.0
 46
0.0
 47
0.01
 48
0.01
140
2.1363042786
141
0.09
142
0.0
143
25.4
144
1.0
145
0.0
146
1.0
147
0.625
 71
1
 72
0
 73
0
 74
0
 75
0
 76
0
 77
1
 78
8
 79
2
170
0
171
1
172
0
173
0
174
0
175
0
176
0
177
0
178
0
270
2
179
2
271
2
272
2
273
2
274
2
275
0
280
0
281
0
282
0
283
1
284
8
285
0
286
0
287
3
288
0
340
11
278
46
341
212
342
212
343
212
344
212
  0
ENDTAB
  0
ENDSEC
  0
SECTION
  2
BLOCKS
  0
BLOCK
  5
20
100
AcDbEntity
  8
0
100
AcDbBlockBegin
  2
*Model_Space
 70
0
 10
0.0
 20
0.0
 30
0.0
  3
*Model_Space
  1

  0
ENDBLK
  5
21
100
AcDbEntity
  8
0
100
AcDbBlockEnd
  0
BLOCK
  5
1C
100
AcDbEntity
  8
0
100
AcDbBlockBegin
  2
*Paper_Space
 70
0
 10
0.0
 20
0.0
 30
0.0
  3
*Paper_Space
  1

  0
ENDBLK
  5
1D
100
AcDbEntity
  8
0
100
AcDbBlockEnd
  0
BLOCK
  5
214
100
AcDbEntity
  8
0
100
AcDbBlockBegin
  2
_FILLED
 70
64
 10
0.0
 20
0.0
  3
_FILLED
  1

  0
SOLID
  5
215
100
AcDbEntity
  8
0
  6
BYBLOCK
 62
0
100
AcDbTrace
 10
0.0
 20
0.0
 11
-1.0
 21
0.25
 12
-1.0
 22
-0.25
 13
-1.0
 23
-0.25
  0
ENDBLK
  5
216
100
AcDbEntity
  8
0
  6
BYBLOCK
 62
0
100
AcDbBlockEnd
  0
ENDSEC
  0
SECTION
  2
ENTITIES
  0
LINE
  5
217
100
AcDbEntity
  8
0
100
AcDbLine
 62
7
  6
CONTINUOUS
 10
30.2029279275
 20
48.5694615689
 11
29.7866489049
 21
48.7613796386
  0
LINE
  5
218
100
AcDbEntity
  8
0
100
AcDbLine
 62
7
  6
CONTINUOUS
 10
14.9226745816
 20
74.5066920468
 11
14.9648482399
 21
74.9653836972
  0
LINE
  5
219
100
AcDbEntity
  8
0
100
AcDbLine
 62
7
  6
CONTINUOUS
 10
69.0874159264
 20
139.0536547721
 11
31.3280710192
 21
117.2534169554
  0
LINE
  5
21A
100
AcDbEntity
  8
0
100
AcDbLine
 62
7
  6
CONTINUOUS
 10
70.5423480769
 20
139.1690601542
 11
32.7830031705
 21
117.3688223372
  0
LINE
  5
21B
100
AcDbEntity
  8
0
100
AcDbLine
 62
7
  6
CONTINUOUS
 10
73.5935266311
 20
138.2499794237
 11
35.8341817239
 21
116.449741607
  0
LINE
  5
21C
100
AcDbEntity
  8
0
100
AcDbLine
 62
7
  6
CONTINUOUS
 10
30.4093043703
 20
83.6783256191
 11
30.4093043703
 21
112.7934191548
  0
LINE
  5
21D
100
AcDbEntity
  8
0
100
AcDbLine
 62
7
  6
CONTINUOUS
 10
75.2540199993
 20
137.6994419606
 11
37.494675092
 21
115.8992041439
  0
LINE
  5
21E
100
AcDbEntity
  8
0
100
AcDbLine
 62
7
  6
CONTINUOUS
 10
77.6026998582
 20
136.8797067927
 11
39.843354951
 21
115.079468976
  0
LINE
  5
21F
100
AcDbEntity
  8
0
100
AcDbLine
 62
7
  6
CONTINUOUS
 10
53.7492137045
 20
122.2323710032
 11
56.0119459835
 21
123.5387522956
  0
LINE
  5
220
100
AcDbEntity
  8
0
100
AcDbLine
 62
7
  6
CONTINUOUS
 10
78.6804901964
 20
136.492077781
 11
40.9211452892
 21
114.6918399642
  0
LINE
  5
221
100
AcDbEntity
  8
0
100
AcDbLine
 62
7
  6
CONTINUOUS
 10
60.8538305257
 20
125.9300543675
 11
51.6614806419
 21
120.6228803672
  0
LINE
  5
222
100
AcDbEntity
  8
0
100
AcDbLine
 62
7
  6
CONTINUOUS
 10
55.5977220564
 20
122.6231804123
 11
53.3349897773
 21
121.31679912
  0
LINE
  5
223
100
AcDbEntity
  8
0
100
AcDbLine
 62
7
  6
CONTINUOUS
 10
60.5120957858
 20
125.1747075638
 11
51.319745902
 21
119.8675335635
  0
LINE
  5
224
100
AcDbEntity
  8
0
100
AcDbLine
 62
7
  6
CONTINUOUS
 10
63.8710877777
 20
50.7716310373
 11
48.0194091008
 21
59.9233949479
  0
LINE
  5
225
100
AcDbEntity
  8
0
100
AcDbLine
 62
7
  6
CONTINUOUS
 10
73.0635036064
 20
48.6896542604
 11
72.2149719362
 21
49.1795431659
  0
LINE
  5
226
100
AcDbEntity
  8
0
100
AcDbLine
 62
7
  6
CONTINUOUS
 10
36.0109540087
 20
108.4570834024
 11
36.0109540087
 21
109.6039451467
  0
LINE
  5
227
100
AcDbEntity
  8
0
100
AcDbLine
 62
7
  6
CONTINUOUS
 10
36.0109540087
 20
110.73953181
 11
36.0109540087
 21
111.8863935543
  0
LINE
  5
228
100
AcDbEntity
  8
0
100
AcDbLine
 62
7
  6
CONTINUOUS
 10
36.8594856788
 20
111.3965046489
 11
36.8594856788
 21
110.2496429046
  0
LINE
  5
229
100
AcDbEntity
  8
0
100
AcDbLine
 62
7
  6
CONTINUOUS
 10
36.8594856788
 20
109.1140562413
 11
36.8594856788
 21
107.967194497
  0
LINE
  5
22A
100
AcDbEntity
  8
0
100
AcDbLine
 62
7
  6
CONTINUOUS
 10
36.930188997
 20
109.1577275818
 11
36.930188997
 21
110.1717293073
  0
LINE
  5
22B
100
AcDbEntity
  8
0
100
AcDbLine
 62
7
  6
CONTINUOUS
 10
36.930188997
 20
110.1717293073
 11
36.0109540087
 21
109.6039451467
  0
LINE
  5
22C
100
AcDbEntity
  8
0
100
AcDbLine
 62
7
  6
CONTINUOUS
 10
36.8594856788
 20
109.1140562413
 11
37.7787206672
 21
109.6818404018
  0
LINE
  5
22D
100
AcDbEntity
  8
0
100
AcDbLine
 62
7
  6
CONTINUOUS
 10
79.710025318
 20
136.0162173803
 11
41.9506804107
 21
114.2159795636
  0
LINE
  5
22E
100
AcDbEntity
  8
0
100
AcDbLine
 62
7
  6
CONTINUOUS
 10
69.810584513
 20
128.6952320151
 11
81.1242459845
 21
135.2271371376
  0
LINE
  5
22F
100
AcDbEntity
  8
0
100
AcDbLine
 62
7
  6
CONTINUOUS
 10
36.8594856788
 20
108.9469804663
 11
36.0109540087
 21
108.4570834024
  0
LINE
  5
230
100
AcDbEntity
  8
0
100
AcDbLine
 62
7
  6
CONTINUOUS
 10
62.8455578788
 20
123.8275130739
 11
53.653207995
 21
118.5203390736
  0
LINE
  5
231
100
AcDbEntity
  8
0
100
AcDbLine
 62
7
  6
CONTINUOUS
 10
58.426160957
 20
120.9902173943
 11
56.1634286779
 21
119.6838361019
  0
LINE
  5
232
100
AcDbEntity
  8
0
100
AcDbLine
 62
7
  6
CONTINUOUS
 10
62.5038231389
 20
123.0721662702
 11
53.3114732551
 21
117.7649922699
  0
LINE
  5
233
100
AcDbEntity
  8
0
100
AcDbLine
 62
7
  6
CONTINUOUS
 10
69.8105833723
 20
127.195672759
 11
81.1242459845
 21
133.7275785185
  0
LINE
  5
234
100
AcDbEntity
  8
0
100
AcDbLine
 62
7
  6
CONTINUOUS
 10
55.7492047507
 20
118.7682642186
 11
58.0119370298
 21
120.074645511
  0
LINE
  5
235
100
AcDbEntity
  8
0
100
AcDbLine
 62
7
  6
CONTINUOUS
 10
36.0109540087
 20
110.73953181
 11
36.8594856788
 21
111.1952131178
  0
LINE
  5
236
100
AcDbEntity
  8
0
100
AcDbLine
 62
7
  6
CONTINUOUS
 10
69.8538695538
 20
51.6895571676
 11
72.2149719362
 21
50.3264049102
  0
LINE
  5
237
100
AcDbEntity
  8
0
100
AcDbLine
 62
7
  6
CONTINUOUS
 10
73.0635036064
 20
49.8365160048
 11
75.0328788933
 21
48.6995223749
  0
LINE
  5
238
100
AcDbEntity
  8
0
100
AcDbLine
 62
7
  6
CONTINUOUS
 10
74.7964305487
 20
49.9345255244
 11
73.9827385947
 21
50.4043001653
  0
LINE
  5
239
100
AcDbEntity
  8
0
100
AcDbLine
 62
7
  6
CONTINUOUS
 10
73.1342069246
 20
50.8941890707
 11
70.7676279314
 21
52.2605031793
  0
LINE
  5
23A
100
AcDbEntity
  8
0
100
AcDbLine
 62
7
  6
CONTINUOUS
 10
69.8538695538
 20
52.8251438309
 11
72.2149719362
 21
51.4619915735
  0
LINE
  5
23B
100
AcDbEntity
  8
0
100
AcDbLine
 62
7
  6
CONTINUOUS
 10
73.0635036064
 20
50.972102668
 11
74.7884461526
 21
49.9762291543
  0
LINE
  5
23C
100
AcDbEntity
  8
0
100
AcDbLine
 62
7
  6
CONTINUOUS
 10
72.2149719362
 20
52.6088533178
 11
73.0635036064
 21
52.1189644124
  0
LWPOLYLINE
  5
23D
100
AcDbEntity
  8
0
100
AcDbPolyline
 62
7
  6
CONTINUOUS
 90
6
 70
0
 10
32.2149564649
 20
81.5685432597
 10
35.8530543585
 20
78.7398844218
 10
39.8381663285
 20
73.8247364817
 10
42.8096737267
 20
68.1180294929
 10
44.4579666664
 20
62.2041486164
 10
44.4949452071
 20
60.2614867464
  0
LINE
  5
23E
100
AcDbEntity
  8
0
100
AcDbLine
 62
7
  6
CONTINUOUS
 10
19.7830037007
 20
83.3296839514
 11
19.7726653308
 21
83.3205913619
  0
LINE
  5
23F
100
AcDbEntity
  8
0
100
AcDbLine
 62
7
  6
CONTINUOUS
 10
56.9077951879
 20
65.2022047585
 11
63.8710877777
 21
61.1820368557
  0
LINE
  5
240
100
AcDbEntity
  8
0
100
AcDbLine
 62
7
  6
CONTINUOUS
 10
57.6148990252
 20
65.6104489123
 11
64.5781916149
 21
61.5902810095
  0
LINE
  5
241
100
AcDbEntity
  8
0
100
AcDbLine
 62
7
  6
CONTINUOUS
 10
20.4583190362
 20
83.7195921671
 11
19.7708332642
 21
83.3226744409
  0
LWPOLYLINE
  5
242
100
AcDbEntity
  8
0
100
AcDbPolyline
 62
7
  6
CONTINUOUS
 90
3
 70
0
 10
41.8971214419
 20
89.444130644
 10
41.5794774029
 20
89.2442481736
 10
40.3760073767
 20
87.7005217117
  0
LINE
  5
243
100
AcDbEntity
  8
0
100
AcDbLine
 62
7
  6
CONTINUOUS
 10
29.5483583489
 20
83.1812611689
 11
31.2688468142
 21
84.1745797182
  0
LINE
  5
244
100
AcDbEntity
  8
0
100
AcDbLine
 62
7
  6
CONTINUOUS
 10
41.896850775
 20
89.4445999272
 11
45.962697839
 21
91.792003812
  0
LINE
  5
245
100
AcDbEntity
  8
0
100
AcDbLine
 62
7
  6
CONTINUOUS
 10
35.2525702282
 20
84.7425215517
 11
42.2718490962
 21
88.7950799051
  0
LINE
  5
246
100
AcDbEntity
  8
0
100
AcDbLine
 62
7
  6
CONTINUOUS
 10
91.023876227
 20
116.4480098244
 11
102.3375353485
 21
122.9799163495
  0
LINE
  5
247
100
AcDbEntity
  8
0
100
AcDbLine
 62
7
  6
CONTINUOUS
 10
103.7517559912
 20
122.1360328662
 11
65.992411084
 21
100.3357950495
  0
LINE
  5
248
100
AcDbEntity
  8
0
100
AcDbLine
 62
7
  6
CONTINUOUS
 10
104.7812917995
 20
121.4231183714
 11
67.0219468923
 21
99.6228805547
  0
LINE
  5
249
100
AcDbEntity
  8
0
100
AcDbLine
 62
7
  6
CONTINUOUS
 10
21.9679124099
 20
73.0616583896
 11
21.8097509135
 21
72.9703443521
  0
LINE
  5
24A
100
AcDbEntity
  8
0
100
AcDbLine
 62
7
  6
CONTINUOUS
 10
105.8590816479
 20
120.5662474876
 11
68.0997367407
 21
98.7660096709
  0
LINE
  5
24B
100
AcDbEntity
  8
0
100
AcDbLine
 62
7
  6
CONTINUOUS
 10
63.8710877777
 20
61.1820368557
 11
63.8710877777
 21
50.7716310373
  0
LINE
  5
24C
100
AcDbEntity
  8
0
100
AcDbLine
 62
7
  6
CONTINUOUS
 10
64.5781916149
 20
61.5902810095
 11
64.5781916149
 21
51.1798751911
  0
LINE
  5
24D
100
AcDbEntity
  8
0
100
AcDbLine
 62
7
  6
CONTINUOUS
 10
108.2077612907
 20
118.6740209677
 11
70.4484163834
 21
96.873783151
  0
LINE
  5
24E
100
AcDbEntity
  8
0
100
AcDbLine
 62
7
  6
CONTINUOUS
 10
109.8682546593
 20
117.3072292226
 11
72.1089097521
 21
95.5069914059
  0
LINE
  5
24F
100
AcDbEntity
  8
0
100
AcDbLine
 62
7
  6
CONTINUOUS
 10
69.8105833723
 20
127.195672759
 11
69.810584513
 21
128.6952320151
  0
LINE
  5
250
100
AcDbEntity
  8
0
100
AcDbLine
 62
7
  6
CONTINUOUS
 10
112.919439716
 20
114.7032087376
 11
75.1600948087
 21
92.9029709209
  0
LINE
  5
251
100
AcDbEntity
  8
0
100
AcDbLine
 62
7
  6
CONTINUOUS
 10
36.8594856788
 20
107.967194497
 11
36.0109540087
 21
108.4570834024
  0
LINE
  5
252
100
AcDbEntity
  8
0
100
AcDbLine
 62
7
  6
CONTINUOUS
 10
33.6498516263
 20
110.9670974041
 11
36.0109540087
 21
109.6039451467
  0
LINE
  5
253
100
AcDbEntity
  8
0
100
AcDbLine
 62
7
  6
CONTINUOUS
 10
36.8594856788
 20
109.1140562413
 11
38.8288609658
 21
107.9770626115
  0
LINE
  5
254
100
AcDbEntity
  8
0
100
AcDbLine
 62
7
  6
CONTINUOUS
 10
38.5924126212
 20
109.2120657609
 11
37.7787206672
 21
109.6818404018
  0
LINE
  5
255
100
AcDbEntity
  8
0
100
AcDbLine
 62
7
  6
CONTINUOUS
 10
36.930188997
 20
110.1717293073
 11
34.5636100039
 21
111.5380434159
  0
LINE
  5
256
100
AcDbEntity
  8
0
100
AcDbLine
 62
7
  6
CONTINUOUS
 10
33.6498516263
 20
112.1026840674
 11
36.0109540087
 21
110.73953181
  0
LINE
  5
257
100
AcDbEntity
  8
0
100
AcDbLine
 62
7
  6
CONTINUOUS
 10
36.8594856788
 20
110.2496429046
 11
38.5844282251
 21
109.2537693908
  0
LINE
  5
258
100
AcDbEntity
  8
0
100
AcDbLine
 62
7
  6
CONTINUOUS
 10
36.0109540087
 20
111.8863935543
 11
36.8594856788
 21
111.3965046489
  0
LINE
  5
259
100
AcDbEntity
  8
0
100
AcDbLine
 62
7
  6
CONTINUOUS
 10
72.2149719362
 20
49.1795431659
 11
72.2149719362
 21
50.3264049102
  0
LINE
  5
25A
100
AcDbEntity
  8
0
100
AcDbLine
 62
7
  6
CONTINUOUS
 10
72.2149719362
 20
51.4619915735
 11
72.2149719362
 21
52.6088533178
  0
LINE
  5
25B
100
AcDbEntity
  8
0
100
AcDbLine
 62
7
  6
CONTINUOUS
 10
73.0635036064
 20
52.1189644124
 11
73.0635036064
 21
50.972102668
  0
LINE
  5
25C
100
AcDbEntity
  8
0
100
AcDbLine
 62
7
  6
CONTINUOUS
 10
73.0635036064
 20
49.8365160048
 11
73.0635036064
 21
48.6896542604
  0
LINE
  5
25D
100
AcDbEntity
  8
0
100
AcDbLine
 62
7
  6
CONTINUOUS
 10
73.1342069246
 20
49.8801873453
 11
73.1342069246
 21
50.8941890707
  0
LINE
  5
25E
100
AcDbEntity
  8
0
100
AcDbLine
 62
7
  6
CONTINUOUS
 10
115.2989638815
 20
109.7717298323
 11
77.5396189743
 21
87.9714920159
  0
LINE
  5
25F
100
AcDbEntity
  8
0
100
AcDbLine
 62
7
  6
CONTINUOUS
 10
77.5337871052
 20
85.5867018606
 11
77.5337871052
 21
47.1294380138
  0
LINE
  5
260
100
AcDbEntity
  8
0
100
AcDbLine
 62
7
  6
CONTINUOUS
 10
77.5337871052
 20
85.5867018606
 11
115.2931320124
 21
107.3869396773
  0
LINE
  5
261
100
AcDbEntity
  8
0
100
AcDbLine
 62
7
  6
CONTINUOUS
 10
32.0578672382
 20
55.5852396614
 11
31.8997057418
 21
55.4939256239
  0
LINE
  5
262
100
AcDbEntity
  8
0
100
AcDbLine
 62
7
  6
CONTINUOUS
 10
81.1242459845
 20
133.7275785185
 11
81.1242459845
 21
135.2271371376
  0
LINE
  5
263
100
AcDbEntity
  8
0
100
AcDbLine
 62
7
  6
CONTINUOUS
 10
48.5216852404
 20
61.2265349353
 11
55.7717886583
 21
65.4123591092
  0
LINE
  5
264
100
AcDbEntity
  8
0
100
AcDbLine
 62
7
  6
CONTINUOUS
 10
56.1467869795
 20
64.7628390871
 11
60.2126340435
 21
67.1102429719
  0
LINE
  5
265
100
AcDbEntity
  8
0
100
AcDbLine
 62
7
  6
CONTINUOUS
 10
44.6412261939
 20
57.2541160105
 11
46.268779661
 21
58.1937788339
  0
LINE
  5
266
100
AcDbEntity
  8
0
100
AcDbLine
 62
7
  6
CONTINUOUS
 10
40.5330776483
 20
48.9488827493
 11
39.8455918764
 21
48.5519650231
  0
LINE
  5
267
100
AcDbEntity
  8
0
100
AcDbLine
 62
7
  6
CONTINUOUS
 10
63.8710877777
 20
61.1820368557
 11
64.5781916149
 21
61.5902810095
  0
LINE
  5
268
100
AcDbEntity
  8
0
100
AcDbLine
 62
7
  6
CONTINUOUS
 10
39.844674355
 20
48.5547072998
 11
39.8580784224
 21
48.5591920838
  0
LINE
  5
269
100
AcDbEntity
  8
0
100
AcDbLine
 62
7
  6
CONTINUOUS
 10
63.8710877777
 20
50.7716310373
 11
64.5781916149
 21
51.1798751911
  0
LINE
  5
26A
100
AcDbEntity
  8
0
100
AcDbLine
 62
7
  6
CONTINUOUS
 10
89.953231632
 20
62.9548307667
 11
92.2159639111
 21
64.2612120591
  0
LINE
  5
26B
100
AcDbEntity
  8
0
100
AcDbLine
 62
7
  6
CONTINUOUS
 10
97.0578484532
 20
66.652514131
 11
87.8654985694
 21
61.3453401306
  0
LINE
  5
26C
100
AcDbEntity
  8
0
100
AcDbLine
 62
7
  6
CONTINUOUS
 10
91.8017399839
 20
63.3456401758
 11
89.5390077048
 21
62.0392588834
  0
LINE
  5
26D
100
AcDbEntity
  8
0
100
AcDbLine
 62
7
  6
CONTINUOUS
 10
96.7161137133
 20
65.8971673273
 11
87.5237638295
 21
60.589993327
  0
LINE
  5
26E
100
AcDbEntity
  8
0
100
AcDbLine
 62
7
  6
CONTINUOUS
 10
73.1342069246
 20
50.8941890707
 11
72.2149719362
 21
50.3264049102
  0
LINE
  5
26F
100
AcDbEntity
  8
0
100
AcDbLine
 62
7
  6
CONTINUOUS
 10
73.0635036064
 20
49.8365160048
 11
73.9827385947
 21
50.4043001653
  0
LINE
  5
270
100
AcDbEntity
  8
0
100
AcDbLine
 62
7
  6
CONTINUOUS
 10
73.0635036064
 20
49.6694402298
 11
72.2149719362
 21
49.1795431659
  0
LINE
  5
271
100
AcDbEntity
  8
0
100
AcDbLine
 62
7
  6
CONTINUOUS
 10
99.0495758063
 20
64.5499728374
 11
89.8572259225
 21
59.242798837
  0
LINE
  5
272
100
AcDbEntity
  8
0
100
AcDbLine
 62
7
  6
CONTINUOUS
 10
94.6301788845
 20
61.7126771577
 11
92.3674466054
 21
60.4062958653
  0
LINE
  5
273
100
AcDbEntity
  8
0
100
AcDbLine
 62
7
  6
CONTINUOUS
 10
98.7078410664
 20
63.7946260337
 11
89.5154911826
 21
58.4874520334
  0
LINE
  5
274
100
AcDbEntity
  8
0
100
AcDbLine
 62
7
  6
CONTINUOUS
 10
91.9532226782
 20
59.4907239821
 11
94.2159549573
 21
60.7971052745
  0
LINE
  5
275
100
AcDbEntity
  8
0
100
AcDbLine
 62
7
  6
CONTINUOUS
 10
72.2149719362
 20
51.4619915735
 11
73.0635036064
 21
51.9176728812
  0
LINE
  5
276
100
AcDbEntity
  8
0
100
AcDbLine
 62
7
  6
CONTINUOUS
 10
115.2931320124
 20
68.9296758305
 11
77.5337871052
 21
47.1294380138
  0
LINE
  5
277
100
AcDbEntity
  8
0
100
AcDbLine
 62
7
  6
CONTINUOUS
 10
115.2989255038
 20
66.5381736092
 11
77.5395805966
 21
44.7379357924
  0
LINE
  5
278
100
AcDbEntity
  8
0
100
AcDbLine
 62
7
  6
CONTINUOUS
 10
81.1242459845
 20
133.7275785185
 11
101.0388606562
 21
122.230130484
  0
LINE
  5
279
100
AcDbEntity
  8
0
100
AcDbLine
 62
7
  6
CONTINUOUS
 10
115.2931260596
 20
107.3869431149
 11
115.2931335006
 21
68.9296749714
  0
LINE
  5
27A
100
AcDbEntity
  8
0
100
AcDbLine
 62
7
  6
CONTINUOUS
 10
114.3743653637
 20
64.46967803
 11
76.6150204564
 21
42.6694402133
  0
ARC
  5
27B
100
AcDbEntity
  8
0
100
AcDbCircle
 62
7
  6
CONTINUOUS
 10
-233.5219560925
 20
-441.4758207658
 40
656.8195164225
100
AcDbArc
 50
59.1030691646
 51
59.2467301443
  0
ARC
  5
27C
100
AcDbEntity
  8
0
100
AcDbCircle
 62
7
  6
CONTINUOUS
 10
-223.8642646244
 20
-409.723403113
 40
624.4910591216
100
AcDbArc
 50
60.7658863263
 51
60.9144689999
  0
ARC
  5
27D
100
AcDbEntity
  8
0
100
AcDbCircle
 62
7
  6
CONTINUOUS
 10
620.5077695732
 20
107.3413671726
 40
505.2146455694
100
AcDbArc
 50
179.724371288
 51
179.9948312877
  0
ARC
  5
27E
100
AcDbEntity
  8
0
100
AcDbCircle
 62
7
  6
CONTINUOUS
 10
613.4928784429
 20
68.9528185741
 40
498.1997454799
100
AcDbArc
 50
180.0026616448
 51
180.2776883628
  0
ARC
  5
27F
100
AcDbEntity
  8
0
100
AcDbCircle
 62
7
  6
CONTINUOUS
 10
-51.6788451523
 20
-52.6265234822
 40
193.0464898724
100
AcDbArc
 50
48.925640666
 51
50.1161866967
  0
ARC
  5
280
100
AcDbEntity
  8
0
100
AcDbCircle
 62
7
  6
CONTINUOUS
 10
-13.2559881128
 20
-30.048838322
 40
192.0244530031
100
AcDbArc
 50
48.9224722512
 51
50.1193551112
  0
ARC
  5
281
100
AcDbEntity
  8
0
100
AcDbCircle
 62
7
  6
CONTINUOUS
 10
-5.0013180787
 20
7.9236246872
 40
116.6023320574
100
AcDbArc
 50
51.1762954532
 51
51.85287693
  0
ARC
  5
282
100
AcDbEntity
  8
0
100
AcDbCircle
 62
7
  6
CONTINUOUS
 10
32.95264051
 20
29.968653322
 40
116.2896123566
100
AcDbArc
 50
51.1753857295
 51
51.8537866536
  0
ARC
  5
283
100
AcDbEntity
  8
0
100
AcDbCircle
 62
7
  6
CONTINUOUS
 10
90.235215414
 20
108.0819666421
 40
67.0007286844
100
AcDbArc
 50
249.7288754531
 51
250.708359932
  0
ARC
  5
284
100
AcDbEntity
  8
0
100
AcDbCircle
 62
7
  6
CONTINUOUS
 10
17.707882094
 20
51.8409074487
 40
67.0007107194
100
AcDbArc
 50
69.7288752782
 51
70.7083600201
  0
ARC
  5
285
100
AcDbEntity
  8
0
100
AcDbCircle
 62
7
  6
CONTINUOUS
 10
55.5789637673
 20
73.9518227835
 40
66.6705628409
100
AcDbArc
 50
69.7264500494
 51
70.7107852489
  0
ARC
  5
286
100
AcDbEntity
  8
0
100
AcDbCircle
 62
7
  6
CONTINUOUS
 10
20.7528510001
 20
65.8554161202
 40
19.4812582413
100
AcDbArc
 50
57.5675827478
 51
59.9924665069
  0
ARC
  5
287
100
AcDbEntity
  8
0
100
AcDbCircle
 62
7
  6
CONTINUOUS
 10
22.2180697413
 20
66.6886789857
 40
18.0528009084
100
AcDbArc
 50
59.9955456529
 51
61.2521320268
  0
ARC
  5
288
100
AcDbEntity
  8
0
100
AcDbCircle
 62
7
  6
CONTINUOUS
 10
36.5395977696
 20
64.5538679512
 40
16.8275744914
100
AcDbArc
 50
239.9944537085
 51
242.2390537488
  0
ARC
  5
289
100
AcDbEntity
  8
0
100
AcDbCircle
 62
7
  6
CONTINUOUS
 10
35.1173944029
 20
61.5805854418
 40
13.5296243635
100
AcDbArc
 50
247.5711227851
 51
249.1985348207
  0
ARC
  5
28A
100
AcDbEntity
  8
0
100
AcDbCircle
 62
7
  6
CONTINUOUS
 10
31.27701482
 20
64.0253827213
 40
9.1933075554
100
AcDbArc
 50
240.0000305524
 51
240.5011456055
  0
ARC
  5
28B
100
AcDbEntity
  8
0
100
AcDbCircle
 62
7
  6
CONTINUOUS
 10
36.4378495875
 20
54.4354978231
 40
6.7996216223
100
AcDbArc
 50
306.450067639
 51
308.0677370468
  0
ARC
  5
28C
100
AcDbEntity
  8
0
100
AcDbCircle
 62
7
  6
CONTINUOUS
 10
23.1625011355
 20
77.430952646
 40
6.7985586031
100
AcDbArc
 50
112.3772360039
 51
113.5743424064
  0
ARC
  5
28D
100
AcDbEntity
  8
0
100
AcDbCircle
 62
7
  6
CONTINUOUS
 10
36.4727356044
 20
54.3881533949
 40
6.7408124008
100
AcDbArc
 50
304.100044284
 51
306.4506365285
  0
ARC
  5
28E
100
AcDbEntity
  8
0
100
AcDbCircle
 62
7
  6
CONTINUOUS
 10
23.135568862
 20
77.4915173565
 40
6.7322772663
100
AcDbArc
 50
113.5704071873
 51
119.8664624596
  0
ARC
  5
28F
100
AcDbEntity
  8
0
100
AcDbCircle
 62
7
  6
CONTINUOUS
 10
36.4960548954
 20
54.3540620171
 40
6.6995089819
100
AcDbArc
 50
300.1212435849
 51
304.0983612699
  0
ARC
  5
290
100
AcDbEntity
  8
0
100
AcDbCircle
 62
7
  6
CONTINUOUS
 10
70.7119445983
 20
121.0246569378
 40
5.2988896303
100
AcDbArc
 50
164.1752340731
 51
169.2502626078
  0
ARC
  5
291
100
AcDbEntity
  8
0
100
AcDbCircle
 62
7
  6
CONTINUOUS
 10
39.2027726924
 20
112.1494096961
 40
4.6792733602
100
AcDbArc
 50
187.0147824173
 51
187.5073922563
  0
ARC
  5
292
100
AcDbEntity
  8
0
100
AcDbCircle
 62
7
  6
CONTINUOUS
 10
75.4067906186
 20
52.8718694594
 40
4.6792733588
100
AcDbArc
 50
187.0147824173
 51
187.5073922564
  0
ARC
  5
293
100
AcDbEntity
  8
0
100
AcDbCircle
 62
7
  6
CONTINUOUS
 10
23.3839792717
 20
69.8404736523
 40
3.2884119358
100
AcDbArc
 50
118.0400285284
 51
120.9141434332
  0
ARC
  5
294
100
AcDbEntity
  8
0
100
AcDbCircle
 62
7
  6
CONTINUOUS
 10
29.9772755473
 20
58.4212310918
 40
3.2870861237
100
AcDbArc
 50
300.9153622695
 51
302.0520189345
  0
ARC
  5
295
100
AcDbEntity
  8
0
100
AcDbCircle
 62
7
  6
CONTINUOUS
 10
37.7661350813
 20
107.6214322652
 40
1.3380302499
100
AcDbArc
 50
300.002746274
 51
304.8762364518
  0
ARC
  5
296
100
AcDbEntity
  8
0
100
AcDbCircle
 62
7
  6
CONTINUOUS
 10
73.9701530089
 20
48.3438920287
 40
1.3380302499
100
AcDbArc
 50
300.002746274
 51
304.8762364518
  0
ARC
  5
297
100
AcDbEntity
  8
0
100
AcDbCircle
 62
7
  6
CONTINUOUS
 10
35.1027246454
 20
112.2347318139
 40
1.3350093626
100
AcDbArc
 50
119.9993073751
 51
121.1216791519
  0
ARC
  5
298
100
AcDbEntity
  8
0
100
AcDbCircle
 62
7
  6
CONTINUOUS
 10
71.3067425729
 20
52.9571915775
 40
1.3350093624
100
AcDbArc
 50
119.999307375
 51
121.121679152
  0
SPLINE
  5
299
100
AcDbEntity
  8
0
100
AcDbSpline
 62
7
  6
CONTINUOUS
 70
0
 71
3
 72
12
 73
8
 74
0
 42
0.0000001
 43
0.0000001
 44
0.0000000001
 40
0.0
 40
0.0
 40
0.0
 40
0.0
 40
0.1132401246
 40
0.2279238711
 40
0.4657279337
 40
0.7215423745
 40
1.0
 40
1.0
 40
1.0
 40
1.0
 10
34.4127153377
 20
113.3775953899
 30
0.0
 10
34.3632382744
 20
113.3477233925
 30
0.0
 10
34.2674575542
 20
113.2810134707
 30
0.0
 10
34.0910171826
 20
113.1209349898
 30
0.0
 10
33.9023090576
 20
112.8703805783
 30
0.0
 10
33.7386771353
 20
112.5091672268
 30
0.0
 10
33.6733549527
 20
112.2428462669
 30
0.0
 10
33.6498516263
 20
112.1026840674
 30
0.0
  0
SPLINE
  5
29A
100
AcDbEntity
  8
0
100
AcDbSpline
 62
7
  6
CONTINUOUS
 70
0
 71
3
 72
22
 73
18
 74
0
 42
0.0000001
 43
0.0000001
 44
0.0000000001
 40
0.0
 40
0.0
 40
0.0
 40
0.0
 40
0.0669111824
 40
0.1367734944
 40
0.2087945641
 40
0.2821538868
 40
0.4291519103
 40
0.5011028485
 40
0.5708439408
 40
0.6376238984
 40
0.7008216212
 40
0.7599952503
 40
0.8149378397
 40
0.8657421681
 40
0.912869321
 40
0.957197482
 40
1.0
 40
1.0
 40
1.0
 40
1.0
 10
33.6498516263
 20
110.9670974041
 30
0.0
 10
33.6727649086
 20
110.803996555
 30
0.0
 10
33.7368059917
 20
110.4728473959
 30
0.0
 10
33.8798931199
 20
109.9785950805
 30
0.0
 10
34.0698908083
 20
109.4833153466
 30
0.0
 10
34.3810561621
 20
108.8337686427
 30
0.0
 10
34.7674199351
 20
108.2224981758
 30
0.0
 10
35.2170293333
 20
107.671405202
 30
0.0
 10
35.5743884485
 20
107.3021714354
 30
0.0
 10
35.9475744959
 20
106.98102148
 30
0.0
 10
36.3299158101
 20
106.7137807041
 30
0.0
 10
36.7146011428
 20
106.505338338
 30
0.0
 10
37.0949293242
 20
106.359599481
 30
0.0
 10
37.4643581846
 20
106.2795630464
 30
0.0
 10
37.8165348289
 20
106.2675184572
 30
0.0
 10
38.1445799196
 20
106.3248202051
 30
0.0
 10
38.3439616925
 20
106.4100179203
 30
0.0
 10
38.435205747
 20
106.462696146
 30
0.0
  0
SPLINE
  5
29B
100
AcDbEntity
  8
0
100
AcDbSpline
 62
7
  6
CONTINUOUS
 70
0
 71
3
 72
12
 73
8
 74
0
 42
0.0000001
 43
0.0000001
 44
0.0000000001
 40
0.0
 40
0.0
 40
0.0
 40
0.0
 40
0.1132401246
 40
0.2279238711
 40
0.4657279337
 40
0.7215423745
 40
1.0
 40
1.0
 40
1.0
 40
1.0
 10
70.6167332652
 20
54.1000551533
 30
0.0
 10
70.5672562019
 20
54.070183156
 30
0.0
 10
70.4714754817
 20
54.0034732342
 30
0.0
 10
70.2950351101
 20
53.8433947533
 30
0.0
 10
70.1063269852
 20
53.5928403418
 30
0.0
 10
69.9426950629
 20
53.2316269903
 30
0.0
 10
69.8773728803
 20
52.9653060304
 30
0.0
 10
69.8538695538
 20
52.8251438309
 30
0.0
  0
SPLINE
  5
29C
100
AcDbEntity
  8
0
100
AcDbSpline
 62
7
  6
CONTINUOUS
 70
0
 71
3
 72
22
 73
18
 74
0
 42
0.0000001
 43
0.0000001
 44
0.0000000001
 40
0.0
 40
0.0
 40
0.0
 40
0.0
 40
0.0669111824
 40
0.1367734944
 40
0.2087945641
 40
0.2821538868
 40
0.4291519103
 40
0.5011028485
 40
0.5708439408
 40
0.6376238984
 40
0.7008216212
 40
0.7599952503
 40
0.8149378397
 40
0.8657421681
 40
0.912869321
 40
0.957197482
 40
1.0
 40
1.0
 40
1.0
 40
1.0
 10
69.8538695538
 20
51.6895571676
 30
0.0
 10
69.8767828361
 20
51.5264563185
 30
0.0
 10
69.9408239192
 20
51.1953071593
 30
0.0
 10
70.0839110474
 20
50.7010548439
 30
0.0
 10
70.2739087358
 20
50.2057751101
 30
0.0
 10
70.5850740896
 20
49.5562284062
 30
0.0
 10
70.9714378627
 20
48.9449579392
 30
0.0
 10
71.4210472608
 20
48.3938649655
 30
0.0
 10
71.778406376
 20
48.0246311989
 30
0.0
 10
72.1515924235
 20
47.7034812435
 30
0.0
 10
72.5339337376
 20
47.4362404676
 30
0.0
 10
72.9186190703
 20
47.2277981015
 30
0.0
 10
73.2989472517
 20
47.0820592445
 30
0.0
 10
73.6683761121
 20
47.0020228099
 30
0.0
 10
74.0205527564
 20
46.9899782207
 30
0.0
 10
74.3485978471
 20
47.0472799686
 30
0.0
 10
74.54797962
 20
47.1324776838
 30
0.0
 10
74.6392236746
 20
47.1851559095
 30
0.0
  0
SPLINE
  5
29D
100
AcDbEntity
  8
0
100
AcDbSpline
 62
7
  6
CONTINUOUS
 70
0
 71
3
 72
9
 73
5
 74
0
 42
0.0000001
 43
0.0000001
 44
0.0000000001
 40
0.0
 40
0.0
 40
0.0
 40
0.0
 40
0.2419218959
 40
1.0
 40
1.0
 40
1.0
 40
1.0
 10
78.6804902787
 20
136.492077199
 30
0.0
 10
78.7663766077
 20
136.4604813804
 30
0.0
 10
79.1186000335
 20
136.322332906
 30
0.0
 10
79.4592936133
 20
136.1553829042
 30
0.0
 10
79.7100253329
 20
136.0162164757
 30
0.0
  0
SPLINE
  5
29E
100
AcDbEntity
  8
0
100
AcDbSpline
 62
7
  6
CONTINUOUS
 70
0
 71
3
 72
9
 73
5
 74
0
 42
0.0000001
 43
0.0000001
 44
0.0000000001
 40
0.0
 40
0.0
 40
0.0
 40
0.0
 40
0.49953653
 40
1.0
 40
1.0
 40
1.0
 40
1.0
 10
75.2540199996
 20
137.6994419605
 30
0.0
 10
75.6457299352
 20
137.5647525062
 30
0.0
 10
76.42905082
 20
137.2927165138
 30
0.0
 10
77.210999885
 20
137.0167759323
 30
0.0
 10
77.6026992524
 20
136.8797106951
 30
0.0
  0
SPLINE
  5
29F
100
AcDbEntity
  8
0
100
AcDbSpline
 62
7
  6
CONTINUOUS
 70
0
 71
3
 72
9
 73
5
 74
0
 42
0.0000001
 43
0.0000001
 44
0.0000000001
 40
0.0
 40
0.0
 40
0.0
 40
0.0
 40
0.2484124071
 40
1.0
 40
1.0
 40
1.0
 40
1.0
 10
70.5424134389
 20
139.1690530612
 30
0.0
 10
70.7962974407
 20
139.0971677077
 30
0.0
 10
71.8170968342
 20
138.8034706163
 30
0.0
 10
72.8329860312
 20
138.4927263305
 30
0.0
 10
73.5935261611
 20
138.2499821224
 30
0.0
  0
SPLINE
  5
2A0
100
AcDbEntity
  8
0
100
AcDbSpline
 62
7
  6
CONTINUOUS
 70
0
 71
3
 72
21
 73
17
 74
0
 42
0.0000001
 43
0.0000001
 44
0.0000000001
 40
0.0
 40
0.0
 40
0.0
 40
0.0
 40
0.0622912507
 40
0.128371902
 40
0.1975395162
 40
0.2690065889
 40
0.4148244416
 40
0.5578791156
 40
0.6260297466
 40
0.6908122189
 40
0.7516642063
 40
0.8082940699
 40
0.8607583289
 40
0.9095330091
 40
0.9555132403
 40
1.0
 40
1.0
 40
1.0
 40
1.0
 10
26.7297304485
 20
55.981243628
 30
0.0
 10
26.3674654964
 20
56.1903926641
 30
0.0
 10
25.6486861843
 20
56.6707065558
 30
0.0
 10
24.6320205921
 20
57.5262478596
 30
0.0
 10
23.6622540313
 20
58.5225749858
 30
0.0
 10
22.450866325
 20
60.0196648833
 30
0.0
 10
21.1793401588
 20
62.092751584
 30
0.0
 10
20.2789188962
 20
64.3292925389
 30
0.0
 10
19.83593909
 20
66.1316728452
 30
0.0
 10
19.6565112739
 20
67.4232093835
 30
0.0
 10
19.629001761
 20
68.6499655014
 30
0.0
 10
19.7558815471
 20
69.7881122785
 30
0.0
 10
20.0378472009
 20
70.8153617463
 30
0.0
 10
20.474642342
 20
71.7098652337
 30
0.0
 10
21.0620866657
 20
72.4476862363
 30
0.0
 10
21.5510319668
 20
72.8209737902
 30
0.0
 10
21.8097509135
 20
72.9703443521
 30
0.0
  0
SPLINE
  5
2A1
100
AcDbEntity
  8
0
100
AcDbSpline
 62
7
  6
CONTINUOUS
 70
0
 71
3
 72
12
 73
8
 74
0
 42
0.0000001
 43
0.0000001
 44
0.0000000001
 40
0.0
 40
0.0
 40
0.0
 40
0.0
 40
0.1103747633
 40
0.2224193866
 40
0.4571558555
 40
0.7147587217
 40
1.0
 40
1.0
 40
1.0
 40
1.0
 10
31.8997057418
 20
55.4939256239
 30
0.0
 10
31.7267551675
 20
55.3940731594
 30
0.0
 10
31.3602090486
 20
55.2224437072
 30
0.0
 10
30.5601893044
 20
54.9998757285
 30
0.0
 10
29.449529054
 20
54.9679223368
 30
0.0
 10
28.0699600125
 20
55.2989566954
 30
0.0
 10
27.1766881296
 20
55.7231983283
 30
0.0
 10
26.7297304485
 20
55.981243628
 30
0.0
  0
SPLINE
  5
2A2
100
AcDbEntity
  8
0
100
AcDbSpline
 62
7
  6
CONTINUOUS
 70
0
 71
3
 72
14
 73
10
 74
0
 42
0.0000001
 43
0.0000001
 44
0.0000000001
 40
0.0
 40
0.0
 40
0.0
 40
0.0
 40
0.1080483092
 40
0.2181312544
 40
0.3321040889
 40
0.4515044208
 40
0.5774554304
 40
0.7107177046
 40
1.0
 40
1.0
 40
1.0
 40
1.0
 10
20.4583368638
 20
83.7195609876
 30
0.0
 10
20.7874813801
 20
83.9095633331
 30
0.0
 10
21.4862532558
 20
84.236857028
 30
0.0
 10
22.6169574555
 20
84.5494585428
 30
0.0
 10
23.8223057317
 20
84.6839871141
 30
0.0
 10
25.089420074
 20
84.6398107972
 30
0.0
 10
26.4063117706
 20
84.419007678
 30
0.0
 10
28.2616289763
 20
83.8780367123
 30
0.0
 10
29.6144948633
 20
83.2341513259
 30
0.0
 10
30.4956983422
 20
82.7253997696
 30
0.0
  0
SPLINE
  5
2A3
100
AcDbEntity
  8
0
100
AcDbSpline
 62
7
  6
CONTINUOUS
 70
0
 71
3
 72
13
 73
9
 74
0
 42
0.0000001
 43
0.0000001
 44
0.0000000001
 40
0.0
 40
0.0
 40
0.0
 40
0.0
 40
0.1189461841
 40
0.2385923069
 40
0.3594672614
 40
0.4819928764
 40
0.7341238954
 40
1.0
 40
1.0
 40
1.0
 40
1.0
 10
19.7714214194
 20
83.323060641
 30
0.0
 10
19.4279549677
 20
83.1248359172
 30
0.0
 10
18.7664086052
 20
82.6773953592
 30
0.0
 10
17.8756459621
 20
81.8702142973
 30
0.0
 10
17.0939260419
 20
80.9413435319
 30
0.0
 10
16.1999790187
 20
79.5473099488
 30
0.0
 10
15.3824741208
 20
77.5540214292
 30
0.0
 10
15.0591370339
 20
75.8467240482
 30
0.0
 10
14.9648663182
 20
74.9653281042
 30
0.0
  0
SPLINE
  5
2A4
100
AcDbEntity
  8
0
100
AcDbSpline
 62
7
  6
CONTINUOUS
 70
0
 71
3
 72
15
 73
11
 74
0
 42
0.0000001
 43
0.0000001
 44
0.0000000001
 40
0.0
 40
0.0
 40
0.0
 40
0.0
 40
0.1172166203
 40
0.2418517051
 40
0.3718965316
 40
0.5044792637
 40
0.6363823423
 40
0.7644832259
 40
0.8861966615
 40
1.0
 40
1.0
 40
1.0
 40
1.0
 10
28.5582337791
 20
49.4099664605
 30
0.0
 10
27.5485045139
 20
49.9929207353
 30
0.0
 10
25.5723541319
 20
51.3867163345
 30
0.0
 10
22.8875505925
 20
53.946845046
 30
0.0
 10
20.4608978114
 20
56.9515825024
 30
0.0
 10
18.3774347195
 20
60.2881031628
 30
0.0
 10
16.713481103
 20
63.831249925
 30
0.0
 10
15.5335195215
 20
67.4514987278
 30
0.0
 10
14.8865158862
 20
71.0216986186
 30
0.0
 10
14.8354942658
 20
73.3780770207
 30
0.0
 10
14.9226745816
 20
74.5066920468
 30
0.0
  0
SPLINE
  5
2A5
100
AcDbEntity
  8
0
100
AcDbSpline
 62
7
  6
CONTINUOUS
 70
0
 71
3
 72
9
 73
5
 74
0
 42
0.0000001
 43
0.0000001
 44
0.0000000001
 40
0.0
 40
0.0
 40
0.0
 40
0.0
 40
0.2471397976
 40
1.0
 40
1.0
 40
1.0
 40
1.0
 10
29.7866489049
 20
48.7613796386
 30
0.0
 10
29.6834177727
 20
48.8108025694
 30
0.0
 10
29.2677386358
 20
49.0149917614
 30
0.0
 10
28.8601793513
 20
49.2356420468
 30
0.0
 10
28.5582337791
 20
49.4099664605
 30
0.0
  0
SPLINE
  5
2A6
100
AcDbEntity
  8
0
100
AcDbSpline
 62
7
  6
CONTINUOUS
 70
0
 71
3
 72
12
 73
8
 74
0
 42
0.0000001
 43
0.0000001
 44
0.0000000001
 40
0.0
 40
0.0
 40
0.0
 40
0.0
 40
0.2898580786
 40
0.5491249007
 40
0.781986497
 40
0.8920328009
 40
1.0
 40
1.0
 40
1.0
 40
1.0
 10
115.2989841335
 20
66.5382649849
 30
0.0
 10
115.3003232925
 20
66.3093803359
 30
0.0
 10
115.2675984736
 20
65.8740531552
 30
0.0
 10
115.0952168632
 20
65.2757731616
 30
0.0
 10
114.8444888251
 20
64.8626354704
 30
0.0
 10
114.5902663312
 20
64.6112956019
 30
0.0
 10
114.4483046597
 20
64.5121255822
 30
0.0
 10
114.3744622204
 20
64.4695102539
 30
0.0
  0
SPLINE
  5
2A7
100
AcDbEntity
  8
0
100
AcDbSpline
 62
7
  6
CONTINUOUS
 70
0
 71
3
 72
12
 73
8
 74
0
 42
0.0000001
 43
0.0000001
 44
0.0000000001
 40
0.0
 40
0.0
 40
0.0
 40
0.0
 40
0.2510011935
 40
0.5135708109
 40
0.7687998194
 40
0.8883555029
 40
1.0
 40
1.0
 40
1.0
 40
1.0
 10
112.9193696739
 20
114.7032588598
 30
0.0
 10
113.2739391096
 20
114.3945433767
 30
0.0
 10
113.9252630434
 20
113.6751309546
 30
0.0
 10
114.6757156791
 20
112.4377603439
 30
0.0
 10
115.0960253782
 20
111.3104243824
 30
0.0
 10
115.2699696841
 20
110.4144448349
 30
0.0
 10
115.300201654
 20
109.980867615
 30
0.0
 10
115.2989698684
 20
109.7717577898
 30
0.0
  0
SPLINE
  5
2A8
100
AcDbEntity
  8
0
100
AcDbSpline
 62
7
  6
CONTINUOUS
 70
0
 71
3
 72
9
 73
5
 74
0
 42
0.0000001
 43
0.0000001
 44
0.0000000001
 40
0.0
 40
0.0
 40
0.0
 40
0.0
 40
0.4996850153
 40
1.0
 40
1.0
 40
1.0
 40
1.0
 10
105.8590820375
 20
120.5662495476
 30
0.0
 10
106.2504555423
 20
120.2512917843
 30
0.0
 10
107.0348288018
 20
119.6223884902
 30
0.0
 10
107.8170562464
 20
118.9908141642
 30
0.0
 10
108.2077612904
 20
118.674020968
 30
0.0
  0
SPLINE
  5
2A9
100
AcDbEntity
  8
0
100
AcDbSpline
 62
7
  6
CONTINUOUS
 70
0
 71
3
 72
9
 73
5
 74
0
 42
0.0000001
 43
0.0000001
 44
0.0000000001
 40
0.0
 40
0.0
 40
0.0
 40
0.0
 40
0.2432935005
 40
1.0
 40
1.0
 40
1.0
 40
1.0
 10
103.75177022
 20
122.1360232389
 30
0.0
 10
103.8388997182
 20
122.083775744
 30
0.0
 10
104.1933242773
 20
121.8628827581
 30
0.0
 10
104.5329553244
 20
121.6185010131
 30
0.0
 10
104.7812914852
 20
121.4231165326
 30
0.0
  0
SPLINE
  5
2AA
100
AcDbEntity
  8
0
100
AcDbSpline
 62
7
  6
CONTINUOUS
 70
0
 71
3
 72
13
 73
9
 74
0
 42
0.0000001
 43
0.0000001
 44
0.0000000001
 40
0.0
 40
0.0
 40
0.0
 40
0.0
 40
0.2658692468
 40
0.518001226
 40
0.6405268027
 40
0.761407588
 40
0.8810516552
 40
1.0
 40
1.0
 40
1.0
 40
1.0
 10
30.2028687944
 20
48.5695066835
 30
0.0
 10
31.013425321
 20
48.2102551326
 30
0.0
 10
32.6539415645
 20
47.6363070841
 30
0.0
 10
34.789357301
 20
47.3472383855
 30
0.0
 10
36.4440102422
 20
47.424277839
 30
0.0
 10
37.6395920599
 20
47.6368110116
 30
0.0
 10
38.7843277643
 20
48.0046293163
 30
0.0
 10
39.5027617667
 20
48.3539081283
 30
0.0
 10
39.8462470099
 20
48.5522955439
 30
0.0
  0
SPLINE
  5
2AB
100
AcDbEntity
  8
0
100
AcDbSpline
 62
7
  6
CONTINUOUS
 70
0
 71
3
 72
9
 73
5
 74
0
 42
0.0000001
 43
0.0000001
 44
0.0000000001
 40
0.0
 40
0.0
 40
0.0
 40
0.0
 40
0.2471428074
 40
1.0
 40
1.0
 40
1.0
 40
1.0
 10
31.245685617
 20
82.3221613949
 30
0.0
 10
31.3285593764
 20
82.27431529
 30
0.0
 10
31.6623709489
 20
82.0781012281
 30
0.0
 10
31.9901382668
 20
81.8716306654
 30
0.0
 10
32.2333969634
 20
81.7110025917
 30
0.0
  0
SPLINE
  5
2AC
100
AcDbEntity
  8
0
100
AcDbSpline
 62
7
  6
CONTINUOUS
 70
0
 71
3
 72
14
 73
10
 74
0
 42
0.0000001
 43
0.0000001
 44
0.0000000001
 40
0.0
 40
0.0
 40
0.0
 40
0.0
 40
0.1080466899
 40
0.2181295564
 40
0.3321042764
 40
0.4515034535
 40
0.5774515873
 40
0.7107184333
 40
1.0
 40
1.0
 40
1.0
 40
1.0
 10
31.2688718447
 20
84.1745362941
 30
0.0
 10
31.5147966578
 20
84.3165207566
 30
0.0
 10
32.0369111527
 20
84.5610914254
 30
0.0
 10
32.8817827286
 20
84.7946584794
 30
0.0
 10
33.7824259218
 20
84.8951438408
 30
0.0
 10
34.7292135253
 20
84.8621879172
 30
0.0
 10
35.7131987689
 20
84.6971797905
 30
0.0
 10
37.0995035188
 20
84.2929804721
 30
0.0
 10
38.1103767715
 20
83.811855404
 30
0.0
 10
38.7688132376
 20
83.431715533
 30
0.0
  0
SPLINE
  5
2AD
100
AcDbEntity
  8
0
100
AcDbSpline
 62
7
  6
CONTINUOUS
 70
0
 71
3
 72
23
 73
19
 74
0
 42
0.0000001
 43
0.0000001
 44
0.0000000001
 40
0.0
 40
0.0
 40
0.0
 40
0.0
 40
0.0428151575
 40
0.0873979536
 40
0.1351816575
 40
0.1870911685
 40
0.2435374834
 40
0.3044946154
 40
0.3695925584
 40
0.438200376
 40
0.509497378
 40
0.5825328955
 40
0.6562760222
 40
0.7296631392
 40
0.8016519994
 40
0.8712510874
 40
0.9376126351
 40
1.0
 40
1.0
 40
1.0
 40
1.0
 10
45.9627180331
 20
91.7919682966
 30
0.0
 10
46.3140621313
 20
91.9947713848
 30
0.0
 10
47.08845676
 20
92.3167387178
 30
0.0
 10
48.366861583
 20
92.5040397846
 30
0.0
 10
49.7396227957
 20
92.4029565722
 30
0.0
 10
51.1763003789
 20
92.0212323294
 30
0.0
 10
52.6486826286
 20
91.370518273
 30
0.0
 10
54.1274673013
 20
90.4658235913
 30
0.0
 10
55.5825957041
 20
89.3266053804
 30
0.0
 10
56.9838659713
 20
87.9770336946
 30
0.0
 10
58.3018082472
 20
86.4457301749
 30
0.0
 10
59.5084583856
 20
84.7652352784
 30
0.0
 10
60.5781024051
 20
82.9713693564
 30
0.0
 10
61.4879247943
 20
81.1023640865
 30
0.0
 10
62.2184291508
 20
79.1981343143
 30
0.0
 10
62.754356709
 20
77.2989502094
 30
0.0
 10
63.0838216608
 20
75.4455201221
 30
0.0
 10
63.1639795246
 20
74.2248141509
 30
0.0
 10
63.1639795246
 20
73.63369264
 30
0.0
  0
SPLINE
  5
2AE
100
AcDbEntity
  8
0
100
AcDbSpline
 62
7
  6
CONTINUOUS
 70
0
 71
3
 72
17
 73
13
 74
0
 42
0.0000001
 43
0.0000001
 44
0.0000000001
 40
0.0
 40
0.0
 40
0.0
 40
0.0
 40
0.0428583278
 40
0.0874873347
 40
0.1353191304
 40
0.1872845603
 40
0.3045449909
 40
0.4382122314
 40
0.5825557447
 40
0.7297161878
 40
0.8713055151
 40
1.0
 40
1.0
 40
1.0
 40
1.0
 10
33.7640119944
 20
113.2470963704
 30
0.0
 10
33.8678373511
 20
113.30701613
 30
0.0
 10
34.0966637818
 20
113.4021863044
 30
0.0
 10
34.4744332945
 20
113.4574576505
 30
0.0
 10
34.880119162
 20
113.4277176803
 30
0.0
 10
35.4695461806
 20
113.2708271294
 30
0.0
 10
36.223091687
 20
112.8588945791
 30
0.0
 10
37.0555978528
 20
112.1215775036
 30
0.0
 10
37.791503285
 20
111.1796372423
 30
0.0
 10
38.3706529347
 20
110.1091339213
 30
0.0
 10
38.7465480967
 20
108.997871909
 30
0.0
 10
38.8472413949
 20
108.2410191113
 30
0.0
 10
38.8472413949
 20
107.8810590302
 30
0.0
  0
SPLINE
  5
2AF
100
AcDbEntity
  8
0
100
AcDbSpline
 62
7
  6
CONTINUOUS
 70
0
 71
3
 72
17
 73
13
 74
0
 42
0.0000001
 43
0.0000001
 44
0.0000000001
 40
0.0
 40
0.0
 40
0.0
 40
0.0
 40
0.0428583278
 40
0.0874873347
 40
0.1353191304
 40
0.1872845603
 40
0.3045449909
 40
0.4382122314
 40
0.5825557447
 40
0.7297161878
 40
0.8713055151
 40
1.0
 40
1.0
 40
1.0
 40
1.0
 10
69.9680299219
 20
53.9695561339
 30
0.0
 10
70.0718552786
 20
54.0294758935
 30
0.0
 10
70.3006817093
 20
54.1246460678
 30
0.0
 10
70.6784512221
 20
54.179917414
 30
0.0
 10
71.0841370895
 20
54.1501774438
 30
0.0
 10
71.6735641082
 20
53.9932868929
 30
0.0
 10
72.4271096145
 20
53.5813543425
 30
0.0
 10
73.2596157804
 20
52.844037267
 30
0.0
 10
73.9955212125
 20
51.9020970058
 30
0.0
 10
74.5746708622
 20
50.8315936848
 30
0.0
 10
74.9505660242
 20
49.7203316725
 30
0.0
 10
75.0512593224
 20
48.9634788747
 30
0.0
 10
75.0512593224
 20
48.6035187937
 30
0.0
  0
SPLINE
  5
2B0
100
AcDbEntity
  8
0
100
AcDbSpline
 62
7
  6
CONTINUOUS
 70
0
 71
3
 72
12
 73
8
 74
0
 42
0.0000001
 43
0.0000001
 44
0.0000000001
 40
0.0
 40
0.0
 40
0.0
 40
0.0
 40
0.1079672084
 40
0.2180135182
 40
0.450875115
 40
0.7101419172
 40
1.0
 40
1.0
 40
1.0
 40
1.0
 10
31.327974163
 20
117.2535847305
 30
0.0
 10
31.2541317636
 20
117.2109694242
 30
0.0
 10
31.1121701678
 20
117.1117994653
 30
0.0
 10
30.8579477843
 20
116.8604597857
 30
0.0
 10
30.6072198035
 20
116.4473224307
 30
0.0
 10
30.4348380985
 20
115.8490428784
 30
0.0
 10
30.4021132323
 20
115.413715976
 30
0.0
 10
30.4034523904
 20
115.184831466
 30
0.0
  0
SPLINE
  5
2B1
100
AcDbEntity
  8
0
100
AcDbSpline
 62
7
  6
CONTINUOUS
 70
0
 71
3
 72
11
 73
7
 74
0
 42
0.0000001
 43
0.0000001
 44
0.0000000001
 40
0.0
 40
0.0
 40
0.0
 40
0.0
 40
0.2317531733
 40
0.4715506321
 40
0.7262279299
 40
1.0
 40
1.0
 40
1.0
 40
1.0
 10
69.0873190697
 20
139.0538225482
 30
0.0
 10
69.1875161225
 20
139.1116474296
 30
0.0
 10
69.4061216156
 20
139.2054770046
 30
0.0
 10
69.7656103603
 20
139.2700123778
 30
0.0
 10
70.1512388383
 20
139.2598639562
 30
0.0
 10
70.4109516915
 20
139.2063879123
 30
0.0
 10
70.5424134389
 20
139.1690530612
 30
0.0
  0
SPLINE
  5
2B2
100
AcDbEntity
  8
0
100
AcDbSpline
 62
7
  6
CONTINUOUS
 70
0
 71
3
 72
11
 73
7
 74
0
 42
0.0000001
 43
0.0000001
 44
0.0000000001
 40
0.0
 40
0.0
 40
0.0
 40
0.0
 40
0.2499603955
 40
0.4372747656
 40
0.6244748757
 40
1.0
 40
1.0
 40
1.0
 40
1.0
 10
30.4093028818
 20
112.7934200141
 30
0.0
 10
30.4092949283
 20
112.9926737482
 30
0.0
 10
30.4078018728
 20
113.3412417733
 30
0.0
 10
30.4074939534
 20
113.8390364013
 30
0.0
 10
30.4086104311
 20
114.4369256318
 30
0.0
 10
30.4048987043
 20
114.8854884048
 30
0.0
 10
30.4034523904
 20
115.184831466
 30
0.0
  0
SPLINE
  5
2B3
100
AcDbEntity
  8
0
100
AcDbSpline
 62
7
  6
CONTINUOUS
 70
0
 71
3
 72
11
 73
7
 74
0
 42
0.0000001
 43
0.0000001
 44
0.0000000001
 40
0.0
 40
0.0
 40
0.0
 40
0.0
 40
0.2737720714
 40
0.528449384
 40
0.7682468397
 40
1.0
 40
1.0
 40
1.0
 40
1.0
 10
75.1600229485
 20
42.5540419232
 30
0.0
 10
75.2914846961
 20
42.5167070721
 30
0.0
 10
75.5511975565
 20
42.4632310322
 30
0.0
 10
75.9368260407
 20
42.4530826009
 30
0.0
 10
76.296314779
 20
42.517617996
 30
0.0
 10
76.5149202666
 20
42.611447559
 30
0.0
 10
76.6151173127
 20
42.6692724381
 30
0.0
  0
SPLINE
  5
2B4
100
AcDbEntity
  8
0
100
AcDbSpline
 62
7
  6
CONTINUOUS
 70
0
 71
3
 72
9
 73
5
 74
0
 42
0.0000001
 43
0.0000001
 44
0.0000000001
 40
0.0
 40
0.0
 40
0.0
 40
0.0
 40
0.2515992485
 40
1.0
 40
1.0
 40
1.0
 40
1.0
 10
72.1089102216
 20
43.4731128627
 30
0.0
 10
72.3635063394
 20
43.3918525445
 30
0.0
 10
73.3767240479
 20
43.0729873746
 30
0.0
 10
74.3951378992
 20
42.7706133959
 30
0.0
 10
75.1600229485
 20
42.5540419232
 30
0.0
  0
SPLINE
  5
2B5
100
AcDbEntity
  8
0
100
AcDbSpline
 62
7
  6
CONTINUOUS
 70
0
 71
3
 72
9
 73
5
 74
0
 42
0.0000001
 43
0.0000001
 44
0.0000000001
 40
0.0
 40
0.0
 40
0.0
 40
0.0
 40
0.500463481
 40
1.0
 40
1.0
 40
1.0
 40
1.0
 10
68.0997371303
 20
44.8433842902
 30
0.0
 10
68.4914365063
 20
44.70631905
 30
0.0
 10
69.2733855379
 20
44.4303783729
 30
0.0
 10
70.0567064561
 20
44.1583424761
 30
0.0
 10
70.4484163831
 20
44.0236530248
 30
0.0
  0
SPLINE
  5
2B6
100
AcDbEntity
  8
0
100
AcDbSpline
 62
7
  6
CONTINUOUS
 70
0
 71
3
 72
9
 73
5
 74
0
 42
0.0000001
 43
0.0000001
 44
0.0000000001
 40
0.0
 40
0.0
 40
0.0
 40
0.0
 40
0.2582270672
 40
1.0
 40
1.0
 40
1.0
 40
1.0
 10
65.9924110497
 20
45.7068785109
 30
0.0
 10
66.0778166927
 20
45.6594748624
 30
0.0
 10
66.4117161713
 20
45.4817149102
 30
0.0
 10
66.7586106575
 20
45.3278934943
 30
0.0
 10
67.0219461041
 20
45.2310177853
 30
0.0
  0
SPLINE
  5
2B7
100
AcDbEntity
  8
0
100
AcDbSpline
 62
7
  6
CONTINUOUS
 70
0
 71
3
 72
11
 73
7
 74
0
 42
0.0000001
 43
0.0000001
 44
0.0000000001
 40
0.0
 40
0.0
 40
0.0
 40
0.0
 40
0.2513092364
 40
0.5017586172
 40
0.7513740091
 40
1.0
 40
1.0
 40
1.0
 40
1.0
 10
45.2792079793
 20
57.6079190084
 30
0.0
 10
47.001921312
 20
56.5895564083
 30
0.0
 10
50.4487341359
 20
54.5686186077
 30
0.0
 10
55.6274502899
 20
51.5718334946
 30
0.0
 10
60.804374352
 20
48.6148022891
 30
0.0
 10
64.2622153117
 20
46.6692515708
 30
0.0
 10
65.9924110644
 20
45.7068775753
 30
0.0
  0
SPLINE
  5
2B8
100
AcDbEntity
  8
0
100
AcDbSpline
 62
7
  6
CONTINUOUS
 70
0
 71
3
 72
11
 73
7
 74
0
 42
0.0000001
 43
0.0000001
 44
0.0000000001
 40
0.0
 40
0.0
 40
0.0
 40
0.0
 40
0.2897462303
 40
0.5490787573
 40
0.782221602
 40
1.0
 40
1.0
 40
1.0
 40
1.0
 10
75.0512593224
 20
48.6035187937
 30
0.0
 10
75.0512593224
 20
48.3901180701
 30
0.0
 10
75.0189576933
 20
47.9843367658
 30
0.0
 10
74.8545633138
 20
47.4268206441
 30
0.0
 10
74.5778854795
 20
46.9744639102
 30
0.0
 10
74.3180000958
 20
46.7559347567
 30
0.0
 10
74.1790794811
 20
46.6757607981
 30
0.0
  0
SPLINE
  5
2B9
100
AcDbEntity
  8
0
100
AcDbSpline
 62
7
  6
CONTINUOUS
 70
0
 71
3
 72
11
 73
7
 74
0
 42
0.0000001
 43
0.0000001
 44
0.0000000001
 40
0.0
 40
0.0
 40
0.0
 40
0.0
 40
0.2897462303
 40
0.5490787573
 40
0.782221602
 40
1.0
 40
1.0
 40
1.0
 40
1.0
 10
38.8472413949
 20
107.8810590302
 30
0.0
 10
38.8472413949
 20
107.6676583066
 30
0.0
 10
38.8149397658
 20
107.2618770023
 30
0.0
 10
38.6505453862
 20
106.7043608806
 30
0.0
 10
38.373867552
 20
106.2520041468
 30
0.0
 10
38.1139821683
 20
106.0334749932
 30
0.0
 10
37.9750615536
 20
105.9533010347
 30
0.0
  0
SPLINE
  5
2BA
100
AcDbEntity
  8
0
100
AcDbSpline
 62
7
  6
CONTINUOUS
 70
0
 71
3
 72
24
 73
20
 74
0
 42
0.0000001
 43
0.0000001
 44
0.0000000001
 40
0.0
 40
0.0
 40
0.0
 40
0.0
 40
0.0211476922
 40
0.042534283
 40
0.0868179281
 40
0.1344049408
 40
0.1862267552
 40
0.2426815972
 40
0.3037199678
 40
0.3689449923
 40
0.4377003481
 40
0.5091428869
 40
0.5823032313
 40
0.6561386338
 40
0.7295814839
 40
0.8015939042
 40
0.8712007305
 40
0.9375679831
 40
1.0
 40
1.0
 40
1.0
 40
1.0
 10
65.4172694608
 20
122.6168081126
 30
0.0
 10
65.417268531
 20
122.4061307495
 30
0.0
 10
65.4447269025
 20
121.9818635777
 30
0.0
 10
65.6106180618
 20
121.1310337945
 30
0.0
 10
66.0342822134
 20
120.0728230679
 30
0.0
 10
66.8492582949
 20
118.8845723722
 30
0.0
 10
67.9533570828
 20
117.7822045939
 30
0.0
 10
69.3212907879
 20
116.7857458309
 30
0.0
 10
70.9240276369
 20
115.9134227508
 30
0.0
 10
72.7280783425
 20
115.1825195798
 30
0.0
 10
74.6955813915
 20
114.6081788573
 30
0.0
 10
76.7849646341
 20
114.2027920491
 30
0.0
 10
78.9518526923
 20
113.9754362437
 30
0.0
 10
81.1500746579
 20
113.931681262
 30
0.0
 10
83.3327870206
 20
114.0732110116
 30
0.0
 10
85.4533859248
 20
114.3979793117
 30
0.0
 10
87.4670484424
 20
114.8998719011
 30
0.0
 10
89.3304687156
 20
115.5691411795
 30
0.0
 10
90.4852419711
 20
116.1370310162
 30
0.0
 10
91.0238756769
 20
116.4480095077
 30
0.0
  0
SPLINE
  5
2BB
100
AcDbEntity
  8
0
100
AcDbSpline
 62
7
  6
CONTINUOUS
 70
0
 71
3
 72
12
 73
8
 74
0
 42
0.0000001
 43
0.0000001
 44
0.0000000001
 40
0.0
 40
0.0
 40
0.0
 40
0.0
 40
0.2841414809
 40
0.543642342
 40
0.7803466464
 40
0.8918917465
 40
1.0
 40
1.0
 40
1.0
 40
1.0
 10
63.1639795246
 20
73.63369264
 30
0.0
 10
63.1639795246
 20
73.0323120864
 30
0.0
 10
63.0871163091
 20
71.8790820289
 30
0.0
 10
62.7065466891
 20
70.2634450546
 30
0.0
 10
62.1633664012
 20
69.0844901192
 30
0.0
 10
61.6054130197
 20
68.2934284427
 30
0.0
 10
61.28978227
 20
67.9498744691
 30
0.0
 10
61.1238276303
 20
67.7923538862
 30
0.0
  0
SPLINE
  5
2BC
100
AcDbEntity
  8
0
100
AcDbSpline
 62
7
  6
CONTINUOUS
 70
0
 71
3
 72
9
 73
5
 74
0
 42
0.0000001
 43
0.0000001
 44
0.0000000001
 40
0.0
 40
0.0
 40
0.0
 40
0.0
 40
0.2522559737
 40
1.0
 40
1.0
 40
1.0
 40
1.0
 10
61.1238276303
 20
67.7923538862
 30
0.0
 10
61.0543208628
 20
67.7263795539
 30
0.0
 10
60.7714036407
 20
67.4727379237
 30
0.0
 10
60.4586380184
 20
67.2522887317
 30
0.0
 10
60.2126138493
 20
67.1102784873
 30
0.0
  0
SPLINE
  5
2BD
100
AcDbEntity
  8
0
100
AcDbSpline
 62
7
  6
CONTINUOUS
 70
0
 71
3
 72
10
 73
6
 74
0
 42
0.0000001
 43
0.0000001
 44
0.0000000001
 40
0.0
 40
0.0
 40
0.0
 40
0.0
 40
0.5115380652
 40
0.7573459806
 40
1.0
 40
1.0
 40
1.0
 40
1.0
 10
53.4978893079
 20
64.0953715156
 30
0.0
 10
53.9683933133
 20
64.0931054358
 30
0.0
 10
54.6707780848
 20
64.1696509808
 30
0.0
 10
55.5477945009
 20
64.4539545877
 30
0.0
 10
55.9534666201
 20
64.6512969634
 30
0.0
 10
56.1467670396
 20
64.7628740645
 30
0.0
  0
SPLINE
  5
2BE
100
AcDbEntity
  8
0
100
AcDbSpline
 62
7
  6
CONTINUOUS
 70
0
 71
3
 72
24
 73
20
 74
0
 42
0.0000001
 43
0.0000001
 44
0.0000000001
 40
0.0
 40
0.0
 40
0.0
 40
0.0
 40
0.0623834445
 40
0.1287338051
 40
0.1983282245
 40
0.2703104859
 40
0.3436918813
 40
0.4174298271
 40
0.490460627
 40
0.5617530837
 40
0.6303556596
 40
0.6954481415
 40
0.7564004445
 40
0.8128423194
 40
0.86474713
 40
0.9125257636
 40
0.9571038189
 40
0.9786661499
 40
1.0
 40
1.0
 40
1.0
 40
1.0
 10
38.7688132376
 20
83.431715533
 30
0.0
 10
39.307702093
 20
83.1205949458
 30
0.0
 10
40.378313355
 20
82.4050966052
 30
0.0
 10
41.8944798879
 20
81.129252527
 30
0.0
 10
43.3437266514
 20
79.6411794881
 30
0.0
 10
44.6951650775
 20
77.9729879828
 30
0.0
 10
45.9201233991
 20
76.159880946
 30
0.0
 10
46.9925115114
 20
74.2406263736
 30
0.0
 10
47.8894129576
 20
72.2561162628
 30
0.0
 10
48.5917088794
 20
70.2486690595
 30
0.0
 10
49.0844489619
 20
68.2609162529
 30
0.0
 10
49.3570918073
 20
66.3347993912
 30
0.0
 10
49.403512184
 20
64.5105483106
 30
0.0
 10
49.221840102
 20
62.825839747
 30
0.0
 10
48.8134990411
 20
61.315164351
 30
0.0
 10
48.1836591083
 20
60.0108453021
 30
0.0
 10
47.4710426449
 20
59.1110094947
 30
0.0
 10
46.8103301057
 20
58.5381852842
 30
0.0
 10
46.4530425471
 20
58.3002207156
 30
0.0
 10
46.2687546306
 20
58.193822258
 30
0.0
  0
SPLINE
  5
2BF
100
AcDbEntity
  8
0
100
AcDbSpline
 62
7
  6
CONTINUOUS
 70
0
 71
3
 72
25
 73
21
 74
0
 42
0.0000001
 43
0.0000001
 44
0.0000000001
 40
0.0
 40
0.0
 40
0.0
 40
0.0
 40
0.0637226493
 40
0.1311020586
 40
0.2014316787
 40
0.2738380968
 40
0.347360548
 40
0.4209891309
 40
0.4937084711
 40
0.5645430489
 40
0.6326001001
 40
0.6971185203
 40
0.7575242649
 40
0.8134963486
 40
0.8650451773
 40
0.912598588
 40
0.9351779182
 40
0.9571425073
 40
0.9786807153
 40
1.0
 40
1.0
 40
1.0
 40
1.0
 10
31.2007358946
 20
82.2980778237
 30
0.0
 10
31.9041853658
 20
81.8514986739
 30
0.0
 10
33.2963344747
 20
80.8439102072
 30
0.0
 10
35.260574128
 20
79.0831910359
 30
0.0
 10
37.1271657312
 20
77.0619163583
 30
0.0
 10
38.8578715811
 20
74.8212781271
 30
0.0
 10
40.4174828436
 20
72.4069821407
 30
0.0
 10
41.7741022579
 20
69.8684373573
 30
0.0
 10
42.899961834
 20
67.2575588423
 30
0.0
 10
43.7720576514
 20
64.6276838965
 30
0.0
 10
44.3725703255
 20
62.0323227433
 30
0.0
 10
44.6891189995
 20
59.5239332898
 30
0.0
 10
44.7148499953
 20
57.1527934354
 30
0.0
 10
44.4477981542
 20
54.9656617204
 30
0.0
 10
43.8911552352
 20
53.0062673711
 30
0.0
 10
43.17745427
 20
51.570906915
 30
0.0
 10
42.4709939849
 20
50.5928518362
 30
0.0
 10
41.8868224561
 20
49.95336119
 30
0.0
 10
41.2427504012
 20
49.399280166
 30
0.0
 10
40.7744900648
 20
49.0882822318
 30
0.0
 10
40.5330598207
 20
48.9489139289
 30
0.0
  0
SPLINE
  5
2C0
100
AcDbEntity
  8
0
100
AcDbSpline
 62
7
  6
CONTINUOUS
 70
0
 71
3
 72
17
 73
13
 74
0
 42
0.0000001
 43
0.0000001
 44
0.0000000001
 40
0.0
 40
0.0
 40
0.0
 40
0.0
 40
0.0428583278
 40
0.0874873347
 40
0.1353191304
 40
0.1872845603
 40
0.3045449909
 40
0.4382122314
 40
0.5825557447
 40
0.7297161878
 40
0.8713055151
 40
1.0
 40
1.0
 40
1.0
 40
1.0
 10
74.1790794811
 20
46.6757607981
 30
0.0
 10
74.0752541244
 20
46.6158410386
 30
0.0
 10
73.8464276937
 20
46.5206708642
 30
0.0
 10
73.4686581809
 20
46.4653995181
 30
0.0
 10
73.0629723135
 20
46.4951394883
 30
0.0
 10
72.4735452948
 20
46.6520300391
 30
0.0
 10
71.7199997885
 20
47.0639625895
 30
0.0
 10
70.8874936227
 20
47.801279665
 30
0.0
 10
70.1515881905
 20
48.7432199262
 30
0.0
 10
69.5724385408
 20
49.8137232472
 30
0.0
 10
69.1965433788
 20
50.9249852596
 30
0.0
 10
69.0958500806
 20
51.6818380573
 30
0.0
 10
69.0958500806
 20
52.0417981383
 30
0.0
  0
SPLINE
  5
2C1
100
AcDbEntity
  8
0
100
AcDbSpline
 62
7
  6
CONTINUOUS
 70
0
 71
3
 72
14
 73
10
 74
0
 42
0.0000001
 43
0.0000001
 44
0.0000000001
 40
0.0
 40
0.0
 40
0.0
 40
0.0
 40
0.2904625232
 40
0.4240133224
 40
0.5500247186
 40
0.6692703372
 40
0.7829013765
 40
0.8925021444
 40
1.0
 40
1.0
 40
1.0
 40
1.0
 10
69.8105833723
 20
128.6952313565
 30
0.0
 10
69.1527423246
 20
128.3154289177
 30
0.0
 10
68.2313327251
 20
127.6829297853
 30
0.0
 10
67.1874015593
 20
126.6898529713
 30
0.0
 10
66.5524461184
 20
125.9260532871
 30
0.0
 10
66.0503596467
 20
125.1295754902
 30
0.0
 10
65.6868849092
 20
124.3071136162
 30
0.0
 10
65.466559885
 20
123.4668536212
 30
0.0
 10
65.4172707016
 20
122.8979330582
 30
0.0
 10
65.4172694608
 20
122.6168081126
 30
0.0
  0
SPLINE
  5
2C2
100
AcDbEntity
  8
0
100
AcDbSpline
 62
7
  6
CONTINUOUS
 70
0
 71
3
 72
11
 73
7
 74
0
 42
0.0000001
 43
0.0000001
 44
0.0000000001
 40
0.0
 40
0.0
 40
0.0
 40
0.0
 40
0.2495290227
 40
0.4370496197
 40
0.6248847566
 40
1.0
 40
1.0
 40
1.0
 40
1.0
 10
77.5396249966
 20
87.9715195636
 30
0.0
 10
77.538672353
 20
87.7731606776
 30
0.0
 10
77.5359697388
 20
87.4257408589
 30
0.0
 10
77.5348851705
 20
86.9289925626
 30
0.0
 10
77.5362042122
 20
86.3324115053
 30
0.0
 10
77.5338096874
 20
85.8849002686
 30
0.0
 10
77.5337811524
 20
85.5867052981
 30
0.0
  0
SPLINE
  5
2C3
100
AcDbEntity
  8
0
100
AcDbSpline
 62
7
  6
CONTINUOUS
 70
0
 71
3
 72
11
 73
7
 74
0
 42
0.0000001
 43
0.0000001
 44
0.0000000001
 40
0.0
 40
0.0
 40
0.0
 40
0.0
 40
0.2499603955
 40
0.4372747656
 40
0.6244748756
 40
1.0
 40
1.0
 40
1.0
 40
1.0
 10
77.5337885934
 20
47.1294371547
 30
0.0
 10
77.5337965469
 20
46.930183421
 30
0.0
 10
77.5352896027
 20
46.5816153967
 30
0.0
 10
77.5355975221
 20
46.0838207699
 30
0.0
 10
77.5344810441
 20
45.4859315407
 30
0.0
 10
77.5381927717
 20
45.0373687687
 30
0.0
 10
77.5396390856
 20
44.7380257081
 30
0.0
  0
SPLINE
  5
2C4
100
AcDbEntity
  8
0
100
AcDbSpline
 62
7
  6
CONTINUOUS
 70
0
 71
3
 72
14
 73
10
 74
0
 42
0.0000001
 43
0.0000001
 44
0.0000000001
 40
0.0
 40
0.0
 40
0.0
 40
0.0
 40
0.1080451621
 40
0.2181270794
 40
0.3321043539
 40
0.4514994152
 40
0.5774453499
 40
0.7107197098
 40
1.0
 40
1.0
 40
1.0
 40
1.0
 10
56.1467670396
 20
64.7628740645
 30
0.0
 10
56.3804113518
 20
64.897738516
 30
0.0
 10
56.8295806486
 20
65.2112072299
 30
0.0
 10
57.4231522166
 20
65.7952890691
 30
0.0
 10
57.9335443331
 20
66.488626738
 30
0.0
 10
58.3562493577
 20
67.2831852854
 30
0.0
 10
58.6878446795
 20
68.1711637293
 30
0.0
 10
59.0138138127
 20
69.5037432862
 30
0.0
 10
59.0981324606
 20
70.5639950488
 30
0.0
 10
59.0981324606
 20
71.2862887553
 30
0.0
  0
SPLINE
  5
2C5
100
AcDbEntity
  8
0
100
AcDbSpline
 62
7
  6
CONTINUOUS
 70
0
 71
3
 72
20
 73
16
 74
0
 42
0.0000001
 43
0.0000001
 44
0.0000000001
 40
0.0
 40
0.0
 40
0.0
 40
0.0
 40
0.1381652863
 40
0.2627131748
 40
0.320928272
 40
0.3771634907
 40
0.4322004282
 40
0.4869101459
 40
0.5421899316
 40
0.5988933587
 40
0.6577670459
 40
0.7194100201
 40
0.7842548572
 40
0.8525945959
 40
1.0
 40
1.0
 40
1.0
 40
1.0
 10
14.9648592101
 20
74.9653758901
 30
0.0
 10
15.0562165465
 20
75.8194647901
 30
0.0
 10
15.3658300455
 20
77.4345763148
 30
0.0
 10
16.1652037314
 20
79.2861814145
 30
0.0
 10
17.0214193262
 20
80.5060921985
 30
0.0
 10
17.7477461961
 20
81.2749255429
 30
0.0
 10
18.5660905678
 20
81.9103966286
 30
0.0
 10
19.4693209895
 20
82.4059871755
 30
0.0
 10
20.4486622225
 20
82.7573684216
 30
0.0
 10
21.4949688284
 20
82.9615350438
 30
0.0
 10
22.5987153975
 20
83.0175996801
 30
0.0
 10
23.7503731142
 20
82.9259145807
 30
0.0
 10
24.9406669664
 20
82.6879917744
 30
0.0
 10
26.6076803467
 20
82.1659958895
 30
0.0
 10
27.82388097
 20
81.5791022308
 30
0.0
 10
28.6175163157
 20
81.1209070161
 30
0.0
  0
SPLINE
  5
2C6
100
AcDbEntity
  8
0
100
AcDbSpline
 62
7
  6
CONTINUOUS
 70
0
 71
3
 72
20
 73
16
 74
0
 42
0.0000001
 43
0.0000001
 44
0.0000000001
 40
0.0
 40
0.0
 40
0.0
 40
0.0
 40
0.0457905951
 40
0.0949925195
 40
0.1479467937
 40
0.2047071929
 40
0.2650892989
 40
0.3287244178
 40
0.4634830888
 40
0.6038842669
 40
0.7438942746
 40
0.8119154717
 40
0.8776462731
 40
0.940519199
 40
1.0
 40
1.0
 40
1.0
 40
1.0
 10
49.5452106001
 20
92.2556482987
 30
0.0
 10
49.9201585902
 20
92.2647191723
 30
0.0
 10
50.7009686139
 20
92.2076215412
 30
0.0
 10
51.8830884626
 20
91.9222328716
 30
0.0
 10
53.0965328499
 20
91.4408341937
 30
0.0
 10
54.3220291833
 20
90.7719104637
 30
0.0
 10
55.5408653837
 20
89.9266397633
 30
0.0
 10
57.1616510372
 20
88.5567527705
 30
0.0
 10
59.03720867
 20
86.4932069462
 30
0.0
 10
60.9268959228
 20
83.652634346
 30
0.0
 10
62.1518944209
 20
81.0618881936
 30
0.0
 10
62.8693314216
 20
78.935355693
 30
0.0
 10
63.2579784552
 20
77.3703364472
 30
0.0
 10
63.495686269
 20
75.8461839696
 30
0.0
 10
63.5528825135
 20
74.8434714103
 30
0.0
 10
63.5528825135
 20
74.356281143
 30
0.0
  0
SPLINE
  5
2C7
100
AcDbEntity
  8
0
100
AcDbSpline
 62
7
  6
CONTINUOUS
 70
0
 71
3
 72
11
 73
7
 74
0
 42
0.0000001
 43
0.0000001
 44
0.0000000001
 40
0.0
 40
0.0
 40
0.0
 40
0.0
 40
0.2737720714
 40
0.528449384
 40
0.7682468398
 40
1.0
 40
1.0
 40
1.0
 40
1.0
 10
32.7830685304
 20
117.3688152449
 30
0.0
 10
32.6516067826
 20
117.406150096
 30
0.0
 10
32.3918939216
 20
117.4596261361
 30
0.0
 10
32.0062654365
 20
117.4697745678
 30
0.0
 10
31.6467766974
 20
117.4052391729
 30
0.0
 10
31.4281712093
 20
117.3114096098
 30
0.0
 10
31.327974163
 20
117.2535847305
 30
0.0
  0
SPLINE
  5
2C8
100
AcDbEntity
  8
0
100
AcDbSpline
 62
7
  6
CONTINUOUS
 70
0
 71
3
 72
9
 73
5
 74
0
 42
0.0000001
 43
0.0000001
 44
0.0000000001
 40
0.0
 40
0.0
 40
0.0
 40
0.0
 40
0.2515992484
 40
1.0
 40
1.0
 40
1.0
 40
1.0
 10
35.8341812539
 20
116.4497443057
 30
0.0
 10
35.5795851364
 20
116.5310046238
 30
0.0
 10
34.566367429
 20
116.8498697934
 30
0.0
 10
33.547953579
 20
117.1522437724
 30
0.0
 10
32.7830685304
 20
117.3688152449
 30
0.0
  0
SPLINE
  5
2C9
100
AcDbEntity
  8
0
100
AcDbSpline
 62
7
  6
CONTINUOUS
 70
0
 71
3
 72
9
 73
5
 74
0
 42
0.0000001
 43
0.0000001
 44
0.0000000001
 40
0.0
 40
0.0
 40
0.0
 40
0.0
 40
0.50046347
 40
1.0
 40
1.0
 40
1.0
 40
1.0
 10
39.8433543451
 20
115.0794728784
 30
0.0
 10
39.4516549778
 20
115.2165381156
 30
0.0
 10
38.6697059128
 20
115.4924786971
 30
0.0
 10
37.886385028
 20
115.7645146895
 30
0.0
 10
37.4946750923
 20
115.8992041438
 30
0.0
  0
SPLINE
  5
2CA
100
AcDbEntity
  8
0
100
AcDbSpline
 62
7
  6
CONTINUOUS
 70
0
 71
3
 72
9
 73
5
 74
0
 42
0.0000001
 43
0.0000001
 44
0.0000000001
 40
0.0
 40
0.0
 40
0.0
 40
0.0
 40
0.2582270673
 40
1.0
 40
1.0
 40
1.0
 40
1.0
 10
41.9506804257
 20
114.2159786589
 30
0.0
 10
41.8652747828
 20
114.2633823074
 30
0.0
 10
41.5313753045
 20
114.4411422594
 30
0.0
 10
41.1844808178
 20
114.5949636734
 30
0.0
 10
40.9211453715
 20
114.6918393823
 30
0.0
  0
SPLINE
  5
2CB
100
AcDbEntity
  8
0
100
AcDbSpline
 62
7
  6
CONTINUOUS
 70
0
 71
3
 72
11
 73
7
 74
0
 42
0.0000001
 43
0.0000001
 44
0.0000000001
 40
0.0
 40
0.0
 40
0.0
 40
0.0
 40
0.2515817267
 40
0.5020649116
 40
0.7515867181
 40
1.0
 40
1.0
 40
1.0
 40
1.0
 10
65.9924226021
 20
100.3357870358
 30
0.0
 10
63.9947147802
 20
101.5313189513
 30
0.0
 10
59.9951192278
 20
103.8956115355
 30
0.0
 10
53.9829798335
 20
107.3925435616
 30
0.0
 10
47.9738906193
 20
110.8361158825
 30
0.0
 10
43.9596217147
 20
113.0985610202
 30
0.0
 10
41.9506804111
 20
114.2159795933
 30
0.0
  0
SPLINE
  5
2CC
100
AcDbEntity
  8
0
100
AcDbSpline
 62
7
  6
CONTINUOUS
 70
0
 71
3
 72
9
 73
5
 74
0
 42
0.0000001
 43
0.0000001
 44
0.0000000001
 40
0.0
 40
0.0
 40
0.0
 40
0.0
 40
0.2566739149
 40
1.0
 40
1.0
 40
1.0
 40
1.0
 10
67.021946578
 20
99.6228787158
 30
0.0
 10
66.9377121663
 20
99.6891521764
 30
0.0
 10
66.6057897125
 20
99.9425278721
 30
0.0
 10
66.2586234262
 20
100.1761589171
 30
0.0
 10
65.9924226036
 20
100.3357871303
 30
0.0
  0
SPLINE
  5
2CD
100
AcDbEntity
  8
0
100
AcDbSpline
 62
7
  6
CONTINUOUS
 70
0
 71
3
 72
9
 73
5
 74
0
 42
0.0000001
 43
0.0000001
 44
0.0000000001
 40
0.0
 40
0.0
 40
0.0
 40
0.0
 40
0.5003149847
 40
1.0
 40
1.0
 40
1.0
 40
1.0
 10
70.4484163831
 20
96.8737831513
 30
0.0
 10
70.0577113392
 20
97.1905763474
 30
0.0
 10
69.2754838945
 20
97.8221506735
 30
0.0
 10
68.4911106351
 20
98.4510539676
 30
0.0
 10
68.0997371302
 20
98.7660117309
 30
0.0
  0
SPLINE
  5
2CE
100
AcDbEntity
  8
0
100
AcDbSpline
 62
7
  6
CONTINUOUS
 70
0
 71
3
 72
12
 73
8
 74
0
 42
0.0000001
 43
0.0000001
 44
0.0000000001
 40
0.0
 40
0.0
 40
0.0
 40
0.0
 40
0.1116444975
 40
0.2312001843
 40
0.4864292001
 40
0.7489988221
 40
1.0
 40
1.0
 40
1.0
 40
1.0
 10
77.5396249966
 20
87.9715195636
 30
0.0
 10
77.5408567823
 20
88.1806294049
 30
0.0
 10
77.5106248283
 20
88.6142066638
 30
0.0
 10
77.3366805489
 20
89.5101863062
 30
0.0
 10
76.9163708488
 20
90.637522394
 30
0.0
 10
76.1659181725
 20
91.8748930984
 30
0.0
 10
75.514594205
 20
92.5943055576
 30
0.0
 10
75.1600247654
 20
92.9030210442
 30
0.0
  0
SPLINE
  5
2CF
100
AcDbEntity
  8
0
100
AcDbSpline
 62
7
  6
CONTINUOUS
 70
0
 71
3
 72
23
 73
19
 74
0
 42
0.0000001
 43
0.0000001
 44
0.0000000001
 40
0.0
 40
0.0
 40
0.0
 40
0.0
 40
0.0428150798
 40
0.0873978797
 40
0.1351815979
 40
0.1870911057
 40
0.2435374008
 40
0.3044945048
 40
0.3695924341
 40
0.4382002688
 40
0.5094973367
 40
0.5825328719
 40
0.6562759342
 40
0.7296631189
 40
0.8016520897
 40
0.8712512229
 40
0.9376126968
 40
1.0
 40
1.0
 40
1.0
 40
1.0
 10
42.2718681601
 20
88.7950464413
 30
0.0
 10
42.6047197458
 20
88.9871755318
 30
0.0
 10
43.3383563017
 20
89.2921965736
 30
0.0
 10
44.549475933
 20
89.4696404753
 30
0.0
 10
45.8499867796
 20
89.3738777047
 30
0.0
 10
47.2110496966
 20
89.0122443489
 30
0.0
 10
48.6059378326
 20
88.3957788351
 30
0.0
 10
50.0068914436
 20
87.538700249
 30
0.0
 10
51.3854342367
 20
86.4594413713
 30
0.0
 10
52.7129541233
 20
85.1808995616
 30
0.0
 10
53.9615314868
 20
83.7301901787
 30
0.0
 10
55.1046742269
 20
82.1381425267
 30
0.0
 10
56.1180211861
 20
80.4386903677
 30
0.0
 10
56.9799588386
 20
78.668052974
 30
0.0
 10
57.6720161605
 20
76.8640438704
 30
0.0
 10
58.1797370388
 20
75.0648160712
 30
0.0
 10
58.4918615024
 20
73.3089357077
 30
0.0
 10
58.5678001667
 20
72.1524786207
 30
0.0
 10
58.5678001667
 20
71.5924693212
 30
0.0
  0
SPLINE
  5
2D0
100
AcDbEntity
  8
0
100
AcDbSpline
 62
7
  6
CONTINUOUS
 70
0
 71
3
 72
11
 73
7
 74
0
 42
0.0000001
 43
0.0000001
 44
0.0000000001
 40
0.0
 40
0.0
 40
0.0
 40
0.0
 40
0.2897462303
 40
0.5490787573
 40
0.782221602
 40
1.0
 40
1.0
 40
1.0
 40
1.0
 10
69.0958500806
 20
52.0417981383
 30
0.0
 10
69.0958500806
 20
52.2551988619
 30
0.0
 10
69.1281517097
 20
52.6609801662
 30
0.0
 10
69.2925460892
 20
53.2184962879
 30
0.0
 10
69.5692239235
 20
53.6708530218
 30
0.0
 10
69.8291093072
 20
53.8893821754
 30
0.0
 10
69.9680299219
 20
53.9695561339
 30
0.0
  0
SPLINE
  5
2D1
100
AcDbEntity
  8
0
100
AcDbSpline
 62
7
  6
CONTINUOUS
 70
0
 71
3
 72
13
 73
9
 74
0
 42
0.0000001
 43
0.0000001
 44
0.0000000001
 40
0.0
 40
0.0
 40
0.0
 40
0.0
 40
0.108111564
 40
0.2182619566
 40
0.4511606323
 40
0.5771832036
 40
0.7105499987
 40
1.0
 40
1.0
 40
1.0
 40
1.0
 10
21.9679184208
 20
73.0616479802
 30
0.0
 10
22.1333406417
 20
73.1571555012
 30
0.0
 10
22.4846481292
 20
73.3215533534
 30
0.0
 10
23.2557868622
 20
73.5351534429
 30
0.0
 10
24.0983552641
 20
73.5576441624
 30
0.0
 10
24.9572750515
 20
73.4131507616
 30
0.0
 10
25.8901346348
 20
73.141320918
 30
0.0
 10
26.5699968434
 20
72.8176570112
 30
0.0
 10
27.0128898241
 20
72.5619584143
 30
0.0
  0
SPLINE
  5
2D2
100
AcDbEntity
  8
0
100
AcDbSpline
 62
7
  6
CONTINUOUS
 70
0
 71
3
 72
11
 73
7
 74
0
 42
0.0000001
 43
0.0000001
 44
0.0000000001
 40
0.0
 40
0.0
 40
0.0
 40
0.0
 40
0.2897462303
 40
0.5490787573
 40
0.782221602
 40
1.0
 40
1.0
 40
1.0
 40
1.0
 10
32.891832153
 20
111.3193383749
 30
0.0
 10
32.891832153
 20
111.5327390985
 30
0.0
 10
32.9241337822
 20
111.9385204028
 30
0.0
 10
33.0885281617
 20
112.4960365244
 30
0.0
 10
33.365205996
 20
112.9483932583
 30
0.0
 10
33.6250913797
 20
113.1669224119
 30
0.0
 10
33.7640119944
 20
113.2470963704
 30
0.0
  0
SPLINE
  5
2D3
100
AcDbEntity
  8
0
100
AcDbSpline
 62
7
  6
CONTINUOUS
 70
0
 71
3
 72
9
 73
5
 74
0
 42
0.0000001
 43
0.0000001
 44
0.0000000001
 40
0.0
 40
0.0
 40
0.0
 40
0.0
 40
0.253628493
 40
1.0
 40
1.0
 40
1.0
 40
1.0
 10
63.5528825135
 20
74.356281143
 30
0.0
 10
63.5528825135
 20
74.2852367322
 30
0.0
 10
63.5505323627
 20
74.0051314023
 30
0.0
 10
63.5386756224
 20
73.7250912985
 30
0.0
 10
63.5240753321
 20
73.5165340358
 30
0.0
  0
SPLINE
  5
2D4
100
AcDbEntity
  8
0
100
AcDbSpline
 62
7
  6
CONTINUOUS
 70
0
 71
3
 72
9
 73
5
 74
0
 42
0.0000001
 43
0.0000001
 44
0.0000000001
 40
0.0
 40
0.0
 40
0.0
 40
0.0
 40
0.2702728258
 40
1.0
 40
1.0
 40
1.0
 40
1.0
 10
63.5240753321
 20
73.5165340358
 30
0.0
 10
63.502426088
 20
73.2072862757
 30
0.0
 10
63.3762333139
 20
72.0682469488
 30
0.0
 10
63.0457342611
 20
70.9409632791
 30
0.0
 10
62.6558770559
 20
70.2002993176
 30
0.0
  0
SPLINE
  5
2D5
100
AcDbEntity
  8
0
100
AcDbSpline
 62
7
  6
CONTINUOUS
 70
0
 71
3
 72
12
 73
8
 74
0
 42
0.0000001
 43
0.0000001
 44
0.0000000001
 40
0.0
 40
0.0
 40
0.0
 40
0.0
 40
0.1079672083
 40
0.2180135182
 40
0.450875115
 40
0.7101419172
 40
1.0
 40
1.0
 40
1.0
 40
1.0
 10
76.6151173127
 20
42.6692724381
 30
0.0
 10
76.6889597121
 20
42.7118877446
 30
0.0
 10
76.8309213082
 20
42.8110577037
 30
0.0
 10
77.0851436921
 20
43.062397384
 30
0.0
 10
77.3358716731
 20
43.4755347403
 30
0.0
 10
77.5082533776
 20
44.0738142942
 30
0.0
 10
77.5409782438
 20
44.5091411977
 30
0.0
 10
77.5396390856
 20
44.7380257081
 30
0.0
  0
SPLINE
  5
2D6
100
AcDbEntity
  8
0
100
AcDbSpline
 62
7
  6
CONTINUOUS
 70
0
 71
3
 72
22
 73
18
 74
0
 42
0.0000001
 43
0.0000001
 44
0.0000000001
 40
0.0
 40
0.0
 40
0.0
 40
0.0
 40
0.0428204697
 40
0.0874086598
 40
0.1351976926
 40
0.1871137587
 40
0.2435687616
 40
0.3045348496
 40
0.3696413476
 40
0.4382587495
 40
0.509566653
 40
0.5826124338
 40
0.7296303972
 40
0.8016291638
 40
0.8712349083
 40
0.937608729
 40
1.0
 40
1.0
 40
1.0
 40
1.0
 10
31.899705742
 20
55.4939256235
 30
0.0
 10
32.148466437
 20
55.6375501495
 30
0.0
 10
32.6200114552
 20
55.9984986537
 30
0.0
 10
33.1874725787
 20
56.7160823063
 30
0.0
 10
33.6115330483
 20
57.5936324454
 30
0.0
 10
33.8861291593
 20
58.609754437
 30
0.0
 10
34.0083461955
 20
59.7430306603
 30
0.0
 10
33.9771001446
 20
60.9701412666
 30
0.0
 10
33.7937152753
 20
62.2657865539
 30
0.0
 10
33.462283962
 20
63.6028487204
 30
0.0
 10
32.9898185572
 20
64.9533007915
 30
0.0
 10
32.183966456
 20
66.7359408353
 30
0.0
 10
31.1520714453
 20
68.4148385416
 30
0.0
 10
29.9321997597
 20
69.9208027482
 30
0.0
 10
28.9572365713
 20
70.9218950894
 30
0.0
 10
27.9373492792
 20
71.7800424005
 30
0.0
 10
27.2171869981
 20
72.2613835
 30
0.0
 10
26.8547283276
 20
72.4706443769
 30
0.0
  0
SPLINE
  5
2D7
100
AcDbEntity
  8
0
100
AcDbSpline
 62
7
  6
CONTINUOUS
 70
0
 71
3
 72
23
 73
19
 74
0
 42
0.0000001
 43
0.0000001
 44
0.0000000001
 40
0.0
 40
0.0
 40
0.0
 40
0.0
 40
0.0430674301
 40
0.0885888321
 40
0.1376592178
 40
0.1909033857
 40
0.2485143495
 40
0.3103309164
 40
0.3759161108
 40
0.4446246758
 40
0.5156595131
 40
0.5881200842
 40
0.661046098
 40
0.7334578981
 40
0.8043989849
 40
0.8729681448
 40
0.9383863957
 40
1.0
 40
1.0
 40
1.0
 40
1.0
 10
40.6304463594
 20
49.0822757546
 30
0.0
 10
41.0723728051
 20
49.4283757755
 30
0.0
 10
41.8950988948
 20
50.2566485277
 30
0.0
 10
42.8478216236
 20
51.7918543995
 30
0.0
 10
43.5296444255
 20
53.6053920229
 30
0.0
 10
43.9316248743
 20
55.6588510115
 30
0.0
 10
44.0498253964
 20
57.912654326
 30
0.0
 10
43.8836207556
 20
60.3234543983
 30
0.0
 10
43.4370682954
 20
62.8445512988
 30
0.0
 10
42.7192435594
 20
65.4265592383
 30
0.0
 10
41.7444396619
 20
68.0185049868
 30
0.0
 10
40.532027679
 20
70.5689664421
 30
0.0
 10
39.1061334344
 20
73.0272064591
 30
0.0
 10
37.4951543121
 20
75.3443448988
 30
0.0
 10
35.7311199908
 20
77.474178127
 30
0.0
 10
33.8489183424
 20
79.3747197902
 30
0.0
 10
31.8860073937
 20
81.0077672366
 30
0.0
 10
30.5036756257
 20
81.9269653446
 30
0.0
 10
29.8082125703
 20
82.3284820434
 30
0.0
  0
SPLINE
  5
2D8
100
AcDbEntity
  8
0
100
AcDbSpline
 62
7
  6
CONTINUOUS
 70
0
 71
3
 72
17
 73
13
 74
0
 42
0.0000001
 43
0.0000001
 44
0.0000000001
 40
0.0
 40
0.0
 40
0.0
 40
0.0
 40
0.0428583278
 40
0.0874873347
 40
0.1353191304
 40
0.1872845603
 40
0.3045449909
 40
0.4382122314
 40
0.5825557447
 40
0.7297161878
 40
0.8713055151
 40
1.0
 40
1.0
 40
1.0
 40
1.0
 10
37.9750615536
 20
105.9533010347
 30
0.0
 10
37.8712361969
 20
105.8933812751
 30
0.0
 10
37.6424097661
 20
105.7982111007
 30
0.0
 10
37.2646402534
 20
105.7429397546
 30
0.0
 10
36.8589543859
 20
105.7726797248
 30
0.0
 10
36.2695273673
 20
105.9295702757
 30
0.0
 10
35.515981861
 20
106.341502826
 30
0.0
 10
34.6834756951
 20
107.0788199015
 30
0.0
 10
33.9475702629
 20
108.0207601627
 30
0.0
 10
33.3684206133
 20
109.0912634837
 30
0.0
 10
32.9925254513
 20
110.2025254961
 30
0.0
 10
32.891832153
 20
110.9593782938
 30
0.0
 10
32.891832153
 20
111.3193383749
 30
0.0
  0
SPLINE
  5
2D9
100
AcDbEntity
  8
0
100
AcDbSpline
 62
7
  6
CONTINUOUS
 70
0
 71
3
 72
11
 73
7
 74
0
 42
0.0000001
 43
0.0000001
 44
0.0000000001
 40
0.0
 40
0.0
 40
0.0
 40
0.0
 40
0.2831318977
 40
0.5426370946
 40
0.7800702308
 40
1.0
 40
1.0
 40
1.0
 40
1.0
 10
69.8105833723
 20
127.195672759
 30
0.0
 10
69.2820274588
 20
126.8905126816
 30
0.0
 10
68.3046330499
 20
126.2393633708
 30
0.0
 10
67.0633051727
 20
125.092827815
 30
0.0
 10
66.1394862109
 20
123.8411482879
 30
0.0
 10
65.7430862833
 20
122.9257811443
 30
0.0
 10
65.6138817652
 20
122.4696436725
 30
0.0
  0
SPLINE
  5
2DA
100
AcDbEntity
  8
0
100
AcDbSpline
 62
7
  6
CONTINUOUS
 70
0
 71
3
 72
23
 73
19
 74
0
 42
0.0000001
 43
0.0000001
 44
0.0000000001
 40
0.0
 40
0.0
 40
0.0
 40
0.0
 40
0.0623867004
 40
0.128747064
 40
0.1983458562
 40
0.2703346678
 40
0.3437222438
 40
0.417466372
 40
0.490503135
 40
0.561801351
 40
0.6304100764
 40
0.6955084163
 40
0.756465486
 40
0.8129114103
 40
0.86482028
 40
0.9126032147
 40
0.9571853256
 40
1.0
 40
1.0
 40
1.0
 40
1.0
 10
59.0981324606
 20
71.2862887553
 30
0.0
 10
59.0981324606
 20
71.8774039851
 30
0.0
 10
59.0179800517
 20
73.0980927345
 30
0.0
 10
58.688518528
 20
74.9515028373
 30
0.0
 10
58.1526015676
 20
76.8506747901
 30
0.0
 10
57.4221006363
 20
78.7549071695
 30
0.0
 10
56.5122777198
 20
80.6239271057
 30
0.0
 10
55.4426231113
 20
82.4178168347
 30
0.0
 10
54.2359525833
 20
84.0983376888
 30
0.0
 10
52.9179872987
 20
85.6296636528
 30
0.0
 10
51.516696544
 20
86.9792488003
 30
0.0
 10
50.0615527169
 20
88.1184667947
 30
0.0
 10
48.5827625347
 20
89.0231515761
 30
0.0
 10
47.1103857291
 20
89.6738522196
 30
0.0
 10
45.6737221102
 20
90.0555628352
 30
0.0
 10
44.3009799845
 20
90.1566336969
 30
0.0
 10
43.0225950209
 20
89.9693285482
 30
0.0
 10
42.2482107817
 20
89.6473658866
 30
0.0
 10
41.8968707149
 20
89.4445649498
 30
0.0
  0
SPLINE
  5
2DB
100
AcDbEntity
  8
0
100
AcDbSpline
 62
7
  6
CONTINUOUS
 70
0
 71
3
 72
14
 73
10
 74
0
 42
0.0000001
 43
0.0000001
 44
0.0000000001
 40
0.0
 40
0.0
 40
0.0
 40
0.0
 40
0.2892777133
 40
0.4225506197
 40
0.5484966386
 40
0.6678924902
 40
0.7818703565
 40
0.8919534154
 40
1.0
 40
1.0
 40
1.0
 40
1.0
 10
58.5678001667
 20
71.5924693212
 30
0.0
 10
58.5678001667
 20
70.9081970857
 30
0.0
 10
58.4879210144
 20
69.903757803
 30
0.0
 10
58.1791148665
 20
68.641321576
 30
0.0
 10
57.8649722287
 20
67.8000805139
 30
0.0
 10
57.4645228166
 20
67.0473321844
 30
0.0
 10
56.9809864355
 20
66.3904836471
 30
0.0
 10
56.4186561442
 20
65.8371314362
 30
0.0
 10
55.9931197505
 20
65.5401606414
 30
0.0
 10
55.7717695944
 20
65.412392573
 30
0.0
  0
SPLINE
  5
2DC
100
AcDbEntity
  8
0
100
AcDbSpline
 62
7
  6
CONTINUOUS
 70
0
 71
3
 72
13
 73
9
 74
0
 42
0.0000001
 43
0.0000001
 44
0.0000000001
 40
0.0
 40
0.0
 40
0.0
 40
0.0
 40
0.2894486263
 40
0.422813128
 40
0.5488344714
 40
0.7817331907
 40
0.8918857989
 40
1.0
 40
1.0
 40
1.0
 40
1.0
 10
26.8547283276
 20
72.4706443769
 30
0.0
 10
26.4118369657
 20
72.7263420392
 30
0.0
 10
25.7319808435
 20
73.0500050657
 30
0.0
 10
24.7991291451
 20
73.3218352914
 30
0.0
 10
23.9402156448
 20
73.4663310223
 30
0.0
 10
23.0976429606
 20
73.4438551345
 30
0.0
 10
22.3264962934
 20
73.2302489709
 30
0.0
 10
21.9751770532
 20
73.0658548227
 30
0.0
 10
21.8097509132
 20
72.9703443526
 30
0.0
  0
SPLINE
  5
2DD
100
AcDbEntity
  8
0
100
AcDbSpline
 62
7
  6
CONTINUOUS
 70
0
 71
3
 72
12
 73
8
 74
0
 42
0.0000001
 43
0.0000001
 44
0.0000000001
 40
0.0
 40
0.0
 40
0.0
 40
0.0
 40
0.2888871151
 40
0.5481144924
 40
0.7816814125
 40
0.8920009623
 40
1.0
 40
1.0
 40
1.0
 40
1.0
 10
26.6802719853
 20
72.1991378316
 30
0.0
 10
26.2568945417
 20
72.4435696177
 30
0.0
 10
25.414643719
 20
72.8461050639
 30
0.0
 10
24.1214464304
 20
73.1697560007
 30
0.0
 10
23.0856208072
 20
73.160541234
 30
0.0
 10
22.3407352449
 20
72.9754404531
 30
0.0
 10
21.9994439337
 20
72.8288057614
 30
0.0
 10
21.8381352901
 20
72.7428897914
 30
0.0
  0
SPLINE
  5
2DE
100
AcDbEntity
  8
0
100
AcDbSpline
 62
7
  6
CONTINUOUS
 70
0
 71
3
 72
21
 73
17
 74
0
 42
0.0000001
 43
0.0000001
 44
0.0000000001
 40
0.0
 40
0.0
 40
0.0
 40
0.0
 40
0.0428328086
 40
0.0875174591
 40
0.1354515287
 40
0.1875263967
 40
0.2441223998
 40
0.3051959293
 40
0.3703691533
 40
0.4390078877
 40
0.5831396251
 40
0.7299801415
 40
0.8018824712
 40
0.8713925856
 40
0.937682039
 40
1.0
 40
1.0
 40
1.0
 40
1.0
 10
21.6945476124
 20
72.6617275806
 30
0.0
 10
21.4538284827
 20
72.5175736435
 30
0.0
 10
20.9984161259
 20
72.1575783939
 30
0.0
 10
20.4526808262
 20
71.4483870039
 30
0.0
 10
20.0466543843
 20
70.5848449649
 30
0.0
 10
19.7859832349
 20
69.5876925518
 30
0.0
 10
19.6734528613
 20
68.4777023487
 30
0.0
 10
19.7100296155
 20
67.2775738197
 30
0.0
 10
19.8942969468
 20
66.0117927977
 30
0.0
 10
20.3388185465
 20
64.2435394838
 30
0.0
 10
21.2318131918
 20
62.049654444
 30
0.0
 10
22.4858692115
 20
60.0164351706
 30
0.0
 10
23.6774295607
 20
58.5489003814
 30
0.0
 10
24.6290921218
 20
57.573533576
 30
0.0
 10
25.624268692
 20
56.7372147686
 30
0.0
 10
26.3267398557
 20
56.2679037484
 30
0.0
 10
26.6802719853
 20
56.0637962493
 30
0.0
  0
SPLINE
  5
2DF
100
AcDbEntity
  8
0
100
AcDbSpline
 62
7
  6
CONTINUOUS
 70
0
 71
3
 72
28
 73
24
 74
0
 42
0.0000001
 43
0.0000001
 44
0.0000000001
 40
0.0
 40
0.0
 40
0.0
 40
0.0
 40
0.0664075653
 40
0.1379168405
 40
0.2131841074
 40
0.2905472717
 40
0.3681932739
 40
0.444286854
 40
0.517107436
 40
0.5851926646
 40
0.6475053573
 40
0.676374565
 40
0.7037169851
 40
0.7296245014
 40
0.7542581081
 40
0.7778557452
 40
0.8007254046
 40
0.8232323378
 40
0.8457724954
 40
0.8687387168
 40
0.8924884327
 40
0.9433504655
 40
1.0
 40
1.0
 40
1.0
 40
1.0
 10
28.6175163157
 20
81.1209070161
 30
0.0
 10
29.522479552
 20
80.5984380678
 30
0.0
 10
31.3116307079
 20
79.3530439747
 30
0.0
 10
33.7845756173
 20
77.0741978754
 30
0.0
 10
36.0776139587
 20
74.3838197505
 30
0.0
 10
38.1104308425
 20
71.3755936548
 30
0.0
 10
39.812728198
 20
68.1540022789
 30
0.0
 10
41.1251532434
 20
64.8312526556
 30
0.0
 10
42.0021290187
 20
61.5220883328
 30
0.0
 10
42.4130061207
 20
58.3409919743
 30
0.0
 10
42.3521720592
 20
55.821977404
 30
0.0
 10
42.0409511765
 20
53.9802210232
 30
0.0
 10
41.6930382277
 20
52.732997144
 30
0.0
 10
41.2276410235
 20
51.5959373353
 30
0.0
 10
40.6477797902
 20
50.5794757482
 30
0.0
 10
39.9581712104
 20
49.6932213376
 30
0.0
 10
39.1643435925
 20
48.9463764804
 30
0.0
 10
38.2737795282
 20
48.3469217723
 30
0.0
 10
37.2955178791
 20
47.9012096365
 30
0.0
 10
36.2396331648
 20
47.6136506792
 30
0.0
 10
34.7088057389
 20
47.4395055372
 30
0.0
 10
32.6295364209
 20
47.6537256176
 30
0.0
 10
31.0178415539
 20
48.2082530229
 30
0.0
 10
30.2029222111
 20
48.5695217405
 30
0.0
  0
SPLINE
  5
2E0
100
AcDbEntity
  8
0
100
AcDbSpline
 62
7
  6
CONTINUOUS
 70
0
 71
3
 72
13
 73
9
 74
0
 42
0.0000001
 43
0.0000001
 44
0.0000000001
 40
0.0
 40
0.0
 40
0.0
 40
0.0
 40
0.2891485274
 40
0.4223361086
 40
0.5482312201
 40
0.7811355462
 40
0.8914979028
 40
1.0
 40
1.0
 40
1.0
 40
1.0
 10
26.750173571
 20
56.023844612
 30
0.0
 10
27.1832614473
 20
55.7788323304
 30
0.0
 10
27.8477259673
 20
55.4701143632
 30
0.0
 10
28.7582416609
 20
55.2157371611
 30
0.0
 10
29.5960166177
 20
55.0853404503
 30
0.0
 10
30.416651119
 20
55.1190131582
 30
0.0
 10
31.165401722
 20
55.3391522294
 30
0.0
 10
31.505894188
 20
55.5052201645
 30
0.0
 10
31.6660860577
 20
55.6011505532
 30
0.0
  0
SPLINE
  5
2E1
100
AcDbEntity
  8
0
100
AcDbSpline
 62
7
  6
CONTINUOUS
 70
0
 71
3
 72
21
 73
17
 74
0
 42
0.0000001
 43
0.0000001
 44
0.0000000001
 40
0.0
 40
0.0
 40
0.0
 40
0.0
 40
0.0428477349
 40
0.0876512902
 40
0.1357606754
 40
0.1880223405
 40
0.2447845208
 40
0.3059833404
 40
0.371230193
 40
0.439887799
 40
0.5839120469
 40
0.7305077706
 40
0.8022647604
 40
0.8716312843
 40
0.9377904574
 40
1.0
 40
1.0
 40
1.0
 40
1.0
 10
31.7216959624
 20
55.6352065765
 30
0.0
 10
31.9588063256
 20
55.7836680031
 30
0.0
 10
32.4063458118
 20
56.1515852744
 30
0.0
 10
32.9397709651
 20
56.8686750316
 30
0.0
 10
33.3344632936
 20
57.7372516355
 30
0.0
 10
33.5850194998
 20
58.7369118646
 30
0.0
 10
33.6887640627
 20
59.8471066106
 30
0.0
 10
33.6448386047
 20
61.0453474541
 30
0.0
 10
33.4547725718
 20
62.3073951185
 30
0.0
 10
33.0047621213
 20
64.0679045847
 30
0.0
 10
32.1093366734
 20
66.2498066405
 30
0.0
 10
30.8570725162
 20
68.2709173651
 30
0.0
 10
29.6694460805
 20
69.7290975957
 30
0.0
 10
28.721714074
 20
70.6981658715
 30
0.0
 10
27.7310995478
 20
71.5293356234
 30
0.0
 10
27.0321185508
 20
71.9960039129
 30
0.0
 10
26.6803652878
 20
72.1990839647
 30
0.0
  0
SPLINE
  5
2E2
100
AcDbEntity
  8
0
100
AcDbSpline
 62
7
  6
CONTINUOUS
 70
0
 71
3
 72
9
 73
5
 74
0
 42
0.0000001
 43
0.0000001
 44
0.0000000001
 40
0.0
 40
0.0
 40
0.0
 40
0.0
 40
0.2549727061
 40
1.0
 40
1.0
 40
1.0
 40
1.0
 10
28.7015897616
 20
49.6631697228
 30
0.0
 10
28.805800901
 20
49.6083606763
 30
0.0
 10
29.21684367
 20
49.3978720602
 30
0.0
 10
29.6373195206
 20
49.2056752101
 30
0.0
 10
29.9553515636
 20
49.0744249941
 30
0.0
  0
SPLINE
  5
2E3
100
AcDbEntity
  8
0
100
AcDbSpline
 62
7
  6
CONTINUOUS
 70
0
 71
3
 72
28
 73
24
 74
0
 42
0.0000001
 43
0.0000001
 44
0.0000000001
 40
0.0
 40
0.0
 40
0.0
 40
0.0
 40
0.0549117238
 40
0.104430501
 40
0.1277292673
 40
0.1504250846
 40
0.1728767163
 40
0.195470617
 40
0.2185787282
 40
0.2425329351
 40
0.2676027805
 40
0.293991396
 40
0.3218271524
 40
0.351175853
 40
0.4143412756
 40
0.4830602676
 40
0.5562641399
 40
0.6325092214
 40
0.7101217297
 40
0.7873299074
 40
0.8623890851
 40
0.9337100095
 40
1.0
 40
1.0
 40
1.0
 40
1.0
 10
30.3126071611
 20
48.9328680596
 30
0.0
 10
31.0624503947
 20
48.648152577
 30
0.0
 10
32.5432674372
 20
48.2329499344
 30
0.0
 10
34.4318367415
 20
48.1675280752
 30
0.0
 10
35.8074441245
 20
48.4280780298
 30
0.0
 10
36.7536229625
 20
48.7638357823
 30
0.0
 10
37.6246478167
 20
49.2423764987
 30
0.0
 10
38.4119314743
 20
49.858501565
 30
0.0
 10
39.1085074096
 20
50.6055321494
 30
0.0
 10
39.7073873186
 20
51.4766603163
 30
0.0
 10
40.2052862478
 20
52.462651467
 30
0.0
 10
40.5971465388
 20
53.5553414837
 30
0.0
 10
40.8816807168
 20
54.744734481
 30
0.0
 10
41.1195267461
 20
56.4889029958
 30
0.0
 10
41.1184459195
 20
58.8556001337
 30
0.0
 10
40.6788547923
 20
61.827442171
 30
0.0
 10
39.8175725728
 20
64.9035703429
 30
0.0
 10
38.5630528137
 20
67.98097903
 30
0.0
 10
36.9575550463
 20
70.9570460163
 30
0.0
 10
35.0550149427
 20
73.7316171196
 30
0.0
 10
32.9189018495
 20
76.211610121
 30
0.0
 10
30.621511019
 20
78.313515271
 30
0.0
 10
28.9629564419
 20
79.4644218182
 30
0.0
 10
28.1243998713
 20
79.9485506294
 30
0.0
  0
SPLINE
  5
2E4
100
AcDbEntity
  8
0
100
AcDbSpline
 62
7
  6
CONTINUOUS
 70
0
 71
3
 72
29
 73
25
 74
0
 42
0.0000001
 43
0.0000001
 44
0.0000000001
 40
0.0
 40
0.0
 40
0.0
 40
0.0
 40
0.0603342617
 40
0.0881308077
 40
0.1143992202
 40
0.139301534
 40
0.1630738554
 40
0.1860338521
 40
0.208569094
 40
0.231105022
 40
0.2540658202
 40
0.2778379012
 40
0.302741093
 40
0.3290127956
 40
0.356808743
 40
0.4171423573
 40
0.483678036
 40
0.5554691477
 40
0.6310362037
 40
0.7085704784
 40
0.7861032781
 40
0.8616715928
 40
0.9334622588
 40
1.0
 40
1.0
 40
1.0
 40
1.0
 10
27.0128898241
 20
74.4409388721
 30
0.0
 10
26.4689702612
 20
74.7549591472
 30
0.0
 10
25.6339019163
 20
75.1524222491
 30
0.0
 10
24.4886927274
 20
75.486309379
 30
0.0
 10
23.6758401503
 20
75.6226621219
 30
0.0
 10
22.8937049462
 20
75.6497946877
 30
0.0
 10
22.1497220652
 20
75.5668984547
 30
0.0
 10
21.4516543334
 20
75.3737838787
 30
0.0
 10
20.8071871961
 20
75.0720312322
 30
0.0
 10
20.2236175864
 20
74.664773286
 30
0.0
 10
19.707387991
 20
74.1567277649
 30
0.0
 10
19.2635132156
 20
73.5539183009
 30
0.0
 10
18.8960383664
 20
72.862890575
 30
0.0
 10
18.6076456146
 20
72.0907932025
 30
0.0
 10
18.3243021646
 20
70.9317580339
 30
0.0
 10
18.1955981087
 20
69.3161089083
 30
0.0
 10
18.3778181855
 20
67.248728377
 30
0.0
 10
18.883534756
 20
65.073634882
 30
0.0
 10
19.6936844103
 20
62.8714167094
 30
0.0
 10
20.7779890854
 20
60.72365078
 30
0.0
 10
22.0957984707
 20
58.7107589569
 30
0.0
 10
23.5981002835
 20
56.9079434879
 30
0.0
 10
25.2282653639
 20
55.3827640054
 30
0.0
 10
26.4130497713
 20
54.5522743729
 30
0.0
 10
27.0128898241
 20
54.2059591789
 30
0.0
  0
SPLINE
  5
2E5
100
AcDbEntity
  8
0
100
AcDbSpline
 62
7
  6
CONTINUOUS
 70
0
 71
3
 72
29
 73
25
 74
0
 42
0.0000001
 43
0.0000001
 44
0.0000000001
 40
0.0
 40
0.0
 40
0.0
 40
0.0
 40
0.0603342617
 40
0.0881308077
 40
0.1143992202
 40
0.139301534
 40
0.1630738554
 40
0.1860338521
 40
0.208569094
 40
0.231105022
 40
0.2540658202
 40
0.2778379012
 40
0.302741093
 40
0.3290127956
 40
0.356808743
 40
0.4171423573
 40
0.483678036
 40
0.5554691477
 40
0.6310362037
 40
0.7085704784
 40
0.7861032781
 40
0.8616715928
 40
0.9334622588
 40
1.0
 40
1.0
 40
1.0
 40
1.0
 10
27.0128898241
 20
54.2059591789
 30
0.0
 10
27.5568093869
 20
53.8919389037
 30
0.0
 10
28.3918777318
 20
53.4944758019
 30
0.0
 10
29.5370869207
 20
53.160588672
 30
0.0
 10
30.3499394978
 20
53.0242359291
 30
0.0
 10
31.1320747019
 20
52.9971033632
 30
0.0
 10
31.8760575829
 20
53.0799995963
 30
0.0
 10
32.5741253147
 20
53.2731141723
 30
0.0
 10
33.218592452
 20
53.5748668187
 30
0.0
 10
33.8021620617
 20
53.982124765
 30
0.0
 10
34.3183916571
 20
54.490170286
 30
0.0
 10
34.7622664325
 20
55.0929797501
 30
0.0
 10
35.1297412817
 20
55.784007476
 30
0.0
 10
35.4181340335
 20
56.5561048484
 30
0.0
 10
35.7014774835
 20
57.7151400171
 30
0.0
 10
35.8301815394
 20
59.3307891427
 30
0.0
 10
35.6479614626
 20
61.3981696739
 30
0.0
 10
35.1422448921
 20
63.573263169
 30
0.0
 10
34.3320952378
 20
65.7754813416
 30
0.0
 10
33.2477905627
 20
67.9232472709
 30
0.0
 10
31.9299811774
 20
69.9361390941
 30
0.0
 10
30.4276793646
 20
71.7389545631
 30
0.0
 10
28.7975142842
 20
73.2641340455
 30
0.0
 10
27.6127298768
 20
74.0946236781
 30
0.0
 10
27.0128898241
 20
74.4409388721
 30
0.0
  0
SPLINE
  5
2E6
100
AcDbEntity
  8
0
100
AcDbSpline
 62
7
  6
CONTINUOUS
 70
0
 71
3
 72
22
 73
18
 74
0
 42
0.0000001
 43
0.0000001
 44
0.0000000001
 40
0.0
 40
0.0
 40
0.0
 40
0.0
 40
0.0623913898
 40
0.1287655766
 40
0.198371997
 40
0.2703710228
 40
0.4173878353
 40
0.4904345621
 40
0.5617431131
 40
0.6303607362
 40
0.6954670043
 40
0.7564325474
 40
0.8128869576
 40
0.8648025941
 40
0.9125913622
 40
0.9571795364
 40
1.0
 40
1.0
 40
1.0
 40
1.0
 10
27.0128898241
 20
72.5619584143
 30
0.0
 10
27.3753487877
 20
72.3526973682
 30
0.0
 10
28.0955128914
 20
71.8713547966
 30
0.0
 10
29.1154040822
 20
71.0132021714
 30
0.0
 10
30.0903698794
 20
70.0121022911
 30
0.0
 10
31.3102365736
 20
68.5061385789
 30
0.0
 10
32.342126205
 20
66.8272399902
 30
0.0
 10
33.1479777484
 20
65.0445987502
 30
0.0
 10
33.620443147
 20
63.6941353152
 30
0.0
 10
33.9518704077
 20
62.3570693052
 30
0.0
 10
34.1352512005
 20
61.0614286407
 30
0.0
 10
34.1664926656
 20
59.8343284506
 30
0.0
 10
34.0442738705
 20
58.7010643507
 30
0.0
 10
33.7696805571
 20
57.6849521484
 30
0.0
 10
33.3456240304
 20
56.8074059534
 30
0.0
 10
32.7781615529
 20
56.0898282259
 30
0.0
 10
32.3066220618
 20
55.7288736449
 30
0.0
 10
32.0578612273
 20
55.5852500707
 30
0.0
  0
SPLINE
  5
2E7
100
AcDbEntity
  8
0
100
AcDbSpline
 62
7
  6
CONTINUOUS
 70
0
 71
3
 72
28
 73
24
 74
0
 42
0.0000001
 43
0.0000001
 44
0.0000000001
 40
0.0
 40
0.0
 40
0.0
 40
0.0
 40
0.0603389904
 40
0.0881384016
 40
0.1144129811
 40
0.1393197031
 40
0.1630946446
 40
0.1860586239
 40
0.2085967418
 40
0.2311369163
 40
0.2540978376
 40
0.3026507866
 40
0.3289272232
 40
0.3567250696
 40
0.4170653299
 40
0.4836091676
 40
0.5554096893
 40
0.6309848893
 40
0.7085285093
 40
0.7860731567
 40
0.8616518077
 40
0.9334540513
 40
1.0
 40
1.0
 40
1.0
 40
1.0
 10
28.1242045615
 20
79.948663389
 30
0.0
 10
27.3187356335
 20
80.4136916259
 30
0.0
 10
26.0820293558
 20
81.002090462
 30
0.0
 10
24.3861173136
 20
81.4967916964
 30
0.0
 10
23.1822509144
 20
81.6985235553
 30
0.0
 10
22.0239091378
 20
81.7389545788
 30
0.0
 10
20.9220927601
 20
81.615951898
 30
0.0
 10
19.8883432894
 20
81.3298737875
 30
0.0
 10
18.9337251404
 20
80.8833164108
 30
0.0
 10
18.0698222161
 20
80.2795923292
 30
0.0
 10
17.0315434622
 20
79.2594339498
 30
0.0
 10
16.2302164903
 20
77.9525600386
 30
0.0
 10
15.6768948809
 20
76.4683292226
 30
0.0
 10
15.2566076432
 20
74.7515126697
 30
0.0
 10
15.0663518673
 20
72.3590858119
 30
0.0
 10
15.3361012545
 20
69.2973636458
 30
0.0
 10
16.0850819226
 20
66.0762329434
 30
0.0
 10
17.2847951292
 20
62.8148824205
 30
0.0
 10
18.8906083904
 20
59.6341806846
 30
0.0
 10
20.8422404476
 20
56.6531987928
 30
0.0
 10
23.067066262
 20
53.9832376024
 30
0.0
 10
25.4813129246
 20
51.7245568068
 30
0.0
 10
27.2358786077
 20
50.4945531442
 30
0.0
 10
28.1242045615
 20
49.9816882489
 30
0.0
  0
SPLINE
  5
2E8
100
AcDbEntity
  8
0
100
AcDbSpline
 62
7
  6
CONTINUOUS
 70
0
 71
3
 72
13
 73
9
 74
0
 42
0.0000001
 43
0.0000001
 44
0.0000000001
 40
0.0
 40
0.0
 40
0.0
 40
0.0
 40
0.2866787483
 40
0.4198719132
 40
0.5464233925
 40
0.7814539324
 40
0.8922127848
 40
1.0
 40
1.0
 40
1.0
 40
1.0
 10
29.8082125703
 20
82.3284820434
 30
0.0
 10
29.0091823264
 20
82.7897919335
 30
0.0
 10
27.785615717
 20
83.3830659826
 30
0.0
 10
26.1082180545
 20
83.9201370425
 30
0.0
 10
24.5484365944
 20
84.2488611031
 30
0.0
 10
23.0104280345
 20
84.3121610223
 30
0.0
 10
21.5670956024
 20
84.0676777214
 30
0.0
 10
20.8950440294
 20
83.8496295649
 30
0.0
 10
20.5742693575
 20
83.7175618548
 30
0.0
  0
SPLINE
  5
2E9
100
AcDbEntity
  8
0
100
AcDbSpline
 62
7
  6
CONTINUOUS
 70
0
 71
3
 72
9
 73
5
 74
0
 42
0.0000001
 43
0.0000001
 44
0.0000000001
 40
0.0
 40
0.0
 40
0.0
 40
0.0
 40
0.5251856044
 40
1.0
 40
1.0
 40
1.0
 40
1.0
 10
28.6175163157
 20
81.1209070161
 30
0.0
 10
28.7766238008
 20
81.3740110844
 30
0.0
 10
29.1279880135
 20
81.8271235819
 30
0.0
 10
29.5741368454
 20
82.193341014
 30
0.0
 10
29.8082125703
 20
82.3284820434
 30
0.0
  0
SPLINE
  5
2EA
100
AcDbEntity
  8
0
100
AcDbSpline
 62
7
  6
CONTINUOUS
 70
0
 71
3
 72
47
 73
43
 74
0
 42
0.0000001
 43
0.0000001
 44
0.0000000001
 40
0.0
 40
0.0
 40
0.0
 40
0.0
 40
0.02591745
 40
0.052783807
 40
0.0805332266
 40
0.1090851807
 40
0.1383467588
 40
0.1682147637
 40
0.1985776428
 40
0.2293172937
 40
0.2603107768
 40
0.2914319616
 40
0.3225531323
 40
0.3535465733
 40
0.3842861547
 40
0.4146489377
 40
0.4445168211
 40
0.4737782542
 40
0.5023300415
 40
0.5300792751
 40
0.55694543
 40
0.5828626652
 40
0.6077823697
 40
0.6316759827
 40
0.6545380824
 40
0.6763896682
 40
0.6972814352
 40
0.7172966337
 40
0.7365528394
 40
0.7552016931
 40
0.7734255756
 40
0.7914305122
 40
0.8094354733
 40
0.8276594272
 40
0.8463083955
 40
0.8655647528
 40
0.8855801325
 40
0.9064721027
 40
0.9283239065
 40
0.9511862318
 40
0.9750800721
 40
1.0
 40
1.0
 40
1.0
 40
1.0
 10
96.7161137133
 20
65.8971673273
 30
0.0
 10
96.7161137133
 20
65.861221048
 30
0.0
 10
96.7186472902
 20
65.7879938564
 30
0.0
 10
96.7295285143
 20
65.6767646881
 30
0.0
 10
96.747492307
 20
65.5627580048
 30
0.0
 10
96.7724272804
 20
65.4466772138
 30
0.0
 10
96.8041799383
 20
65.3292303561
 30
0.0
 10
96.8425552679
 20
65.2111372526
 30
0.0
 10
96.887317745
 20
65.0931216486
 30
0.0
 10
96.9381926574
 20
64.9759075123
 30
0.0
 10
96.9948677303
 20
64.8602141883
 30
0.0
 10
97.0569950247
 20
64.7467519168
 30
0.0
 10
97.1241930871
 20
64.6362173378
 30
0.0
 10
97.1960493325
 20
64.5292891183
 30
0.0
 10
97.2721226443
 20
64.4266236977
 30
0.0
 10
97.3519461773
 20
64.3288511881
 30
0.0
 10
97.4350303478
 20
64.2365714554
 30
0.0
 10
97.5208660016
 20
64.1503504147
 30
0.0
 10
97.6089277431
 20
64.0707165766
 30
0.0
 10
97.6986774126
 20
63.9981578904
 30
0.0
 10
97.7895676882
 20
63.9331189412
 30
0.0
 10
97.8810457742
 20
63.8759985743
 30
0.0
 10
97.9725571047
 20
63.8271480368
 30
0.0
 10
98.0635489301
 20
63.7868697366
 30
0.0
 10
98.1534735556
 20
63.7554166967
 30
0.0
 10
98.2417908632
 20
63.7329926794
 30
0.0
 10
98.3279696245
 20
63.7197526964
 30
0.0
 10
98.4114871639
 20
63.7158031393
 30
0.0
 10
98.4918274522
 20
63.7212001495
 30
0.0
 10
98.5684790001
 20
63.7359446039
 30
0.0
 10
98.6409356526
 20
63.7599731977
 30
0.0
 10
98.7087038917
 20
63.7931481488
 30
0.0
 10
98.7713173969
 20
63.8352513008
 30
0.0
 10
98.8283540886
 20
63.8859878731
 30
0.0
 10
98.8794478962
 20
63.944999346
 30
0.0
 10
98.9242909289
 20
64.011879027
 30
0.0
 10
98.96262821
 20
64.0861834858
 30
0.0
 10
98.9942503514
 20
64.1674378442
 30
0.0
 10
99.01898816
 20
64.2551358804
 30
0.0
 10
99.036710267
 20
64.3487415009
 30
0.0
 10
99.0473230994
 20
64.4476791746
 30
0.0
 10
99.0495758063
 20
64.5154100741
 30
0.0
 10
99.0495758063
 20
64.5499728374
 30
0.0
  0
SPLINE
  5
2EB
100
AcDbEntity
  8
0
100
AcDbSpline
 62
7
  6
CONTINUOUS
 70
0
 71
3
 72
47
 73
43
 74
0
 42
0.0000001
 43
0.0000001
 44
0.0000000001
 40
0.0
 40
0.0
 40
0.0
 40
0.0
 40
0.02591745
 40
0.052783807
 40
0.0805332266
 40
0.1090851807
 40
0.1383467588
 40
0.1682147637
 40
0.1985776428
 40
0.2293172937
 40
0.2603107768
 40
0.2914319616
 40
0.3225531323
 40
0.3535465733
 40
0.3842861547
 40
0.4146489377
 40
0.4445168211
 40
0.4737782542
 40
0.5023300415
 40
0.5300792751
 40
0.55694543
 40
0.5828626652
 40
0.6077823697
 40
0.6316759827
 40
0.6545380824
 40
0.6763896682
 40
0.6972814352
 40
0.7172966337
 40
0.7365528394
 40
0.7552016931
 40
0.7734255756
 40
0.7914305122
 40
0.8094354733
 40
0.8276594272
 40
0.8463083955
 40
0.8655647528
 40
0.8855801325
 40
0.9064721027
 40
0.9283239065
 40
0.9511862318
 40
0.9750800721
 40
1.0
 40
1.0
 40
1.0
 40
1.0
 10
99.0495758063
 20
64.5499728374
 30
0.0
 10
99.0495758063
 20
64.5859191167
 30
0.0
 10
99.0470422294
 20
64.6591463082
 30
0.0
 10
99.0361610053
 20
64.7703754765
 30
0.0
 10
99.0181972126
 20
64.8843821598
 30
0.0
 10
98.9932622392
 20
65.0004629508
 30
0.0
 10
98.9615095813
 20
65.1179098085
 30
0.0
 10
98.9231342517
 20
65.2360029121
 30
0.0
 10
98.8783717746
 20
65.3540185161
 30
0.0
 10
98.8274968622
 20
65.4712326523
 30
0.0
 10
98.7708217893
 20
65.5869259763
 30
0.0
 10
98.7086944949
 20
65.7003882479
 30
0.0
 10
98.6414964325
 20
65.8109228268
 30
0.0
 10
98.5696401871
 20
65.9178510463
 30
0.0
 10
98.4935668753
 20
66.0205164669
 30
0.0
 10
98.4137433423
 20
66.1182889766
 30
0.0
 10
98.3306591718
 20
66.2105687093
 30
0.0
 10
98.244823518
 20
66.2967897499
 30
0.0
 10
98.1567617765
 20
66.376423588
 30
0.0
 10
98.067012107
 20
66.4489822743
 30
0.0
 10
97.9761218314
 20
66.5140212235
 30
0.0
 10
97.8846437454
 20
66.5711415904
 30
0.0
 10
97.7931324149
 20
66.6199921279
 30
0.0
 10
97.7021405895
 20
66.660270428
 30
0.0
 10
97.612215964
 20
66.6917234679
 30
0.0
 10
97.5238986564
 20
66.7141474853
 30
0.0
 10
97.4377198951
 20
66.7273874683
 30
0.0
 10
97.3542023557
 20
66.7313370253
 30
0.0
 10
97.2738620675
 20
66.7259400151
 30
0.0
 10
97.1972105195
 20
66.7111955608
 30
0.0
 10
97.124753867
 20
66.6871669669
 30
0.0
 10
97.0569856279
 20
66.6539920158
 30
0.0
 10
96.9943721227
 20
66.6118888639
 30
0.0
 10
96.937335431
 20
66.5611522916
 30
0.0
 10
96.8862416234
 20
66.5021408186
 30
0.0
 10
96.8413985908
 20
66.4352611376
 30
0.0
 10
96.8030613096
 20
66.3609566788
 30
0.0
 10
96.7714391682
 20
66.2797023204
 30
0.0
 10
96.7467013596
 20
66.1920042842
 30
0.0
 10
96.7289792526
 20
66.0983986637
 30
0.0
 10
96.7183664202
 20
65.9994609901
 30
0.0
 10
96.7161137133
 20
65.9317300906
 30
0.0
 10
96.7161137133
 20
65.8971673273
 30
0.0
  0
SPLINE
  5
2EC
100
AcDbEntity
  8
0
100
AcDbSpline
 62
7
  6
CONTINUOUS
 70
0
 71
3
 72
49
 73
45
 74
0
 42
0.0000001
 43
0.0000001
 44
0.0000000001
 40
0.0
 40
0.0
 40
0.0
 40
0.0
 40
0.024518826
 40
0.0474998244
 40
0.0692839258
 40
0.0901685819
 40
0.1102387542
 40
0.1295320765
 40
0.1480797932
 40
0.1659805024
 40
0.1833952628
 40
0.2005273532
 40
0.2175649404
 40
0.2347109616
 40
0.2521467529
 40
0.2700636119
 40
0.2885895353
 40
0.3078264938
 40
0.3278627035
 40
0.3487938394
 40
0.370664919
 40
0.3934671938
 40
0.4171891754
 40
0.4418046472
 40
0.4672716435
 40
0.4935374517
 40
0.5205168354
 40
0.5481346443
 40
0.5763469536
 40
0.6050629868
 40
0.6341547211
 40
0.6634829686
 40
0.6929667655
 40
0.7224855439
 40
0.7519532374
 40
0.7812685051
 40
0.810399066
 40
0.8392602198
 40
0.8676837272
 40
0.8954773237
 40
0.9225169242
 40
0.9487784029
 40
0.9745105569
 40
1.0
 40
1.0
 40
1.0
 40
1.0
 10
90.1047143263
 20
59.099914573
 30
0.0
 10
90.1045894309
 20
59.0586941088
 30
0.0
 10
90.1019927371
 20
58.9788122155
 30
0.0
 10
90.0899666446
 20
58.8628524064
 30
0.0
 10
90.0701526993
 20
58.7541555433
 30
0.0
 10
90.0426158183
 20
58.6522020187
 30
0.0
 10
90.0075088757
 20
58.5570362113
 30
0.0
 10
89.964981923
 20
58.469265376
 30
0.0
 10
89.9151996746
 20
58.3896402373
 30
0.0
 10
89.8585713677
 20
58.3187071546
 30
0.0
 10
89.7954513116
 20
58.2568147032
 30
0.0
 10
89.7261624175
 20
58.204268183
 30
0.0
 10
89.6510906211
 20
58.16127715
 30
0.0
 10
89.5706455235
 20
58.1280949203
 30
0.0
 10
89.4852333607
 20
58.1049718614
 30
0.0
 10
89.3953788114
 20
58.0919876387
 30
0.0
 10
89.301621884
 20
58.0892156939
 30
0.0
 10
89.2045700265
 20
58.0966920409
 30
0.0
 10
89.104746823
 20
58.1142825595
 30
0.0
 10
89.0026398662
 20
58.1418908414
 30
0.0
 10
88.898804173
 20
58.179415556
 30
0.0
 10
88.7938303738
 20
58.2265868613
 30
0.0
 10
88.6883345149
 20
58.2831202387
 30
0.0
 10
88.5829215654
 20
58.3487218072
 30
0.0
 10
88.4781430223
 20
58.4229844841
 30
0.0
 10
88.3745914485
 20
58.5054807833
 30
0.0
 10
88.2728708437
 20
58.595761209
 30
0.0
 10
88.1734749851
 20
58.6933193075
 30
0.0
 10
88.0768949071
 20
58.797676617
 30
0.0
 10
87.9836806561
 20
58.9083083249
 30
0.0
 10
87.8943935608
 20
59.0245051717
 30
0.0
 10
87.8095599524
 20
59.1455705821
 30
0.0
 10
87.7296887271
 20
59.2708170514
 30
0.0
 10
87.6551431899
 20
59.3995744169
 30
0.0
 10
87.5863066038
 20
59.5311532173
 30
0.0
 10
87.5235135155
 20
59.665001551
 30
0.0
 10
87.4670582028
 20
59.8005415631
 30
0.0
 10
87.4172930959
 20
59.9370868943
 30
0.0
 10
87.3746494145
 20
60.0736705943
 30
0.0
 10
87.3393757999
 20
60.2091801099
 30
0.0
 10
87.3116452888
 20
60.3427266156
 30
0.0
 10
87.2915981324
 20
60.4741434694
 30
0.0
 10
87.2792971392
 20
60.6038970125
 30
0.0
 10
87.2764050277
 20
60.690025348
 30
0.0
 10
87.2762754257
 20
60.732877591
 30
0.0
  0
SPLINE
  5
2ED
100
AcDbEntity
  8
0
100
AcDbSpline
 62
7
  6
CONTINUOUS
 70
0
 71
3
 72
49
 73
45
 74
0
 42
0.0000001
 43
0.0000001
 44
0.0000000001
 40
0.0
 40
0.0
 40
0.0
 40
0.0
 40
0.024518826
 40
0.0474998244
 40
0.0692839258
 40
0.0901685819
 40
0.1102387542
 40
0.1295320765
 40
0.1480797932
 40
0.1659805024
 40
0.1833952628
 40
0.2005273532
 40
0.2175649404
 40
0.2347109616
 40
0.2521467529
 40
0.2700636119
 40
0.2885895353
 40
0.3078264938
 40
0.3278627035
 40
0.3487938394
 40
0.370664919
 40
0.3934671938
 40
0.4171891754
 40
0.4418046472
 40
0.4672716435
 40
0.4935374517
 40
0.5205168354
 40
0.5481346443
 40
0.5763469536
 40
0.6050629868
 40
0.6341547211
 40
0.6634829686
 40
0.6929667655
 40
0.7224855439
 40
0.7519532374
 40
0.7812685051
 40
0.810399066
 40
0.8392602198
 40
0.8676837272
 40
0.8954773237
 40
0.9225169242
 40
0.9487784029
 40
0.9745105569
 40
1.0
 40
1.0
 40
1.0
 40
1.0
 10
87.2762754257
 20
60.732877591
 30
0.0
 10
87.2764003212
 20
60.7740980552
 30
0.0
 10
87.278997015
 20
60.8539799485
 30
0.0
 10
87.2910231074
 20
60.9699397576
 30
0.0
 10
87.3108370528
 20
61.0786366207
 30
0.0
 10
87.3383739338
 20
61.1805901453
 30
0.0
 10
87.3734808763
 20
61.2757559527
 30
0.0
 10
87.4160078291
 20
61.363526788
 30
0.0
 10
87.4657900775
 20
61.4431519266
 30
0.0
 10
87.5224183843
 20
61.5140850094
 30
0.0
 10
87.5855384404
 20
61.5759774608
 30
0.0
 10
87.6548273345
 20
61.628523981
 30
0.0
 10
87.7298991309
 20
61.671515014
 30
0.0
 10
87.8103442285
 20
61.7046972437
 30
0.0
 10
87.8957563914
 20
61.7278203026
 30
0.0
 10
87.9856109407
 20
61.7408045253
 30
0.0
 10
88.079367868
 20
61.7435764701
 30
0.0
 10
88.1764197255
 20
61.7361001231
 30
0.0
 10
88.276242929
 20
61.7185096045
 30
0.0
 10
88.3783498859
 20
61.6909013225
 30
0.0
 10
88.482185579
 20
61.6533766079
 30
0.0
 10
88.5871593782
 20
61.6062053027
 30
0.0
 10
88.6926552372
 20
61.5496719253
 30
0.0
 10
88.7980681867
 20
61.4840703568
 30
0.0
 10
88.9028467298
 20
61.4098076799
 30
0.0
 10
89.0063983036
 20
61.3273113807
 30
0.0
 10
89.1081189084
 20
61.2370309549
 30
0.0
 10
89.2075147669
 20
61.1394728565
 30
0.0
 10
89.304094845
 20
61.035115547
 30
0.0
 10
89.3973090959
 20
60.9244838391
 30
0.0
 10
89.4865961912
 20
60.8082869923
 30
0.0
 10
89.5714297996
 20
60.6872215819
 30
0.0
 10
89.651301025
 20
60.5619751126
 30
0.0
 10
89.7258465622
 20
60.4332177471
 30
0.0
 10
89.7946831482
 20
60.3016389467
 30
0.0
 10
89.8574762366
 20
60.167790613
 30
0.0
 10
89.9139315492
 20
60.0322506009
 30
0.0
 10
89.9636966561
 20
59.8957052697
 30
0.0
 10
90.0063403376
 20
59.7591215697
 30
0.0
 10
90.0416139521
 20
59.6236120541
 30
0.0
 10
90.0693444632
 20
59.4900655484
 30
0.0
 10
90.0893916196
 20
59.3586486946
 30
0.0
 10
90.1016926129
 20
59.2288951515
 30
0.0
 10
90.1045847243
 20
59.142766816
 30
0.0
 10
90.1047143263
 20
59.099914573
 30
0.0
  0
SPLINE
  5
2EE
100
AcDbEntity
  8
0
100
AcDbSpline
 62
7
  6
CONTINUOUS
 70
0
 71
3
 72
47
 73
43
 74
0
 42
0.0000001
 43
0.0000001
 44
0.0000000001
 40
0.0
 40
0.0
 40
0.0
 40
0.0
 40
0.0259161234
 40
0.0527921327
 40
0.0805463649
 40
0.1090738758
 40
0.138359399
 40
0.1682527795
 40
0.1986394979
 40
0.2293567638
 40
0.2603302194
 40
0.2914701895
 40
0.3226114515
 40
0.3536067567
 40
0.3843196208
 40
0.4146837407
 40
0.444555667
 40
0.4738078984
 40
0.5023402322
 40
0.5300846597
 40
0.5569506614
 40
0.5828637574
 40
0.6077742248
 40
0.6316567708
 40
0.6545049706
 40
0.6763356405
 40
0.6972152366
 40
0.7172273785
 40
0.7364864429
 40
0.755131433
 40
0.773364582
 40
0.7913815563
 40
0.8093956455
 40
0.8276088051
 40
0.846245684
 40
0.8655158894
 40
0.8855444683
 40
0.906447296
 40
0.9282718168
 40
0.9511335749
 40
0.9750460632
 40
1.0
 40
1.0
 40
1.0
 40
1.0
 10
87.5237638295
 20
60.589993327
 30
0.0
 10
87.523766603
 20
60.5540488888
 30
0.0
 10
87.5262963423
 20
60.480810155
 30
0.0
 10
87.5371820015
 20
60.3695628846
 30
0.0
 10
87.5551456958
 20
60.2555702581
 30
0.0
 10
87.5800821303
 20
60.1394837604
 30
0.0
 10
87.6118440131
 20
60.0220035379
 30
0.0
 10
87.6502557447
 20
59.9038154545
 30
0.0
 10
87.6950407373
 20
59.7857684971
 30
0.0
 10
87.7459142958
 20
59.6685819619
 30
0.0
 10
87.802579927
 20
59.552920593
 30
0.0
 10
87.8647245823
 20
59.4394379473
 30
0.0
 10
87.9319598064
 20
59.3288597475
 30
0.0
 10
88.003821712
 20
59.2219432796
 30
0.0
 10
88.0798828377
 20
59.1193095556
 30
0.0
 10
88.1596928852
 20
59.0215642406
 30
0.0
 10
88.2427791061
 20
58.9292934662
 30
0.0
 10
88.3285958374
 20
58.8431018142
 30
0.0
 10
88.416626123
 20
58.7635025425
 30
0.0
 10
88.5063506073
 20
58.690966622
 30
0.0
 10
88.5972313941
 20
58.625936111
 30
0.0
 10
88.688694002
 20
58.5688264554
 30
0.0
 10
88.7801748894
 20
58.5199910874
 30
0.0
 10
88.8711214712
 20
58.4797281609
 30
0.0
 10
88.9609828443
 20
58.4482877442
 30
0.0
 10
89.0492325432
 20
58.4258639815
 30
0.0
 10
89.1353575825
 20
58.4126069294
 30
0.0
 10
89.2188562745
 20
58.4086272479
 30
0.0
 10
89.2991931175
 20
58.4139902555
 30
0.0
 10
89.3758625271
 20
58.4287012437
 30
0.0
 10
89.4483538896
 20
58.4527027158
 30
0.0
 10
89.5161742479
 20
58.4858681235
 30
0.0
 10
89.5788141057
 20
58.5279584525
 30
0.0
 10
89.6358531029
 20
58.5786632699
 30
0.0
 10
89.6869614125
 20
58.6376453018
 30
0.0
 10
89.7318391379
 20
58.7045272927
 30
0.0
 10
89.7702177581
 20
58.7788700191
 30
0.0
 10
89.801849998
 20
58.8601158784
 30
0.0
 10
89.8265959788
 20
58.9477867839
 30
0.0
 10
89.8443330276
 20
59.0413765493
 30
0.0
 10
89.8549698894
 20
59.1403848477
 30
0.0
 10
89.8572210398
 20
59.2081889066
 30
0.0
 10
89.8572259225
 20
59.242798837
 30
0.0
  0
SPLINE
  5
2EF
100
AcDbEntity
  8
0
100
AcDbSpline
 62
7
  6
CONTINUOUS
 70
0
 71
3
 72
47
 73
43
 74
0
 42
0.0000001
 43
0.0000001
 44
0.0000000001
 40
0.0
 40
0.0
 40
0.0
 40
0.0
 40
0.0259161234
 40
0.0527921327
 40
0.0805463649
 40
0.1090738758
 40
0.138359399
 40
0.1682527795
 40
0.1986394979
 40
0.2293567638
 40
0.2603302194
 40
0.2914701895
 40
0.3226114515
 40
0.3536067567
 40
0.3843196208
 40
0.4146837407
 40
0.444555667
 40
0.4738078984
 40
0.5023402322
 40
0.5300846597
 40
0.5569506614
 40
0.5828637574
 40
0.6077742248
 40
0.6316567708
 40
0.6545049706
 40
0.6763356405
 40
0.6972152366
 40
0.7172273785
 40
0.7364864429
 40
0.755131433
 40
0.773364582
 40
0.7913815563
 40
0.8093956455
 40
0.8276088051
 40
0.846245684
 40
0.8655158894
 40
0.8855444683
 40
0.906447296
 40
0.9282718168
 40
0.9511335749
 40
0.9750460632
 40
1.0
 40
1.0
 40
1.0
 40
1.0
 10
89.8572259225
 20
59.242798837
 30
0.0
 10
89.857223149
 20
59.2787432751
 30
0.0
 10
89.8546934097
 20
59.351982009
 30
0.0
 10
89.8438077506
 20
59.4632292794
 30
0.0
 10
89.8258440563
 20
59.5772219059
 30
0.0
 10
89.8009076218
 20
59.6933084036
 30
0.0
 10
89.7691457389
 20
59.810788626
 30
0.0
 10
89.7307340073
 20
59.9289767095
 30
0.0
 10
89.6859490147
 20
60.0470236669
 30
0.0
 10
89.6350754562
 20
60.1642102021
 30
0.0
 10
89.578409825
 20
60.279871571
 30
0.0
 10
89.5162651697
 20
60.3933542167
 30
0.0
 10
89.4490299456
 20
60.5039324165
 30
0.0
 10
89.37716804
 20
60.6108488843
 30
0.0
 10
89.3011069144
 20
60.7134826084
 30
0.0
 10
89.2212968669
 20
60.8112279233
 30
0.0
 10
89.1382106459
 20
60.9034986977
 30
0.0
 10
89.0523939146
 20
60.9896903498
 30
0.0
 10
88.9643636291
 20
61.0692896215
 30
0.0
 10
88.8746391448
 20
61.141825542
 30
0.0
 10
88.7837583579
 20
61.206856053
 30
0.0
 10
88.6922957501
 20
61.2639657086
 30
0.0
 10
88.6008148626
 20
61.3128010765
 30
0.0
 10
88.5098682809
 20
61.3530640031
 30
0.0
 10
88.4200069077
 20
61.3845044197
 30
0.0
 10
88.3317572089
 20
61.4069281825
 30
0.0
 10
88.2456321695
 20
61.4201852346
 30
0.0
 10
88.1621334775
 20
61.4241649161
 30
0.0
 10
88.0817966345
 20
61.4188019085
 30
0.0
 10
88.005127225
 20
61.4040909203
 30
0.0
 10
87.9326358624
 20
61.3800894482
 30
0.0
 10
87.8648155041
 20
61.3469240405
 30
0.0
 10
87.8021756463
 20
61.3048337114
 30
0.0
 10
87.7451366492
 20
61.2541288941
 30
0.0
 10
87.6940283395
 20
61.1951468622
 30
0.0
 10
87.6491506142
 20
61.1282648713
 30
0.0
 10
87.6107719939
 20
61.0539221449
 30
0.0
 10
87.5791397541
 20
60.9726762856
 30
0.0
 10
87.5543937733
 20
60.8850053801
 30
0.0
 10
87.5366567245
 20
60.7914156147
 30
0.0
 10
87.5260198626
 20
60.6924073162
 30
0.0
 10
87.5237687123
 20
60.6246032574
 30
0.0
 10
87.5237638295
 20
60.589993327
 30
0.0
  0
SPLINE
  5
2F0
100
AcDbEntity
  8
0
100
AcDbSpline
 62
7
  6
CONTINUOUS
 70
0
 71
3
 72
47
 73
43
 74
0
 42
0.0000001
 43
0.0000001
 44
0.0000000001
 40
0.0
 40
0.0
 40
0.0
 40
0.0
 40
0.02591745
 40
0.052783807
 40
0.0805332266
 40
0.1090851807
 40
0.1383467588
 40
0.1682147637
 40
0.1985776428
 40
0.2293172937
 40
0.2603107768
 40
0.2914319616
 40
0.3225531323
 40
0.3535465733
 40
0.3842861547
 40
0.4146489377
 40
0.4445168211
 40
0.4737782542
 40
0.5023300415
 40
0.5300792751
 40
0.55694543
 40
0.5828626652
 40
0.6077823697
 40
0.6316759827
 40
0.6545380824
 40
0.6763896682
 40
0.6972814352
 40
0.7172966337
 40
0.7365528394
 40
0.7552016931
 40
0.7734255756
 40
0.7914305122
 40
0.8094354733
 40
0.8276594272
 40
0.8463083955
 40
0.8655647528
 40
0.8855801325
 40
0.9064721027
 40
0.9283239065
 40
0.9511862318
 40
0.9750800721
 40
1.0
 40
1.0
 40
1.0
 40
1.0
 10
60.5120957858
 20
125.1747075638
 30
0.0
 10
60.5120957858
 20
125.1387612845
 30
0.0
 10
60.5146293626
 20
125.0655340929
 30
0.0
 10
60.5255105868
 20
124.9543049247
 30
0.0
 10
60.5434743795
 20
124.8402982413
 30
0.0
 10
60.5684093529
 20
124.7242174504
 30
0.0
 10
60.6001620108
 20
124.6067705926
 30
0.0
 10
60.6385373404
 20
124.4886774891
 30
0.0
 10
60.6832998175
 20
124.3706618851
 30
0.0
 10
60.7341747299
 20
124.2534477489
 30
0.0
 10
60.7908498028
 20
124.1377544248
 30
0.0
 10
60.8529770972
 20
124.0242921533
 30
0.0
 10
60.9201751596
 20
123.9137575744
 30
0.0
 10
60.9920314049
 20
123.8068293549
 30
0.0
 10
61.0681047168
 20
123.7041639342
 30
0.0
 10
61.1479282498
 20
123.6063914246
 30
0.0
 10
61.2310124203
 20
123.5141116919
 30
0.0
 10
61.3168480741
 20
123.4278906512
 30
0.0
 10
61.4049098156
 20
123.3482568131
 30
0.0
 10
61.494659485
 20
123.2756981269
 30
0.0
 10
61.5855497606
 20
123.2106591777
 30
0.0
 10
61.6770278467
 20
123.1535388108
 30
0.0
 10
61.7685391771
 20
123.1046882733
 30
0.0
 10
61.8595310025
 20
123.0644099731
 30
0.0
 10
61.9494556281
 20
123.0329569332
 30
0.0
 10
62.0377729357
 20
123.0105329159
 30
0.0
 10
62.1239516969
 20
122.9972929329
 30
0.0
 10
62.2074692364
 20
122.9933433758
 30
0.0
 10
62.2878095246
 20
122.998740386
 30
0.0
 10
62.3644610726
 20
123.0134848404
 30
0.0
 10
62.4369177251
 20
123.0375134343
 30
0.0
 10
62.5046859642
 20
123.0706883853
 30
0.0
 10
62.5672994693
 20
123.1127915373
 30
0.0
 10
62.6243361611
 20
123.1635281096
 30
0.0
 10
62.6754299687
 20
123.2225395826
 30
0.0
 10
62.7202730013
 20
123.2894192636
 30
0.0
 10
62.7586102824
 20
123.3637237224
 30
0.0
 10
62.7902324239
 20
123.4449780807
 30
0.0
 10
62.8149702325
 20
123.5326761169
 30
0.0
 10
62.8326923395
 20
123.6262817375
 30
0.0
 10
62.8433051719
 20
123.7252194111
 30
0.0
 10
62.8455578788
 20
123.7929503106
 30
0.0
 10
62.8455578788
 20
123.8275130739
 30
0.0
  0
SPLINE
  5
2F1
100
AcDbEntity
  8
0
100
AcDbSpline
 62
7
  6
CONTINUOUS
 70
0
 71
3
 72
47
 73
43
 74
0
 42
0.0000001
 43
0.0000001
 44
0.0000000001
 40
0.0
 40
0.0
 40
0.0
 40
0.0
 40
0.02591745
 40
0.052783807
 40
0.0805332266
 40
0.1090851807
 40
0.1383467588
 40
0.1682147637
 40
0.1985776428
 40
0.2293172937
 40
0.2603107768
 40
0.2914319616
 40
0.3225531323
 40
0.3535465733
 40
0.3842861547
 40
0.4146489377
 40
0.4445168211
 40
0.4737782542
 40
0.5023300415
 40
0.5300792751
 40
0.55694543
 40
0.5828626652
 40
0.6077823697
 40
0.6316759827
 40
0.6545380824
 40
0.6763896682
 40
0.6972814352
 40
0.7172966337
 40
0.7365528394
 40
0.7552016931
 40
0.7734255756
 40
0.7914305122
 40
0.8094354733
 40
0.8276594272
 40
0.8463083955
 40
0.8655647528
 40
0.8855801325
 40
0.9064721027
 40
0.9283239065
 40
0.9511862318
 40
0.9750800721
 40
1.0
 40
1.0
 40
1.0
 40
1.0
 10
62.8455578788
 20
123.8275130739
 30
0.0
 10
62.8455578788
 20
123.8634593532
 30
0.0
 10
62.8430243019
 20
123.9366865448
 30
0.0
 10
62.8321430778
 20
124.047915713
 30
0.0
 10
62.8141792851
 20
124.1619223964
 30
0.0
 10
62.7892443116
 20
124.2780031873
 30
0.0
 10
62.7574916537
 20
124.3954500451
 30
0.0
 10
62.7191163241
 20
124.5135431486
 30
0.0
 10
62.674353847
 20
124.6315587526
 30
0.0
 10
62.6234789347
 20
124.7487728888
 30
0.0
 10
62.5668038618
 20
124.8644662129
 30
0.0
 10
62.5046765674
 20
124.9779284844
 30
0.0
 10
62.437478505
 20
125.0884630633
 30
0.0
 10
62.3656222596
 20
125.1953912828
 30
0.0
 10
62.2895489477
 20
125.2980567035
 30
0.0
 10
62.2097254148
 20
125.3958292131
 30
0.0
 10
62.1266412442
 20
125.4881089458
 30
0.0
 10
62.0408055904
 20
125.5743299865
 30
0.0
 10
61.952743849
 20
125.6539638246
 30
0.0
 10
61.8629941795
 20
125.7265225108
 30
0.0
 10
61.7721039039
 20
125.79156146
 30
0.0
 10
61.6806258179
 20
125.8486818269
 30
0.0
 10
61.5891144874
 20
125.8975323644
 30
0.0
 10
61.498122662
 20
125.9378106646
 30
0.0
 10
61.4081980364
 20
125.9692637045
 30
0.0
 10
61.3198807289
 20
125.9916877218
 30
0.0
 10
61.2337019676
 20
126.0049277048
 30
0.0
 10
61.1501844281
 20
126.0088772619
 30
0.0
 10
61.0698441399
 20
126.0034802517
 30
0.0
 10
60.9931925919
 20
125.9887357973
 30
0.0
 10
60.9207359394
 20
125.9647072034
 30
0.0
 10
60.8529677003
 20
125.9315322524
 30
0.0
 10
60.7903541952
 20
125.8894291004
 30
0.0
 10
60.7333175034
 20
125.8386925281
 30
0.0
 10
60.6822236959
 20
125.7796810551
 30
0.0
 10
60.6373806632
 20
125.7128013741
 30
0.0
 10
60.5990433821
 20
125.6384969153
 30
0.0
 10
60.5674212407
 20
125.557242557
 30
0.0
 10
60.5426834321
 20
125.4695445208
 30
0.0
 10
60.5249613251
 20
125.3759389002
 30
0.0
 10
60.5143484926
 20
125.2770012266
 30
0.0
 10
60.5120957858
 20
125.2092703271
 30
0.0
 10
60.5120957858
 20
125.1747075638
 30
0.0
  0
SPLINE
  5
2F2
100
AcDbEntity
  8
0
100
AcDbSpline
 62
7
  6
CONTINUOUS
 70
0
 71
3
 72
49
 73
45
 74
0
 42
0.0000001
 43
0.0000001
 44
0.0000000001
 40
0.0
 40
0.0
 40
0.0
 40
0.0
 40
0.024518826
 40
0.0474998244
 40
0.0692839258
 40
0.0901685819
 40
0.1102387542
 40
0.1295320765
 40
0.1480797932
 40
0.1659805024
 40
0.1833952628
 40
0.2005273532
 40
0.2175649404
 40
0.2347109616
 40
0.2521467529
 40
0.2700636119
 40
0.2885895353
 40
0.3078264938
 40
0.3278627035
 40
0.3487938394
 40
0.370664919
 40
0.3934671938
 40
0.4171891754
 40
0.4418046472
 40
0.4672716435
 40
0.4935374517
 40
0.5205168353
 40
0.5481346443
 40
0.5763469536
 40
0.6050629868
 40
0.6341547211
 40
0.6634829686
 40
0.6929667655
 40
0.7224855439
 40
0.7519532374
 40
0.7812685051
 40
0.810399066
 40
0.8392602198
 40
0.8676837272
 40
0.8954773237
 40
0.9225169242
 40
0.9487784029
 40
0.9745105569
 40
1.0
 40
1.0
 40
1.0
 40
1.0
 10
53.9006963988
 20
118.3774548095
 30
0.0
 10
53.9005715033
 20
118.3362343453
 30
0.0
 10
53.8979748096
 20
118.256352452
 30
0.0
 10
53.8859487171
 20
118.1403926429
 30
0.0
 10
53.8661347717
 20
118.0316957798
 30
0.0
 10
53.8385978907
 20
117.9297422552
 30
0.0
 10
53.8034909482
 20
117.8345764478
 30
0.0
 10
53.7609639955
 20
117.7468056125
 30
0.0
 10
53.7111817471
 20
117.6671804739
 30
0.0
 10
53.6545534402
 20
117.5962473912
 30
0.0
 10
53.5914333841
 20
117.5343549397
 30
0.0
 10
53.52214449
 20
117.4818084195
 30
0.0
 10
53.4470726936
 20
117.4388173865
 30
0.0
 10
53.366627596
 20
117.4056351568
 30
0.0
 10
53.2812154331
 20
117.3825120979
 30
0.0
 10
53.1913608839
 20
117.3695278752
 30
0.0
 10
53.0976039565
 20
117.3667559304
 30
0.0
 10
53.000552099
 20
117.3742322774
 30
0.0
 10
52.9007288955
 20
117.3918227961
 30
0.0
 10
52.7986219387
 20
117.419431078
 30
0.0
 10
52.6947862455
 20
117.4569557926
 30
0.0
 10
52.5898124463
 20
117.5041270978
 30
0.0
 10
52.4843165874
 20
117.5606604752
 30
0.0
 10
52.3789036378
 20
117.6262620437
 30
0.0
 10
52.2741250948
 20
117.7005247206
 30
0.0
 10
52.1705735209
 20
117.7830210198
 30
0.0
 10
52.0688529162
 20
117.8733014456
 30
0.0
 10
51.9694570576
 20
117.970859544
 30
0.0
 10
51.8728769795
 20
118.0752168535
 30
0.0
 10
51.7796627286
 20
118.1858485614
 30
0.0
 10
51.6903756333
 20
118.3020454082
 30
0.0
 10
51.6055420249
 20
118.4231108186
 30
0.0
 10
51.5256707996
 20
118.5483572879
 30
0.0
 10
51.4511252623
 20
118.6771146534
 30
0.0
 10
51.3822886763
 20
118.8086934538
 30
0.0
 10
51.3194955879
 20
118.9425417875
 30
0.0
 10
51.2630402753
 20
119.0780817996
 30
0.0
 10
51.2132751684
 20
119.2146271308
 30
0.0
 10
51.170631487
 20
119.3512108309
 30
0.0
 10
51.1353578724
 20
119.4867203465
 30
0.0
 10
51.1076273613
 20
119.6202668521
 30
0.0
 10
51.0875802049
 20
119.7516837059
 30
0.0
 10
51.0752792116
 20
119.881437249
 30
0.0
 10
51.0723871002
 20
119.9675655845
 30
0.0
 10
51.0722574982
 20
120.0104178276
 30
0.0
  0
SPLINE
  5
2F3
100
AcDbEntity
  8
0
100
AcDbSpline
 62
7
  6
CONTINUOUS
 70
0
 71
3
 72
49
 73
45
 74
0
 42
0.0000001
 43
0.0000001
 44
0.0000000001
 40
0.0
 40
0.0
 40
0.0
 40
0.0
 40
0.024518826
 40
0.0474998244
 40
0.0692839258
 40
0.0901685819
 40
0.1102387542
 40
0.1295320765
 40
0.1480797932
 40
0.1659805024
 40
0.1833952628
 40
0.2005273532
 40
0.2175649404
 40
0.2347109616
 40
0.2521467529
 40
0.2700636119
 40
0.2885895353
 40
0.3078264938
 40
0.3278627035
 40
0.3487938394
 40
0.370664919
 40
0.3934671938
 40
0.4171891754
 40
0.4418046472
 40
0.4672716435
 40
0.4935374517
 40
0.5205168354
 40
0.5481346443
 40
0.5763469536
 40
0.6050629868
 40
0.6341547211
 40
0.6634829686
 40
0.6929667655
 40
0.7224855439
 40
0.7519532374
 40
0.7812685051
 40
0.810399066
 40
0.8392602198
 40
0.8676837272
 40
0.8954773237
 40
0.9225169242
 40
0.9487784029
 40
0.9745105569
 40
1.0
 40
1.0
 40
1.0
 40
1.0
 10
51.0722574982
 20
120.0104178276
 30
0.0
 10
51.0723823937
 20
120.0516382917
 30
0.0
 10
51.0749790874
 20
120.131520185
 30
0.0
 10
51.0870051799
 20
120.2474799941
 30
0.0
 10
51.1068191253
 20
120.3561768572
 30
0.0
 10
51.1343560063
 20
120.4581303818
 30
0.0
 10
51.1694629488
 20
120.5532961892
 30
0.0
 10
51.2119899015
 20
120.6410670245
 30
0.0
 10
51.2617721499
 20
120.7206921632
 30
0.0
 10
51.3184004568
 20
120.7916252459
 30
0.0
 10
51.3815205129
 20
120.8535176974
 30
0.0
 10
51.450809407
 20
120.9060642176
 30
0.0
 10
51.5258812034
 20
120.9490552505
 30
0.0
 10
51.606326301
 20
120.9822374802
 30
0.0
 10
51.6917384639
 20
121.0053605392
 30
0.0
 10
51.7815930131
 20
121.0183447618
 30
0.0
 10
51.8753499405
 20
121.0211167066
 30
0.0
 10
51.972401798
 20
121.0136403596
 30
0.0
 10
52.0722250015
 20
120.996049841
 30
0.0
 10
52.1743319583
 20
120.9684415591
 30
0.0
 10
52.2781676515
 20
120.9309168445
 30
0.0
 10
52.3831414507
 20
120.8837455392
 30
0.0
 10
52.4886373096
 20
120.8272121619
 30
0.0
 10
52.5940502592
 20
120.7616105934
 30
0.0
 10
52.6988288022
 20
120.6873479164
 30
0.0
 10
52.8023803761
 20
120.6048516172
 30
0.0
 10
52.9041009808
 20
120.5145711915
 30
0.0
 10
53.0034968394
 20
120.417013093
 30
0.0
 10
53.1000769175
 20
120.3126557835
 30
0.0
 10
53.1932911684
 20
120.2020240756
 30
0.0
 10
53.2825782637
 20
120.0858272288
 30
0.0
 10
53.3674118721
 20
119.9647618184
 30
0.0
 10
53.4472830974
 20
119.8395153491
 30
0.0
 10
53.5218286347
 20
119.7107579836
 30
0.0
 10
53.5906652207
 20
119.5791791832
 30
0.0
 10
53.6534583091
 20
119.4453308495
 30
0.0
 10
53.7099136217
 20
119.3097908374
 30
0.0
 10
53.7596787286
 20
119.1732455063
 30
0.0
 10
53.80232241
 20
119.0366618062
 30
0.0
 10
53.8375960246
 20
118.9011522906
 30
0.0
 10
53.8653265357
 20
118.767605785
 30
0.0
 10
53.8853736921
 20
118.6361889311
 30
0.0
 10
53.8976746854
 20
118.506435388
 30
0.0
 10
53.9005667968
 20
118.4203070526
 30
0.0
 10
53.9006963988
 20
118.3774548095
 30
0.0
  0
SPLINE
  5
2F4
100
AcDbEntity
  8
0
100
AcDbSpline
 62
7
  6
CONTINUOUS
 70
0
 71
3
 72
47
 73
43
 74
0
 42
0.0000001
 43
0.0000001
 44
0.0000000001
 40
0.0
 40
0.0
 40
0.0
 40
0.0
 40
0.0259161234
 40
0.0527921327
 40
0.0805463649
 40
0.1090738758
 40
0.138359399
 40
0.1682527795
 40
0.1986394979
 40
0.2293567638
 40
0.2603302194
 40
0.2914701895
 40
0.3226114515
 40
0.3536067567
 40
0.3843196208
 40
0.4146837407
 40
0.444555667
 40
0.4738078984
 40
0.5023402322
 40
0.5300846597
 40
0.5569506614
 40
0.5828637574
 40
0.6077742248
 40
0.6316567708
 40
0.6545049706
 40
0.6763356405
 40
0.6972152366
 40
0.7172273785
 40
0.7364864429
 40
0.755131433
 40
0.773364582
 40
0.7913815563
 40
0.8093956455
 40
0.8276088051
 40
0.846245684
 40
0.8655158894
 40
0.8855444683
 40
0.906447296
 40
0.9282718168
 40
0.9511335749
 40
0.9750460632
 40
1.0
 40
1.0
 40
1.0
 40
1.0
 10
51.319745902
 20
119.8675335635
 30
0.0
 10
51.3197486755
 20
119.8315891254
 30
0.0
 10
51.3222784148
 20
119.7583503915
 30
0.0
 10
51.333164074
 20
119.6471031211
 30
0.0
 10
51.3511277682
 20
119.5331104946
 30
0.0
 10
51.3760642027
 20
119.4170239969
 30
0.0
 10
51.4078260856
 20
119.2995437745
 30
0.0
 10
51.4462378172
 20
119.181355691
 30
0.0
 10
51.4910228098
 20
119.0633087336
 30
0.0
 10
51.5418963683
 20
118.9461221984
 30
0.0
 10
51.5985619995
 20
118.8304608295
 30
0.0
 10
51.6607066548
 20
118.7169781838
 30
0.0
 10
51.7279418789
 20
118.606399984
 30
0.0
 10
51.7998037845
 20
118.4994835162
 30
0.0
 10
51.8758649102
 20
118.3968497921
 30
0.0
 10
51.9556749577
 20
118.2991044772
 30
0.0
 10
52.0387611786
 20
118.2068337028
 30
0.0
 10
52.1245779099
 20
118.1206420508
 30
0.0
 10
52.2126081954
 20
118.041042779
 30
0.0
 10
52.3023326797
 20
117.9685068585
 30
0.0
 10
52.3932134666
 20
117.9034763476
 30
0.0
 10
52.4846760744
 20
117.8463666919
 30
0.0
 10
52.5761569619
 20
117.797531324
 30
0.0
 10
52.6671035436
 20
117.7572683974
 30
0.0
 10
52.7569649168
 20
117.7258279808
 30
0.0
 10
52.8452146157
 20
117.7034042181
 30
0.0
 10
52.931339655
 20
117.6901471659
 30
0.0
 10
53.014838347
 20
117.6861674844
 30
0.0
 10
53.09517519
 20
117.691530492
 30
0.0
 10
53.1718445996
 20
117.7062414802
 30
0.0
 10
53.2443359621
 20
117.7302429523
 30
0.0
 10
53.3121563204
 20
117.76340836
 30
0.0
 10
53.3747961782
 20
117.8054986891
 30
0.0
 10
53.4318351754
 20
117.8562035064
 30
0.0
 10
53.482943485
 20
117.9151855383
 30
0.0
 10
53.5278212104
 20
117.9820675292
 30
0.0
 10
53.5661998306
 20
118.0564102556
 30
0.0
 10
53.5978320705
 20
118.137656115
 30
0.0
 10
53.6225780513
 20
118.2253270204
 30
0.0
 10
53.6403151
 20
118.3189167858
 30
0.0
 10
53.6509519619
 20
118.4179250843
 30
0.0
 10
53.6532031123
 20
118.4857291432
 30
0.0
 10
53.653207995
 20
118.5203390736
 30
0.0
  0
SPLINE
  5
2F5
100
AcDbEntity
  8
0
100
AcDbSpline
 62
7
  6
CONTINUOUS
 70
0
 71
3
 72
47
 73
43
 74
0
 42
0.0000001
 43
0.0000001
 44
0.0000000001
 40
0.0
 40
0.0
 40
0.0
 40
0.0
 40
0.0259161234
 40
0.0527921327
 40
0.0805463649
 40
0.1090738758
 40
0.138359399
 40
0.1682527795
 40
0.1986394979
 40
0.2293567638
 40
0.2603302194
 40
0.2914701895
 40
0.3226114515
 40
0.3536067567
 40
0.3843196208
 40
0.4146837407
 40
0.444555667
 40
0.4738078984
 40
0.5023402322
 40
0.5300846597
 40
0.5569506614
 40
0.5828637574
 40
0.6077742248
 40
0.6316567708
 40
0.6545049706
 40
0.6763356405
 40
0.6972152366
 40
0.7172273785
 40
0.7364864429
 40
0.755131433
 40
0.773364582
 40
0.7913815563
 40
0.8093956455
 40
0.8276088051
 40
0.846245684
 40
0.8655158894
 40
0.8855444683
 40
0.906447296
 40
0.9282718168
 40
0.9511335749
 40
0.9750460632
 40
1.0
 40
1.0
 40
1.0
 40
1.0
 10
53.653207995
 20
118.5203390736
 30
0.0
 10
53.6532052215
 20
118.5562835117
 30
0.0
 10
53.6506754822
 20
118.6295222455
 30
0.0
 10
53.639789823
 20
118.7407695159
 30
0.0
 10
53.6218261287
 20
118.8547621425
 30
0.0
 10
53.5968896942
 20
118.9708486401
 30
0.0
 10
53.5651278114
 20
119.0883288626
 30
0.0
 10
53.5267160798
 20
119.206516946
 30
0.0
 10
53.4819310872
 20
119.3245639035
 30
0.0
 10
53.4310575287
 20
119.4417504386
 30
0.0
 10
53.3743918975
 20
119.5574118075
 30
0.0
 10
53.3122472422
 20
119.6708944532
 30
0.0
 10
53.2450120181
 20
119.7814726531
 30
0.0
 10
53.1731501125
 20
119.8883891209
 30
0.0
 10
53.0970889868
 20
119.9910228449
 30
0.0
 10
53.0172789393
 20
120.0887681599
 30
0.0
 10
52.9341927184
 20
120.1810389343
 30
0.0
 10
52.8483759871
 20
120.2672305863
 30
0.0
 10
52.7603457015
 20
120.346829858
 30
0.0
 10
52.6706212173
 20
120.4193657785
 30
0.0
 10
52.5797404304
 20
120.4843962895
 30
0.0
 10
52.4882778226
 20
120.5415059451
 30
0.0
 10
52.3967969351
 20
120.5903413131
 30
0.0
 10
52.3058503534
 20
120.6306042397
 30
0.0
 10
52.2159889802
 20
120.6620446563
 30
0.0
 10
52.1277392813
 20
120.684468419
 30
0.0
 10
52.041614242
 20
120.6977254711
 30
0.0
 10
51.95811555
 20
120.7017051526
 30
0.0
 10
51.877778707
 20
120.696342145
 30
0.0
 10
51.8011092974
 20
120.6816311568
 30
0.0
 10
51.7286179349
 20
120.6576296847
 30
0.0
 10
51.6607975766
 20
120.624464277
 30
0.0
 10
51.5981577188
 20
120.582373948
 30
0.0
 10
51.5411187216
 20
120.5316691307
 30
0.0
 10
51.490010412
 20
120.4726870987
 30
0.0
 10
51.4451326866
 20
120.4058051078
 30
0.0
 10
51.4067540664
 20
120.3314623814
 30
0.0
 10
51.3751218265
 20
120.2502165221
 30
0.0
 10
51.3503758457
 20
120.1625456167
 30
0.0
 10
51.332638797
 20
120.0689558513
 30
0.0
 10
51.3220019351
 20
119.9699475528
 30
0.0
 10
51.3197507847
 20
119.9021434939
 30
0.0
 10
51.319745902
 20
119.8675335635
 30
0.0
  0
SPLINE
  5
2F6
100
AcDbEntity
  8
0
100
AcDbSpline
 62
7
  6
CONTINUOUS
 70
0
 71
3
 72
49
 73
45
 74
0
 42
0.0000001
 43
0.0000001
 44
0.0000000001
 40
0.0
 40
0.0
 40
0.0
 40
0.0
 40
0.024661134
 40
0.0501854889
 40
0.0765171561
 40
0.103587959
 40
0.1313192763
 40
0.1596237088
 40
0.1884066164
 40
0.2175675564
 40
0.2470016443
 40
0.27660086
 40
0.3062553164
 40
0.3358545066
 40
0.3652885438
 40
0.3944494084
 40
0.4232322169
 40
0.4515365276
 40
0.4792677022
 40
0.506338343
 40
0.5326698311
 40
0.5581939926
 40
0.5828549218
 40
0.6066109908
 40
0.6294370647
 40
0.6513269173
 40
0.6722957985
 40
0.6923830179
 40
0.7116542775
 40
0.7302033091
 40
0.7481521788
 40
0.7656495161
 40
0.7828660424
 40
0.7999872444
 40
0.8172038145
 40
0.8347012372
 40
0.8526502294
 40
0.8711994148
 40
0.8904708532
 40
0.9105582697
 40
0.9315273601
 40
0.9534174281
 40
0.9762437183
 40
1.0
 40
1.0
 40
1.0
 40
1.0
 10
58.426160957
 20
120.9902173943
 30
0.0
 10
58.426160957
 20
121.0316775709
 30
0.0
 10
58.4233821375
 20
121.1160688309
 30
0.0
 10
58.4114205068
 20
121.2442200366
 30
0.0
 10
58.391660243
 20
121.375499886
 30
0.0
 10
58.3642125773
 20
121.5091731763
 30
0.0
 10
58.3292308921
 20
121.6444999273
 30
0.0
 10
58.2869101902
 20
121.7807275017
 30
0.0
 10
58.2374861915
 20
121.9170983415
 30
0.0
 10
58.1812341415
 20
122.0528533904
 30
0.0
 10
58.1184673447
 20
122.1872367177
 30
0.0
 10
58.0495354464
 20
122.3194997782
 30
0.0
 10
57.9748224845
 20
122.4489057086
 30
0.0
 10
57.8947447246
 20
122.5747335195
 30
0.0
 10
57.809748294
 20
122.6962821951
 30
0.0
 10
57.7203066286
 20
122.812874666
 30
0.0
 10
57.6269177439
 20
122.9238616358
 30
0.0
 10
57.5301013424
 20
123.0286252337
 30
0.0
 10
57.4303957684
 20
123.1265824662
 30
0.0
 10
57.3283548232
 20
123.2171884347
 30
0.0
 10
57.2245444533
 20
123.2999392793
 30
0.0
 10
57.1195393357
 20
123.3743748009
 30
0.0
 10
57.0139193912
 20
123.4400807005
 30
0.0
 10
56.90826629
 20
123.4966903611
 30
0.0
 10
56.8031600564
 20
123.5438860948
 30
0.0
 10
56.6991759586
 20
123.581399791
 30
0.0
 10
56.596881969
 20
123.6090129803
 30
0.0
 10
56.4968371793
 20
123.626556513
 30
0.0
 10
56.3995915421
 20
123.6339103932
 30
0.0
 10
56.3056869932
 20
123.631004774
 30
0.0
 10
56.2156591624
 20
123.6178234162
 30
0.0
 10
56.1300375806
 20
123.5944104129
 30
0.0
 10
56.0493414304
 20
123.5608790957
 30
0.0
 10
55.9740690521
 20
123.5174193168
 30
0.0
 10
55.9046831398
 20
123.4642982226
 30
0.0
 10
55.8415972693
 20
123.4018524744
 30
0.0
 10
55.7851691693
 20
123.330475043
 30
0.0
 10
55.7357017812
 20
123.2506024702
 30
0.0
 10
55.6934488478
 20
123.1627067756
 30
0.0
 10
55.6586208413
 20
123.0672921208
 30
0.0
 10
55.6313888117
 20
122.9648951743
 30
0.0
 10
55.6118858148
 20
122.8560831491
 30
0.0
 10
55.6002066148
 20
122.7414633531
 30
0.0
 10
55.5977220564
 20
122.6631193558
 30
0.0
 10
55.5977220564
 20
122.6231804123
 30
0.0
  0
SPLINE
  5
2F7
100
AcDbEntity
  8
0
100
AcDbSpline
 62
7
  6
CONTINUOUS
 70
0
 71
3
 72
49
 73
45
 74
0
 42
0.0000001
 43
0.0000001
 44
0.0000000001
 40
0.0
 40
0.0
 40
0.0
 40
0.0
 40
0.0237562817
 40
0.0465825719
 40
0.0684726399
 40
0.0894417303
 40
0.1095291468
 40
0.1288005852
 40
0.1473497706
 40
0.1652987628
 40
0.1827961855
 40
0.2000127556
 40
0.2171339576
 40
0.2343504839
 40
0.2518478212
 40
0.2697966909
 40
0.2883457225
 40
0.3076169821
 40
0.3277042015
 40
0.3486730827
 40
0.3705629353
 40
0.3933890092
 40
0.4171450782
 40
0.4418060074
 40
0.4673301689
 40
0.493661657
 40
0.5207322978
 40
0.5484634724
 40
0.5767677831
 40
0.6055505916
 40
0.6347114562
 40
0.6641454934
 40
0.6937446836
 40
0.72339914
 40
0.7529983557
 40
0.7824324436
 40
0.8115933836
 40
0.8403762912
 40
0.8686807237
 40
0.896412041
 40
0.9234828439
 40
0.9498145111
 40
0.975338866
 40
1.0
 40
1.0
 40
1.0
 40
1.0
 10
53.3349897773
 20
121.31679912
 30
0.0
 10
53.3349897773
 20
121.3567380634
 30
0.0
 10
53.3374743357
 20
121.4350820607
 30
0.0
 10
53.3491535357
 20
121.5497018567
 30
0.0
 10
53.3686565326
 20
121.6585138819
 30
0.0
 10
53.3958885623
 20
121.7609108284
 30
0.0
 10
53.4307165687
 20
121.8563254832
 30
0.0
 10
53.4729695021
 20
121.9442211778
 30
0.0
 10
53.5224368902
 20
122.0240937506
 30
0.0
 10
53.5788649902
 20
122.095471182
 30
0.0
 10
53.6419508607
 20
122.1579169302
 30
0.0
 10
53.711336773
 20
122.2110380244
 30
0.0
 10
53.7866091514
 20
122.2544978034
 30
0.0
 10
53.8673053015
 20
122.2880291205
 30
0.0
 10
53.9529268833
 20
122.3114421238
 30
0.0
 10
54.0429547142
 20
122.3246234817
 30
0.0
 10
54.136859263
 20
122.3275291008
 30
0.0
 10
54.2341049002
 20
122.3201752206
 30
0.0
 10
54.3341496899
 20
122.302631688
 30
0.0
 10
54.4364436795
 20
122.2750184986
 30
0.0
 10
54.5404277773
 20
122.2375048024
 30
0.0
 10
54.6455340109
 20
122.1903090687
 30
0.0
 10
54.7511871121
 20
122.1336994081
 30
0.0
 10
54.8568070566
 20
122.0679935085
 30
0.0
 10
54.9618121742
 20
121.9935579869
 30
0.0
 10
55.0656225441
 20
121.9108071423
 30
0.0
 10
55.1676634894
 20
121.8202011738
 30
0.0
 10
55.2673690633
 20
121.7222439413
 30
0.0
 10
55.3641854648
 20
121.6174803434
 30
0.0
 10
55.4575743495
 20
121.5064933736
 30
0.0
 10
55.5470160149
 20
121.3899009027
 30
0.0
 10
55.6320124455
 20
121.2683522271
 30
0.0
 10
55.7120902055
 20
121.1425244162
 30
0.0
 10
55.7868031673
 20
121.0131184858
 30
0.0
 10
55.8557350656
 20
120.8808554253
 30
0.0
 10
55.9185018625
 20
120.746472098
 30
0.0
 10
55.9747539124
 20
120.6107170492
 30
0.0
 10
56.0241779111
 20
120.4743462093
 30
0.0
 10
56.066498613
 20
120.3381186349
 30
0.0
 10
56.1014802982
 20
120.202791884
 30
0.0
 10
56.1289279639
 20
120.0691185936
 30
0.0
 10
56.1486882278
 20
119.9378387442
 30
0.0
 10
56.1606498584
 20
119.8096875385
 30
0.0
 10
56.1634286779
 20
119.7252962785
 30
0.0
 10
56.1634286779
 20
119.6838361019
 30
0.0
  0
SPLINE
  5
2F8
100
AcDbEntity
  8
0
100
AcDbSpline
 62
7
  6
CONTINUOUS
 70
0
 71
3
 72
49
 73
45
 74
0
 42
0.0000001
 43
0.0000001
 44
0.0000000001
 40
0.0
 40
0.0
 40
0.0
 40
0.0
 40
0.024661134
 40
0.0501854889
 40
0.0765171561
 40
0.103587959
 40
0.1313192763
 40
0.1596237088
 40
0.1884066164
 40
0.2175675564
 40
0.2470016443
 40
0.27660086
 40
0.3062553164
 40
0.3358545066
 40
0.3652885438
 40
0.3944494084
 40
0.4232322169
 40
0.4515365276
 40
0.4792677022
 40
0.506338343
 40
0.5326698311
 40
0.5581939926
 40
0.5828549218
 40
0.6066109908
 40
0.6294370647
 40
0.6513269173
 40
0.6722957985
 40
0.6923830179
 40
0.7116542775
 40
0.7302033091
 40
0.7481521788
 40
0.7656495161
 40
0.7828660424
 40
0.7999872444
 40
0.8172038145
 40
0.8347012372
 40
0.8526502294
 40
0.8711994148
 40
0.8904708532
 40
0.9105582697
 40
0.9315273601
 40
0.9534174281
 40
0.9762437183
 40
1.0
 40
1.0
 40
1.0
 40
1.0
 10
55.5977220564
 20
122.6231804123
 30
0.0
 10
55.5977220564
 20
122.5817202357
 30
0.0
 10
55.6005008758
 20
122.4973289757
 30
0.0
 10
55.6124625065
 20
122.36917777
 30
0.0
 10
55.6322227703
 20
122.2378979206
 30
0.0
 10
55.659670436
 20
122.1042246303
 30
0.0
 10
55.6946521212
 20
121.9688978793
 30
0.0
 10
55.7369728231
 20
121.8326703049
 30
0.0
 10
55.7863968219
 20
121.6962994651
 30
0.0
 10
55.8426488718
 20
121.5605444162
 30
0.0
 10
55.9054156687
 20
121.4261610889
 30
0.0
 10
55.9743475669
 20
121.2938980284
 30
0.0
 10
56.0490605288
 20
121.164492098
 30
0.0
 10
56.1291382887
 20
121.0386642871
 30
0.0
 10
56.2141347193
 20
120.9171156115
 30
0.0
 10
56.3035763848
 20
120.8005231406
 30
0.0
 10
56.3969652695
 20
120.6895361708
 30
0.0
 10
56.493781671
 20
120.5847725729
 30
0.0
 10
56.5934872449
 20
120.4868153404
 30
0.0
 10
56.6955281902
 20
120.3962093719
 30
0.0
 10
56.79933856
 20
120.3134585273
 30
0.0
 10
56.9043436776
 20
120.2390230057
 30
0.0
 10
57.0099636221
 20
120.1733171061
 30
0.0
 10
57.1156167234
 20
120.1167074455
 30
0.0
 10
57.220722957
 20
120.0695117118
 30
0.0
 10
57.3247070547
 20
120.0319980156
 30
0.0
 10
57.4270010444
 20
120.0043848263
 30
0.0
 10
57.5270458341
 20
119.9868412936
 30
0.0
 10
57.6242914713
 20
119.9794874134
 30
0.0
 10
57.7181960201
 20
119.9823930326
 30
0.0
 10
57.8082238509
 20
119.9955743904
 30
0.0
 10
57.8938454328
 20
120.0189873938
 30
0.0
 10
57.9745415829
 20
120.0525187109
 30
0.0
 10
58.0498139612
 20
120.0959784898
 30
0.0
 10
58.1191998736
 20
120.149099584
 30
0.0
 10
58.182285744
 20
120.2115453322
 30
0.0
 10
58.2387138441
 20
120.2829227636
 30
0.0
 10
58.2881812322
 20
120.3627953364
 30
0.0
 10
58.3304341656
 20
120.450691031
 30
0.0
 10
58.365262172
 20
120.5461056858
 30
0.0
 10
58.3924942017
 20
120.6485026323
 30
0.0
 10
58.4119971985
 20
120.7573146575
 30
0.0
 10
58.4236763985
 20
120.8719344535
 30
0.0
 10
58.426160957
 20
120.9502784508
 30
0.0
 10
58.426160957
 20
120.9902173943
 30
0.0
  0
SPLINE
  5
2F9
100
AcDbEntity
  8
0
100
AcDbSpline
 62
7
  6
CONTINUOUS
 70
0
 71
3
 72
49
 73
45
 74
0
 42
0.0000001
 43
0.0000001
 44
0.0000000001
 40
0.0
 40
0.0
 40
0.0
 40
0.0
 40
0.0237562817
 40
0.0465825719
 40
0.0684726399
 40
0.0894417303
 40
0.1095291468
 40
0.1288005852
 40
0.1473497706
 40
0.1652987628
 40
0.1827961855
 40
0.2000127556
 40
0.2171339576
 40
0.2343504839
 40
0.2518478212
 40
0.2697966909
 40
0.2883457225
 40
0.3076169821
 40
0.3277042015
 40
0.3486730827
 40
0.3705629353
 40
0.3933890092
 40
0.4171450782
 40
0.4418060074
 40
0.4673301689
 40
0.493661657
 40
0.5207322978
 40
0.5484634724
 40
0.5767677831
 40
0.6055505916
 40
0.6347114562
 40
0.6641454934
 40
0.6937446836
 40
0.72339914
 40
0.7529983557
 40
0.7824324436
 40
0.8115933836
 40
0.8403762912
 40
0.8686807237
 40
0.896412041
 40
0.9234828439
 40
0.9498145111
 40
0.975338866
 40
1.0
 40
1.0
 40
1.0
 40
1.0
 10
56.1634286779
 20
119.6838361019
 30
0.0
 10
56.1634286779
 20
119.6438971584
 30
0.0
 10
56.1609441194
 20
119.5655531611
 30
0.0
 10
56.1492649194
 20
119.4509333651
 30
0.0
 10
56.1297619226
 20
119.3421213399
 30
0.0
 10
56.1025298929
 20
119.2397243934
 30
0.0
 10
56.0677018865
 20
119.1443097386
 30
0.0
 10
56.0254489531
 20
119.0564140441
 30
0.0
 10
55.975981565
 20
118.9765414712
 30
0.0
 10
55.9195534649
 20
118.9051640398
 30
0.0
 10
55.8564675945
 20
118.8427182917
 30
0.0
 10
55.7870816821
 20
118.7895971974
 30
0.0
 10
55.7118093038
 20
118.7461374185
 30
0.0
 10
55.6311131537
 20
118.7126061014
 30
0.0
 10
55.5454915718
 20
118.689193098
 30
0.0
 10
55.455463741
 20
118.6760117402
 30
0.0
 10
55.3615591922
 20
118.6731061211
 30
0.0
 10
55.264313555
 20
118.6804600012
 30
0.0
 10
55.1642687653
 20
118.6980035339
 30
0.0
 10
55.0619747757
 20
118.7256167232
 30
0.0
 10
54.9579906779
 20
118.7631304194
 30
0.0
 10
54.8528844443
 20
118.8103261531
 30
0.0
 10
54.747231343
 20
118.8669358138
 30
0.0
 10
54.6416113985
 20
118.9326417133
 30
0.0
 10
54.5366062809
 20
119.0070772349
 30
0.0
 10
54.4327959111
 20
119.0898280795
 30
0.0
 10
54.3307549658
 20
119.180434048
 30
0.0
 10
54.2310493919
 20
119.2783912806
 30
0.0
 10
54.1342329904
 20
119.3831548784
 30
0.0
 10
54.0408441057
 20
119.4941418482
 30
0.0
 10
53.9514024403
 20
119.6107343191
 30
0.0
 10
53.8664060096
 20
119.7322829947
 30
0.0
 10
53.7863282497
 20
119.8581108056
 30
0.0
 10
53.7116152879
 20
119.987516736
 30
0.0
 10
53.6426833896
 20
120.1197797966
 30
0.0
 10
53.5799165927
 20
120.2541631238
 30
0.0
 10
53.5236645428
 20
120.3899181727
 30
0.0
 10
53.474240544
 20
120.5262890125
 30
0.0
 10
53.4319198421
 20
120.6625165869
 30
0.0
 10
53.396938157
 20
120.7978433379
 30
0.0
 10
53.3694904913
 20
120.9315166282
 30
0.0
 10
53.3497302274
 20
121.0627964776
 30
0.0
 10
53.3377685967
 20
121.1909476833
 30
0.0
 10
53.3349897773
 20
121.2753389433
 30
0.0
 10
53.3349897773
 20
121.31679912
 30
0.0
  0
SPLINE
  5
2FA
100
AcDbEntity
  8
0
100
AcDbSpline
 62
7
  6
CONTINUOUS
 70
0
 71
3
 72
49
 73
45
 74
0
 42
0.0000001
 43
0.0000001
 44
0.0000000001
 40
0.0
 40
0.0
 40
0.0
 40
0.0
 40
0.024661134
 40
0.0501854889
 40
0.0765171561
 40
0.103587959
 40
0.1313192763
 40
0.1596237088
 40
0.1884066164
 40
0.2175675564
 40
0.2470016443
 40
0.27660086
 40
0.3062553164
 40
0.3358545066
 40
0.3652885438
 40
0.3944494084
 40
0.4232322169
 40
0.4515365276
 40
0.4792677022
 40
0.506338343
 40
0.5326698311
 40
0.5581939926
 40
0.5828549218
 40
0.6066109908
 40
0.6294370647
 40
0.6513269173
 40
0.6722957985
 40
0.6923830179
 40
0.7116542775
 40
0.7302033091
 40
0.7481521788
 40
0.7656495161
 40
0.7828660424
 40
0.7999872444
 40
0.8172038145
 40
0.8347012372
 40
0.8526502294
 40
0.8711994148
 40
0.8904708532
 40
0.9105582697
 40
0.9315273601
 40
0.9534174281
 40
0.9762437183
 40
1.0
 40
1.0
 40
1.0
 40
1.0
 10
94.6301788845
 20
61.7126771577
 30
0.0
 10
94.6301788845
 20
61.7541373344
 30
0.0
 10
94.627400065
 20
61.8385285943
 30
0.0
 10
94.6154384344
 20
61.9666798
 30
0.0
 10
94.5956781705
 20
62.0979596494
 30
0.0
 10
94.5682305048
 20
62.2316329398
 30
0.0
 10
94.5332488196
 20
62.3669596907
 30
0.0
 10
94.4909281177
 20
62.5031872652
 30
0.0
 10
94.441504119
 20
62.639558105
 30
0.0
 10
94.3852520691
 20
62.7753131539
 30
0.0
 10
94.3224852722
 20
62.9096964811
 30
0.0
 10
94.2535533739
 20
63.0419595417
 30
0.0
 10
94.1788404121
 20
63.171365472
 30
0.0
 10
94.0987626521
 20
63.297193283
 30
0.0
 10
94.0137662215
 20
63.4187419585
 30
0.0
 10
93.9243245561
 20
63.5353344295
 30
0.0
 10
93.8309356714
 20
63.6463213993
 30
0.0
 10
93.7341192699
 20
63.7510849971
 30
0.0
 10
93.634413696
 20
63.8490422297
 30
0.0
 10
93.5323727507
 20
63.9396481981
 30
0.0
 10
93.4285623808
 20
64.0223990427
 30
0.0
 10
93.3235572632
 20
64.0968345644
 30
0.0
 10
93.2179373187
 20
64.1625404639
 30
0.0
 10
93.1122842175
 20
64.2191501245
 30
0.0
 10
93.0071779839
 20
64.2663458583
 30
0.0
 10
92.9031938861
 20
64.3038595545
 30
0.0
 10
92.8008998965
 20
64.3314727438
 30
0.0
 10
92.7008551068
 20
64.3490162765
 30
0.0
 10
92.6036094696
 20
64.3563701566
 30
0.0
 10
92.5097049208
 20
64.3534645375
 30
0.0
 10
92.4196770899
 20
64.3402831796
 30
0.0
 10
92.3340555081
 20
64.3168701763
 30
0.0
 10
92.253359358
 20
64.2833388592
 30
0.0
 10
92.1780869796
 20
64.2398790802
 30
0.0
 10
92.1087010673
 20
64.186757986
 30
0.0
 10
92.0456151969
 20
64.1243122378
 30
0.0
 10
91.9891870968
 20
64.0529348065
 30
0.0
 10
91.9397197087
 20
63.9730622336
 30
0.0
 10
91.8974667753
 20
63.8851665391
 30
0.0
 10
91.8626387689
 20
63.7897518843
 30
0.0
 10
91.8354067392
 20
63.6873549378
 30
0.0
 10
91.8159037423
 20
63.5785429126
 30
0.0
 10
91.8042245423
 20
63.4639231166
 30
0.0
 10
91.8017399839
 20
63.3855791193
 30
0.0
 10
91.8017399839
 20
63.3456401758
 30
0.0
  0
SPLINE
  5
2FB
100
AcDbEntity
  8
0
100
AcDbSpline
 62
7
  6
CONTINUOUS
 70
0
 71
3
 72
49
 73
45
 74
0
 42
0.0000001
 43
0.0000001
 44
0.0000000001
 40
0.0
 40
0.0
 40
0.0
 40
0.0
 40
0.0237562817
 40
0.0465825719
 40
0.0684726399
 40
0.0894417303
 40
0.1095291468
 40
0.1288005852
 40
0.1473497706
 40
0.1652987628
 40
0.1827961855
 40
0.2000127556
 40
0.2171339576
 40
0.2343504839
 40
0.2518478212
 40
0.2697966909
 40
0.2883457225
 40
0.3076169821
 40
0.3277042015
 40
0.3486730827
 40
0.3705629353
 40
0.3933890092
 40
0.4171450782
 40
0.4418060074
 40
0.4673301689
 40
0.493661657
 40
0.5207322978
 40
0.5484634724
 40
0.5767677831
 40
0.6055505916
 40
0.6347114562
 40
0.6641454934
 40
0.6937446836
 40
0.72339914
 40
0.7529983557
 40
0.7824324436
 40
0.8115933836
 40
0.8403762912
 40
0.8686807237
 40
0.896412041
 40
0.9234828439
 40
0.9498145111
 40
0.975338866
 40
1.0
 40
1.0
 40
1.0
 40
1.0
 10
89.5390077048
 20
62.0392588834
 30
0.0
 10
89.5390077048
 20
62.0791978269
 30
0.0
 10
89.5414922632
 20
62.1575418242
 30
0.0
 10
89.5531714633
 20
62.2721616202
 30
0.0
 10
89.5726744601
 20
62.3809736454
 30
0.0
 10
89.5999064898
 20
62.4833705919
 30
0.0
 10
89.6347344962
 20
62.5787852467
 30
0.0
 10
89.6769874296
 20
62.6666809412
 30
0.0
 10
89.7264548177
 20
62.7465535141
 30
0.0
 10
89.7828829178
 20
62.8179309455
 30
0.0
 10
89.8459687882
 20
62.8803766936
 30
0.0
 10
89.9153547006
 20
62.9334977879
 30
0.0
 10
89.9906270789
 20
62.9769575668
 30
0.0
 10
90.071323229
 20
63.0104888839
 30
0.0
 10
90.1569448109
 20
63.0339018873
 30
0.0
 10
90.2469726417
 20
63.0470832451
 30
0.0
 10
90.3408771905
 20
63.0499888642
 30
0.0
 10
90.4381228277
 20
63.0426349841
 30
0.0
 10
90.5381676174
 20
63.0250914514
 30
0.0
 10
90.640461607
 20
62.9974782621
 30
0.0
 10
90.7444457048
 20
62.9599645659
 30
0.0
 10
90.8495519384
 20
62.9127688322
 30
0.0
 10
90.9552050397
 20
62.8561591715
 30
0.0
 10
91.0608249842
 20
62.790453272
 30
0.0
 10
91.1658301018
 20
62.7160177504
 30
0.0
 10
91.2696404716
 20
62.6332669058
 30
0.0
 10
91.3716814169
 20
62.5426609373
 30
0.0
 10
91.4713869908
 20
62.4447037047
 30
0.0
 10
91.5682033923
 20
62.3399401069
 30
0.0
 10
91.661592277
 20
62.2289531371
 30
0.0
 10
91.7510339424
 20
62.1123606662
 30
0.0
 10
91.8360303731
 20
61.9908119906
 30
0.0
 10
91.916108133
 20
61.8649841796
 30
0.0
 10
91.9908210948
 20
61.7355782493
 30
0.0
 10
92.0597529931
 20
61.6033151887
 30
0.0
 10
92.12251979
 20
61.4689318615
 30
0.0
 10
92.1787718399
 20
61.3331768126
 30
0.0
 10
92.2281958387
 20
61.1968059728
 30
0.0
 10
92.2705165406
 20
61.0605783984
 30
0.0
 10
92.3054982257
 20
60.9252516474
 30
0.0
 10
92.3329458914
 20
60.7915783571
 30
0.0
 10
92.3527061553
 20
60.6602985077
 30
0.0
 10
92.364667786
 20
60.532147302
 30
0.0
 10
92.3674466054
 20
60.447756042
 30
0.0
 10
92.3674466054
 20
60.4062958653
 30
0.0
  0
SPLINE
  5
2FC
100
AcDbEntity
  8
0
100
AcDbSpline
 62
7
  6
CONTINUOUS
 70
0
 71
3
 72
49
 73
45
 74
0
 42
0.0000001
 43
0.0000001
 44
0.0000000001
 40
0.0
 40
0.0
 40
0.0
 40
0.0
 40
0.024661134
 40
0.0501854889
 40
0.0765171561
 40
0.103587959
 40
0.1313192763
 40
0.1596237088
 40
0.1884066164
 40
0.2175675564
 40
0.2470016443
 40
0.27660086
 40
0.3062553164
 40
0.3358545066
 40
0.3652885438
 40
0.3944494084
 40
0.4232322169
 40
0.4515365276
 40
0.4792677022
 40
0.506338343
 40
0.5326698311
 40
0.5581939926
 40
0.5828549218
 40
0.6066109908
 40
0.6294370647
 40
0.6513269173
 40
0.6722957985
 40
0.6923830179
 40
0.7116542775
 40
0.7302033091
 40
0.7481521788
 40
0.7656495161
 40
0.7828660424
 40
0.7999872444
 40
0.8172038145
 40
0.8347012372
 40
0.8526502294
 40
0.8711994148
 40
0.8904708532
 40
0.9105582697
 40
0.9315273601
 40
0.9534174281
 40
0.9762437183
 40
1.0
 40
1.0
 40
1.0
 40
1.0
 10
91.8017399839
 20
63.3456401758
 30
0.0
 10
91.8017399839
 20
63.3041799992
 30
0.0
 10
91.8045188033
 20
63.2197887392
 30
0.0
 10
91.816480434
 20
63.0916375335
 30
0.0
 10
91.8362406979
 20
62.9603576841
 30
0.0
 10
91.8636883636
 20
62.8266843937
 30
0.0
 10
91.8986700487
 20
62.6913576428
 30
0.0
 10
91.9409907506
 20
62.5551300684
 30
0.0
 10
91.9904147494
 20
62.4187592285
 30
0.0
 10
92.0466667993
 20
62.2830041797
 30
0.0
 10
92.1094335962
 20
62.1486208524
 30
0.0
 10
92.1783654945
 20
62.0163577918
 30
0.0
 10
92.2530784563
 20
61.8869518615
 30
0.0
 10
92.3331562162
 20
61.7611240506
 30
0.0
 10
92.4181526469
 20
61.639575375
 30
0.0
 10
92.5075943123
 20
61.5229829041
 30
0.0
 10
92.600983197
 20
61.4119959343
 30
0.0
 10
92.6977995985
 20
61.3072323364
 30
0.0
 10
92.7975051724
 20
61.2092751039
 30
0.0
 10
92.8995461177
 20
61.1186691354
 30
0.0
 10
93.0033564875
 20
61.0359182908
 30
0.0
 10
93.1083616051
 20
60.9614827691
 30
0.0
 10
93.2139815496
 20
60.8957768696
 30
0.0
 10
93.3196346509
 20
60.839167209
 30
0.0
 10
93.4247408845
 20
60.7919714753
 30
0.0
 10
93.5287249823
 20
60.7544577791
 30
0.0
 10
93.6310189719
 20
60.7268445897
 30
0.0
 10
93.7310637616
 20
60.7093010571
 30
0.0
 10
93.8283093988
 20
60.7019471769
 30
0.0
 10
93.9222139476
 20
60.704852796
 30
0.0
 10
94.0122417784
 20
60.7180341539
 30
0.0
 10
94.0978633603
 20
60.7414471572
 30
0.0
 10
94.1785595104
 20
60.7749784743
 30
0.0
 10
94.2538318887
 20
60.8184382533
 30
0.0
 10
94.3232178011
 20
60.8715593475
 30
0.0
 10
94.3863036715
 20
60.9340050957
 30
0.0
 10
94.4427317716
 20
61.0053825271
 30
0.0
 10
94.4921991597
 20
61.0852550999
 30
0.0
 10
94.5344520931
 20
61.1731507945
 30
0.0
 10
94.5692800995
 20
61.2685654493
 30
0.0
 10
94.5965121292
 20
61.3709623957
 30
0.0
 10
94.616015126
 20
61.479774421
 30
0.0
 10
94.6276943261
 20
61.594394217
 30
0.0
 10
94.6301788845
 20
61.6727382143
 30
0.0
 10
94.6301788845
 20
61.7126771577
 30
0.0
  0
SPLINE
  5
2FD
100
AcDbEntity
  8
0
100
AcDbSpline
 62
7
  6
CONTINUOUS
 70
0
 71
3
 72
49
 73
45
 74
0
 42
0.0000001
 43
0.0000001
 44
0.0000000001
 40
0.0
 40
0.0
 40
0.0
 40
0.0
 40
0.0237562817
 40
0.0465825719
 40
0.0684726399
 40
0.0894417303
 40
0.1095291468
 40
0.1288005852
 40
0.1473497706
 40
0.1652987628
 40
0.1827961855
 40
0.2000127556
 40
0.2171339576
 40
0.2343504839
 40
0.2518478212
 40
0.2697966909
 40
0.2883457225
 40
0.3076169821
 40
0.3277042015
 40
0.3486730827
 40
0.3705629353
 40
0.3933890092
 40
0.4171450782
 40
0.4418060074
 40
0.4673301689
 40
0.493661657
 40
0.5207322978
 40
0.5484634724
 40
0.5767677831
 40
0.6055505916
 40
0.6347114562
 40
0.6641454934
 40
0.6937446836
 40
0.72339914
 40
0.7529983557
 40
0.7824324436
 40
0.8115933836
 40
0.8403762912
 40
0.8686807237
 40
0.896412041
 40
0.9234828439
 40
0.9498145111
 40
0.975338866
 40
1.0
 40
1.0
 40
1.0
 40
1.0
 10
92.3674466054
 20
60.4062958653
 30
0.0
 10
92.3674466054
 20
60.3663569219
 30
0.0
 10
92.364962047
 20
60.2880129246
 30
0.0
 10
92.353282847
 20
60.1733931286
 30
0.0
 10
92.3337798501
 20
60.0645811034
 30
0.0
 10
92.3065478204
 20
59.9621841569
 30
0.0
 10
92.271719814
 20
59.8667695021
 30
0.0
 10
92.2294668806
 20
59.7788738075
 30
0.0
 10
92.1799994925
 20
59.6990012347
 30
0.0
 10
92.1235713924
 20
59.6276238033
 30
0.0
 10
92.060485522
 20
59.5651780551
 30
0.0
 10
91.9910996097
 20
59.5120569609
 30
0.0
 10
91.9158272313
 20
59.4685971819
 30
0.0
 10
91.8351310812
 20
59.4350658648
 30
0.0
 10
91.7495094994
 20
59.4116528615
 30
0.0
 10
91.6594816685
 20
59.3984715036
 30
0.0
 10
91.5655771197
 20
59.3955658845
 30
0.0
 10
91.4683314825
 20
59.4029197647
 30
0.0
 10
91.3682866928
 20
59.4204632973
 30
0.0
 10
91.2659927032
 20
59.4480764867
 30
0.0
 10
91.1620086054
 20
59.4855901829
 30
0.0
 10
91.0569023718
 20
59.5327859166
 30
0.0
 10
90.9512492706
 20
59.5893955772
 30
0.0
 10
90.8456293261
 20
59.6551014768
 30
0.0
 10
90.7406242085
 20
59.7295369984
 30
0.0
 10
90.6368138386
 20
59.812287843
 30
0.0
 10
90.5347728933
 20
59.9028938115
 30
0.0
 10
90.4350673194
 20
60.000851044
 30
0.0
 10
90.3382509179
 20
60.1056146419
 30
0.0
 10
90.2448620332
 20
60.2166016117
 30
0.0
 10
90.1554203678
 20
60.3331940826
 30
0.0
 10
90.0704239372
 20
60.4547427582
 30
0.0
 10
89.9903461772
 20
60.5805705691
 30
0.0
 10
89.9156332154
 20
60.7099764995
 30
0.0
 10
89.8467013171
 20
60.84223956
 30
0.0
 10
89.7839345202
 20
60.9766228873
 30
0.0
 10
89.7276824703
 20
61.1123779361
 30
0.0
 10
89.6782584716
 20
61.248748776
 30
0.0
 10
89.6359377697
 20
61.3849763504
 30
0.0
 10
89.6009560845
 20
61.5203031013
 30
0.0
 10
89.5735084188
 20
61.6539763917
 30
0.0
 10
89.5537481549
 20
61.7852562411
 30
0.0
 10
89.5417865243
 20
61.9134074468
 30
0.0
 10
89.5390077048
 20
61.9977987068
 30
0.0
 10
89.5390077048
 20
62.0392588834
 30
0.0
  0
ELLIPSE
  5
2FE
100
AcDbEntity
  8
0
100
AcDbEllipse
 62
7
  6
CONTINUOUS
 10
50.516177809
 20
118.0563903702
 30
0.0
 11
81.0305251754
 21
49.9951365615
 31
0.0
 40
0.0301986124
 41
1.7502968775
 42
1.7618101772
  0
ELLIPSE
  5
2FF
100
AcDbEntity
  8
0
100
AcDbEllipse
 62
7
  6
CONTINUOUS
 10
86.7201957365
 20
58.7788501336
 30
0.0
 11
81.0305251754
 21
49.9951365615
 31
0.0
 40
0.0301986124
 41
1.7502968775
 42
1.7618101772
  0
ELLIPSE
  5
300
100
AcDbEntity
  8
0
100
AcDbEllipse
 62
7
  6
CONTINUOUS
 10
91.730890645
 20
34.0731691315
 30
0.0
 11
-58.7845705283
 21
101.8417502666
 31
0.0
 40
0.5773567911
 41
-0.5857823212
 42
-0.5653633929
  0
ELLIPSE
  5
301
100
AcDbEntity
  8
0
100
AcDbEllipse
 62
7
  6
CONTINUOUS
 10
91.730890645
 20
34.0731691315
 30
0.0
 11
-58.7845705283
 21
101.8417502666
 31
0.0
 40
0.5773567911
 41
-1.0051870561
 42
-0.9847681277
  0
ELLIPSE
  5
302
100
AcDbEntity
  8
0
100
AcDbEllipse
 62
7
  6
CONTINUOUS
 10
53.9715457377
 20
147.6499258538
 30
0.0
 11
-58.7845705283
 21
101.8417502666
 31
0.0
 40
0.5773567911
 41
-3.7273749748
 42
-3.7069560464
  0
ELLIPSE
  5
303
100
AcDbEntity
  8
0
100
AcDbEllipse
 62
7
  6
CONTINUOUS
 10
53.9715457377
 20
12.2729313148
 30
0.0
 11
-58.7845705283
 21
101.8417502666
 31
0.0
 40
0.5773567911
 41
-0.5857823212
 42
-0.5653633929
  0
ELLIPSE
  5
304
100
AcDbEntity
  8
0
100
AcDbEllipse
 62
7
  6
CONTINUOUS
 10
53.9715457377
 20
12.2729313148
 30
0.0
 11
-58.7845705283
 21
101.8417502666
 31
0.0
 40
0.5773567911
 41
-1.0051870561
 42
-0.9847681277
  0
ENDSEC
  0
SECTION
  2
OBJECTS
  0
DICTIONARY
  5
C
100
AcDbDictionary
280
0
281
1
  3
ACAD_GROUP
350
D
  3
ACAD_MLINESTYLE
350
17
  3
ACAD_LAYOUT
350
1A
  3
ACAD_PLOTSETTINGS
350
19
  3
ACAD_PLOTSTYLENAME
350
E
  0
DICTIONARY
  5
D
102
{ACAD_REACTORS
330
C
102
}
100
AcDbDictionary
280
0
281
1
  0
ACDBDICTIONARYWDFLT
  5
E
102
{ACAD_REACTORS
330
C
102
}
100
AcDbDictionary
281
1
  3
Normal
350
F
100
AcDbDictionaryWithDefault
340
F
  0
DICTIONARY
  5
17
102
{ACAD_REACTORS
330
C
102
}
100
AcDbDictionary
280
0
281
1
  3
Standard
350
18
  0
DICTIONARY
  5
19
102
{ACAD_REACTORS
330
C
102
}
100
AcDbDictionary
281
1
  0
DICTIONARY
  5
1A
102
{ACAD_REACTORS
330
C
102
}
100
AcDbDictionary
281
1
  3
Model
350
305
  3
Layout1
350
306
  0
ACDBPLACEHOLDER
  5
F
102
{ACAD_REACTORS
330
E
102
}
  0
MLINESTYLE
  5
18
102
{ACAD_REACTORS
330
17
102
}
100
AcDbMlineStyle
  2
STANDARD
 70
0
  3

 62
256
 51
90.0
 52
90.0
 71
2
 49
0.5
 62
256
  6
BYLAYER
 49
-0.5
 62
256
  6
BYLAYER
  0
LAYOUT
  5
305
102
{ACAD_REACTORS
330
1A
102
}
100
AcDbPlotSettings
  1

  2
none_device
  4

  6

 40
0.0
 41
0.0
 42
0.0
 43
0.0
 44
210.0
 45
297.0
 46
0.0
 47
0.0
 48
0.0
 49
0.0
140
0.0
141
0.0
142
1.0
143
1.0
 70
1024
 72
1
 73
0
 74
0
  7

 75
0
147
1.0
148
0.0
149
0.0
100
AcDbLayout
  1
Model
 70
0
 71
0
 10
0.0
 20
0.0
 11
210.0
 21
297.0
 12
0.0
 22
0.0
 32
0.0
 14
0.0
 24
0.0
 34
0.0
 15
0.0
 25
0.0
 35
0.0
146
0.0
 13
0.0
 23
0.0
 33
0.0
 16
1.0
 26
0.0
 36
0.0
 17
0.0
 27
1.0
 37
0.0
 76
0
330
210
345
0
346
0
  0
LAYOUT
  5
306
102
{ACAD_REACTORS
330
1A
102
}
100
AcDbPlotSettings
  1

  2
none_device
  4

  6

 40
0.0
 41
0.0
 42
0.0
 43
0.0
 44
210.0
 45
297.0
 46
0.0
 47
0.0
 48
0.0
 49
0.0
140
0.0
141
0.0
142
1.0
143
1.0
 70
0
 72
1
 73
0
 74
0
  7

 75
0
147
1.0
148
0.0
149
0.0
100
AcDbLayout
  1
Layout1
 70
0
 71
1
 10
0.0
 20
0.0
 11
210.0
 21
297.0
 12
0.0
 22
0.0
 32
0.0
 14
0.0
 24
0.0
 34
0.0
 15
0.0
 25
0.0
 35
0.0
146
0.0
 13
0.0
 23
0.0
 33
0.0
 16
1.0
 26
0.0
 36
0.0
 17
0.0
 27
1.0
 37
0.0
 76
0
330
211
345
0
346
0
  0
ENDSEC
  0
EOF
