  0
SECTION
  2
HEADER
  9
$ACADVER
  1
AC1009
  9
$DWGCODEPAGE
  3
ansi_1250
  9
$INSBASE
 10
0.0
 20
0.0
 30
0.0
  9
$EXTMIN
 10
-6.062992
 20
0.0
 30
0.0
  9
$EXTMAX
 10
6.062992
 20
4.082677
 30
0.0
  9
$LIMMIN
 10
0.0
 20
0.0
  9
$LIMMAX
 10
0.0
 20
0.0
  9
$ORTHOMODE
 70
     0
  9
$REGENMODE
 70
     1
  9
$FILLMODE
 70
     1
  9
$QTEXTMODE
 70
     0
  9
$MIRRTEXT
 70
     1
  9
$DRAGMODE
 70
     2
  9
$LTSCALE
 40
1.0
  9
$OSMODE
 70
     0
  9
$ATTMODE
 70
     1
  9
$TEXTSIZE
 40
0.2
  9
$TRACEWID
 40
0.05
  9
$TEXTSTYLE
  7
STANDARD
  9
$CLAYER
  8
0
  9
$CELTYPE
  6
CONTINUOUS
  9
$CECOLOR
 62
   256
  9
$DIMSCALE
 40
1.0
  9
$DIMASZ
 40
0.18
  9
$DIMEXO
 40
0.0625
  9
$DIMDLI
 40
0.38
  9
$DIMRND
 40
0.0
  9
$DIMDLE
 40
0.0
  9
$DIMEXE
 40
0.18
  9
$DIMTP
 40
0.0
  9
$DIMTM
 40
0.0
  9
$DIMTXT
 40
0.18
  9
$DIMCEN
 40
0.09
  9
$DIMTSZ
 40
0.0
  9
$DIMTOL
 70
     0
  9
$DIMLIM
 70
     0
  9
$DIMTIH
 70
     1
  9
$DIMTOH
 70
     1
  9
$DIMSE1
 70
     0
  9
$DIMSE2
 70
     0
  9
$DIMTAD
 70
     0
  9
$DIMZIN
 70
     0
  9
$DIMBLK
  1

  9
$DIMASO
 70
     1
  9
$DIMSHO
 70
     1
  9
$DIMPOST
  1

  9
$DIMAPOST
  1

  9
$DIMALT
 70
     0
  9
$DIMALTD
 70
     2
  9
$DIMALTF
 40
25.4
  9
$DIMLFAC
 40
1.0
  9
$DIMTOFL
 70
     0
  9
$DIMTVP
 40
0.0
  9
$DIMTIX
 70
     0
  9
$DIMSOXD
 70
     0
  9
$DIMSAH
 70
     0
  9
$DIMBLK1
  1

  9
$DIMBLK2
  1

  9
$DIMSTYLE
  2
STANDARD
  9
$DIMCLRD
 70
     0
  9
$DIMCLRE
 70
     0
  9
$DIMCLRT
 70
     0
  9
$DIMTFAC
 40
1.0
  9
$DIMGAP
 40
0.09
  9
$LUNITS
 70
     2
  9
$LUPREC
 70
     4
  9
$AXISMODE
 70
     0
  9
$AXISUNIT
 10
0.0
 20
0.0
  9
$SKETCHINC
 40
0.1
  9
$FILLETRAD
 40
0.0
  9
$AUNITS
 70
     0
  9
$AUPREC
 70
     0
  9
$MENU
  1
acad
  9
$ELEVATION
 40
0.0
  9
$PELEVATION
 40
0.0
  9
$THICKNESS
 40
0.0
  9
$LIMCHECK
 70
     0
  9
$BLIPMODE
 70
     1
  9
$CHAMFERA
 40
0.0
  9
$CHAMFERB
 40
0.0
  9
$SKPOLY
 70
     0
  9
$TDCREATE
 40
0.000000000
  9
$TDUPDATE
 40
0.000000000
  9
$TDINDWG
 40
0.0000000000
  9
$TDUSRTIMER
 40
0.0000000000
  9
$USRTIMER
 70
     1
  9
$ANGBASE
 50
0.0
  9
$ANGDIR
 70
     0
  9
$PDMODE
 70
     0
  9
$PDSIZE
 40
0.0
  9
$PLINEWID
 40
0.0
  9
$COORDS
 70
     0
  9
$SPLFRAME
 70
     0
  9
$SPLINETYPE
 70
     6
  9
$SPLINESEGS
 70
     8
  9
$ATTDIA
 70
     0
  9
$ATTREQ
 70
     1
  9
$HANDLING
 70
     1
  9
$HANDSEED
  5
3E1
  9
$SURFTAB1
 70
     6
  9
$SURFTAB2
 70
     6
  9
$SURFTYPE
 70
     6
  9
$SURFU
 70
     6
  9
$SURFV
 70
     6
  9
$UCSNAME
  2

  9
$UCSORG
 10
0.0
 20
0.0
 30
0.0
  9
$UCSXDIR
 10
1.0
 20
0.0
 30
0.0
  9
$UCSYDIR
 10
0.0
 20
1.0
 30
0.0
  9
$PUCSNAME
  2

  9
$PUCSORG
 10
0.0
 20
0.0
 30
0.0
  9
$PUCSXDIR
 10
1.0
 20
0.0
 30
0.0
  9
$PUCSYDIR
 10
0.0
 20
1.0
 30
0.0
  9
$USERI1
 70
     0
  9
$USERI2
 70
     0
  9
$USERI3
 70
     0
  9
$USERI4
 70
     0
  9
$USERI5
 70
     0
  9
$USERR1
 40
0.0
  9
$USERR2
 40
0.0
  9
$USERR3
 40
0.0
  9
$USERR4
 40
0.0
  9
$USERR5
 40
0.0
  9
$WORLDVIEW
 70
     1
  9
$SHADEDGE
 70
     3
  9
$SHADEDIF
 70
    70
  9
$TILEMODE
 70
     1
  9
$MAXACTVP
 70
    16
  9
$PINSBASE
 10
0.0
 20
0.0
 30
0.0
  9
$PLIMCHECK
 70
     0
  9
$PEXTMIN
 10
1.000000E+20
 20
1.000000E+20
 30
1.000000E+20
  9
$PEXTMAX
 10
-1.000000E+20
 20
-1.000000E+20
 30
-1.000000E+20
  9
$PLIMMIN
 10
0.0
 20
0.0
  9
$PLIMMAX
 10
12.0
 20
9.0
  9
$UNITMODE
 70
     0
  9
$VISRETAIN
 70
     0
  9
$PLINEGEN
 70
     1
  9
$PSLTSCALE
 70
     0
  9
$TREEDEPTH
 70
  3020
  0
ENDSEC
  0
SECTION
  2
TABLES
  0
TABLE
  2
VPORT
 70
     1
  0
VPORT
  2
*ACTIVE
 70
     0
 10
0.0
 20
0.0
 11
1.0
 21
1.0
 12
6.591288
 22
4.579184
 13
0.0
 23
0.0
 14
1.0
 24
1.0
 15
0.0
 25
0.0
 16
0.0
 26
0.0
 36
1.0
 17
0.0
 27
0.0
 37
0.0
 40
9.158369
 41
0.688564
 42
50.0
 43
0.0
 44
0.0
 50
0.0
 51
0.0
 71
     0
 72
   100
 73
     1
 74
     1
 75
     0
 76
     0
 77
     0
 78
     0
  0
ENDTAB
  0
TABLE
  2
LTYPE
 70
     5
  0
LTYPE
  2
CONTINUOUS
 70
    64
  3
Solid line
 72
    65
 73
     0
 40
0.0
  0
LTYPE
  2
CENTER
 70
    64
  3
Center ____ _ ____ _ ____ _ ____ _ ____ _ ____
 72
    65
 73
     4
 40
50.8
 49
31.75
 49
-6.35
 49
6.35
 49
-6.35
  0
LTYPE
  2
HIDDEN
 70
    64
  3
Hidden __ __ __ __ __ __ __ __ __ __ __ __ __ __
 72
    65
 73
     2
 40
9.525
 49
6.35
 49
-3.175
  0
LTYPE
  2
CENTER2
 70
    64
  3
Center (.5x) ___ _ ___ _ ___ _ ___ _ ___ _ ___
 72
    65
 73
     4
 40
28.575
 49
19.05
 49
-3.175
 49
3.175
 49
-3.175
  0
LTYPE
  2
HIDDEN2
 70
    64
  3
Hidden (.5x) _ _ _ _ _ _ _ _ _ _ _ _ _ _ _ _ _
 72
    65
 73
     2
 40
4.7625
 49
3.175
 49
-1.5875
  0
ENDTAB
  0
TABLE
  2
LAYER
 70
     1
  0
LAYER
  2
0
 70
     0
 62
     7
  6
CONTINUOUS
  0
ENDTAB
  0
TABLE
  2
STYLE
 70
     1
  0
STYLE
  2
STANDARD
 70
     0
 40
0.0
 41
1.0
 50
0.0
 71
     0
 42
0.0
  3
txt
  4

  0
ENDTAB
  0
TABLE
  2
VIEW
 70
     0
  0
ENDTAB
  0
TABLE
  2
UCS
 70
     0
  0
ENDTAB
  0
TABLE
  2
APPID
 70
     1
  0
APPID
  2
ACAD
 70
     0
  0
ENDTAB
  0
TABLE
  2
DIMSTYLE
 70
     1
  0
DIMSTYLE
  2
STANDARD
 70
     0
  3

  4

  5

  6

  7

 40
1.0
 41
0.18
 42
0.0625
 43
0.38
 44
0.18
 45
0.0
 46
0.0
 47
0.0
 48
0.0
 71
     0
 72
     0
 73
     1
 74
     1
 75
     0
 76
     0
 77
     0
 78
     0
140
0.18
141
0.09
142
0.0
143
25.4
144
1.0
145
0.0
146
1.0
147
0.09
170
     0
171
     2
172
     0
173
     0
174
     0
175
     0
176
     0
177
     0
178
     0
  0
ENDTAB
  0
ENDSEC
  0
SECTION
  2
BLOCKS
  0
ENDSEC
  0
SECTION
  2
ENTITIES
  0
LINE
  8
0
  6
CONTINUOUS
 62
     7
  5
21D
 10
-4.098524
 20
3.148819
 30
0.0
 11
-4.019783
 21
3.148819
 31
0.0
  0
LINE
  8
0
  6
CONTINUOUS
 62
     7
  5
21E
 10
-4.019783
 20
2.114567
 30
0.0
 11
-4.098524
 21
2.114567
 31
0.0
  0
LINE
  8
0
  6
CONTINUOUS
 62
     7
  5
21F
 10
-4.098524
 20
2.114567
 30
0.0
 11
-4.098524
 21
3.148819
 31
0.0
  0
LINE
  8
0
  6
CONTINUOUS
 62
     7
  5
220
 10
-4.019783
 20
3.148819
 30
0.0
 11
-4.019783
 21
2.114567
 31
0.0
  0
ARC
  8
0
  6
CONTINUOUS
 62
     7
  5
221
 10
-3.990256
 20
2.122076
 30
0.0
 40
0.035433
 50
285.0
 51
0.0
  0
LINE
  8
0
  6
CONTINUOUS
 62
     7
  5
222
 10
-3.981085
 20
2.08785
 30
0.0
 11
-4.11888
 21
2.050928
 31
0.0
  0
ARC
  8
0
  6
CONTINUOUS
 62
     7
  5
223
 10
-4.128051
 20
2.085154
 30
0.0
 40
0.035433
 50
180.0
 51
285.0
  0
LINE
  8
0
  6
CONTINUOUS
 62
     7
  5
224
 10
-4.163484
 20
2.085154
 30
0.0
 11
-4.163484
 21
3.178232
 31
0.0
  0
ARC
  8
0
  6
CONTINUOUS
 62
     7
  5
225
 10
-4.128051
 20
3.178232
 30
0.0
 40
0.035433
 50
75.0
 51
180.0
  0
LINE
  8
0
  6
CONTINUOUS
 62
     7
  5
226
 10
-4.11888
 20
3.212458
 30
0.0
 11
-3.981085
 21
3.175536
 31
0.0
  0
ARC
  8
0
  6
CONTINUOUS
 62
     7
  5
227
 10
-3.990256
 20
3.14131
 30
0.0
 40
0.035433
 50
0.0
 51
75.0
  0
LINE
  8
0
  6
CONTINUOUS
 62
     7
  5
228
 10
-3.954823
 20
3.14131
 30
0.0
 11
-3.954823
 21
2.122076
 31
0.0
  0
LINE
  8
0
  6
CONTINUOUS
 62
     7
  5
229
 10
5.618012
 20
2.646063
 30
0.0
 11
5.696752
 21
2.646063
 31
0.0
  0
LINE
  8
0
  6
CONTINUOUS
 62
     7
  5
22A
 10
5.696752
 20
1.611811
 30
0.0
 11
5.618012
 21
1.611811
 31
0.0
  0
LINE
  8
0
  6
CONTINUOUS
 62
     7
  5
22B
 10
5.618012
 20
1.611811
 30
0.0
 11
5.618012
 21
2.646063
 31
0.0
  0
LINE
  8
0
  6
CONTINUOUS
 62
     7
  5
22C
 10
5.696752
 20
2.646063
 30
0.0
 11
5.696752
 21
1.611811
 31
0.0
  0
ARC
  8
0
  6
CONTINUOUS
 62
     7
  5
22D
 10
5.72628
 20
1.61932
 30
0.0
 40
0.035433
 50
285.0
 51
0.0
  0
LINE
  8
0
  6
CONTINUOUS
 62
     7
  5
22E
 10
5.73545
 20
1.585094
 30
0.0
 11
5.597655
 21
1.548172
 31
0.0
  0
ARC
  8
0
  6
CONTINUOUS
 62
     7
  5
22F
 10
5.588484
 20
1.582398
 30
0.0
 40
0.035433
 50
180.0
 51
285.0
  0
LINE
  8
0
  6
CONTINUOUS
 62
     7
  5
230
 10
5.553051
 20
1.582398
 30
0.0
 11
5.553051
 21
2.675476
 31
0.0
  0
ARC
  8
0
  6
CONTINUOUS
 62
     7
  5
231
 10
5.588484
 20
2.675476
 30
0.0
 40
0.035433
 50
75.0
 51
180.0
  0
LINE
  8
0
  6
CONTINUOUS
 62
     7
  5
232
 10
5.597655
 20
2.709702
 30
0.0
 11
5.73545
 21
2.67278
 31
0.0
  0
ARC
  8
0
  6
CONTINUOUS
 62
     7
  5
233
 10
5.72628
 20
2.638554
 30
0.0
 40
0.035433
 50
0.0
 51
75.0
  0
LINE
  8
0
  6
CONTINUOUS
 62
     7
  5
234
 10
5.761713
 20
2.638554
 30
0.0
 11
5.761713
 21
1.61932
 31
0.0
  0
LINE
  8
0
  6
CONTINUOUS
 62
     7
  5
235
 10
-3.381974
 20
3.148819
 30
0.0
 11
-3.303234
 21
3.148819
 31
0.0
  0
LINE
  8
0
  6
CONTINUOUS
 62
     7
  5
236
 10
-3.303234
 20
2.114567
 30
0.0
 11
-3.381974
 21
2.114567
 31
0.0
  0
LINE
  8
0
  6
CONTINUOUS
 62
     7
  5
237
 10
-3.381974
 20
2.114567
 30
0.0
 11
-3.381974
 21
3.148819
 31
0.0
  0
LINE
  8
0
  6
CONTINUOUS
 62
     7
  5
238
 10
-3.303234
 20
3.148819
 30
0.0
 11
-3.303234
 21
2.114567
 31
0.0
  0
ARC
  8
0
  6
CONTINUOUS
 62
     7
  5
239
 10
-3.273707
 20
2.122076
 30
0.0
 40
0.035433
 50
285.0
 51
0.0
  0
LINE
  8
0
  6
CONTINUOUS
 62
     7
  5
23A
 10
-3.264536
 20
2.08785
 30
0.0
 11
-3.402331
 21
2.050928
 31
0.0
  0
ARC
  8
0
  6
CONTINUOUS
 62
     7
  5
23B
 10
-3.411502
 20
2.085154
 30
0.0
 40
0.035433
 50
180.0
 51
285.0
  0
LINE
  8
0
  6
CONTINUOUS
 62
     7
  5
23C
 10
-3.446935
 20
2.085154
 30
0.0
 11
-3.446935
 21
3.178232
 31
0.0
  0
ARC
  8
0
  6
CONTINUOUS
 62
     7
  5
23D
 10
-3.411502
 20
3.178232
 30
0.0
 40
0.035433
 50
75.0
 51
180.0
  0
LINE
  8
0
  6
CONTINUOUS
 62
     7
  5
23E
 10
-3.402331
 20
3.212458
 30
0.0
 11
-3.264536
 21
3.175536
 31
0.0
  0
ARC
  8
0
  6
CONTINUOUS
 62
     7
  5
23F
 10
-3.273707
 20
3.14131
 30
0.0
 40
0.035433
 50
0.0
 51
75.0
  0
LINE
  8
0
  6
CONTINUOUS
 62
     7
  5
240
 10
-3.238274
 20
3.14131
 30
0.0
 11
-3.238274
 21
2.122076
 31
0.0
  0
LINE
  8
0
  6
CONTINUOUS
 62
     7
  5
241
 10
-2.09851
 20
3.148819
 30
0.0
 11
-2.01977
 21
3.148819
 31
0.0
  0
LINE
  8
0
  6
CONTINUOUS
 62
     7
  5
242
 10
-2.01977
 20
2.114567
 30
0.0
 11
-2.09851
 21
2.114567
 31
0.0
  0
LINE
  8
0
  6
CONTINUOUS
 62
     7
  5
243
 10
-2.09851
 20
2.114567
 30
0.0
 11
-2.09851
 21
3.148819
 31
0.0
  0
LINE
  8
0
  6
CONTINUOUS
 62
     7
  5
244
 10
-2.01977
 20
3.148819
 30
0.0
 11
-2.01977
 21
2.114567
 31
0.0
  0
ARC
  8
0
  6
CONTINUOUS
 62
     7
  5
245
 10
-1.990242
 20
2.122076
 30
0.0
 40
0.035433
 50
285.0
 51
0.0
  0
LINE
  8
0
  6
CONTINUOUS
 62
     7
  5
246
 10
-1.981071
 20
2.08785
 30
0.0
 11
-2.118867
 21
2.050928
 31
0.0
  0
ARC
  8
0
  6
CONTINUOUS
 62
     7
  5
247
 10
-2.128037
 20
2.085154
 30
0.0
 40
0.035433
 50
180.0
 51
285.0
  0
LINE
  8
0
  6
CONTINUOUS
 62
     7
  5
248
 10
-2.16347
 20
2.085154
 30
0.0
 11
-2.16347
 21
3.178232
 31
0.0
  0
ARC
  8
0
  6
CONTINUOUS
 62
     7
  5
249
 10
-2.128037
 20
3.178232
 30
0.0
 40
0.035433
 50
75.0
 51
180.0
  0
LINE
  8
0
  6
CONTINUOUS
 62
     7
  5
24A
 10
-2.118867
 20
3.212458
 30
0.0
 11
-1.981071
 21
3.175536
 31
0.0
  0
ARC
  8
0
  6
CONTINUOUS
 62
     7
  5
24B
 10
-1.990242
 20
3.14131
 30
0.0
 40
0.035433
 50
0.0
 51
75.0
  0
LINE
  8
0
  6
CONTINUOUS
 62
     7
  5
24C
 10
-1.954809
 20
3.14131
 30
0.0
 11
-1.954809
 21
2.122076
 31
0.0
  0
LINE
  8
0
  6
CONTINUOUS
 62
     7
  5
24D
 10
-0.815045
 20
3.148819
 30
0.0
 11
-0.736305
 21
3.148819
 31
0.0
  0
LINE
  8
0
  6
CONTINUOUS
 62
     7
  5
24E
 10
-0.736305
 20
2.114567
 30
0.0
 11
-0.815045
 21
2.114567
 31
0.0
  0
LINE
  8
0
  6
CONTINUOUS
 62
     7
  5
24F
 10
-0.815045
 20
2.114567
 30
0.0
 11
-0.815045
 21
3.148819
 31
0.0
  0
LINE
  8
0
  6
CONTINUOUS
 62
     7
  5
250
 10
-0.736305
 20
3.148819
 30
0.0
 11
-0.736305
 21
2.114567
 31
0.0
  0
ARC
  8
0
  6
CONTINUOUS
 62
     7
  5
251
 10
-0.706778
 20
2.122076
 30
0.0
 40
0.035433
 50
285.0
 51
0.0
  0
LINE
  8
0
  6
CONTINUOUS
 62
     7
  5
252
 10
-0.697607
 20
2.08785
 30
0.0
 11
-0.835402
 21
2.050928
 31
0.0
  0
ARC
  8
0
  6
CONTINUOUS
 62
     7
  5
253
 10
-0.844573
 20
2.085154
 30
0.0
 40
0.035433
 50
180.0
 51
285.0
  0
LINE
  8
0
  6
CONTINUOUS
 62
     7
  5
254
 10
-0.880006
 20
2.085154
 30
0.0
 11
-0.880006
 21
3.178232
 31
0.0
  0
ARC
  8
0
  6
CONTINUOUS
 62
     7
  5
255
 10
-0.844573
 20
3.178232
 30
0.0
 40
0.035433
 50
75.0
 51
180.0
  0
LINE
  8
0
  6
CONTINUOUS
 62
     7
  5
256
 10
-0.835402
 20
3.212458
 30
0.0
 11
-0.697607
 21
3.175536
 31
0.0
  0
ARC
  8
0
  6
CONTINUOUS
 62
     7
  5
257
 10
-0.706778
 20
3.14131
 30
0.0
 40
0.035433
 50
0.0
 51
75.0
  0
LINE
  8
0
  6
CONTINUOUS
 62
     7
  5
258
 10
-0.671344
 20
3.14131
 30
0.0
 11
-0.671344
 21
2.122076
 31
0.0
  0
LINE
  8
0
  6
CONTINUOUS
 62
     7
  5
259
 10
0.468419
 20
3.148819
 30
0.0
 11
0.547159
 21
3.148819
 31
0.0
  0
LINE
  8
0
  6
CONTINUOUS
 62
     7
  5
25A
 10
0.547159
 20
2.114567
 30
0.0
 11
0.468419
 21
2.114567
 31
0.0
  0
LINE
  8
0
  6
CONTINUOUS
 62
     7
  5
25B
 10
0.468419
 20
2.114567
 30
0.0
 11
0.468419
 21
3.148819
 31
0.0
  0
LINE
  8
0
  6
CONTINUOUS
 62
     7
  5
25C
 10
0.547159
 20
3.148819
 30
0.0
 11
0.547159
 21
2.114567
 31
0.0
  0
ARC
  8
0
  6
CONTINUOUS
 62
     7
  5
25D
 10
0.576687
 20
2.122076
 30
0.0
 40
0.035433
 50
285.0
 51
0.0
  0
LINE
  8
0
  6
CONTINUOUS
 62
     7
  5
25E
 10
0.585858
 20
2.08785
 30
0.0
 11
0.448062
 21
2.050928
 31
0.0
  0
ARC
  8
0
  6
CONTINUOUS
 62
     7
  5
25F
 10
0.438892
 20
2.085154
 30
0.0
 40
0.035433
 50
180.0
 51
285.0
  0
LINE
  8
0
  6
CONTINUOUS
 62
     7
  5
260
 10
0.403459
 20
2.085154
 30
0.0
 11
0.403459
 21
3.178232
 31
0.0
  0
ARC
  8
0
  6
CONTINUOUS
 62
     7
  5
261
 10
0.438892
 20
3.178232
 30
0.0
 40
0.035433
 50
75.0
 51
180.0
  0
LINE
  8
0
  6
CONTINUOUS
 62
     7
  5
262
 10
0.448062
 20
3.212458
 30
0.0
 11
0.585858
 21
3.175536
 31
0.0
  0
ARC
  8
0
  6
CONTINUOUS
 62
     7
  5
263
 10
0.576687
 20
3.14131
 30
0.0
 40
0.035433
 50
0.0
 51
75.0
  0
LINE
  8
0
  6
CONTINUOUS
 62
     7
  5
264
 10
0.61212
 20
3.14131
 30
0.0
 11
0.61212
 21
2.122076
 31
0.0
  0
LINE
  8
0
  6
CONTINUOUS
 62
     7
  5
265
 10
1.751884
 20
3.148819
 30
0.0
 11
1.830624
 21
3.148819
 31
0.0
  0
LINE
  8
0
  6
CONTINUOUS
 62
     7
  5
266
 10
1.830624
 20
2.114567
 30
0.0
 11
1.751884
 21
2.114567
 31
0.0
  0
LINE
  8
0
  6
CONTINUOUS
 62
     7
  5
267
 10
1.751884
 20
2.114567
 30
0.0
 11
1.751884
 21
3.148819
 31
0.0
  0
LINE
  8
0
  6
CONTINUOUS
 62
     7
  5
268
 10
1.830624
 20
3.148819
 30
0.0
 11
1.830624
 21
2.114567
 31
0.0
  0
ARC
  8
0
  6
CONTINUOUS
 62
     7
  5
269
 10
1.860152
 20
2.122076
 30
0.0
 40
0.035433
 50
285.0
 51
0.0
  0
LINE
  8
0
  6
CONTINUOUS
 62
     7
  5
26A
 10
1.869322
 20
2.08785
 30
0.0
 11
1.731527
 21
2.050928
 31
0.0
  0
ARC
  8
0
  6
CONTINUOUS
 62
     7
  5
26B
 10
1.722356
 20
2.085154
 30
0.0
 40
0.035433
 50
180.0
 51
285.0
  0
LINE
  8
0
  6
CONTINUOUS
 62
     7
  5
26C
 10
1.686923
 20
2.085154
 30
0.0
 11
1.686923
 21
3.178232
 31
0.0
  0
ARC
  8
0
  6
CONTINUOUS
 62
     7
  5
26D
 10
1.722356
 20
3.178232
 30
0.0
 40
0.035433
 50
75.0
 51
180.0
  0
LINE
  8
0
  6
CONTINUOUS
 62
     7
  5
26E
 10
1.731527
 20
3.212458
 30
0.0
 11
1.869322
 21
3.175536
 31
0.0
  0
ARC
  8
0
  6
CONTINUOUS
 62
     7
  5
26F
 10
1.860152
 20
3.14131
 30
0.0
 40
0.035433
 50
0.0
 51
75.0
  0
LINE
  8
0
  6
CONTINUOUS
 62
     7
  5
270
 10
1.895585
 20
3.14131
 30
0.0
 11
1.895585
 21
2.122076
 31
0.0
  0
LINE
  8
0
  6
CONTINUOUS
 62
     7
  5
271
 10
3.035348
 20
3.148819
 30
0.0
 11
3.114089
 21
3.148819
 31
0.0
  0
LINE
  8
0
  6
CONTINUOUS
 62
     7
  5
272
 10
3.114089
 20
2.114567
 30
0.0
 11
3.035348
 21
2.114567
 31
0.0
  0
LINE
  8
0
  6
CONTINUOUS
 62
     7
  5
273
 10
3.035348
 20
2.114567
 30
0.0
 11
3.035348
 21
3.148819
 31
0.0
  0
LINE
  8
0
  6
CONTINUOUS
 62
     7
  5
274
 10
3.114089
 20
3.148819
 30
0.0
 11
3.114089
 21
2.114567
 31
0.0
  0
ARC
  8
0
  6
CONTINUOUS
 62
     7
  5
275
 10
3.143616
 20
2.122076
 30
0.0
 40
0.035433
 50
285.0
 51
0.0
  0
LINE
  8
0
  6
CONTINUOUS
 62
     7
  5
276
 10
3.152787
 20
2.08785
 30
0.0
 11
3.014992
 21
2.050928
 31
0.0
  0
ARC
  8
0
  6
CONTINUOUS
 62
     7
  5
277
 10
3.005821
 20
2.085154
 30
0.0
 40
0.035433
 50
180.0
 51
285.0
  0
LINE
  8
0
  6
CONTINUOUS
 62
     7
  5
278
 10
2.970388
 20
2.085154
 30
0.0
 11
2.970388
 21
3.178232
 31
0.0
  0
ARC
  8
0
  6
CONTINUOUS
 62
     7
  5
279
 10
3.005821
 20
3.178232
 30
0.0
 40
0.035433
 50
75.0
 51
180.0
  0
LINE
  8
0
  6
CONTINUOUS
 62
     7
  5
27A
 10
3.014992
 20
3.212458
 30
0.0
 11
3.152787
 21
3.175536
 31
0.0
  0
ARC
  8
0
  6
CONTINUOUS
 62
     7
  5
27B
 10
3.143616
 20
3.14131
 30
0.0
 40
0.035433
 50
0.0
 51
75.0
  0
LINE
  8
0
  6
CONTINUOUS
 62
     7
  5
27C
 10
3.179049
 20
3.14131
 30
0.0
 11
3.179049
 21
2.122076
 31
0.0
  0
LINE
  8
0
  6
CONTINUOUS
 62
     7
  5
27D
 10
4.318813
 20
3.148819
 30
0.0
 11
4.397553
 21
3.148819
 31
0.0
  0
LINE
  8
0
  6
CONTINUOUS
 62
     7
  5
27E
 10
4.397553
 20
2.114567
 30
0.0
 11
4.318813
 21
2.114567
 31
0.0
  0
LINE
  8
0
  6
CONTINUOUS
 62
     7
  5
27F
 10
4.318813
 20
2.114567
 30
0.0
 11
4.318813
 21
3.148819
 31
0.0
  0
LINE
  8
0
  6
CONTINUOUS
 62
     7
  5
280
 10
4.397553
 20
3.148819
 30
0.0
 11
4.397553
 21
2.114567
 31
0.0
  0
ARC
  8
0
  6
CONTINUOUS
 62
     7
  5
281
 10
4.427081
 20
2.122076
 30
0.0
 40
0.035433
 50
285.0
 51
0.0
  0
LINE
  8
0
  6
CONTINUOUS
 62
     7
  5
282
 10
4.436251
 20
2.08785
 30
0.0
 11
4.298456
 21
2.050928
 31
0.0
  0
ARC
  8
0
  6
CONTINUOUS
 62
     7
  5
283
 10
4.289285
 20
2.085154
 30
0.0
 40
0.035433
 50
180.0
 51
285.0
  0
LINE
  8
0
  6
CONTINUOUS
 62
     7
  5
284
 10
4.253852
 20
2.085154
 30
0.0
 11
4.253852
 21
3.178232
 31
0.0
  0
ARC
  8
0
  6
CONTINUOUS
 62
     7
  5
285
 10
4.289285
 20
3.178232
 30
0.0
 40
0.035433
 50
75.0
 51
180.0
  0
LINE
  8
0
  6
CONTINUOUS
 62
     7
  5
286
 10
4.298456
 20
3.212458
 30
0.0
 11
4.436251
 21
3.175536
 31
0.0
  0
ARC
  8
0
  6
CONTINUOUS
 62
     7
  5
287
 10
4.427081
 20
3.14131
 30
0.0
 40
0.035433
 50
0.0
 51
75.0
  0
LINE
  8
0
  6
CONTINUOUS
 62
     7
  5
288
 10
4.462514
 20
3.14131
 30
0.0
 11
4.462514
 21
2.122076
 31
0.0
  0
LINE
  8
0
  6
CONTINUOUS
 62
     7
  5
289
 10
4.515748
 20
3.403543
 30
0.0
 11
4.515748
 21
1.866929
 31
0.0
  0
LINE
  8
0
  6
CONTINUOUS
 62
     7
  5
28A
 10
4.515748
 20
1.866929
 30
0.0
 11
4.200787
 21
1.866929
 31
0.0
  0
LINE
  8
0
  6
CONTINUOUS
 62
     7
  5
28B
 10
4.200787
 20
1.866929
 30
0.0
 11
4.200787
 21
3.403543
 31
0.0
  0
LINE
  8
0
  6
CONTINUOUS
 62
     7
  5
28C
 10
4.200787
 20
3.403543
 30
0.0
 11
4.515748
 21
3.403543
 31
0.0
  0
LINE
  8
0
  6
CONTINUOUS
 62
     7
  5
28D
 10
4.515748
 20
3.403543
 30
0.0
 11
4.63189
 21
3.403543
 31
0.0
  0
LINE
  8
0
  6
CONTINUOUS
 62
     7
  5
28E
 10
-4.86811
 20
3.403543
 30
0.0
 11
-4.216535
 21
3.403543
 31
0.0
  0
LINE
  8
0
  6
CONTINUOUS
 62
     7
  5
28F
 10
-4.216535
 20
3.403543
 30
0.0
 11
-3.901575
 21
3.403543
 31
0.0
  0
LINE
  8
0
  6
CONTINUOUS
 62
     7
  5
290
 10
-3.901575
 20
3.403543
 30
0.0
 11
-3.5
 21
3.403543
 31
0.0
  0
LINE
  8
0
  6
CONTINUOUS
 62
     7
  5
291
 10
-3.5
 20
3.403543
 30
0.0
 11
-3.185039
 21
3.403543
 31
0.0
  0
LINE
  8
0
  6
CONTINUOUS
 62
     7
  5
292
 10
-3.185039
 20
3.403543
 30
0.0
 11
-2.216535
 21
3.403543
 31
0.0
  0
LINE
  8
0
  6
CONTINUOUS
 62
     7
  5
293
 10
-2.216535
 20
3.403543
 30
0.0
 11
-1.901575
 21
3.403543
 31
0.0
  0
LINE
  8
0
  6
CONTINUOUS
 62
     7
  5
294
 10
-1.901575
 20
3.403543
 30
0.0
 11
-0.933071
 21
3.403543
 31
0.0
  0
LINE
  8
0
  6
CONTINUOUS
 62
     7
  5
295
 10
-0.933071
 20
3.403543
 30
0.0
 11
-0.61811
 21
3.403543
 31
0.0
  0
LINE
  8
0
  6
CONTINUOUS
 62
     7
  5
296
 10
-0.61811
 20
3.403543
 30
0.0
 11
0.350394
 21
3.403543
 31
0.0
  0
LINE
  8
0
  6
CONTINUOUS
 62
     7
  5
297
 10
0.350394
 20
3.403543
 30
0.0
 11
0.665354
 21
3.403543
 31
0.0
  0
LINE
  8
0
  6
CONTINUOUS
 62
     7
  5
298
 10
0.665354
 20
3.403543
 30
0.0
 11
1.633858
 21
3.403543
 31
0.0
  0
LINE
  8
0
  6
CONTINUOUS
 62
     7
  5
299
 10
1.633858
 20
3.403543
 30
0.0
 11
1.948819
 21
3.403543
 31
0.0
  0
LINE
  8
0
  6
CONTINUOUS
 62
     7
  5
29A
 10
1.948819
 20
3.403543
 30
0.0
 11
2.917323
 21
3.403543
 31
0.0
  0
LINE
  8
0
  6
CONTINUOUS
 62
     7
  5
29B
 10
2.917323
 20
3.403543
 30
0.0
 11
3.232283
 21
3.403543
 31
0.0
  0
LINE
  8
0
  6
CONTINUOUS
 62
     7
  5
29C
 10
3.232283
 20
3.403543
 30
0.0
 11
4.200787
 21
3.403543
 31
0.0
  0
LINE
  8
0
  6
CONTINUOUS
 62
     7
  5
29D
 10
3.232283
 20
3.403543
 30
0.0
 11
3.232283
 21
1.866929
 31
0.0
  0
LINE
  8
0
  6
CONTINUOUS
 62
     7
  5
29E
 10
3.232283
 20
1.866929
 30
0.0
 11
2.917323
 21
1.866929
 31
0.0
  0
LINE
  8
0
  6
CONTINUOUS
 62
     7
  5
29F
 10
2.917323
 20
1.866929
 30
0.0
 11
2.917323
 21
3.403543
 31
0.0
  0
LINE
  8
0
  6
CONTINUOUS
 62
     7
  5
2A0
 10
1.948819
 20
3.403543
 30
0.0
 11
1.948819
 21
1.866929
 31
0.0
  0
LINE
  8
0
  6
CONTINUOUS
 62
     7
  5
2A1
 10
1.948819
 20
1.866929
 30
0.0
 11
1.633858
 21
1.866929
 31
0.0
  0
LINE
  8
0
  6
CONTINUOUS
 62
     7
  5
2A2
 10
1.633858
 20
1.866929
 30
0.0
 11
1.633858
 21
3.403543
 31
0.0
  0
LINE
  8
0
  6
CONTINUOUS
 62
     7
  5
2A3
 10
0.665354
 20
3.403543
 30
0.0
 11
0.665354
 21
1.866929
 31
0.0
  0
LINE
  8
0
  6
CONTINUOUS
 62
     7
  5
2A4
 10
0.665354
 20
1.866929
 30
0.0
 11
0.350394
 21
1.866929
 31
0.0
  0
LINE
  8
0
  6
CONTINUOUS
 62
     7
  5
2A5
 10
0.350394
 20
1.866929
 30
0.0
 11
0.350394
 21
3.403543
 31
0.0
  0
LINE
  8
0
  6
CONTINUOUS
 62
     7
  5
2A6
 10
-0.61811
 20
3.403543
 30
0.0
 11
-0.61811
 21
1.866929
 31
0.0
  0
LINE
  8
0
  6
CONTINUOUS
 62
     7
  5
2A7
 10
-0.61811
 20
1.866929
 30
0.0
 11
-0.933071
 21
1.866929
 31
0.0
  0
LINE
  8
0
  6
CONTINUOUS
 62
     7
  5
2A8
 10
-0.933071
 20
1.866929
 30
0.0
 11
-0.933071
 21
3.403543
 31
0.0
  0
LINE
  8
0
  6
CONTINUOUS
 62
     7
  5
2A9
 10
-1.901575
 20
3.403543
 30
0.0
 11
-1.901575
 21
1.866929
 31
0.0
  0
LINE
  8
0
  6
CONTINUOUS
 62
     7
  5
2AA
 10
-1.901575
 20
1.866929
 30
0.0
 11
-2.216535
 21
1.866929
 31
0.0
  0
LINE
  8
0
  6
CONTINUOUS
 62
     7
  5
2AB
 10
-2.216535
 20
1.866929
 30
0.0
 11
-2.216535
 21
3.403543
 31
0.0
  0
LINE
  8
0
  6
CONTINUOUS
 62
     7
  5
2AC
 10
-3.185039
 20
3.403543
 30
0.0
 11
-3.185039
 21
1.866929
 31
0.0
  0
LINE
  8
0
  6
CONTINUOUS
 62
     7
  5
2AD
 10
-3.185039
 20
1.866929
 30
0.0
 11
-3.5
 21
1.866929
 31
0.0
  0
LINE
  8
0
  6
CONTINUOUS
 62
     7
  5
2AE
 10
-3.5
 20
1.866929
 30
0.0
 11
-3.5
 21
3.403543
 31
0.0
  0
LINE
  8
0
  6
CONTINUOUS
 62
     7
  5
2AF
 10
-3.901575
 20
3.403543
 30
0.0
 11
-3.901575
 21
1.866929
 31
0.0
  0
LINE
  8
0
  6
CONTINUOUS
 62
     7
  5
2B0
 10
-3.901575
 20
1.866929
 30
0.0
 11
-4.216535
 21
1.866929
 31
0.0
  0
LINE
  8
0
  6
CONTINUOUS
 62
     7
  5
2B1
 10
-4.216535
 20
1.866929
 30
0.0
 11
-4.216535
 21
3.403543
 31
0.0
  0
ARC
  8
0
  6
CONTINUOUS
 62
     7
  5
2B2
 10
5.816929
 20
2.910236
 30
0.0
 40
0.059055
 50
0.0
 51
90.0
  0
LINE
  8
0
  6
CONTINUOUS
 62
     7
  5
2B3
 10
5.470472
 20
2.969291
 30
0.0
 11
5.816929
 21
2.969291
 31
0.0
  0
LINE
  8
0
  6
CONTINUOUS
 62
     7
  5
2B4
 10
5.816929
 20
1.276378
 30
0.0
 11
5.470472
 21
1.276378
 31
0.0
  0
ARC
  8
0
  6
CONTINUOUS
 62
     7
  5
2B5
 10
5.816929
 20
1.335433
 30
0.0
 40
0.059055
 50
270.0
 51
360.0
  0
LINE
  8
0
  6
CONTINUOUS
 62
     7
  5
2B6
 10
5.875984
 20
2.910236
 30
0.0
 11
5.875984
 21
1.335433
 31
0.0
  0
LINE
  8
0
  6
CONTINUOUS
 62
     7
  5
2B7
 10
5.470472
 20
1.276378
 30
0.0
 11
5.470472
 21
2.969291
 31
0.0
  0
LINE
  8
0
  6
CONTINUOUS
 62
     7
  5
2B8
 10
5.470472
 20
1.276378
 30
0.0
 11
4.690945
 21
1.276378
 31
0.0
  0
LINE
  8
0
  6
CONTINUOUS
 62
     7
  5
2B9
 10
4.690945
 20
2.969291
 30
0.0
 11
5.470472
 21
2.969291
 31
0.0
  0
LINE
  8
0
  6
CONTINUOUS
 62
     7
  5
2BA
 10
4.63189
 20
0.751969
 30
0.0
 11
-4.86811
 21
0.751969
 31
0.0
  0
ARC
  8
0
  6
CONTINUOUS
 62
     7
  5
2BB
 10
-4.86811
 20
0.811024
 30
0.0
 40
0.059055
 50
180.0
 51
270.0
  0
LINE
  8
0
  6
CONTINUOUS
 62
     7
  5
2BC
 10
-4.927165
 20
0.811024
 30
0.0
 11
-4.927165
 21
3.344488
 31
0.0
  0
ARC
  8
0
  6
CONTINUOUS
 62
     7
  5
2BD
 10
-4.86811
 20
3.344488
 30
0.0
 40
0.059055
 50
90.0
 51
180.0
  0
ARC
  8
0
  6
CONTINUOUS
 62
     7
  5
2BE
 10
4.63189
 20
3.344488
 30
0.0
 40
0.059055
 50
0.0
 51
90.0
  0
LINE
  8
0
  6
CONTINUOUS
 62
     7
  5
2BF
 10
4.690945
 20
3.344488
 30
0.0
 11
4.690945
 21
0.811024
 31
0.0
  0
ARC
  8
0
  6
CONTINUOUS
 62
     7
  5
2C0
 10
4.63189
 20
0.811024
 30
0.0
 40
0.059055
 50
270.0
 51
360.0
  0
LINE
  8
0
  6
CONTINUOUS
 62
     7
  5
2C1
 10
4.98189
 20
0.020866
 30
0.0
 11
4.98189
 21
0.11811
 31
0.0
  0
LINE
  8
0
  6
CONTINUOUS
 62
     7
  5
2C2
 10
4.98189
 20
0.0
 30
0.0
 11
4.98189
 21
0.020866
 31
0.0
  0
LINE
  8
0
  6
CONTINUOUS
 62
     7
  5
2C3
 10
4.98189
 20
0.11811
 30
0.0
 11
5.277165
 21
0.11811
 31
0.0
  0
LINE
  8
0
  6
CONTINUOUS
 62
     7
  5
2C4
 10
5.277165
 20
0.020866
 30
0.0
 11
5.277165
 21
0.0
 31
0.0
  0
LINE
  8
0
  6
CONTINUOUS
 62
     7
  5
2C5
 10
5.277165
 20
0.11811
 30
0.0
 11
5.277165
 21
0.020866
 31
0.0
  0
LINE
  8
0
  6
CONTINUOUS
 62
     7
  5
2C6
 10
0.0
 20
0.0
 30
0.0
 11
4.98189
 21
0.0
 31
0.0
  0
LINE
  8
0
  6
CONTINUOUS
 62
     7
  5
2C7
 10
4.98189
 20
0.020866
 30
0.0
 11
-6.023622
 21
0.020866
 31
0.0
  0
LINE
  8
0
  6
CONTINUOUS
 62
     7
  5
2C8
 10
-6.023622
 20
0.0
 30
0.0
 11
0.0
 21
0.0
 31
0.0
  0
LINE
  8
0
  6
CONTINUOUS
 62
     7
  5
2C9
 10
-6.062992
 20
0.629921
 30
0.0
 11
-6.062992
 21
0.03937
 31
0.0
  0
LINE
  8
0
  6
CONTINUOUS
 62
     7
  5
2CA
 10
-6.062992
 20
1.259843
 30
0.0
 11
-6.062992
 21
0.629921
 31
0.0
  0
LINE
  8
0
  6
CONTINUOUS
 62
     7
  5
2CB
 10
-6.062992
 20
2.992126
 30
0.0
 11
-6.062992
 21
1.259843
 31
0.0
  0
LINE
  8
0
  6
CONTINUOUS
 62
     7
  5
2CC
 10
-6.062992
 20
3.622047
 30
0.0
 11
-6.062992
 21
2.992126
 31
0.0
  0
LINE
  8
0
  6
CONTINUOUS
 62
     7
  5
2CD
 10
-6.062992
 20
3.897638
 30
0.0
 11
-6.062992
 21
3.622047
 31
0.0
  0
CIRCLE
  8
0
  6
CONTINUOUS
 62
     7
  5
2CE
 10
5.125984
 20
3.307087
 30
0.0
 40
0.227303
  0
CIRCLE
  8
0
  6
CONTINUOUS
 62
     7
  5
2CF
 10
5.125984
 20
0.944882
 30
0.0
 40
0.227303
  0
CIRCLE
  8
0
  6
CONTINUOUS
 62
     7
  5
2D0
 10
-5.622047
 20
3.307087
 30
0.0
 40
0.227303
  0
CIRCLE
  8
0
  6
CONTINUOUS
 62
     7
  5
2D1
 10
-5.622047
 20
0.944882
 30
0.0
 40
0.227303
  0
ARC
  8
0
  6
CONTINUOUS
 62
     7
  5
2D2
 10
5.525591
 20
1.28622
 30
0.0
 40
0.059055
 50
219.944505
 51
270.0
  0
LINE
  8
0
  6
CONTINUOUS
 62
     7
  5
2D3
 10
5.89685
 20
1.227165
 30
0.0
 11
5.525591
 21
1.227165
 31
0.0
  0
ARC
  8
0
  6
CONTINUOUS
 62
     7
  5
2D4
 10
5.525591
 20
2.97126
 30
0.0
 40
0.059055
 50
90.0
 51
140.055495
  0
LINE
  8
0
  6
CONTINUOUS
 62
     7
  5
2D5
 10
5.525591
 20
3.030315
 30
0.0
 11
5.89685
 21
3.030315
 31
0.0
  0
ARC
  8
0
  6
CONTINUOUS
 62
     7
  5
2D6
 10
5.89685
 20
2.97126
 30
0.0
 40
0.059055
 50
0.0
 51
90.0
  0
LINE
  8
0
  6
CONTINUOUS
 62
     7
  5
2D7
 10
5.955906
 20
2.97126
 30
0.0
 11
5.955906
 21
1.28622
 31
0.0
  0
ARC
  8
0
  6
CONTINUOUS
 62
     7
  5
2D8
 10
5.89685
 20
1.28622
 30
0.0
 40
0.059055
 50
270.0
 51
360.0
  0
LINE
  8
0
  6
CONTINUOUS
 62
     7
  5
2D9
 10
6.023622
 20
0.020866
 30
0.0
 11
5.277165
 21
0.020866
 31
0.0
  0
ARC
  8
0
  6
CONTINUOUS
 62
     7
  5
2DA
 10
6.023622
 20
0.03937
 30
0.0
 40
0.018504
 50
270.0
 51
360.0
  0
LINE
  8
0
  6
CONTINUOUS
 62
     7
  5
2DB
 10
6.042126
 20
3.897638
 30
0.0
 11
6.042126
 21
0.03937
 31
0.0
  0
ARC
  8
0
  6
CONTINUOUS
 62
     7
  5
2DC
 10
6.023622
 20
3.897638
 30
0.0
 40
0.018504
 50
0.0
 51
90.0
  0
LINE
  8
0
  6
CONTINUOUS
 62
     7
  5
2DD
 10
5.691357
 20
3.916141
 30
0.0
 11
6.023622
 21
3.916141
 31
0.0
  0
LINE
  8
0
  6
CONTINUOUS
 62
     7
  5
2DE
 10
5.562638
 20
4.04486
 30
0.0
 11
5.691357
 21
3.916141
 31
0.0
  0
ARC
  8
0
  6
CONTINUOUS
 62
     7
  5
2DF
 10
5.521715
 20
4.003937
 30
0.0
 40
0.057874
 50
45.0
 51
90.0
  0
LINE
  8
0
  6
CONTINUOUS
 62
     7
  5
2E0
 10
5.405844
 20
4.061811
 30
0.0
 11
5.521715
 21
4.061811
 31
0.0
  0
ARC
  8
0
  6
CONTINUOUS
 62
     7
  5
2E1
 10
5.405844
 20
4.003937
 30
0.0
 40
0.057874
 50
90.0
 51
135.0
  0
LINE
  8
0
  6
CONTINUOUS
 62
     7
  5
2E2
 10
5.236202
 20
3.916141
 30
0.0
 11
5.364921
 21
4.04486
 31
0.0
  0
LINE
  8
0
  6
CONTINUOUS
 62
     7
  5
2E3
 10
4.407892
 20
3.916141
 30
0.0
 11
5.236202
 21
3.916141
 31
0.0
  0
LINE
  8
0
  6
CONTINUOUS
 62
     7
  5
2E4
 10
4.279174
 20
4.04486
 30
0.0
 11
4.407892
 21
3.916141
 31
0.0
  0
ARC
  8
0
  6
CONTINUOUS
 62
     7
  5
2E5
 10
4.238251
 20
4.003937
 30
0.0
 40
0.057874
 50
45.0
 51
90.0
  0
LINE
  8
0
  6
CONTINUOUS
 62
     7
  5
2E6
 10
4.122379
 20
4.061811
 30
0.0
 11
4.238251
 21
4.061811
 31
0.0
  0
ARC
  8
0
  6
CONTINUOUS
 62
     7
  5
2E7
 10
4.122379
 20
4.003937
 30
0.0
 40
0.057874
 50
90.0
 51
135.0
  0
LINE
  8
0
  6
CONTINUOUS
 62
     7
  5
2E8
 10
3.952738
 20
3.916141
 30
0.0
 11
4.081456
 21
4.04486
 31
0.0
  0
LINE
  8
0
  6
CONTINUOUS
 62
     7
  5
2E9
 10
3.124428
 20
3.916141
 30
0.0
 11
3.952738
 21
3.916141
 31
0.0
  0
LINE
  8
0
  6
CONTINUOUS
 62
     7
  5
2EA
 10
2.995709
 20
4.04486
 30
0.0
 11
3.124428
 21
3.916141
 31
0.0
  0
ARC
  8
0
  6
CONTINUOUS
 62
     7
  5
2EB
 10
2.954786
 20
4.003937
 30
0.0
 40
0.057874
 50
45.0
 51
90.0
  0
LINE
  8
0
  6
CONTINUOUS
 62
     7
  5
2EC
 10
2.838914
 20
4.061811
 30
0.0
 11
2.954786
 21
4.061811
 31
0.0
  0
ARC
  8
0
  6
CONTINUOUS
 62
     7
  5
2ED
 10
2.838914
 20
4.003937
 30
0.0
 40
0.057874
 50
90.0
 51
135.0
  0
LINE
  8
0
  6
CONTINUOUS
 62
     7
  5
2EE
 10
2.669273
 20
3.916141
 30
0.0
 11
2.797992
 21
4.04486
 31
0.0
  0
LINE
  8
0
  6
CONTINUOUS
 62
     7
  5
2EF
 10
1.840963
 20
3.916141
 30
0.0
 11
2.669273
 21
3.916141
 31
0.0
  0
LINE
  8
0
  6
CONTINUOUS
 62
     7
  5
2F0
 10
1.712245
 20
4.04486
 30
0.0
 11
1.840963
 21
3.916141
 31
0.0
  0
ARC
  8
0
  6
CONTINUOUS
 62
     7
  5
2F1
 10
1.671322
 20
4.003937
 30
0.0
 40
0.057874
 50
45.0
 51
90.0
  0
LINE
  8
0
  6
CONTINUOUS
 62
     7
  5
2F2
 10
1.55545
 20
4.061811
 30
0.0
 11
1.671322
 21
4.061811
 31
0.0
  0
ARC
  8
0
  6
CONTINUOUS
 62
     7
  5
2F3
 10
1.55545
 20
4.003937
 30
0.0
 40
0.057874
 50
90.0
 51
135.0
  0
LINE
  8
0
  6
CONTINUOUS
 62
     7
  5
2F4
 10
1.385809
 20
3.916141
 30
0.0
 11
1.514527
 21
4.04486
 31
0.0
  0
LINE
  8
0
  6
CONTINUOUS
 62
     7
  5
2F5
 10
0.557499
 20
3.916141
 30
0.0
 11
1.385809
 21
3.916141
 31
0.0
  0
LINE
  8
0
  6
CONTINUOUS
 62
     7
  5
2F6
 10
0.42878
 20
4.04486
 30
0.0
 11
0.557499
 21
3.916141
 31
0.0
  0
ARC
  8
0
  6
CONTINUOUS
 62
     7
  5
2F7
 10
0.387857
 20
4.003937
 30
0.0
 40
0.057874
 50
45.0
 51
90.0
  0
LINE
  8
0
  6
CONTINUOUS
 62
     7
  5
2F8
 10
0.271985
 20
4.061811
 30
0.0
 11
0.387857
 21
4.061811
 31
0.0
  0
ARC
  8
0
  6
CONTINUOUS
 62
     7
  5
2F9
 10
0.271985
 20
4.003937
 30
0.0
 40
0.057874
 50
90.0
 51
135.0
  0
LINE
  8
0
  6
CONTINUOUS
 62
     7
  5
2FA
 10
0.102344
 20
3.916141
 30
0.0
 11
0.231062
 21
4.04486
 31
0.0
  0
LINE
  8
0
  6
CONTINUOUS
 62
     7
  5
2FB
 10
-0.725966
 20
3.916141
 30
0.0
 11
0.102344
 21
3.916141
 31
0.0
  0
LINE
  8
0
  6
CONTINUOUS
 62
     7
  5
2FC
 10
-0.854685
 20
4.04486
 30
0.0
 11
-0.725966
 21
3.916141
 31
0.0
  0
ARC
  8
0
  6
CONTINUOUS
 62
     7
  5
2FD
 10
-0.895607
 20
4.003937
 30
0.0
 40
0.057874
 50
45.0
 51
90.0
  0
LINE
  8
0
  6
CONTINUOUS
 62
     7
  5
2FE
 10
-1.011479
 20
4.061811
 30
0.0
 11
-0.895607
 21
4.061811
 31
0.0
  0
ARC
  8
0
  6
CONTINUOUS
 62
     7
  5
2FF
 10
-1.011479
 20
4.003937
 30
0.0
 40
0.057874
 50
90.0
 51
135.0
  0
LINE
  8
0
  6
CONTINUOUS
 62
     7
  5
300
 10
-1.181121
 20
3.916141
 30
0.0
 11
-1.052402
 21
4.04486
 31
0.0
  0
LINE
  8
0
  6
CONTINUOUS
 62
     7
  5
301
 10
-2.009431
 20
3.916141
 30
0.0
 11
-1.181121
 21
3.916141
 31
0.0
  0
LINE
  8
0
  6
CONTINUOUS
 62
     7
  5
302
 10
-2.138149
 20
4.04486
 30
0.0
 11
-2.009431
 21
3.916141
 31
0.0
  0
ARC
  8
0
  6
CONTINUOUS
 62
     7
  5
303
 10
-2.179072
 20
4.003937
 30
0.0
 40
0.057874
 50
45.0
 51
90.0
  0
LINE
  8
0
  6
CONTINUOUS
 62
     7
  5
304
 10
-2.294944
 20
4.061811
 30
0.0
 11
-2.179072
 21
4.061811
 31
0.0
  0
ARC
  8
0
  6
CONTINUOUS
 62
     7
  5
305
 10
-2.294944
 20
4.003937
 30
0.0
 40
0.057874
 50
90.0
 51
135.0
  0
LINE
  8
0
  6
CONTINUOUS
 62
     7
  5
306
 10
-2.464585
 20
3.916141
 30
0.0
 11
-2.335867
 21
4.04486
 31
0.0
  0
LINE
  8
0
  6
CONTINUOUS
 62
     7
  5
307
 10
-3.292895
 20
3.916141
 30
0.0
 11
-2.464585
 21
3.916141
 31
0.0
  0
LINE
  8
0
  6
CONTINUOUS
 62
     7
  5
308
 10
-3.421614
 20
4.04486
 30
0.0
 11
-3.292895
 21
3.916141
 31
0.0
  0
ARC
  8
0
  6
CONTINUOUS
 62
     7
  5
309
 10
-3.462537
 20
4.003937
 30
0.0
 40
0.057874
 50
45.0
 51
90.0
  0
LINE
  8
0
  6
CONTINUOUS
 62
     7
  5
30A
 10
-3.578408
 20
4.061811
 30
0.0
 11
-3.462537
 21
4.061811
 31
0.0
  0
ARC
  8
0
  6
CONTINUOUS
 62
     7
  5
30B
 10
-3.578408
 20
4.003937
 30
0.0
 40
0.057874
 50
90.0
 51
135.0
  0
LINE
  8
0
  6
CONTINUOUS
 62
     7
  5
30C
 10
-3.74805
 20
3.916141
 30
0.0
 11
-3.619331
 21
4.04486
 31
0.0
  0
LINE
  8
0
  6
CONTINUOUS
 62
     7
  5
30D
 10
-6.023622
 20
3.916141
 30
0.0
 11
-3.74805
 21
3.916141
 31
0.0
  0
ARC
  8
0
  6
CONTINUOUS
 62
     7
  5
30E
 10
-6.023622
 20
3.897638
 30
0.0
 40
0.018504
 50
90.0
 51
180.0
  0
LINE
  8
0
  6
CONTINUOUS
 62
     7
  5
30F
 10
-6.042126
 20
3.622047
 30
0.0
 11
-6.042126
 21
3.897638
 31
0.0
  0
LINE
  8
0
  6
CONTINUOUS
 62
     7
  5
310
 10
-6.042126
 20
3.622047
 30
0.0
 11
-5.622047
 21
3.622047
 31
0.0
  0
ARC
  8
0
  6
CONTINUOUS
 62
     7
  5
311
 10
-5.622047
 20
3.307087
 30
0.0
 40
0.314961
 50
270.0
 51
90.0
  0
LINE
  8
0
  6
CONTINUOUS
 62
     7
  5
312
 10
-5.622047
 20
2.992126
 30
0.0
 11
-6.042126
 21
2.992126
 31
0.0
  0
LINE
  8
0
  6
CONTINUOUS
 62
     7
  5
313
 10
-6.042126
 20
1.259843
 30
0.0
 11
-6.042126
 21
2.992126
 31
0.0
  0
LINE
  8
0
  6
CONTINUOUS
 62
     7
  5
314
 10
-6.042126
 20
1.259843
 30
0.0
 11
-5.622047
 21
1.259843
 31
0.0
  0
ARC
  8
0
  6
CONTINUOUS
 62
     7
  5
315
 10
-5.622047
 20
0.944882
 30
0.0
 40
0.314961
 50
270.0
 51
90.0
  0
LINE
  8
0
  6
CONTINUOUS
 62
     7
  5
316
 10
-5.622047
 20
0.629921
 30
0.0
 11
-6.042126
 21
0.629921
 31
0.0
  0
LINE
  8
0
  6
CONTINUOUS
 62
     7
  5
317
 10
-6.042126
 20
0.03937
 30
0.0
 11
-6.042126
 21
0.629921
 31
0.0
  0
ARC
  8
0
  6
CONTINUOUS
 62
     7
  5
318
 10
-6.023622
 20
0.03937
 30
0.0
 40
0.018504
 50
180.0
 51
270.0
  0
CIRCLE
  8
0
  6
CONTINUOUS
 62
     7
  5
319
 10
5.46378
 20
3.889764
 30
0.0
 40
0.145669
  0
CIRCLE
  8
0
  6
CONTINUOUS
 62
     7
  5
31A
 10
4.180315
 20
3.889764
 30
0.0
 40
0.145669
  0
CIRCLE
  8
0
  6
CONTINUOUS
 62
     7
  5
31B
 10
2.89685
 20
3.889764
 30
0.0
 40
0.145669
  0
CIRCLE
  8
0
  6
CONTINUOUS
 62
     7
  5
31C
 10
1.613386
 20
3.889764
 30
0.0
 40
0.145669
  0
CIRCLE
  8
0
  6
CONTINUOUS
 62
     7
  5
31D
 10
0.329921
 20
3.889764
 30
0.0
 40
0.145669
  0
CIRCLE
  8
0
  6
CONTINUOUS
 62
     7
  5
31E
 10
-0.953543
 20
3.889764
 30
0.0
 40
0.145669
  0
CIRCLE
  8
0
  6
CONTINUOUS
 62
     7
  5
31F
 10
-2.237008
 20
3.889764
 30
0.0
 40
0.145669
  0
CIRCLE
  8
0
  6
CONTINUOUS
 62
     7
  5
320
 10
-3.520472
 20
3.889764
 30
0.0
 40
0.145669
  0
LINE
  8
0
  6
CONTINUOUS
 62
     7
  5
321
 10
-5.099213
 20
0.173228
 30
0.0
 11
-5.335433
 21
0.173228
 31
0.0
  0
ARC
  8
0
  6
CONTINUOUS
 62
     7
  5
322
 10
-5.335433
 20
0.177165
 30
0.0
 40
0.003937
 50
180.0
 51
269.999999
  0
LINE
  8
0
  6
CONTINUOUS
 62
     7
  5
323
 10
-5.33937
 20
0.177165
 30
0.0
 11
-5.33937
 21
0.586614
 31
0.0
  0
ARC
  8
0
  6
CONTINUOUS
 62
     7
  5
324
 10
-5.3
 20
0.586614
 30
0.0
 40
0.03937
 50
90.0
 51
180.0
  0
LINE
  8
0
  6
CONTINUOUS
 62
     7
  5
325
 10
-5.3
 20
0.625984
 30
0.0
 11
-5.134646
 21
0.625984
 31
0.0
  0
ARC
  8
0
  6
CONTINUOUS
 62
     7
  5
326
 10
-5.134646
 20
0.586614
 30
0.0
 40
0.03937
 50
0.0
 51
90.0
  0
LINE
  8
0
  6
CONTINUOUS
 62
     7
  5
327
 10
-5.095276
 20
0.586614
 30
0.0
 11
-5.095276
 21
0.177165
 31
0.0
  0
ARC
  8
0
  6
CONTINUOUS
 62
     7
  5
328
 10
-5.099213
 20
0.177165
 30
0.0
 40
0.003937
 50
270.0
 51
359.999999
  0
LINE
  8
0
  6
CONTINUOUS
 62
     7
  5
329
 10
4.845669
 20
0.173228
 30
0.0
 11
4.609449
 21
0.173228
 31
0.0
  0
ARC
  8
0
  6
CONTINUOUS
 62
     7
  5
32A
 10
4.609449
 20
0.177165
 30
0.0
 40
0.003937
 50
180.0
 51
269.999999
  0
LINE
  8
0
  6
CONTINUOUS
 62
     7
  5
32B
 10
4.605512
 20
0.177165
 30
0.0
 11
4.605512
 21
0.586614
 31
0.0
  0
ARC
  8
0
  6
CONTINUOUS
 62
     7
  5
32C
 10
4.644882
 20
0.586614
 30
0.0
 40
0.03937
 50
90.0
 51
180.0
  0
LINE
  8
0
  6
CONTINUOUS
 62
     7
  5
32D
 10
4.644882
 20
0.625984
 30
0.0
 11
4.810236
 21
0.625984
 31
0.0
  0
ARC
  8
0
  6
CONTINUOUS
 62
     7
  5
32E
 10
4.810236
 20
0.586614
 30
0.0
 40
0.03937
 50
0.0
 51
90.0
  0
LINE
  8
0
  6
CONTINUOUS
 62
     7
  5
32F
 10
4.849606
 20
0.586614
 30
0.0
 11
4.849606
 21
0.177165
 31
0.0
  0
ARC
  8
0
  6
CONTINUOUS
 62
     7
  5
330
 10
4.845669
 20
0.177165
 30
0.0
 40
0.003937
 50
270.0
 51
359.999999
  0
LINE
  8
0
  6
CONTINUOUS
 62
     7
  5
331
 10
-3.933858
 20
0.173228
 30
0.0
 11
-4.170079
 21
0.173228
 31
0.0
  0
ARC
  8
0
  6
CONTINUOUS
 62
     7
  5
332
 10
-4.170079
 20
0.177165
 30
0.0
 40
0.003937
 50
180.0
 51
269.999999
  0
LINE
  8
0
  6
CONTINUOUS
 62
     7
  5
333
 10
-4.174016
 20
0.177165
 30
0.0
 11
-4.174016
 21
0.523543
 31
0.0
  0
ARC
  8
0
  6
CONTINUOUS
 62
     7
  5
334
 10
-4.134646
 20
0.523543
 30
0.0
 40
0.03937
 50
90.0
 51
180.0
  0
LINE
  8
0
  6
CONTINUOUS
 62
     7
  5
335
 10
-4.134646
 20
0.562913
 30
0.0
 11
-3.969291
 21
0.562913
 31
0.0
  0
ARC
  8
0
  6
CONTINUOUS
 62
     7
  5
336
 10
-3.969291
 20
0.523543
 30
0.0
 40
0.03937
 50
0.0
 51
90.0
  0
LINE
  8
0
  6
CONTINUOUS
 62
     7
  5
337
 10
-3.929921
 20
0.523543
 30
0.0
 11
-3.929921
 21
0.177165
 31
0.0
  0
ARC
  8
0
  6
CONTINUOUS
 62
     7
  5
338
 10
-3.933858
 20
0.177165
 30
0.0
 40
0.003937
 50
270.0
 51
359.999999
  0
LINE
  8
0
  6
CONTINUOUS
 62
     7
  5
339
 10
5.767717
 20
0.173228
 30
0.0
 11
5.413386
 21
0.173228
 31
0.0
  0
ARC
  8
0
  6
CONTINUOUS
 62
     7
  5
33A
 10
5.413386
 20
0.177165
 30
0.0
 40
0.003937
 50
180.0
 51
269.999999
  0
LINE
  8
0
  6
CONTINUOUS
 62
     7
  5
33B
 10
5.409449
 20
0.177165
 30
0.0
 11
5.409449
 21
0.586614
 31
0.0
  0
ARC
  8
0
  6
CONTINUOUS
 62
     7
  5
33C
 10
5.448819
 20
0.586614
 30
0.0
 40
0.03937
 50
90.0
 51
180.0
  0
LINE
  8
0
  6
CONTINUOUS
 62
     7
  5
33D
 10
5.448819
 20
0.625984
 30
0.0
 11
5.732283
 21
0.625984
 31
0.0
  0
ARC
  8
0
  6
CONTINUOUS
 62
     7
  5
33E
 10
5.732283
 20
0.586614
 30
0.0
 40
0.03937
 50
0.0
 51
90.0
  0
LINE
  8
0
  6
CONTINUOUS
 62
     7
  5
33F
 10
5.771654
 20
0.586614
 30
0.0
 11
5.771654
 21
0.177165
 31
0.0
  0
ARC
  8
0
  6
CONTINUOUS
 62
     7
  5
340
 10
5.767717
 20
0.177165
 30
0.0
 40
0.003937
 50
270.0
 51
359.999999
  0
LINE
  8
0
  6
CONTINUOUS
 62
     7
  5
341
 10
-2.650394
 20
0.173228
 30
0.0
 11
-3.107087
 21
0.173228
 31
0.0
  0
ARC
  8
0
  6
CONTINUOUS
 62
     7
  5
342
 10
-3.107087
 20
0.177165
 30
0.0
 40
0.003937
 50
180.0
 51
269.999999
  0
LINE
  8
0
  6
CONTINUOUS
 62
     7
  5
343
 10
-3.111024
 20
0.177165
 30
0.0
 11
-3.111024
 21
0.586614
 31
0.0
  0
ARC
  8
0
  6
CONTINUOUS
 62
     7
  5
344
 10
-3.071654
 20
0.586614
 30
0.0
 40
0.03937
 50
90.0
 51
180.0
  0
LINE
  8
0
  6
CONTINUOUS
 62
     7
  5
345
 10
-3.071654
 20
0.625984
 30
0.0
 11
-2.685827
 21
0.625984
 31
0.0
  0
ARC
  8
0
  6
CONTINUOUS
 62
     7
  5
346
 10
-2.685827
 20
0.586614
 30
0.0
 40
0.03937
 50
0.0
 51
90.0
  0
LINE
  8
0
  6
CONTINUOUS
 62
     7
  5
347
 10
-2.646457
 20
0.586614
 30
0.0
 11
-2.646457
 21
0.177165
 31
0.0
  0
ARC
  8
0
  6
CONTINUOUS
 62
     7
  5
348
 10
-2.650394
 20
0.177165
 30
0.0
 40
0.003937
 50
270.0
 51
359.999999
  0
LINE
  8
0
  6
CONTINUOUS
 62
     7
  5
349
 10
-1.366929
 20
0.173228
 30
0.0
 11
-1.823622
 21
0.173228
 31
0.0
  0
ARC
  8
0
  6
CONTINUOUS
 62
     7
  5
34A
 10
-1.823622
 20
0.177165
 30
0.0
 40
0.003937
 50
180.0
 51
269.999999
  0
LINE
  8
0
  6
CONTINUOUS
 62
     7
  5
34B
 10
-1.827559
 20
0.177165
 30
0.0
 11
-1.827559
 21
0.586614
 31
0.0
  0
ARC
  8
0
  6
CONTINUOUS
 62
     7
  5
34C
 10
-1.788189
 20
0.586614
 30
0.0
 40
0.03937
 50
90.0
 51
180.0
  0
LINE
  8
0
  6
CONTINUOUS
 62
     7
  5
34D
 10
-1.788189
 20
0.625984
 30
0.0
 11
-1.402362
 21
0.625984
 31
0.0
  0
ARC
  8
0
  6
CONTINUOUS
 62
     7
  5
34E
 10
-1.402362
 20
0.586614
 30
0.0
 40
0.03937
 50
0.0
 51
90.0
  0
LINE
  8
0
  6
CONTINUOUS
 62
     7
  5
34F
 10
-1.362992
 20
0.586614
 30
0.0
 11
-1.362992
 21
0.177165
 31
0.0
  0
ARC
  8
0
  6
CONTINUOUS
 62
     7
  5
350
 10
-1.366929
 20
0.177165
 30
0.0
 40
0.003937
 50
270.0
 51
359.999999
  0
LINE
  8
0
  6
CONTINUOUS
 62
     7
  5
351
 10
-0.083465
 20
0.173228
 30
0.0
 11
-0.540157
 21
0.173228
 31
0.0
  0
ARC
  8
0
  6
CONTINUOUS
 62
     7
  5
352
 10
-0.540157
 20
0.177165
 30
0.0
 40
0.003937
 50
180.0
 51
269.999999
  0
LINE
  8
0
  6
CONTINUOUS
 62
     7
  5
353
 10
-0.544094
 20
0.177165
 30
0.0
 11
-0.544094
 21
0.586614
 31
0.0
  0
ARC
  8
0
  6
CONTINUOUS
 62
     7
  5
354
 10
-0.504724
 20
0.586614
 30
0.0
 40
0.03937
 50
90.0
 51
180.0
  0
LINE
  8
0
  6
CONTINUOUS
 62
     7
  5
355
 10
-0.504724
 20
0.625984
 30
0.0
 11
-0.118898
 21
0.625984
 31
0.0
  0
ARC
  8
0
  6
CONTINUOUS
 62
     7
  5
356
 10
-0.118898
 20
0.586614
 30
0.0
 40
0.03937
 50
0.0
 51
90.0
  0
LINE
  8
0
  6
CONTINUOUS
 62
     7
  5
357
 10
-0.079528
 20
0.586614
 30
0.0
 11
-0.079528
 21
0.177165
 31
0.0
  0
ARC
  8
0
  6
CONTINUOUS
 62
     7
  5
358
 10
-0.083465
 20
0.177165
 30
0.0
 40
0.003937
 50
270.0
 51
359.999999
  0
LINE
  8
0
  6
CONTINUOUS
 62
     7
  5
359
 10
1.2
 20
0.173228
 30
0.0
 11
0.743307
 21
0.173228
 31
0.0
  0
ARC
  8
0
  6
CONTINUOUS
 62
     7
  5
35A
 10
0.743307
 20
0.177165
 30
0.0
 40
0.003937
 50
180.0
 51
269.999999
  0
LINE
  8
0
  6
CONTINUOUS
 62
     7
  5
35B
 10
0.73937
 20
0.177165
 30
0.0
 11
0.73937
 21
0.586614
 31
0.0
  0
ARC
  8
0
  6
CONTINUOUS
 62
     7
  5
35C
 10
0.77874
 20
0.586614
 30
0.0
 40
0.03937
 50
90.0
 51
180.0
  0
LINE
  8
0
  6
CONTINUOUS
 62
     7
  5
35D
 10
0.77874
 20
0.625984
 30
0.0
 11
1.164567
 21
0.625984
 31
0.0
  0
ARC
  8
0
  6
CONTINUOUS
 62
     7
  5
35E
 10
1.164567
 20
0.586614
 30
0.0
 40
0.03937
 50
0.0
 51
90.0
  0
LINE
  8
0
  6
CONTINUOUS
 62
     7
  5
35F
 10
1.203937
 20
0.586614
 30
0.0
 11
1.203937
 21
0.177165
 31
0.0
  0
ARC
  8
0
  6
CONTINUOUS
 62
     7
  5
360
 10
1.2
 20
0.177165
 30
0.0
 40
0.003937
 50
270.0
 51
359.999999
  0
LINE
  8
0
  6
CONTINUOUS
 62
     7
  5
361
 10
2.483465
 20
0.173228
 30
0.0
 11
2.026772
 21
0.173228
 31
0.0
  0
ARC
  8
0
  6
CONTINUOUS
 62
     7
  5
362
 10
2.026772
 20
0.177165
 30
0.0
 40
0.003937
 50
180.0
 51
269.999999
  0
LINE
  8
0
  6
CONTINUOUS
 62
     7
  5
363
 10
2.022835
 20
0.177165
 30
0.0
 11
2.022835
 21
0.586614
 31
0.0
  0
ARC
  8
0
  6
CONTINUOUS
 62
     7
  5
364
 10
2.062205
 20
0.586614
 30
0.0
 40
0.03937
 50
90.0
 51
180.0
  0
LINE
  8
0
  6
CONTINUOUS
 62
     7
  5
365
 10
2.062205
 20
0.625984
 30
0.0
 11
2.448031
 21
0.625984
 31
0.0
  0
ARC
  8
0
  6
CONTINUOUS
 62
     7
  5
366
 10
2.448031
 20
0.586614
 30
0.0
 40
0.03937
 50
0.0
 51
90.0
  0
LINE
  8
0
  6
CONTINUOUS
 62
     7
  5
367
 10
2.487402
 20
0.586614
 30
0.0
 11
2.487402
 21
0.177165
 31
0.0
  0
ARC
  8
0
  6
CONTINUOUS
 62
     7
  5
368
 10
2.483465
 20
0.177165
 30
0.0
 40
0.003937
 50
270.0
 51
359.999999
  0
LINE
  8
0
  6
CONTINUOUS
 62
     7
  5
369
 10
3.766929
 20
0.173228
 30
0.0
 11
3.310236
 21
0.173228
 31
0.0
  0
ARC
  8
0
  6
CONTINUOUS
 62
     7
  5
36A
 10
3.310236
 20
0.177165
 30
0.0
 40
0.003937
 50
180.0
 51
269.999999
  0
LINE
  8
0
  6
CONTINUOUS
 62
     7
  5
36B
 10
3.306299
 20
0.177165
 30
0.0
 11
3.306299
 21
0.586614
 31
0.0
  0
ARC
  8
0
  6
CONTINUOUS
 62
     7
  5
36C
 10
3.345669
 20
0.586614
 30
0.0
 40
0.03937
 50
90.0
 51
180.0
  0
LINE
  8
0
  6
CONTINUOUS
 62
     7
  5
36D
 10
3.345669
 20
0.625984
 30
0.0
 11
3.731496
 21
0.625984
 31
0.0
  0
ARC
  8
0
  6
CONTINUOUS
 62
     7
  5
36E
 10
3.731496
 20
0.586614
 30
0.0
 40
0.03937
 50
0.0
 51
90.0
  0
LINE
  8
0
  6
CONTINUOUS
 62
     7
  5
36F
 10
3.770866
 20
0.586614
 30
0.0
 11
3.770866
 21
0.177165
 31
0.0
  0
ARC
  8
0
  6
CONTINUOUS
 62
     7
  5
370
 10
3.766929
 20
0.177165
 30
0.0
 40
0.003937
 50
270.0
 51
359.999999
  0
LINE
  8
0
  6
CONTINUOUS
 62
     7
  5
371
 10
5.480315
 20
1.248304
 30
0.0
 11
5.480315
 21
0.944882
 31
0.0
  0
ARC
  8
0
  6
CONTINUOUS
 62
     7
  5
372
 10
5.125984
 20
0.944882
 30
0.0
 40
0.354331
 50
343.968728
 51
360.0
  0
LINE
  8
0
  6
CONTINUOUS
 62
     7
  5
373
 10
5.466535
 20
0.847029
 30
0.0
 11
5.466535
 21
0.732283
 31
0.0
  0
ARC
  8
0
  6
CONTINUOUS
 62
     7
  5
374
 10
5.40748
 20
0.732283
 30
0.0
 40
0.059055
 50
270.0
 51
360.0
  0
LINE
  8
0
  6
CONTINUOUS
 62
     7
  5
375
 10
5.40748
 20
0.673228
 30
0.0
 11
5.353481
 21
0.673228
 31
0.0
  0
ARC
  8
0
  6
CONTINUOUS
 62
     7
  5
376
 10
5.125984
 20
0.944882
 30
0.0
 40
0.354331
 50
270.0
 51
309.944505
  0
ARC
  8
0
  6
CONTINUOUS
 62
     7
  5
377
 10
5.125984
 20
0.944882
 30
0.0
 40
0.354331
 50
230.055495
 51
270.0
  0
LINE
  8
0
  6
CONTINUOUS
 62
     7
  5
378
 10
4.898488
 20
0.673228
 30
0.0
 11
-4.94685
 21
0.673228
 31
0.0
  0
ARC
  8
0
  6
CONTINUOUS
 62
     7
  5
379
 10
-4.94685
 20
0.732283
 30
0.0
 40
0.059055
 50
180.0
 51
270.0
  0
LINE
  8
0
  6
CONTINUOUS
 62
     7
  5
37A
 10
-5.005906
 20
0.732283
 30
0.0
 11
-5.005906
 21
3.423228
 31
0.0
  0
ARC
  8
0
  6
CONTINUOUS
 62
     7
  5
37B
 10
-4.94685
 20
3.423228
 30
0.0
 40
0.059055
 50
90.0
 51
180.0
  0
LINE
  8
0
  6
CONTINUOUS
 62
     7
  5
37C
 10
-4.94685
 20
3.482283
 30
0.0
 11
4.878868
 21
3.482283
 31
0.0
  0
ARC
  8
0
  6
CONTINUOUS
 62
     7
  5
37D
 10
5.125984
 20
3.228346
 30
0.0
 40
0.354331
 50
90.0
 51
134.220044
  0
ARC
  8
0
  6
CONTINUOUS
 62
     7
  5
37E
 10
5.125984
 20
3.228346
 30
0.0
 40
0.354331
 50
45.779956
 51
90.0
  0
LINE
  8
0
  6
CONTINUOUS
 62
     7
  5
37F
 10
5.3731
 20
3.482283
 30
0.0
 11
5.40748
 21
3.482283
 31
0.0
  0
ARC
  8
0
  6
CONTINUOUS
 62
     7
  5
380
 10
5.40748
 20
3.423228
 30
0.0
 40
0.059055
 50
0.0
 51
90.0
  0
LINE
  8
0
  6
CONTINUOUS
 62
     7
  5
381
 10
5.466535
 20
3.423228
 30
0.0
 11
5.466535
 21
3.326199
 31
0.0
  0
ARC
  8
0
  6
CONTINUOUS
 62
     7
  5
382
 10
5.125984
 20
3.228346
 30
0.0
 40
0.354331
 50
0.0
 51
16.031272
  0
LINE
  8
0
  6
CONTINUOUS
 62
     7
  5
383
 10
5.480315
 20
3.228346
 30
0.0
 11
5.480315
 21
3.009176
 31
0.0
  0
LINE
  8
0
  6
CONTINUOUS
 62
     7
  5
384
 10
-6.042126
 20
2.992126
 30
0.0
 11
-6.062992
 21
2.992126
 31
0.0
  0
LINE
  8
0
  6
CONTINUOUS
 62
     7
  5
385
 10
-6.062992
 20
3.622047
 30
0.0
 11
-6.042126
 21
3.622047
 31
0.0
  0
LINE
  8
0
  6
CONTINUOUS
 62
     7
  5
386
 10
-6.062992
 20
1.259843
 30
0.0
 11
-6.042126
 21
1.259843
 31
0.0
  0
LINE
  8
0
  6
CONTINUOUS
 62
     7
  5
387
 10
-6.042126
 20
0.629921
 30
0.0
 11
-6.062992
 21
0.629921
 31
0.0
  0
CIRCLE
  8
0
  6
CONTINUOUS
 62
     7
  5
388
 10
5.46378
 20
3.889764
 30
0.0
 40
0.07874
  0
CIRCLE
  8
0
  6
CONTINUOUS
 62
     7
  5
389
 10
4.180315
 20
3.889764
 30
0.0
 40
0.07874
  0
CIRCLE
  8
0
  6
CONTINUOUS
 62
     7
  5
38A
 10
2.89685
 20
3.889764
 30
0.0
 40
0.07874
  0
CIRCLE
  8
0
  6
CONTINUOUS
 62
     7
  5
38B
 10
1.613386
 20
3.889764
 30
0.0
 40
0.07874
  0
CIRCLE
  8
0
  6
CONTINUOUS
 62
     7
  5
38C
 10
0.329921
 20
3.889764
 30
0.0
 40
0.07874
  0
CIRCLE
  8
0
  6
CONTINUOUS
 62
     7
  5
38D
 10
-0.953543
 20
3.889764
 30
0.0
 40
0.07874
  0
CIRCLE
  8
0
  6
CONTINUOUS
 62
     7
  5
38E
 10
-2.237008
 20
3.889764
 30
0.0
 40
0.07874
  0
CIRCLE
  8
0
  6
CONTINUOUS
 62
     7
  5
38F
 10
-3.520472
 20
3.889764
 30
0.0
 40
0.07874
  0
LINE
  8
0
  6
CONTINUOUS
 62
     7
  5
390
 10
5.227559
 20
3.937008
 30
0.0
 11
4.416535
 21
3.937008
 31
0.0
  0
LINE
  8
0
  6
CONTINUOUS
 62
     7
  5
391
 10
3.944094
 20
3.937008
 30
0.0
 11
3.133071
 21
3.937008
 31
0.0
  0
LINE
  8
0
  6
CONTINUOUS
 62
     7
  5
392
 10
2.66063
 20
3.937008
 30
0.0
 11
1.849606
 21
3.937008
 31
0.0
  0
LINE
  8
0
  6
CONTINUOUS
 62
     7
  5
393
 10
1.377165
 20
3.937008
 30
0.0
 11
0.566142
 21
3.937008
 31
0.0
  0
LINE
  8
0
  6
CONTINUOUS
 62
     7
  5
394
 10
0.093701
 20
3.937008
 30
0.0
 11
-0.717323
 21
3.937008
 31
0.0
  0
LINE
  8
0
  6
CONTINUOUS
 62
     7
  5
395
 10
-1.189764
 20
3.937008
 30
0.0
 11
-2.000787
 21
3.937008
 31
0.0
  0
LINE
  8
0
  6
CONTINUOUS
 62
     7
  5
396
 10
-2.473228
 20
3.937008
 30
0.0
 11
-3.284252
 21
3.937008
 31
0.0
  0
LINE
  8
0
  6
CONTINUOUS
 62
     7
  5
397
 10
6.023622
 20
3.937008
 30
0.0
 11
5.7
 21
3.937008
 31
0.0
  0
LINE
  8
0
  6
CONTINUOUS
 62
     7
  5
398
 10
5.577393
 20
4.059615
 30
0.0
 11
5.7
 21
3.937008
 31
0.0
  0
LINE
  8
0
  6
CONTINUOUS
 62
     7
  5
399
 10
5.405844
 20
4.082677
 30
0.0
 11
5.521715
 21
4.082677
 31
0.0
  0
ARC
  8
0
  6
CONTINUOUS
 62
     7
  5
39A
 10
5.405844
 20
4.003937
 30
0.0
 40
0.07874
 50
90.0
 51
135.0
  0
LINE
  8
0
  6
CONTINUOUS
 62
     7
  5
39B
 10
5.227559
 20
3.937008
 30
0.0
 11
5.350166
 21
4.059615
 31
0.0
  0
ARC
  8
0
  6
CONTINUOUS
 62
     7
  5
39C
 10
5.521715
 20
4.003937
 30
0.0
 40
0.07874
 50
45.0
 51
90.0
  0
LINE
  8
0
  6
CONTINUOUS
 62
     7
  5
39D
 10
-3.756693
 20
3.937008
 30
0.0
 11
-6.023622
 21
3.937008
 31
0.0
  0
LINE
  8
0
  6
CONTINUOUS
 62
     7
  5
39E
 10
4.293929
 20
4.059615
 30
0.0
 11
4.416535
 21
3.937008
 31
0.0
  0
LINE
  8
0
  6
CONTINUOUS
 62
     7
  5
39F
 10
4.122379
 20
4.082677
 30
0.0
 11
4.238251
 21
4.082677
 31
0.0
  0
ARC
  8
0
  6
CONTINUOUS
 62
     7
  5
3A0
 10
4.122379
 20
4.003937
 30
0.0
 40
0.07874
 50
90.0
 51
135.0
  0
LINE
  8
0
  6
CONTINUOUS
 62
     7
  5
3A1
 10
3.944094
 20
3.937008
 30
0.0
 11
4.066701
 21
4.059615
 31
0.0
  0
ARC
  8
0
  6
CONTINUOUS
 62
     7
  5
3A2
 10
4.238251
 20
4.003937
 30
0.0
 40
0.07874
 50
45.0
 51
90.0
  0
LINE
  8
0
  6
CONTINUOUS
 62
     7
  5
3A3
 10
3.010464
 20
4.059615
 30
0.0
 11
3.133071
 21
3.937008
 31
0.0
  0
LINE
  8
0
  6
CONTINUOUS
 62
     7
  5
3A4
 10
2.838914
 20
4.082677
 30
0.0
 11
2.954786
 21
4.082677
 31
0.0
  0
ARC
  8
0
  6
CONTINUOUS
 62
     7
  5
3A5
 10
2.838914
 20
4.003937
 30
0.0
 40
0.07874
 50
90.0
 51
135.0
  0
LINE
  8
0
  6
CONTINUOUS
 62
     7
  5
3A6
 10
2.66063
 20
3.937008
 30
0.0
 11
2.783237
 21
4.059615
 31
0.0
  0
ARC
  8
0
  6
CONTINUOUS
 62
     7
  5
3A7
 10
2.954786
 20
4.003937
 30
0.0
 40
0.07874
 50
45.0
 51
90.0
  0
LINE
  8
0
  6
CONTINUOUS
 62
     7
  5
3A8
 10
1.726999
 20
4.059615
 30
0.0
 11
1.849606
 21
3.937008
 31
0.0
  0
LINE
  8
0
  6
CONTINUOUS
 62
     7
  5
3A9
 10
1.55545
 20
4.082677
 30
0.0
 11
1.671322
 21
4.082677
 31
0.0
  0
ARC
  8
0
  6
CONTINUOUS
 62
     7
  5
3AA
 10
1.55545
 20
4.003937
 30
0.0
 40
0.07874
 50
90.0
 51
135.0
  0
LINE
  8
0
  6
CONTINUOUS
 62
     7
  5
3AB
 10
1.377165
 20
3.937008
 30
0.0
 11
1.499772
 21
4.059615
 31
0.0
  0
ARC
  8
0
  6
CONTINUOUS
 62
     7
  5
3AC
 10
1.671322
 20
4.003937
 30
0.0
 40
0.07874
 50
45.0
 51
90.0
  0
LINE
  8
0
  6
CONTINUOUS
 62
     7
  5
3AD
 10
0.443535
 20
4.059615
 30
0.0
 11
0.566142
 21
3.937008
 31
0.0
  0
LINE
  8
0
  6
CONTINUOUS
 62
     7
  5
3AE
 10
0.271985
 20
4.082677
 30
0.0
 11
0.387857
 21
4.082677
 31
0.0
  0
ARC
  8
0
  6
CONTINUOUS
 62
     7
  5
3AF
 10
0.271985
 20
4.003937
 30
0.0
 40
0.07874
 50
90.0
 51
135.0
  0
LINE
  8
0
  6
CONTINUOUS
 62
     7
  5
3B0
 10
0.093701
 20
3.937008
 30
0.0
 11
0.216308
 21
4.059615
 31
0.0
  0
ARC
  8
0
  6
CONTINUOUS
 62
     7
  5
3B1
 10
0.387857
 20
4.003937
 30
0.0
 40
0.07874
 50
45.0
 51
90.0
  0
LINE
  8
0
  6
CONTINUOUS
 62
     7
  5
3B2
 10
-0.83993
 20
4.059615
 30
0.0
 11
-0.717323
 21
3.937008
 31
0.0
  0
LINE
  8
0
  6
CONTINUOUS
 62
     7
  5
3B3
 10
-1.011479
 20
4.082677
 30
0.0
 11
-0.895607
 21
4.082677
 31
0.0
  0
ARC
  8
0
  6
CONTINUOUS
 62
     7
  5
3B4
 10
-1.011479
 20
4.003937
 30
0.0
 40
0.07874
 50
90.0
 51
135.0
  0
LINE
  8
0
  6
CONTINUOUS
 62
     7
  5
3B5
 10
-1.189764
 20
3.937008
 30
0.0
 11
-1.067157
 21
4.059615
 31
0.0
  0
ARC
  8
0
  6
CONTINUOUS
 62
     7
  5
3B6
 10
-0.895607
 20
4.003937
 30
0.0
 40
0.07874
 50
45.0
 51
90.0
  0
LINE
  8
0
  6
CONTINUOUS
 62
     7
  5
3B7
 10
-2.123394
 20
4.059615
 30
0.0
 11
-2.000787
 21
3.937008
 31
0.0
  0
LINE
  8
0
  6
CONTINUOUS
 62
     7
  5
3B8
 10
-2.294944
 20
4.082677
 30
0.0
 11
-2.179072
 21
4.082677
 31
0.0
  0
ARC
  8
0
  6
CONTINUOUS
 62
     7
  5
3B9
 10
-2.294944
 20
4.003937
 30
0.0
 40
0.07874
 50
90.0
 51
135.0
  0
LINE
  8
0
  6
CONTINUOUS
 62
     7
  5
3BA
 10
-2.473228
 20
3.937008
 30
0.0
 11
-2.350622
 21
4.059615
 31
0.0
  0
ARC
  8
0
  6
CONTINUOUS
 62
     7
  5
3BB
 10
-2.179072
 20
4.003937
 30
0.0
 40
0.07874
 50
45.0
 51
90.0
  0
LINE
  8
0
  6
CONTINUOUS
 62
     7
  5
3BC
 10
-3.756693
 20
3.937008
 30
0.0
 11
-3.634086
 21
4.059615
 31
0.0
  0
LINE
  8
0
  6
CONTINUOUS
 62
     7
  5
3BD
 10
-3.578408
 20
4.082677
 30
0.0
 11
-3.462537
 21
4.082677
 31
0.0
  0
ARC
  8
0
  6
CONTINUOUS
 62
     7
  5
3BE
 10
-3.578408
 20
4.003937
 30
0.0
 40
0.07874
 50
90.0
 51
135.0
  0
LINE
  8
0
  6
CONTINUOUS
 62
     7
  5
3BF
 10
-3.406859
 20
4.059615
 30
0.0
 11
-3.284252
 21
3.937008
 31
0.0
  0
ARC
  8
0
  6
CONTINUOUS
 62
     7
  5
3C0
 10
-3.462537
 20
4.003937
 30
0.0
 40
0.07874
 50
45.0
 51
90.0
  0
LINE
  8
0
  6
CONTINUOUS
 62
     7
  5
3C1
 10
5.236202
 20
3.916141
 30
0.0
 11
5.227559
 21
3.937008
 31
0.0
  0
LINE
  8
0
  6
CONTINUOUS
 62
     7
  5
3C2
 10
5.7
 20
3.937008
 30
0.0
 11
5.691357
 21
3.916141
 31
0.0
  0
LINE
  8
0
  6
CONTINUOUS
 62
     7
  5
3C3
 10
4.416535
 20
3.937008
 30
0.0
 11
4.407892
 21
3.916141
 31
0.0
  0
LINE
  8
0
  6
CONTINUOUS
 62
     7
  5
3C4
 10
3.952738
 20
3.916141
 30
0.0
 11
3.944094
 21
3.937008
 31
0.0
  0
LINE
  8
0
  6
CONTINUOUS
 62
     7
  5
3C5
 10
3.133071
 20
3.937008
 30
0.0
 11
3.124428
 21
3.916141
 31
0.0
  0
LINE
  8
0
  6
CONTINUOUS
 62
     7
  5
3C6
 10
2.669273
 20
3.916141
 30
0.0
 11
2.66063
 21
3.937008
 31
0.0
  0
LINE
  8
0
  6
CONTINUOUS
 62
     7
  5
3C7
 10
1.849606
 20
3.937008
 30
0.0
 11
1.840963
 21
3.916141
 31
0.0
  0
LINE
  8
0
  6
CONTINUOUS
 62
     7
  5
3C8
 10
1.385809
 20
3.916141
 30
0.0
 11
1.377165
 21
3.937008
 31
0.0
  0
LINE
  8
0
  6
CONTINUOUS
 62
     7
  5
3C9
 10
0.566142
 20
3.937008
 30
0.0
 11
0.557499
 21
3.916141
 31
0.0
  0
LINE
  8
0
  6
CONTINUOUS
 62
     7
  5
3CA
 10
0.102344
 20
3.916141
 30
0.0
 11
0.093701
 21
3.937008
 31
0.0
  0
LINE
  8
0
  6
CONTINUOUS
 62
     7
  5
3CB
 10
-0.717323
 20
3.937008
 30
0.0
 11
-0.725966
 21
3.916141
 31
0.0
  0
LINE
  8
0
  6
CONTINUOUS
 62
     7
  5
3CC
 10
-1.181121
 20
3.916141
 30
0.0
 11
-1.189764
 21
3.937008
 31
0.0
  0
LINE
  8
0
  6
CONTINUOUS
 62
     7
  5
3CD
 10
-2.000787
 20
3.937008
 30
0.0
 11
-2.009431
 21
3.916141
 31
0.0
  0
LINE
  8
0
  6
CONTINUOUS
 62
     7
  5
3CE
 10
-2.464585
 20
3.916141
 30
0.0
 11
-2.473228
 21
3.937008
 31
0.0
  0
LINE
  8
0
  6
CONTINUOUS
 62
     7
  5
3CF
 10
-3.284252
 20
3.937008
 30
0.0
 11
-3.292895
 21
3.916141
 31
0.0
  0
LINE
  8
0
  6
CONTINUOUS
 62
     7
  5
3D0
 10
-3.74805
 20
3.916141
 30
0.0
 11
-3.756693
 21
3.937008
 31
0.0
  0
ARC
  8
0
  6
CONTINUOUS
 62
     7
  5
3D1
 10
6.023622
 20
0.03937
 30
0.0
 40
0.03937
 50
270.0
 51
360.0
  0
LINE
  8
0
  6
CONTINUOUS
 62
     7
  5
3D2
 10
6.062992
 20
0.03937
 30
0.0
 11
6.062992
 21
3.897638
 31
0.0
  0
ARC
  8
0
  6
CONTINUOUS
 62
     7
  5
3D3
 10
6.023622
 20
3.897638
 30
0.0
 40
0.03937
 50
0.0
 51
90.0
  0
ARC
  8
0
  6
CONTINUOUS
 62
     7
  5
3D4
 10
-6.023622
 20
3.897638
 30
0.0
 40
0.03937
 50
90.0
 51
180.0
  0
ARC
  8
0
  6
CONTINUOUS
 62
     7
  5
3D5
 10
-6.023622
 20
0.03937
 30
0.0
 40
0.03937
 50
180.0
 51
270.0
  0
LINE
  8
0
  6
CONTINUOUS
 62
     7
  5
3D6
 10
5.277165
 20
0.0
 30
0.0
 11
6.023622
 21
0.0
 31
0.0
  0
LINE
  8
0
  6
CONTINUOUS
 62
     3
  5
3D7
 10
-5.84935
 20
0.944882
 30
0.0
 11
-5.394744
 21
0.944882
 31
0.0
  0
LINE
  8
0
  6
CONTINUOUS
 62
     3
  5
3D8
 10
-5.622047
 20
0.717579
 30
0.0
 11
-5.622047
 21
1.172185
 31
0.0
  0
LINE
  8
0
  6
CONTINUOUS
 62
     3
  5
3D9
 10
-5.84935
 20
3.307087
 30
0.0
 11
-5.394744
 21
3.307087
 31
0.0
  0
LINE
  8
0
  6
CONTINUOUS
 62
     3
  5
3DA
 10
-5.622047
 20
3.079783
 30
0.0
 11
-5.622047
 21
3.53439
 31
0.0
  0
LINE
  8
0
  6
CONTINUOUS
 62
     3
  5
3DB
 10
4.898681
 20
0.944882
 30
0.0
 11
5.353287
 21
0.944882
 31
0.0
  0
LINE
  8
0
  6
CONTINUOUS
 62
     3
  5
3DC
 10
5.125984
 20
0.717579
 30
0.0
 11
5.125984
 21
1.172185
 31
0.0
  0
LINE
  8
0
  6
CONTINUOUS
 62
     3
  5
3DD
 10
4.898681
 20
3.307087
 30
0.0
 11
5.353287
 21
3.307087
 31
0.0
  0
LINE
  8
0
  6
CONTINUOUS
 62
     3
  5
3DE
 10
5.125984
 20
3.079783
 30
0.0
 11
5.125984
 21
3.53439
 31
0.0
  0
ENDSEC
  0
EOF
