999
DXF file: C:\Users\sesa63760\Dev\_Creo\CAD\MCADPD0004578_3D-CAD\drw0001_1.dxf
999
Pro/ENGINEER 2019471 by Parametric Technology Corporation
  0
SECTION
  2
HEADER
  9
$ACADVER
  1
AC1024
  9
$DWGCODEPAGE
  3
ANSI_1252
  9
$EXTMAX
 10
132.3949673704
 20
187.2443109953
 30
0.0
  9
$EXTMIN
 10
0.0
 20
0.0
 30
0.0
  9
$LIMMIN
 10
0.0
 20
0.0
  9
$LIMMAX
 10
132.3949673704
 20
187.2443109953
  9
$VIEWCTR
 10
66.1974836852
 20
93.6221554976
  9
$VIEWSIZE
 40
187.2443109953
  9
$CLAYER
  8
0
  9
$LTSCALE
 40
12.2055550871
  9
$CELTYPE
  6
BYLAYER
  9
$DIMSCALE
 40
1.0
  9
$DIMASZ
 40
1.5761305639
  9
$DIMEXO
 40
1.0
  9
$DIMDLI
 40
8.4329289693
  9
$DIMEXE
 40
1.0
  9
$DIMCEN
 40
1.9972726506
  9
$DIMLFAC
 40
1.0
  9
$DIMBLK
  1
_FILLED
  9
$DIMALT
 70
0
  9
$DIMALTF
 40
0.0393700787
  9
$DIMTXT
 40
2.2065827895
  9
$DIMTOL
 70
1
  9
$DIMLIM
 70
0
  9
$DIMTFAC
 40
1.0
  9
$DIMTP
 40
0.01
  9
$DIMTM
 40
0.01
  9
$DIMGAP
 40
0.625
  9
$DIMDSEP
 70
46
  9
$AUNITS
 70
0
  9
$PDMODE
 70
3
  9
$PDSIZE
 40
0.3125
  9
$HANDSEED
  5
6A3
  9
$TILEMODE
 70
1
  9
$MEASUREMENT
 70
1
  9
$INSUNITS
 70
4
  0
ENDSEC
  0
SECTION
  2
CLASSES
  0
CLASS
  1
ACDBDICTIONARYWDFLT
  2
AcDbDictionaryWithDefault
  3
AutoCAD 2000
 90
0
 91
1
280
0
281
0
  0
CLASS
  1
ACDBPLACEHOLDER
  2
AcDbPlaceHolder
  3
AutoCAD 2000
 90
0
 91
1
280
0
281
0
  0
CLASS
  1
LAYOUT
  2
AcDbLayout
  3
AutoCAD 2000
 90
0
 91
0
280
0
281
0
  0
ENDSEC
  0
SECTION
  2
TABLES
  0
TABLE
  2
VPORT
  5
8
100
AcDbSymbolTable
 70
2
  0
VPORT
  5
1F4
100
AcDbSymbolTableRecord
100
AcDbViewportTableRecord
  2
*ACTIVE
 70
0
 10
0.0
 20
0.0
 11
1.0
 21
1.0
 12
66.1974836852
 22
93.6221554976
 13
0.0
 23
0.0
 14
1.0
 24
1.0
 15
0.0
 25
0.0
 16
0.0
 26
0.0
 36
1.0
 17
0.0
 27
0.0
 37
0.0
 40
187.2443109953
 41
0.7070707071
 42
50.0
 43
0.0
 44
0.0
 50
0.0
 51
0.0
 71
0
 72
100
 73
1
 74
1
 75
0
 76
0
 77
0
 78
0
  0
ENDTAB
  0
TABLE
  2
LTYPE
  5
5
100
AcDbSymbolTable
 70
6
  0
LTYPE
  5
14
100
AcDbSymbolTableRecord
100
AcDbLinetypeTableRecord
  2
BYBLOCK
 70
0
  3

 72
65
 73
0
 40
0.0
  0
LTYPE
  5
15
100
AcDbSymbolTableRecord
100
AcDbLinetypeTableRecord
  2
BYLAYER
 70
0
  3

 72
65
 73
0
 40
0.0
  0
LTYPE
  5
16
100
AcDbSymbolTableRecord
100
AcDbLinetypeTableRecord
  2
CONTINUOUS
 70
64
  3
Solid line
 72
65
 73
0
 40
0.0
  0
LTYPE
  5
1F5
100
AcDbSymbolTableRecord
100
AcDbLinetypeTableRecord
  2
CENTER
 70
64
  3
____ _ ____ _ ____ _ ____ _ ____ _ ____ _ ____
 72
65
 73
4
 40
0.6
 49
0.375
 74
0
 49
-0.075
 74
0
 49
0.075
 74
0
 49
-0.075
 74
0
  0
LTYPE
  5
1F6
100
AcDbSymbolTableRecord
100
AcDbLinetypeTableRecord
  2
HIDDEN
 70
64
  3
- - - - - - - - - - - - - - - - - - - -
 72
65
 73
2
 40
0.2
 49
0.1
 74
0
 49
-0.1
 74
0
  0
LTYPE
  5
1F7
100
AcDbSymbolTableRecord
100
AcDbLinetypeTableRecord
  2
PHANTOM
 70
64
  3
_____ _ _ _____ _ _ _____ _ _ _____
 72
65
 73
6
 40
0.8
 49
0.45
 74
0
 49
-0.05
 74
0
 49
0.1
 74
0
 49
-0.05
 74
0
 49
0.1
 74
0
 49
-0.05
 74
0
  0
LTYPE
  5
1F8
100
AcDbSymbolTableRecord
100
AcDbLinetypeTableRecord
  2
DOT
 70
64
  3
. . . . . . . . . . . . . . . . . . . .
 72
65
 73
2
 40
0.2
 49
0.1
 74
0
 49
-0.1
 74
0
  0
LTYPE
  5
1F9
100
AcDbSymbolTableRecord
100
AcDbLinetypeTableRecord
  2
DASHED
 70
64
  3
- - - - - - - - - - - - - - - - - - - -
 72
65
 73
2
 40
0.2
 49
0.1
 74
0
 49
-0.1
 74
0
  0
ENDTAB
  0
TABLE
  2
LAYER
  5
2
100
AcDbSymbolTable
 70
36
  0
LAYER
  5
10
100
AcDbSymbolTableRecord
100
AcDbLayerTableRecord
  2
0
 70
0
 62
7
  6
CONTINUOUS
370
-3
390
F
  0
LAYER
  5
1FA
100
AcDbSymbolTableRecord
100
AcDbLayerTableRecord
  2
DEFAULT_1
 70
0
 62
7
  6
CENTER
370
-3
390
F
  0
LAYER
  5
1FB
100
AcDbSymbolTableRecord
100
AcDbLayerTableRecord
  2
DEFAULT_2
 70
0
 62
7
  6
HIDDEN
370
-3
390
F
  0
LAYER
  5
1FC
100
AcDbSymbolTableRecord
100
AcDbLayerTableRecord
  2
DEFAULT_3
 70
0
 62
7
  6
PHANTOM
370
-3
390
F
  0
LAYER
  5
1FD
100
AcDbSymbolTableRecord
100
AcDbLayerTableRecord
  2
00_COMPONENTS
 70
0
 62
7
  6
CONTINUOUS
370
-3
390
F
  0
LAYER
  5
1FE
100
AcDbSymbolTableRecord
100
AcDbLayerTableRecord
  2
01_1_DEFAULT_DATUMS
 70
0
 62
7
  6
CONTINUOUS
370
-3
390
F
  0
LAYER
  5
1FF
100
AcDbSymbolTableRecord
100
AcDbLayerTableRecord
  2
01_PLANES
 70
0
 62
7
  6
CONTINUOUS
370
-3
390
F
  0
LAYER
  5
200
100
AcDbSymbolTableRecord
100
AcDbLayerTableRecord
  2
02_COORD_SYS
 70
0
 62
7
  6
CONTINUOUS
370
-3
390
F
  0
LAYER
  5
201
100
AcDbSymbolTableRecord
100
AcDbLayerTableRecord
  2
03_AXES
 70
0
 62
7
  6
CONTINUOUS
370
-3
390
F
  0
LAYER
  5
202
100
AcDbSymbolTableRecord
100
AcDbLayerTableRecord
  2
04_POINTS
 70
0
 62
7
  6
CONTINUOUS
370
-3
390
F
  0
LAYER
  5
203
100
AcDbSymbolTableRecord
100
AcDbLayerTableRecord
  2
05_CURVES
 70
0
 62
7
  6
CONTINUOUS
370
-3
390
F
  0
LAYER
  5
204
100
AcDbSymbolTableRecord
100
AcDbLayerTableRecord
  2
06_SURFS
 70
0
 62
7
  6
CONTINUOUS
370
-3
390
F
  0
LAYER
  5
205
100
AcDbSymbolTableRecord
100
AcDbLayerTableRecord
  2
07_COSMETICS
 70
0
 62
7
  6
CONTINUOUS
370
-3
390
F
  0
LAYER
  5
206
100
AcDbSymbolTableRecord
100
AcDbLayerTableRecord
  2
10_NOTES
 70
0
 62
7
  6
CONTINUOUS
370
-3
390
F
  0
LAYER
  5
207
100
AcDbSymbolTableRecord
100
AcDbLayerTableRecord
  2
11_NOTES_PUB
 70
0
 62
7
  6
CONTINUOUS
370
-3
390
F
  0
LAYER
  5
208
100
AcDbSymbolTableRecord
100
AcDbLayerTableRecord
  2
13_REF_GTOL
 70
0
 62
7
  6
CONTINUOUS
370
-3
390
F
  0
LAYER
  5
209
100
AcDbSymbolTableRecord
100
AcDbLayerTableRecord
  2
16_MISC
 70
0
 62
7
  6
CONTINUOUS
370
-3
390
F
  0
LAYER
  5
20A
100
AcDbSymbolTableRecord
100
AcDbLayerTableRecord
  2
17_NO_PRINT
 70
0
 62
7
  6
CONTINUOUS
370
-3
390
F
  0
LAYER
  5
20B
100
AcDbSymbolTableRecord
100
AcDbLayerTableRecord
  2
18_DATUM_CAMS_JOINTS
 70
0
 62
7
  6
CONTINUOUS
370
-3
390
F
  0
LAYER
  5
20C
100
AcDbSymbolTableRecord
100
AcDbLayerTableRecord
  2
19_DATUM_FUNCTIONAL
 70
0
 62
7
  6
CONTINUOUS
370
-3
390
F
  0
LAYER
  5
20D
100
AcDbSymbolTableRecord
100
AcDbLayerTableRecord
  2
20_DATUM_KINEMATIC_SCHEME
 70
0
 62
7
  6
CONTINUOUS
370
-3
390
F
  0
ENDTAB
  0
TABLE
  2
STYLE
  5
3
100
AcDbSymbolTable
 70
1
  0
STYLE
  5
11
100
AcDbSymbolTableRecord
100
AcDbTextStyleTableRecord
  2
STANDARD
 70
0
 40
0.0
 41
1.0
 50
0.0
 71
0
 42
0.2
  3
ARIAL.TTF
  4

  0
STYLE
  5
20E
100
AcDbSymbolTableRecord
100
AcDbTextStyleTableRecord
  2
TEXTSTYLE_1
 70
0
 40
0.0
 41
0.8
 50
0.0
 71
0
 42
0.2
  3
gdt
  4

  0
ENDTAB
  0
TABLE
  2
VIEW
  5
6
100
AcDbSymbolTable
 70
0
  0
ENDTAB
  0
TABLE
  2
UCS
  5
7
100
AcDbSymbolTable
 70
0
  0
ENDTAB
  0
TABLE
  2
APPID
  5
9
100
AcDbSymbolTable
 70
1
  0
APPID
  5
20F
100
AcDbSymbolTableRecord
100
AcDbRegAppTableRecord
  2
ACAD
 70
0
  0
ENDTAB
  0
TABLE
  2
BLOCK_RECORD
  5
1
100
AcDbSymbolTable
 70
0
  0
BLOCK_RECORD
  5
210
100
AcDbSymbolTableRecord
100
AcDbBlockTableRecord
  2
*Model_Space
  0
BLOCK_RECORD
  5
211
100
AcDbSymbolTableRecord
100
AcDbBlockTableRecord
  2
*Paper_Space
  0
BLOCK_RECORD
  5
212
100
AcDbSymbolTableRecord
100
AcDbBlockTableRecord
  2
_FILLED
  0
ENDTAB
  0
TABLE
  2
DIMSTYLE
  5
A
100
AcDbSymbolTable
 70
1
100
AcDbDimStyleTable
 71
0
  0
DIMSTYLE
105
213
100
AcDbSymbolTableRecord
100
AcDbDimStyleTableRecord
  2
STANDARD
 70
0
  3

  4

 40
1.0
 41
1.5761305639
 42
1.0
 43
0.38
 44
1.0
 45
0.0
 46
0.0
 47
0.01
 48
0.01
140
2.2065827895
141
0.09
142
0.0
143
25.4
144
1.0
145
0.0
146
1.0
147
0.625
 71
1
 72
0
 73
0
 74
0
 75
0
 76
0
 77
1
 78
8
 79
2
170
0
171
1
172
0
173
0
174
0
175
0
176
0
177
0
178
0
270
2
179
2
271
2
272
2
273
2
274
2
275
0
280
0
281
0
282
0
283
1
284
8
285
0
286
0
287
3
288
0
340
11
278
46
341
212
342
212
343
212
344
212
  0
ENDTAB
  0
ENDSEC
  0
SECTION
  2
BLOCKS
  0
BLOCK
  5
20
100
AcDbEntity
  8
0
100
AcDbBlockBegin
  2
*Model_Space
 70
0
 10
0.0
 20
0.0
 30
0.0
  3
*Model_Space
  1

  0
ENDBLK
  5
21
100
AcDbEntity
  8
0
100
AcDbBlockEnd
  0
BLOCK
  5
1C
100
AcDbEntity
  8
0
100
AcDbBlockBegin
  2
*Paper_Space
 70
0
 10
0.0
 20
0.0
 30
0.0
  3
*Paper_Space
  1

  0
ENDBLK
  5
1D
100
AcDbEntity
  8
0
100
AcDbBlockEnd
  0
BLOCK
  5
214
100
AcDbEntity
  8
0
100
AcDbBlockBegin
  2
_FILLED
 70
64
 10
0.0
 20
0.0
  3
_FILLED
  1

  0
SOLID
  5
215
100
AcDbEntity
  8
0
  6
BYBLOCK
 62
0
100
AcDbTrace
 10
0.0
 20
0.0
 11
-1.0
 21
0.25
 12
-1.0
 22
-0.25
 13
-1.0
 23
-0.25
  0
ENDBLK
  5
216
100
AcDbEntity
  8
0
  6
BYBLOCK
 62
0
100
AcDbBlockEnd
  0
ENDSEC
  0
SECTION
  2
ENTITIES
  0
LINE
  5
217
100
AcDbEntity
  8
0
100
AcDbLine
 62
7
  6
BYLAYER
 10
15.3593394552
 20
80.2889099961
 11
15.3593394552
 21
118.6624916303
  0
LINE
  5
218
100
AcDbEntity
  8
0
100
AcDbLine
 62
7
  6
BYLAYER
 10
15.430049839
 20
80.1664432132
 11
15.430049839
 21
80.2480987133
  0
LINE
  5
219
100
AcDbEntity
  8
0
100
AcDbLine
 62
7
  6
BYLAYER
 10
15.5007608115
 20
120.6242307408
 11
15.5007608115
 21
118.6628323637
  0
LINE
  5
21A
100
AcDbEntity
  8
0
100
AcDbLine
 62
7
  6
BYLAYER
 10
15.5007608115
 20
80.1256191378
 11
15.5007608115
 21
78.1401914727
  0
LINE
  5
21B
100
AcDbEntity
  8
0
100
AcDbLine
 62
7
  6
BYLAYER
 10
16.3741209094
 20
79.7030502414
 11
16.3740898152
 21
77.6359869966
  0
LINE
  5
21C
100
AcDbEntity
  8
0
100
AcDbLine
 62
7
  6
BYLAYER
 10
17.7281570345
 20
105.4723416049
 11
17.7281570345
 21
102.614583145
  0
LINE
  5
21D
100
AcDbEntity
  8
0
100
AcDbLine
 62
7
  6
BYLAYER
 10
17.9756419055
 20
112.3611656519
 11
17.9756419055
 21
111.5446632348
  0
LINE
  5
21E
100
AcDbEntity
  8
0
100
AcDbLine
 62
7
  6
BYLAYER
 10
17.9756419055
 20
85.2124602824
 11
17.9756419055
 21
84.3959578652
  0
LINE
  5
21F
100
AcDbEntity
  8
0
100
AcDbLine
 62
7
  6
BYLAYER
 10
18.117062673
 20
112.2795181809
 11
18.117062673
 21
111.6263120656
  0
LINE
  5
220
100
AcDbEntity
  8
0
100
AcDbLine
 62
7
  6
BYLAYER
 10
18.117062673
 20
85.1308128113
 11
18.117062673
 21
84.477606696
  0
LINE
  5
221
100
AcDbEntity
  8
0
100
AcDbLine
 62
7
  6
BYLAYER
 10
18.4352608717
 20
105.0641042497
 11
18.4352608717
 21
103.0228272988
  0
LINE
  5
222
100
AcDbEntity
  8
0
100
AcDbLine
 62
7
  6
BYLAYER
 10
16.3737026132
 20
118.1589142287
 11
16.374575844
 21
120.120255631
  0
LINE
  5
223
100
AcDbEntity
  8
0
100
AcDbLine
 62
7
  6
BYLAYER
 10
50.5448255496
 20
143.3879896803
 11
55.4521270249
 21
146.2210927143
  0
LINE
  5
224
100
AcDbEntity
  8
0
100
AcDbLine
 62
7
  6
BYLAYER
 10
15.5007608115
 20
120.6242374283
 11
31.1624744123
 21
129.6664391303
  0
LINE
  5
225
100
AcDbEntity
  8
0
100
AcDbLine
 62
7
  6
BYLAYER
 10
21.982349728
 20
76.4652044445
 11
21.9832707101
 21
74.3981507267
  0
LINE
  5
226
100
AcDbEntity
  8
0
100
AcDbLine
 62
7
  6
BYLAYER
 10
19.0363064932
 20
112.9735581458
 11
19.0363064932
 21
111.7488045201
  0
LINE
  5
227
100
AcDbEntity
  8
0
100
AcDbLine
 62
7
  6
BYLAYER
 10
19.0363064932
 20
110.932302103
 11
19.0363064932
 21
109.7075484773
  0
LINE
  5
228
100
AcDbEntity
  8
0
100
AcDbLine
 62
7
  6
BYLAYER
 10
19.0363064932
 20
85.8248527763
 11
19.0363064932
 21
84.6000991506
  0
LINE
  5
229
100
AcDbEntity
  8
0
100
AcDbLine
 62
7
  6
BYLAYER
 10
19.0363064932
 20
83.7835967335
 11
19.0363064932
 21
82.5588431078
  0
LINE
  5
22A
100
AcDbEntity
  8
0
100
AcDbLine
 62
7
  6
BYLAYER
 10
19.1777272607
 20
112.8919106748
 11
19.1777272607
 21
111.8304533509
  0
LINE
  5
22B
100
AcDbEntity
  8
0
100
AcDbLine
 62
7
  6
BYLAYER
 10
19.1777272607
 20
111.0139509338
 11
19.1777272607
 21
109.7891973081
  0
LINE
  5
22C
100
AcDbEntity
  8
0
100
AcDbLine
 62
7
  6
BYLAYER
 10
19.1777272607
 20
85.7432053052
 11
19.1777272607
 21
84.6817479814
  0
LINE
  5
22D
100
AcDbEntity
  8
0
100
AcDbLine
 62
7
  6
BYLAYER
 10
19.1777272607
 20
83.8652455642
 11
19.1777272607
 21
82.6404919385
  0
LINE
  5
22E
100
AcDbEntity
  8
0
100
AcDbLine
 62
7
  6
BYLAYER
 10
19.7434162184
 20
82.1506023532
 11
19.7434162184
 21
83.3753559789
  0
LINE
  5
22F
100
AcDbEntity
  8
0
100
AcDbLine
 62
7
  6
BYLAYER
 10
19.7434162184
 20
84.1918583961
 11
19.7434162184
 21
85.4166120218
  0
LINE
  5
230
100
AcDbEntity
  8
0
100
AcDbLine
 62
7
  6
BYLAYER
 10
19.7434162184
 20
109.2993077228
 11
19.7434162184
 21
110.5240613485
  0
LINE
  5
231
100
AcDbEntity
  8
0
100
AcDbLine
 62
7
  6
BYLAYER
 10
19.7434162184
 20
111.3405637656
 11
19.7434162184
 21
112.5653173913
  0
LINE
  5
232
100
AcDbEntity
  8
0
100
AcDbLine
 62
7
  6
BYLAYER
 10
20.2030410725
 20
101.1857405042
 11
20.2030410725
 21
104.0434989641
  0
LINE
  5
233
100
AcDbEntity
  8
0
100
AcDbLine
 62
7
  6
BYLAYER
 10
20.8040808061
 20
82.7629948472
 11
20.8040808061
 21
83.5794972643
  0
LINE
  5
234
100
AcDbEntity
  8
0
100
AcDbLine
 62
7
  6
BYLAYER
 10
20.8040808061
 20
109.9117002167
 11
20.8040808061
 21
110.7282026338
  0
LINE
  5
235
100
AcDbEntity
  8
0
100
AcDbLine
 62
7
  6
BYLAYER
 10
21.982775054
 20
114.9210951748
 11
21.9827427305
 21
116.8819480832
  0
LINE
  5
236
100
AcDbEntity
  8
0
100
AcDbLine
 62
7
  6
BYLAYER
 10
22.6609627611
 20
76.0734150886
 11
22.6609316673
 21
74.0063592741
  0
LINE
  5
237
100
AcDbEntity
  8
0
100
AcDbLine
 62
7
  6
BYLAYER
 10
22.6605444657
 20
114.5292897206
 11
22.6614176943
 21
116.4906279082
  0
LINE
  5
238
100
AcDbEntity
  8
0
100
AcDbLine
 62
7
  6
BYLAYER
 10
16.374575844
 20
120.120255631
 11
32.0355654653
 21
129.1623711794
  0
LINE
  5
239
100
AcDbEntity
  8
0
100
AcDbLine
 62
7
  6
BYLAYER
 10
15.3593394552
 20
118.6624916303
 11
15.5007608115
 21
118.744140801
  0
LINE
  5
23A
100
AcDbEntity
  8
0
100
AcDbLine
 62
7
  6
BYLAYER
 10
21.960189696
 20
121.3843739028
 11
16.3737026132
 21
118.1589142287
  0
LINE
  5
23B
100
AcDbEntity
  8
0
100
AcDbLine
 62
7
  6
BYLAYER
 10
37.2088480174
 20
130.1367396203
 11
50.2927421795
 21
137.6902394571
  0
LINE
  5
23C
100
AcDbEntity
  8
0
100
AcDbLine
 62
7
  6
BYLAYER
 10
32.6019337742
 20
127.3954625401
 11
37.2795589872
 21
130.0959155433
  0
LINE
  5
23D
100
AcDbEntity
  8
0
100
AcDbLine
 62
7
  6
BYLAYER
 10
22.087015675
 20
121.3111148418
 11
32.0355669131
 21
127.0373269885
  0
LINE
  5
23E
100
AcDbEntity
  8
0
100
AcDbLine
 62
7
  6
BYLAYER
 10
28.0988488483
 20
72.93391469
 11
28.0997698272
 21
70.8668682014
  0
LINE
  5
23F
100
AcDbEntity
  8
0
100
AcDbLine
 62
7
  6
BYLAYER
 10
24.0214335883
 20
88.9235636555
 11
24.0214335883
 21
85.8208544704
  0
LINE
  5
240
100
AcDbEntity
  8
0
100
AcDbLine
 62
7
  6
BYLAYER
 10
24.092141028
 20
108.8298831253
 11
24.092141028
 21
108.0133807082
  0
LINE
  5
241
100
AcDbEntity
  8
0
100
AcDbLine
 62
7
  6
BYLAYER
 10
24.092141028
 20
81.6811777558
 11
24.092141028
 21
80.8646753386
  0
LINE
  5
242
100
AcDbEntity
  8
0
100
AcDbLine
 62
7
  6
BYLAYER
 10
24.2335617955
 20
108.7482356543
 11
24.2335617955
 21
108.095029539
  0
LINE
  5
243
100
AcDbEntity
  8
0
100
AcDbLine
 62
7
  6
BYLAYER
 10
24.2335617955
 20
81.5995302847
 11
24.2335617955
 21
80.9463241694
  0
LINE
  5
244
100
AcDbEntity
  8
0
100
AcDbLine
 62
7
  6
BYLAYER
 10
24.7285374255
 20
88.5153263003
 11
24.7285374255
 21
86.2290986243
  0
LINE
  5
245
100
AcDbEntity
  8
0
100
AcDbLine
 62
7
  6
BYLAYER
 10
25.1528056158
 20
109.4422756192
 11
25.1528056158
 21
108.2175219935
  0
LINE
  5
246
100
AcDbEntity
  8
0
100
AcDbLine
 62
7
  6
BYLAYER
 10
25.1528056158
 20
107.4010195764
 11
25.1528056158
 21
106.1762659507
  0
LINE
  5
247
100
AcDbEntity
  8
0
100
AcDbLine
 62
7
  6
BYLAYER
 10
25.1528056158
 20
82.2935702497
 11
25.1528056158
 21
81.068816624
  0
LINE
  5
248
100
AcDbEntity
  8
0
100
AcDbLine
 62
7
  6
BYLAYER
 10
25.1528056158
 20
80.2523142069
 11
25.1528056158
 21
79.0275605812
  0
LINE
  5
249
100
AcDbEntity
  8
0
100
AcDbLine
 62
7
  6
BYLAYER
 10
25.2942263832
 20
109.3606281482
 11
25.2942263832
 21
108.2991708243
  0
LINE
  5
24A
100
AcDbEntity
  8
0
100
AcDbLine
 62
7
  6
BYLAYER
 10
25.2942263832
 20
107.4826684072
 11
25.2942263832
 21
106.2579147815
  0
LINE
  5
24B
100
AcDbEntity
  8
0
100
AcDbLine
 62
7
  6
BYLAYER
 10
25.2942263832
 20
82.2119227786
 11
25.2942263832
 21
81.1504654548
  0
LINE
  5
24C
100
AcDbEntity
  8
0
100
AcDbLine
 62
7
  6
BYLAYER
 10
25.2942263832
 20
80.3339630376
 11
25.2942263832
 21
79.1092094119
  0
LINE
  5
24D
100
AcDbEntity
  8
0
100
AcDbLine
 62
7
  6
BYLAYER
 10
25.8599153409
 20
78.6193198266
 11
25.8599153409
 21
79.8440734523
  0
LINE
  5
24E
100
AcDbEntity
  8
0
100
AcDbLine
 62
7
  6
BYLAYER
 10
25.8599153409
 20
80.6605758695
 11
25.8599153409
 21
81.8853294952
  0
LINE
  5
24F
100
AcDbEntity
  8
0
100
AcDbLine
 62
7
  6
BYLAYER
 10
25.8599153409
 20
105.7680251962
 11
25.8599153409
 21
106.9927788219
  0
LINE
  5
250
100
AcDbEntity
  8
0
100
AcDbLine
 62
7
  6
BYLAYER
 10
25.8599153409
 20
107.809281239
 11
25.8599153409
 21
109.0340348647
  0
LINE
  5
251
100
AcDbEntity
  8
0
100
AcDbLine
 62
7
  6
BYLAYER
 10
26.1427627637
 20
84.5961322069
 11
26.1427627637
 21
87.698841392
  0
LINE
  5
252
100
AcDbEntity
  8
0
100
AcDbLine
 62
7
  6
BYLAYER
 10
26.9205799286
 20
79.2317123206
 11
26.9205799286
 21
80.0482147377
  0
LINE
  5
253
100
AcDbEntity
  8
0
100
AcDbLine
 62
7
  6
BYLAYER
 10
26.9205799286
 20
106.3804176901
 11
26.9205799286
 21
107.1969201072
  0
LINE
  5
254
100
AcDbEntity
  8
0
100
AcDbLine
 62
7
  6
BYLAYER
 10
28.0992741729
 20
111.3898158408
 11
28.0992418498
 21
113.3506655585
  0
LINE
  5
255
100
AcDbEntity
  8
0
100
AcDbLine
 62
7
  6
BYLAYER
 10
37.6442183832
 20
125.9242871627
 11
21.9832287609
 21
116.8821716137
  0
LINE
  5
256
100
AcDbEntity
  8
0
100
AcDbLine
 62
7
  6
BYLAYER
 10
22.6614176943
 20
116.4906279082
 11
38.3224073205
 21
125.5327434551
  0
LINE
  5
257
100
AcDbEntity
  8
0
100
AcDbLine
 62
7
  6
BYLAYER
 10
28.2470315499
 20
117.7547494606
 11
22.6605444657
 21
114.5292897206
  0
LINE
  5
258
100
AcDbEntity
  8
0
100
AcDbLine
 62
7
  6
BYLAYER
 10
17.9756419055
 20
111.5446632348
 11
18.117062673
 21
111.6263120656
  0
LINE
  5
259
100
AcDbEntity
  8
0
100
AcDbLine
 62
7
  6
BYLAYER
 10
19.0363064932
 20
111.7488045201
 11
19.1777272607
 21
111.8304533509
  0
LINE
  5
25A
100
AcDbEntity
  8
0
100
AcDbLine
 62
7
  6
BYLAYER
 10
19.0363064932
 20
110.932302103
 11
19.1777272607
 21
111.0139509338
  0
LINE
  5
25B
100
AcDbEntity
  8
0
100
AcDbLine
 62
7
  6
BYLAYER
 10
28.3738603732
 20
117.6814887562
 11
38.3224087682
 21
123.4076992642
  0
LINE
  5
25C
100
AcDbEntity
  8
0
100
AcDbLine
 62
7
  6
BYLAYER
 10
72.517232208
 20
45.2224619149
 11
71.8390432738
 21
45.6140056207
  0
LINE
  5
25D
100
AcDbEntity
  8
0
100
AcDbLine
 62
7
  6
BYLAYER
 10
66.4007330887
 20
48.7537444396
 11
65.893214493
 21
49.0467538087
  0
LINE
  5
25E
100
AcDbEntity
  8
0
100
AcDbLine
 62
7
  6
BYLAYER
 10
60.2845615751
 20
52.2848378254
 11
59.7767153705
 21
52.5780363353
  0
LINE
  5
25F
100
AcDbEntity
  8
0
100
AcDbLine
 62
7
  6
BYLAYER
 10
54.1680624526
 20
55.816120352
 11
53.6457204986
 21
56.1176877974
  0
LINE
  5
260
100
AcDbEntity
  8
0
100
AcDbLine
 62
7
  6
BYLAYER
 10
48.2074103135
 20
59.2574266163
 11
46.2925646277
 21
60.3629382785
  0
LINE
  5
261
100
AcDbEntity
  8
0
100
AcDbLine
 62
7
  6
BYLAYER
 10
40.8542544426
 20
63.5026770974
 11
40.3319124886
 21
63.8042445428
  0
LINE
  5
262
100
AcDbEntity
  8
0
100
AcDbLine
 62
7
  6
BYLAYER
 10
34.7232595707
 20
67.0423285595
 11
34.2154133661
 21
67.3355270694
  0
LINE
  5
263
100
AcDbEntity
  8
0
100
AcDbLine
 62
7
  6
BYLAYER
 10
28.6067604481
 20
70.5736110861
 11
28.0992418524
 21
70.8666204552
  0
LINE
  5
264
100
AcDbEntity
  8
0
100
AcDbLine
 62
7
  6
BYLAYER
 10
22.6609316673
 20
74.0063592741
 11
21.9827427331
 21
74.3979029799
  0
LINE
  5
265
100
AcDbEntity
  8
0
100
AcDbLine
 62
7
  6
BYLAYER
 10
78.9992141297
 20
41.4801717168
 11
78.1258851259
 21
41.9843778982
  0
LINE
  5
266
100
AcDbEntity
  8
0
100
AcDbLine
 62
7
  6
BYLAYER
 10
16.3740898152
 20
77.6359869966
 11
15.5007608115
 21
78.1401914727
  0
LINE
  5
267
100
AcDbEntity
  8
0
100
AcDbLine
 62
7
  6
BYLAYER
 10
28.6067604481
 20
72.6406778247
 11
28.6067604481
 21
70.5736110861
  0
LINE
  5
268
100
AcDbEntity
  8
0
100
AcDbLine
 62
7
  6
BYLAYER
 10
28.7237132605
 20
86.208762638
 11
28.7237132605
 21
83.8409056283
  0
LINE
  5
269
100
AcDbEntity
  8
0
100
AcDbLine
 62
7
  6
BYLAYER
 10
29.4308170977
 20
85.8005252828
 11
29.4308170977
 21
84.2491497822
  0
LINE
  5
26A
100
AcDbEntity
  8
0
100
AcDbLine
 62
7
  6
BYLAYER
 10
29.7136668757
 20
98.1933997523
 11
29.7136668757
 21
95.4336215824
  0
LINE
  5
26B
100
AcDbEntity
  8
0
100
AcDbLine
 62
7
  6
BYLAYER
 10
30.2086401506
 20
105.2986005987
 11
30.2086401506
 21
104.4820981816
  0
LINE
  5
26C
100
AcDbEntity
  8
0
100
AcDbLine
 62
7
  6
BYLAYER
 10
30.2086401506
 20
78.1498952292
 11
30.2086401506
 21
77.333392812
  0
LINE
  5
26D
100
AcDbEntity
  8
0
100
AcDbLine
 62
7
  6
BYLAYER
 10
30.350060918
 20
105.2169531277
 11
30.350060918
 21
104.5637470124
  0
LINE
  5
26E
100
AcDbEntity
  8
0
100
AcDbLine
 62
7
  6
BYLAYER
 10
30.350060918
 20
78.0682477581
 11
30.350060918
 21
77.4150416428
  0
LINE
  5
26F
100
AcDbEntity
  8
0
100
AcDbLine
 62
7
  6
BYLAYER
 10
30.4207707129
 20
97.7851623971
 11
30.4207707129
 21
95.8418657362
  0
LINE
  5
270
100
AcDbEntity
  8
0
100
AcDbLine
 62
7
  6
BYLAYER
 10
31.2693047383
 20
105.9109930926
 11
31.2693047383
 21
104.6862394669
  0
LINE
  5
271
100
AcDbEntity
  8
0
100
AcDbLine
 62
7
  6
BYLAYER
 10
31.2693047383
 20
103.8697370498
 11
31.2693047383
 21
102.6449834241
  0
LINE
  5
272
100
AcDbEntity
  8
0
100
AcDbLine
 62
7
  6
BYLAYER
 10
31.2693047383
 20
78.7622877231
 11
31.2693047383
 21
77.5375340974
  0
LINE
  5
273
100
AcDbEntity
  8
0
100
AcDbLine
 62
7
  6
BYLAYER
 10
31.2693047383
 20
76.7210316803
 11
31.2693047383
 21
75.4962780546
  0
LINE
  5
274
100
AcDbEntity
  8
0
100
AcDbLine
 62
7
  6
BYLAYER
 10
31.4107255057
 20
105.8293456216
 11
31.4107255057
 21
104.7678882977
  0
LINE
  5
275
100
AcDbEntity
  8
0
100
AcDbLine
 62
7
  6
BYLAYER
 10
31.4107255057
 20
103.9513858806
 11
31.4107255057
 21
102.7266322549
  0
LINE
  5
276
100
AcDbEntity
  8
0
100
AcDbLine
 62
7
  6
BYLAYER
 10
31.4107255057
 20
78.680640252
 11
31.4107255057
 21
77.6191829282
  0
LINE
  5
277
100
AcDbEntity
  8
0
100
AcDbLine
 62
7
  6
BYLAYER
 10
31.4107255057
 20
76.802680511
 11
31.4107255057
 21
75.5779268853
  0
LINE
  5
278
100
AcDbEntity
  8
0
100
AcDbLine
 62
7
  6
BYLAYER
 10
31.4814411886
 20
82.2487666857
 11
31.4814411886
 21
84.6166236954
  0
LINE
  5
279
100
AcDbEntity
  8
0
100
AcDbLine
 62
7
  6
BYLAYER
 10
31.9764144634
 20
75.0880373
 11
31.9764144634
 21
76.3127909257
  0
LINE
  5
27A
100
AcDbEntity
  8
0
100
AcDbLine
 62
7
  6
BYLAYER
 10
31.9764144634
 20
77.1292933429
 11
31.9764144634
 21
78.3540469686
  0
LINE
  5
27B
100
AcDbEntity
  8
0
100
AcDbLine
 62
7
  6
BYLAYER
 10
31.9764144634
 20
102.2367426696
 11
31.9764144634
 21
103.4614962953
  0
LINE
  5
27C
100
AcDbEntity
  8
0
100
AcDbLine
 62
7
  6
BYLAYER
 10
31.9764144634
 20
104.2779987124
 11
31.9764144634
 21
105.5027523381
  0
LINE
  5
27D
100
AcDbEntity
  8
0
100
AcDbLine
 62
7
  6
BYLAYER
 10
32.0355654653
 20
129.1623711794
 11
32.0355654131
 21
127.036203662
  0
LINE
  5
27E
100
AcDbEntity
  8
0
100
AcDbLine
 62
7
  6
BYLAYER
 10
32.7188832076
 20
93.6985983757
 11
32.7188832076
 21
96.4583765456
  0
LINE
  5
27F
100
AcDbEntity
  8
0
100
AcDbLine
 62
7
  6
BYLAYER
 10
32.8178785691
 20
92.2044004159
 11
32.8178785691
 21
85.9352948572
  0
LINE
  5
280
100
AcDbEntity
  8
0
100
AcDbLine
 62
7
  6
BYLAYER
 10
33.0370790512
 20
75.700429794
 11
33.0370790512
 21
76.5169322111
  0
LINE
  5
281
100
AcDbEntity
  8
0
100
AcDbLine
 62
7
  6
BYLAYER
 10
33.0370790512
 20
102.8491351635
 11
33.0370790512
 21
103.6656375806
  0
LINE
  5
282
100
AcDbEntity
  8
0
100
AcDbLine
 62
7
  6
BYLAYER
 10
28.6063238512
 20
111.0965731969
 11
28.6071970451
 21
113.0579082558
  0
LINE
  5
283
100
AcDbEntity
  8
0
100
AcDbLine
 62
7
  6
BYLAYER
 10
19.7434162184
 20
110.5240613485
 11
19.8848369858
 21
110.6057101793
  0
LINE
  5
284
100
AcDbEntity
  8
0
100
AcDbLine
 62
7
  6
BYLAYER
 10
19.0363064932
 20
109.7075484773
 11
19.1777272607
 21
109.7891973081
  0
LINE
  5
285
100
AcDbEntity
  8
0
100
AcDbLine
 62
7
  6
BYLAYER
 10
43.7607175056
 20
122.3930046362
 11
28.0997278785
 21
113.3508890887
  0
LINE
  5
286
100
AcDbEntity
  8
0
100
AcDbLine
 62
7
  6
BYLAYER
 10
28.6071970451
 20
113.0579082558
 11
44.268474049
 21
122.099857891
  0
LINE
  5
287
100
AcDbEntity
  8
0
100
AcDbLine
 62
7
  6
BYLAYER
 10
34.1929134469
 20
114.321973754
 11
28.6063238512
 21
111.0965731969
  0
LINE
  5
288
100
AcDbEntity
  8
0
100
AcDbLine
 62
7
  6
BYLAYER
 10
24.092141028
 20
108.0133807082
 11
24.2335617955
 21
108.095029539
  0
LINE
  5
289
100
AcDbEntity
  8
0
100
AcDbLine
 62
7
  6
BYLAYER
 10
34.3197795512
 20
114.2486915243
 11
44.2684755489
 21
119.97481367
  0
LINE
  5
28A
100
AcDbEntity
  8
0
100
AcDbLine
 62
7
  6
BYLAYER
 10
15.430049839
 20
80.1664432132
 11
15.5007608115
 21
80.1256191378
  0
LINE
  5
28B
100
AcDbEntity
  8
0
100
AcDbLine
 62
7
  6
BYLAYER
 10
78.9992141297
 20
43.4655993819
 11
79.0699251022
 21
43.4247753064
  0
LINE
  5
28C
100
AcDbEntity
  8
0
100
AcDbLine
 62
7
  6
BYLAYER
 10
15.3593394553
 20
80.2889225323
 11
78.9992147185
 21
43.5471794082
  0
LINE
  5
28D
100
AcDbEntity
  8
0
100
AcDbLine
 62
7
  6
BYLAYER
 10
45.9771905541
 20
65.5433415391
 11
48.3742925224
 21
64.1594053813
  0
LINE
  5
28E
100
AcDbEntity
  8
0
100
AcDbLine
 62
7
  6
BYLAYER
 10
43.5023029833
 20
67.7805110677
 11
44.2094127085
 21
67.3722703131
  0
LINE
  5
28F
100
AcDbEntity
  8
0
100
AcDbLine
 62
7
  6
BYLAYER
 10
75.46366256
 20
49.3280289633
 11
76.1707722851
 21
48.9197882088
  0
LINE
  5
290
100
AcDbEntity
  8
0
100
AcDbLine
 62
7
  6
BYLAYER
 10
46.6842943913
 20
65.951585693
 11
48.3742925224
 21
64.9758868904
  0
LINE
  5
291
100
AcDbEntity
  8
0
100
AcDbLine
 62
7
  6
BYLAYER
 10
43.6437237508
 20
67.8621598984
 11
44.2094127085
 21
67.5355666149
  0
LINE
  5
292
100
AcDbEntity
  8
0
100
AcDbLine
 62
7
  6
BYLAYER
 10
75.6050833274
 20
49.4096777941
 11
76.1707722851
 21
49.0830845106
  0
LINE
  5
293
100
AcDbEntity
  8
0
100
AcDbLine
 62
7
  6
BYLAYER
 10
19.0363064932
 20
82.5588431078
 11
19.7434162184
 21
82.1506023532
  0
LINE
  5
294
100
AcDbEntity
  8
0
100
AcDbLine
 62
7
  6
BYLAYER
 10
25.1528056158
 20
79.0275605812
 11
25.8599153409
 21
78.6193198266
  0
LINE
  5
295
100
AcDbEntity
  8
0
100
AcDbLine
 62
7
  6
BYLAYER
 10
31.2693047383
 20
75.4962780546
 11
31.9764144634
 21
75.0880373
  0
LINE
  5
296
100
AcDbEntity
  8
0
100
AcDbLine
 62
7
  6
BYLAYER
 10
37.3858038608
 20
71.964995528
 11
38.092913586
 21
71.5567547734
  0
LINE
  5
297
100
AcDbEntity
  8
0
100
AcDbLine
 62
7
  6
BYLAYER
 10
50.9976660699
 20
64.1063610034
 11
51.704775795
 21
63.6981202489
  0
LINE
  5
298
100
AcDbEntity
  8
0
100
AcDbLine
 62
7
  6
BYLAYER
 10
57.1141651924
 20
60.5750784768
 11
57.8212749176
 21
60.1668377223
  0
LINE
  5
299
100
AcDbEntity
  8
0
100
AcDbLine
 62
7
  6
BYLAYER
 10
63.2306643149
 20
57.0437959502
 11
63.9377740401
 21
56.6355551957
  0
LINE
  5
29A
100
AcDbEntity
  8
0
100
AcDbLine
 62
7
  6
BYLAYER
 10
69.3471634375
 20
53.5125134236
 11
70.0542731626
 21
53.1042726691
  0
LINE
  5
29B
100
AcDbEntity
  8
0
100
AcDbLine
 62
7
  6
BYLAYER
 10
34.214970965
 20
69.4028425941
 11
34.2158919063
 21
67.3358033531
  0
LINE
  5
29C
100
AcDbEntity
  8
0
100
AcDbLine
 62
7
  6
BYLAYER
 10
33.5249824063
 20
91.7961630607
 11
33.5249824063
 21
86.343539011
  0
LINE
  5
29D
100
AcDbEntity
  8
0
100
AcDbLine
 62
7
  6
BYLAYER
 10
34.2154133661
 20
107.8587443276
 11
34.2154133661
 21
109.8195721712
  0
LINE
  5
29E
100
AcDbEntity
  8
0
100
AcDbLine
 62
7
  6
BYLAYER
 10
34.4513021521
 20
86.0847388804
 11
34.4513026235
 21
90.1672506936
  0
LINE
  5
29F
100
AcDbEntity
  8
0
100
AcDbLine
 62
7
  6
BYLAYER
 10
34.7232595707
 20
69.1093880689
 11
34.7232595707
 21
67.0423285595
  0
LINE
  5
2A0
100
AcDbEntity
  8
0
100
AcDbLine
 62
7
  6
BYLAYER
 10
35.8655213667
 20
89.3524025977
 11
35.8655208952
 21
85.2698907845
  0
LINE
  5
2A1
100
AcDbEntity
  8
0
100
AcDbLine
 62
7
  6
BYLAYER
 10
36.077654402
 20
94.8784940251
 11
36.077654402
 21
92.0207355652
  0
LINE
  5
2A2
100
AcDbEntity
  8
0
100
AcDbLine
 62
7
  6
BYLAYER
 10
36.2544318333
 20
81.8609986023
 11
36.2544318333
 21
78.7582894172
  0
LINE
  5
2A3
100
AcDbEntity
  8
0
100
AcDbLine
 62
7
  6
BYLAYER
 10
36.3251392731
 20
101.7673180721
 11
36.3251392731
 21
100.950815655
  0
LINE
  5
2A4
100
AcDbEntity
  8
0
100
AcDbLine
 62
7
  6
BYLAYER
 10
36.3251392731
 20
74.6186127026
 11
36.3251392731
 21
73.8021102854
  0
LINE
  5
2A5
100
AcDbEntity
  8
0
100
AcDbLine
 62
7
  6
BYLAYER
 10
36.4665600405
 20
101.6856706011
 11
36.4665600405
 21
101.0324644858
  0
LINE
  5
2A6
100
AcDbEntity
  8
0
100
AcDbLine
 62
7
  6
BYLAYER
 10
36.4665600405
 20
74.5369652315
 11
36.4665600405
 21
73.8837591162
  0
LINE
  5
2A7
100
AcDbEntity
  8
0
100
AcDbLine
 62
7
  6
BYLAYER
 10
36.5726253217
 20
89.7603745162
 11
36.5726246146
 21
85.6778628388
  0
LINE
  5
2A8
100
AcDbEntity
  8
0
100
AcDbLine
 62
7
  6
BYLAYER
 10
36.7847582393
 20
94.4702566699
 11
36.7847582393
 21
92.428979719
  0
LINE
  5
2A9
100
AcDbEntity
  8
0
100
AcDbLine
 62
7
  6
BYLAYER
 10
36.9615356705
 20
81.4527612471
 11
36.9615356705
 21
79.1665335711
  0
LINE
  5
2AA
100
AcDbEntity
  8
0
100
AcDbLine
 62
7
  6
BYLAYER
 10
37.2088480155
 20
130.0550931928
 11
37.2088480155
 21
130.1366654711
  0
LINE
  5
2AB
100
AcDbEntity
  8
0
100
AcDbLine
 62
7
  6
BYLAYER
 10
37.3858038608
 20
102.379710566
 11
37.3858038608
 21
101.1549569403
  0
LINE
  5
2AC
100
AcDbEntity
  8
0
100
AcDbLine
 62
7
  6
BYLAYER
 10
37.3858038608
 20
100.3384545232
 11
37.3858038608
 21
99.1137008975
  0
LINE
  5
2AD
100
AcDbEntity
  8
0
100
AcDbLine
 62
7
  6
BYLAYER
 10
37.3858038608
 20
75.2310051965
 11
37.3858038608
 21
74.0062515708
  0
LINE
  5
2AE
100
AcDbEntity
  8
0
100
AcDbLine
 62
7
  6
BYLAYER
 10
37.3858038608
 20
73.1897491537
 11
37.3858038608
 21
71.964995528
  0
LINE
  5
2AF
100
AcDbEntity
  8
0
100
AcDbLine
 62
7
  6
BYLAYER
 10
37.5272246283
 20
102.298063095
 11
37.5272246283
 21
101.2366057711
  0
LINE
  5
2B0
100
AcDbEntity
  8
0
100
AcDbLine
 62
7
  6
BYLAYER
 10
37.5272246283
 20
100.420103354
 11
37.5272246283
 21
99.1953497283
  0
LINE
  5
2B1
100
AcDbEntity
  8
0
100
AcDbLine
 62
7
  6
BYLAYER
 10
37.5272246283
 20
75.1493577254
 11
37.5272246283
 21
74.0879004016
  0
LINE
  5
2B2
100
AcDbEntity
  8
0
100
AcDbLine
 62
7
  6
BYLAYER
 10
37.5272246283
 20
73.2713979844
 11
37.5272246283
 21
72.0466443587
  0
LINE
  5
2B3
100
AcDbEntity
  8
0
100
AcDbLine
 62
7
  6
BYLAYER
 10
38.092913586
 20
71.5567547734
 11
38.092913586
 21
72.7815083991
  0
LINE
  5
2B4
100
AcDbEntity
  8
0
100
AcDbLine
 62
7
  6
BYLAYER
 10
38.092913586
 20
73.5980108163
 11
38.092913586
 21
74.822764442
  0
LINE
  5
2B5
100
AcDbEntity
  8
0
100
AcDbLine
 62
7
  6
BYLAYER
 10
38.092913586
 20
98.705460143
 11
38.092913586
 21
99.9302137687
  0
LINE
  5
2B6
100
AcDbEntity
  8
0
100
AcDbLine
 62
7
  6
BYLAYER
 10
38.092913586
 20
100.7467161858
 11
38.092913586
 21
101.9714698115
  0
LINE
  5
2B7
100
AcDbEntity
  8
0
100
AcDbLine
 62
7
  6
BYLAYER
 10
38.3224073205
 20
125.5327434551
 11
38.3224072683
 21
123.4065759377
  0
LINE
  5
2B8
100
AcDbEntity
  8
0
100
AcDbLine
 62
7
  6
BYLAYER
 10
38.3757610088
 20
77.5335671537
 11
38.3757610088
 21
80.6362763388
  0
LINE
  5
2B9
100
AcDbEntity
  8
0
100
AcDbLine
 62
7
  6
BYLAYER
 10
34.7228229748
 20
107.5652938839
 11
34.7236961665
 21
109.5266257285
  0
LINE
  5
2BA
100
AcDbEntity
  8
0
100
AcDbLine
 62
7
  6
BYLAYER
 10
25.1528056158
 20
108.2175219935
 11
25.2942263832
 21
108.2991708243
  0
LINE
  5
2BB
100
AcDbEntity
  8
0
100
AcDbLine
 62
7
  6
BYLAYER
 10
25.1528056158
 20
107.4010195764
 11
25.2942263832
 21
107.4826684072
  0
LINE
  5
2BC
100
AcDbEntity
  8
0
100
AcDbLine
 62
7
  6
BYLAYER
 10
17.7281570345
 20
102.614583145
 11
18.4352608717
 21
103.0228272988
  0
LINE
  5
2BD
100
AcDbEntity
  8
0
100
AcDbLine
 62
7
  6
BYLAYER
 10
25.8599153409
 20
106.9927788219
 11
26.0013361084
 21
107.0744276527
  0
LINE
  5
2BE
100
AcDbEntity
  8
0
100
AcDbLine
 62
7
  6
BYLAYER
 10
25.1528056158
 20
106.1762659507
 11
25.2942263832
 21
106.2579147815
  0
LINE
  5
2BF
100
AcDbEntity
  8
0
100
AcDbLine
 62
7
  6
BYLAYER
 10
49.8771269669
 20
118.8617738743
 11
34.215849962
 21
109.8198242385
  0
LINE
  5
2C0
100
AcDbEntity
  8
0
100
AcDbLine
 62
7
  6
BYLAYER
 10
34.7236961665
 20
109.5266257285
 11
50.3849731715
 21
118.5685753644
  0
LINE
  5
2C1
100
AcDbEntity
  8
0
100
AcDbLine
 62
7
  6
BYLAYER
 10
19.1777272607
 20
82.6404919385
 11
19.7434162184
 21
82.3138986551
  0
LINE
  5
2C2
100
AcDbEntity
  8
0
100
AcDbLine
 62
7
  6
BYLAYER
 10
25.2942263832
 20
79.1092094119
 11
25.8599153409
 21
78.7826161285
  0
LINE
  5
2C3
100
AcDbEntity
  8
0
100
AcDbLine
 62
7
  6
BYLAYER
 10
31.4107255057
 20
75.5779268853
 11
31.9764144634
 21
75.2513336019
  0
LINE
  5
2C4
100
AcDbEntity
  8
0
100
AcDbLine
 62
7
  6
BYLAYER
 10
37.5272246283
 20
72.0466443587
 11
38.092913586
 21
71.7200510753
  0
LINE
  5
2C5
100
AcDbEntity
  8
0
100
AcDbLine
 62
7
  6
BYLAYER
 10
51.1390868373
 20
64.1880098342
 11
51.704775795
 21
63.8614165507
  0
LINE
  5
2C6
100
AcDbEntity
  8
0
100
AcDbLine
 62
7
  6
BYLAYER
 10
57.2555859599
 20
60.6567273076
 11
57.8212749176
 21
60.3301340241
  0
LINE
  5
2C7
100
AcDbEntity
  8
0
100
AcDbLine
 62
7
  6
BYLAYER
 10
63.3720850824
 20
57.125444781
 11
63.9377740401
 21
56.7988514975
  0
LINE
  5
2C8
100
AcDbEntity
  8
0
100
AcDbLine
 62
7
  6
BYLAYER
 10
69.4885842049
 20
53.5941622544
 11
70.0542731626
 21
53.2675689709
  0
LINE
  5
2C9
100
AcDbEntity
  8
0
100
AcDbLine
 62
7
  6
BYLAYER
 10
42.4416383956
 20
69.6176258251
 11
43.5023029833
 21
69.0052646933
  0
LINE
  5
2CA
100
AcDbEntity
  8
0
100
AcDbLine
 62
7
  6
BYLAYER
 10
44.2094127085
 20
68.5970239388
 11
45.2700772962
 21
67.984662807
  0
LINE
  5
2CB
100
AcDbEntity
  8
0
100
AcDbLine
 62
7
  6
BYLAYER
 10
74.4029979723
 20
51.1651437208
 11
75.46366256
 21
50.552782589
  0
LINE
  5
2CC
100
AcDbEntity
  8
0
100
AcDbLine
 62
7
  6
BYLAYER
 10
76.1707722851
 20
50.1445418345
 11
77.2314368728
 21
49.5321807027
  0
LINE
  5
2CD
100
AcDbEntity
  8
0
100
AcDbLine
 62
7
  6
BYLAYER
 10
42.5830591631
 20
69.6992746559
 11
43.6437237508
 21
69.0869135241
  0
LINE
  5
2CE
100
AcDbEntity
  8
0
100
AcDbLine
 62
7
  6
BYLAYER
 10
44.3508334759
 20
68.6786727696
 11
45.2700772962
 21
68.1479591089
  0
LINE
  5
2CF
100
AcDbEntity
  8
0
100
AcDbLine
 62
7
  6
BYLAYER
 10
74.5444187397
 20
51.2467925516
 11
75.6050833274
 21
50.6344314198
  0
LINE
  5
2D0
100
AcDbEntity
  8
0
100
AcDbLine
 62
7
  6
BYLAYER
 10
76.3121930526
 20
50.2261906653
 11
77.2314368728
 21
49.6954770045
  0
LINE
  5
2D1
100
AcDbEntity
  8
0
100
AcDbLine
 62
7
  6
BYLAYER
 10
48.3742925224
 20
66.8212032611
 11
45.9771905541
 21
68.205139419
  0
LINE
  5
2D2
100
AcDbEntity
  8
0
100
AcDbLine
 62
7
  6
BYLAYER
 10
17.9756419055
 20
84.3959578652
 11
19.0363064932
 21
83.7835967335
  0
LINE
  5
2D3
100
AcDbEntity
  8
0
100
AcDbLine
 62
7
  6
BYLAYER
 10
19.7434162184
 20
83.3753559789
 11
20.8040808061
 21
82.7629948472
  0
LINE
  5
2D4
100
AcDbEntity
  8
0
100
AcDbLine
 62
7
  6
BYLAYER
 10
24.092141028
 20
80.8646753386
 11
25.1528056158
 21
80.2523142069
  0
LINE
  5
2D5
100
AcDbEntity
  8
0
100
AcDbLine
 62
7
  6
BYLAYER
 10
25.8599153409
 20
79.8440734523
 11
26.9205799286
 21
79.2317123206
  0
LINE
  5
2D6
100
AcDbEntity
  8
0
100
AcDbLine
 62
7
  6
BYLAYER
 10
30.2086401506
 20
77.333392812
 11
31.2693047383
 21
76.7210316803
  0
LINE
  5
2D7
100
AcDbEntity
  8
0
100
AcDbLine
 62
7
  6
BYLAYER
 10
31.9764144634
 20
76.3127909257
 11
33.0370790512
 21
75.700429794
  0
LINE
  5
2D8
100
AcDbEntity
  8
0
100
AcDbLine
 62
7
  6
BYLAYER
 10
36.3251392731
 20
73.8021102854
 11
37.3858038608
 21
73.1897491537
  0
LINE
  5
2D9
100
AcDbEntity
  8
0
100
AcDbLine
 62
7
  6
BYLAYER
 10
38.092913586
 20
72.7815083991
 11
39.1535781737
 21
72.1691472674
  0
LINE
  5
2DA
100
AcDbEntity
  8
0
100
AcDbLine
 62
7
  6
BYLAYER
 10
49.9370014822
 20
65.9434757609
 11
50.9976660699
 21
65.3311146291
  0
LINE
  5
2DB
100
AcDbEntity
  8
0
100
AcDbLine
 62
7
  6
BYLAYER
 10
51.704775795
 20
64.9228738746
 11
52.7654403828
 21
64.3105127428
  0
LINE
  5
2DC
100
AcDbEntity
  8
0
100
AcDbLine
 62
7
  6
BYLAYER
 10
56.0535006047
 20
62.4121932343
 11
57.1141651924
 21
61.7998321025
  0
LINE
  5
2DD
100
AcDbEntity
  8
0
100
AcDbLine
 62
7
  6
BYLAYER
 10
57.8212749176
 20
61.391591348
 11
58.8819395053
 21
60.7792302162
  0
LINE
  5
2DE
100
AcDbEntity
  8
0
100
AcDbLine
 62
7
  6
BYLAYER
 10
62.1699997272
 20
58.8809107077
 11
63.2306643149
 21
58.2685495759
  0
LINE
  5
2DF
100
AcDbEntity
  8
0
100
AcDbLine
 62
7
  6
BYLAYER
 10
63.9377740401
 20
57.8603088214
 11
64.9984386278
 21
57.2479476896
  0
LINE
  5
2E0
100
AcDbEntity
  8
0
100
AcDbLine
 62
7
  6
BYLAYER
 10
68.2864988497
 20
55.3496281811
 11
69.3471634375
 21
54.7372670493
  0
LINE
  5
2E1
100
AcDbEntity
  8
0
100
AcDbLine
 62
7
  6
BYLAYER
 10
70.0542731626
 20
54.3290262948
 11
71.1149377503
 21
53.716665163
  0
LINE
  5
2E2
100
AcDbEntity
  8
0
100
AcDbLine
 62
7
  6
BYLAYER
 10
18.117062673
 20
84.477606696
 11
19.1777272607
 21
83.8652455642
  0
LINE
  5
2E3
100
AcDbEntity
  8
0
100
AcDbLine
 62
7
  6
BYLAYER
 10
19.8848369858
 20
83.4570048097
 11
20.8040808061
 21
82.926291149
  0
LINE
  5
2E4
100
AcDbEntity
  8
0
100
AcDbLine
 62
7
  6
BYLAYER
 10
24.2335617955
 20
80.9463241694
 11
25.2942263832
 21
80.3339630376
  0
LINE
  5
2E5
100
AcDbEntity
  8
0
100
AcDbLine
 62
7
  6
BYLAYER
 10
26.0013361084
 20
79.9257222831
 11
26.9205799286
 21
79.3950086224
  0
LINE
  5
2E6
100
AcDbEntity
  8
0
100
AcDbLine
 62
7
  6
BYLAYER
 10
30.350060918
 20
77.4150416428
 11
31.4107255057
 21
76.802680511
  0
LINE
  5
2E7
100
AcDbEntity
  8
0
100
AcDbLine
 62
7
  6
BYLAYER
 10
32.1178352309
 20
76.3944397565
 11
33.0370790512
 21
75.8637260958
  0
LINE
  5
2E8
100
AcDbEntity
  8
0
100
AcDbLine
 62
7
  6
BYLAYER
 10
36.4665600405
 20
73.8837591162
 11
37.5272246283
 21
73.2713979844
  0
LINE
  5
2E9
100
AcDbEntity
  8
0
100
AcDbLine
 62
7
  6
BYLAYER
 10
38.2343343534
 20
72.8631572299
 11
39.1535781737
 21
72.3324435692
  0
LINE
  5
2EA
100
AcDbEntity
  8
0
100
AcDbLine
 62
7
  6
BYLAYER
 10
50.0784222496
 20
66.0251245917
 11
51.1390868373
 21
65.4127634599
  0
LINE
  5
2EB
100
AcDbEntity
  8
0
100
AcDbLine
 62
7
  6
BYLAYER
 10
51.8461965625
 20
65.0045227054
 11
52.7654403828
 21
64.4738090446
  0
LINE
  5
2EC
100
AcDbEntity
  8
0
100
AcDbLine
 62
7
  6
BYLAYER
 10
56.1949213721
 20
62.4938420651
 11
57.2555859599
 21
61.8814809333
  0
LINE
  5
2ED
100
AcDbEntity
  8
0
100
AcDbLine
 62
7
  6
BYLAYER
 10
57.962695685
 20
61.4732401788
 11
58.8819395053
 21
60.942526518
  0
LINE
  5
2EE
100
AcDbEntity
  8
0
100
AcDbLine
 62
7
  6
BYLAYER
 10
62.3114204947
 20
58.9625595385
 11
63.3720850824
 21
58.3501984067
  0
LINE
  5
2EF
100
AcDbEntity
  8
0
100
AcDbLine
 62
7
  6
BYLAYER
 10
64.0791948075
 20
57.9419576522
 11
64.9984386278
 21
57.4112439914
  0
LINE
  5
2F0
100
AcDbEntity
  8
0
100
AcDbLine
 62
7
  6
BYLAYER
 10
68.4279196172
 20
55.4312770119
 11
69.4885842049
 21
54.8189158801
  0
LINE
  5
2F1
100
AcDbEntity
  8
0
100
AcDbLine
 62
7
  6
BYLAYER
 10
70.19569393
 20
54.4106751256
 11
71.1149377503
 21
53.8799614648
  0
LINE
  5
2F2
100
AcDbEntity
  8
0
100
AcDbLine
 62
7
  6
BYLAYER
 10
77.2314368728
 20
50.3486831199
 11
76.1707722851
 21
50.9610442516
  0
LINE
  5
2F3
100
AcDbEntity
  8
0
100
AcDbLine
 62
7
  6
BYLAYER
 10
75.46366256
 20
51.3692850062
 11
74.4029979723
 21
51.9816461379
  0
LINE
  5
2F4
100
AcDbEntity
  8
0
100
AcDbLine
 62
7
  6
BYLAYER
 10
45.2700772962
 20
68.8011652242
 11
44.2094127085
 21
69.413526356
  0
LINE
  5
2F5
100
AcDbEntity
  8
0
100
AcDbLine
 62
7
  6
BYLAYER
 10
43.5023029833
 20
69.8217671105
 11
42.4416383956
 21
70.4341282423
  0
LINE
  5
2F6
100
AcDbEntity
  8
0
100
AcDbLine
 62
7
  6
BYLAYER
 10
71.1149377503
 20
54.5331675802
 11
70.0542731626
 21
55.1455287119
  0
LINE
  5
2F7
100
AcDbEntity
  8
0
100
AcDbLine
 62
7
  6
BYLAYER
 10
69.3471634375
 20
55.5537694665
 11
68.2864988497
 21
56.1661305982
  0
LINE
  5
2F8
100
AcDbEntity
  8
0
100
AcDbLine
 62
7
  6
BYLAYER
 10
64.9984386278
 20
58.0644501068
 11
63.9377740401
 21
58.6768112385
  0
LINE
  5
2F9
100
AcDbEntity
  8
0
100
AcDbLine
 62
7
  6
BYLAYER
 10
63.2306643149
 20
59.0850519931
 11
62.1699997272
 21
59.6974131248
  0
LINE
  5
2FA
100
AcDbEntity
  8
0
100
AcDbLine
 62
7
  6
BYLAYER
 10
58.8819395053
 20
61.5957326334
 11
57.8212749176
 21
62.2080937651
  0
LINE
  5
2FB
100
AcDbEntity
  8
0
100
AcDbLine
 62
7
  6
BYLAYER
 10
57.1141651924
 20
62.6163345197
 11
56.0535006047
 21
63.2286956514
  0
LINE
  5
2FC
100
AcDbEntity
  8
0
100
AcDbLine
 62
7
  6
BYLAYER
 10
52.7654403828
 20
65.12701516
 11
51.704775795
 21
65.7393762917
  0
LINE
  5
2FD
100
AcDbEntity
  8
0
100
AcDbLine
 62
7
  6
BYLAYER
 10
50.9976660699
 20
66.1476170463
 11
49.9370014822
 21
66.759978178
  0
LINE
  5
2FE
100
AcDbEntity
  8
0
100
AcDbLine
 62
7
  6
BYLAYER
 10
39.1535781737
 20
72.9856496845
 11
38.092913586
 21
73.5980108163
  0
LINE
  5
2FF
100
AcDbEntity
  8
0
100
AcDbLine
 62
7
  6
BYLAYER
 10
37.3858038608
 20
74.0062515708
 11
36.3251392731
 21
74.6186127026
  0
LINE
  5
300
100
AcDbEntity
  8
0
100
AcDbLine
 62
7
  6
BYLAYER
 10
33.0370790512
 20
76.5169322111
 11
31.9764144634
 21
77.1292933429
  0
LINE
  5
301
100
AcDbEntity
  8
0
100
AcDbLine
 62
7
  6
BYLAYER
 10
31.2693047383
 20
77.5375340974
 11
30.2086401506
 21
78.1498952292
  0
LINE
  5
302
100
AcDbEntity
  8
0
100
AcDbLine
 62
7
  6
BYLAYER
 10
26.9205799286
 20
80.0482147377
 11
25.8599153409
 21
80.6605758695
  0
LINE
  5
303
100
AcDbEntity
  8
0
100
AcDbLine
 62
7
  6
BYLAYER
 10
25.1528056158
 20
81.068816624
 11
24.092141028
 21
81.6811777558
  0
LINE
  5
304
100
AcDbEntity
  8
0
100
AcDbLine
 62
7
  6
BYLAYER
 10
20.8040808061
 20
83.5794972643
 11
19.7434162184
 21
84.1918583961
  0
LINE
  5
305
100
AcDbEntity
  8
0
100
AcDbLine
 62
7
  6
BYLAYER
 10
19.0363064932
 20
84.6000991506
 11
17.9756419055
 21
85.2124602824
  0
LINE
  5
306
100
AcDbEntity
  8
0
100
AcDbLine
 62
7
  6
BYLAYER
 10
76.1707722851
 20
52.1857978773
 11
75.46366256
 21
52.5940386319
  0
LINE
  5
307
100
AcDbEntity
  8
0
100
AcDbLine
 62
7
  6
BYLAYER
 10
44.2094127085
 20
70.6382799817
 11
43.5023029833
 21
71.0465207362
  0
LINE
  5
308
100
AcDbEntity
  8
0
100
AcDbLine
 62
7
  6
BYLAYER
 10
70.0542731626
 20
56.3702823376
 11
69.3471634375
 21
56.7785230922
  0
LINE
  5
309
100
AcDbEntity
  8
0
100
AcDbLine
 62
7
  6
BYLAYER
 10
63.9377740401
 20
59.9015648642
 11
63.2306643149
 21
60.3098056188
  0
LINE
  5
30A
100
AcDbEntity
  8
0
100
AcDbLine
 62
7
  6
BYLAYER
 10
57.8212749176
 20
63.4328473908
 11
57.1141651924
 21
63.8410881454
  0
LINE
  5
30B
100
AcDbEntity
  8
0
100
AcDbLine
 62
7
  6
BYLAYER
 10
51.704775795
 20
66.9641299174
 11
50.9976660699
 21
67.372370672
  0
LINE
  5
30C
100
AcDbEntity
  8
0
100
AcDbLine
 62
7
  6
BYLAYER
 10
38.092913586
 20
74.822764442
 11
37.3858038608
 21
75.2310051965
  0
LINE
  5
30D
100
AcDbEntity
  8
0
100
AcDbLine
 62
7
  6
BYLAYER
 10
31.9764144634
 20
78.3540469686
 11
31.2693047383
 21
78.7622877231
  0
LINE
  5
30E
100
AcDbEntity
  8
0
100
AcDbLine
 62
7
  6
BYLAYER
 10
25.8599153409
 20
81.8853294952
 11
25.1528056158
 21
82.2935702497
  0
LINE
  5
30F
100
AcDbEntity
  8
0
100
AcDbLine
 62
7
  6
BYLAYER
 10
19.7434162184
 20
85.4166120218
 11
19.0363064932
 21
85.8248527763
  0
LINE
  5
310
100
AcDbEntity
  8
0
100
AcDbLine
 62
7
  6
BYLAYER
 10
43.7851504062
 20
72.2876190971
 11
45.3407918015
 21
71.3894894371
  0
LINE
  5
311
100
AcDbEntity
  8
0
100
AcDbLine
 62
7
  6
BYLAYER
 10
75.7465099828
 20
53.8351369928
 11
77.3021513781
 21
52.9370073328
  0
LINE
  5
312
100
AcDbEntity
  8
0
100
AcDbLine
 62
7
  6
BYLAYER
 10
44.4922542434
 20
72.6958632509
 11
45.3407918015
 21
72.2059709462
  0
LINE
  5
313
100
AcDbEntity
  8
0
100
AcDbLine
 62
7
  6
BYLAYER
 10
76.45361382
 20
54.2433811466
 11
77.3021513781
 21
53.7534888419
  0
LINE
  5
314
100
AcDbEntity
  8
0
100
AcDbLine
 62
7
  6
BYLAYER
 10
40.3314700891
 20
65.8715528374
 11
40.3323910272
 21
63.8045208255
  0
LINE
  5
315
100
AcDbEntity
  8
0
100
AcDbLine
 62
7
  6
BYLAYER
 10
38.5525384401
 20
90.5918929244
 11
38.5525384401
 21
93.4496513843
  0
LINE
  5
316
100
AcDbEntity
  8
0
100
AcDbLine
 62
7
  6
BYLAYER
 10
39.1535781737
 20
72.1691472674
 11
39.1535781737
 21
72.9856496845
  0
LINE
  5
317
100
AcDbEntity
  8
0
100
AcDbLine
 62
7
  6
BYLAYER
 10
39.1535781737
 20
99.3178526369
 11
39.1535781737
 21
100.134355054
  0
LINE
  5
318
100
AcDbEntity
  8
0
100
AcDbLine
 62
7
  6
BYLAYER
 10
40.3319124886
 20
104.3274650159
 11
40.3319124886
 21
106.2882896446
  0
LINE
  5
319
100
AcDbEntity
  8
0
100
AcDbLine
 62
7
  6
BYLAYER
 10
40.5678011567
 20
81.4609761876
 11
40.5678011567
 21
87.7300817463
  0
LINE
  5
31A
100
AcDbEntity
  8
0
100
AcDbLine
 62
7
  6
BYLAYER
 10
40.8542544426
 20
65.5697293604
 11
40.8542544426
 21
63.5026770974
  0
LINE
  5
31B
100
AcDbEntity
  8
0
100
AcDbLine
 62
7
  6
BYLAYER
 10
42.4416383956
 20
98.8892374792
 11
42.4416383956
 21
98.0727350621
  0
LINE
  5
31C
100
AcDbEntity
  8
0
100
AcDbLine
 62
7
  6
BYLAYER
 10
42.4416383956
 20
70.4341282423
 11
42.4416383956
 21
69.6176258251
  0
LINE
  5
31D
100
AcDbEntity
  8
0
100
AcDbLine
 62
7
  6
BYLAYER
 10
42.5830591631
 20
98.8075900082
 11
42.5830591631
 21
98.1543838929
  0
LINE
  5
31E
100
AcDbEntity
  8
0
100
AcDbLine
 62
7
  6
BYLAYER
 10
42.5830591631
 20
70.3524807712
 11
42.5830591631
 21
69.6992746559
  0
LINE
  5
31F
100
AcDbEntity
  8
0
100
AcDbLine
 62
7
  6
BYLAYER
 10
40.8538178478
 20
104.0256456411
 11
40.8546910373
 21
105.9869742658
  0
LINE
  5
320
100
AcDbEntity
  8
0
100
AcDbLine
 62
7
  6
BYLAYER
 10
40.3094125705
 20
110.790694441
 11
34.7228229748
 21
107.5652938839
  0
LINE
  5
321
100
AcDbEntity
  8
0
100
AcDbLine
 62
7
  6
BYLAYER
 10
30.2086401506
 20
104.4820981816
 11
30.350060918
 21
104.5637470124
  0
LINE
  5
322
100
AcDbEntity
  8
0
100
AcDbLine
 62
7
  6
BYLAYER
 10
31.2693047383
 20
104.6862394669
 11
31.4107255057
 21
104.7678882977
  0
LINE
  5
323
100
AcDbEntity
  8
0
100
AcDbLine
 62
7
  6
BYLAYER
 10
31.2693047383
 20
103.8697370498
 11
31.4107255057
 21
103.9513858806
  0
LINE
  5
324
100
AcDbEntity
  8
0
100
AcDbLine
 62
7
  6
BYLAYER
 10
31.9764144634
 20
103.4614962953
 11
32.1178352309
 21
103.5431451261
  0
LINE
  5
325
100
AcDbEntity
  8
0
100
AcDbLine
 62
7
  6
BYLAYER
 10
31.2693047383
 20
102.6449834241
 11
31.4107255057
 21
102.7266322549
  0
LINE
  5
326
100
AcDbEntity
  8
0
100
AcDbLine
 62
7
  6
BYLAYER
 10
55.9936260894
 20
115.3304913477
 11
40.3323490835
 21
106.2885417113
  0
LINE
  5
327
100
AcDbEntity
  8
0
100
AcDbLine
 62
7
  6
BYLAYER
 10
40.4362814606
 20
110.7174106018
 11
50.3849746714
 21
116.4435311434
  0
LINE
  5
328
100
AcDbEntity
  8
0
100
AcDbLine
 62
7
  6
BYLAYER
 10
24.0214335883
 20
85.8208544704
 11
26.1427627637
 21
84.5961322069
  0
LINE
  5
329
100
AcDbEntity
  8
0
100
AcDbLine
 62
7
  6
BYLAYER
 10
36.2544318333
 20
78.7582894172
 11
38.3757610088
 21
77.5335671537
  0
LINE
  5
32A
100
AcDbEntity
  8
0
100
AcDbLine
 62
7
  6
BYLAYER
 10
55.9827931649
 20
67.3683723661
 11
58.1041223404
 21
66.1436501026
  0
LINE
  5
32B
100
AcDbEntity
  8
0
100
AcDbLine
 62
7
  6
BYLAYER
 10
68.21579141
 20
60.3058073129
 11
70.3371205854
 21
59.0810850494
  0
LINE
  5
32C
100
AcDbEntity
  8
0
100
AcDbLine
 62
7
  6
BYLAYER
 10
77.3021513781
 20
55.3865145842
 11
75.7465099828
 21
56.2846442441
  0
LINE
  5
32D
100
AcDbEntity
  8
0
100
AcDbLine
 62
7
  6
BYLAYER
 10
45.3407918015
 20
73.8389966885
 11
43.7851504062
 21
74.7371263485
  0
LINE
  5
32E
100
AcDbEntity
  8
0
100
AcDbLine
 62
7
  6
BYLAYER
 10
28.7237132605
 20
83.8409056283
 11
31.4814411886
 21
82.2487666857
  0
LINE
  5
32F
100
AcDbEntity
  8
0
100
AcDbLine
 62
7
  6
BYLAYER
 10
60.6850728372
 20
65.388423524
 11
63.4428007652
 21
63.7962845814
  0
LINE
  5
330
100
AcDbEntity
  8
0
100
AcDbLine
 62
7
  6
BYLAYER
 10
24.7285374255
 20
86.2290986243
 11
26.1427627637
 21
85.412613716
  0
LINE
  5
331
100
AcDbEntity
  8
0
100
AcDbLine
 62
7
  6
BYLAYER
 10
36.9615356705
 20
79.1665335711
 11
38.3757610088
 21
78.3500486628
  0
LINE
  5
332
100
AcDbEntity
  8
0
100
AcDbLine
 62
7
  6
BYLAYER
 10
56.6898970022
 20
67.77661652
 11
58.1041223404
 21
66.9601316116
  0
LINE
  5
333
100
AcDbEntity
  8
0
100
AcDbLine
 62
7
  6
BYLAYER
 10
68.9228952472
 20
60.7140514668
 11
70.3371205854
 21
59.8975665584
  0
LINE
  5
334
100
AcDbEntity
  8
0
100
AcDbLine
 62
7
  6
BYLAYER
 10
29.4308170977
 20
84.2491497822
 11
31.4814411886
 21
83.0652481947
  0
LINE
  5
335
100
AcDbEntity
  8
0
100
AcDbLine
 62
7
  6
BYLAYER
 10
61.3921766744
 20
65.7966676779
 11
63.4428007652
 21
64.6127660904
  0
LINE
  5
336
100
AcDbEntity
  8
0
100
AcDbLine
 62
7
  6
BYLAYER
 10
70.3371205854
 20
62.1837942345
 11
68.21579141
 21
63.408516498
  0
LINE
  5
337
100
AcDbEntity
  8
0
100
AcDbLine
 62
7
  6
BYLAYER
 10
63.4428007652
 20
66.164141591
 11
60.6850728372
 21
67.7562805337
  0
LINE
  5
338
100
AcDbEntity
  8
0
100
AcDbLine
 62
7
  6
BYLAYER
 10
58.1041223404
 20
69.2463592877
 11
55.9827931649
 21
70.4710815512
  0
LINE
  5
339
100
AcDbEntity
  8
0
100
AcDbLine
 62
7
  6
BYLAYER
 10
38.3757610088
 20
80.6362763388
 11
36.2544318333
 21
81.8609986023
  0
LINE
  5
33A
100
AcDbEntity
  8
0
100
AcDbLine
 62
7
  6
BYLAYER
 10
31.4814411886
 20
84.6166236954
 11
28.7237132605
 21
86.208762638
  0
LINE
  5
33B
100
AcDbEntity
  8
0
100
AcDbLine
 62
7
  6
BYLAYER
 10
26.1427627637
 20
87.698841392
 11
24.0214335883
 21
88.9235636555
  0
LINE
  5
33C
100
AcDbEntity
  8
0
100
AcDbLine
 62
7
  6
BYLAYER
 10
32.8178785691
 20
85.9352948572
 11
40.5678011567
 21
81.4609761876
  0
LINE
  5
33D
100
AcDbEntity
  8
0
100
AcDbLine
 62
7
  6
BYLAYER
 10
46.2921222297
 20
62.4302395272
 11
46.2930431647
 21
60.3632145603
  0
LINE
  5
33E
100
AcDbEntity
  8
0
100
AcDbLine
 62
7
  6
BYLAYER
 10
43.5023029833
 20
99.5016299731
 11
43.5023029833
 21
98.2768763474
  0
LINE
  5
33F
100
AcDbEntity
  8
0
100
AcDbLine
 62
7
  6
BYLAYER
 10
43.5023029833
 20
97.4603739303
 11
43.5023029833
 21
96.2356203046
  0
LINE
  5
340
100
AcDbEntity
  8
0
100
AcDbLine
 62
7
  6
BYLAYER
 10
43.5023029833
 20
71.0465207362
 11
43.5023029833
 21
69.8217671105
  0
LINE
  5
341
100
AcDbEntity
  8
0
100
AcDbLine
 62
7
  6
BYLAYER
 10
43.5023029833
 20
69.0052646933
 11
43.5023029833
 21
67.7805110677
  0
LINE
  5
342
100
AcDbEntity
  8
0
100
AcDbLine
 62
7
  6
BYLAYER
 10
43.6437237508
 20
99.4199825021
 11
43.6437237508
 21
98.3585251782
  0
LINE
  5
343
100
AcDbEntity
  8
0
100
AcDbLine
 62
7
  6
BYLAYER
 10
43.6437237508
 20
97.5420227611
 11
43.6437237508
 21
96.3172691354
  0
LINE
  5
344
100
AcDbEntity
  8
0
100
AcDbLine
 62
7
  6
BYLAYER
 10
43.6437237508
 20
70.9648732651
 11
43.6437237508
 21
69.9034159413
  0
LINE
  5
345
100
AcDbEntity
  8
0
100
AcDbLine
 62
7
  6
BYLAYER
 10
43.6437237508
 20
69.0869135241
 11
43.6437237508
 21
67.8621598984
  0
LINE
  5
346
100
AcDbEntity
  8
0
100
AcDbLine
 62
7
  6
BYLAYER
 10
43.7851504062
 20
93.1884479708
 11
43.7851504062
 21
90.7389407194
  0
LINE
  5
347
100
AcDbEntity
  8
0
100
AcDbLine
 62
7
  6
BYLAYER
 10
43.7851504062
 20
74.7371263485
 11
43.7851504062
 21
72.2876190971
  0
LINE
  5
348
100
AcDbEntity
  8
0
100
AcDbLine
 62
7
  6
BYLAYER
 10
44.2094127085
 20
67.3722703131
 11
44.2094127085
 21
68.5970239388
  0
LINE
  5
349
100
AcDbEntity
  8
0
100
AcDbLine
 62
7
  6
BYLAYER
 10
44.2094127085
 20
69.413526356
 11
44.2094127085
 21
70.6382799817
  0
LINE
  5
34A
100
AcDbEntity
  8
0
100
AcDbLine
 62
7
  6
BYLAYER
 10
44.2094127085
 20
95.8273795501
 11
44.2094127085
 21
97.0521331758
  0
LINE
  5
34B
100
AcDbEntity
  8
0
100
AcDbLine
 62
7
  6
BYLAYER
 10
44.2094127085
 20
97.8686355929
 11
44.2094127085
 21
99.0933892186
  0
LINE
  5
34C
100
AcDbEntity
  8
0
100
AcDbLine
 62
7
  6
BYLAYER
 10
44.268474049
 20
122.099857891
 11
44.268474049
 21
119.9736903435
  0
LINE
  5
34D
100
AcDbEntity
  8
0
100
AcDbLine
 62
7
  6
BYLAYER
 10
44.4922542434
 20
92.7802106156
 11
44.4922542434
 21
91.1471848732
  0
LINE
  5
34E
100
AcDbEntity
  8
0
100
AcDbLine
 62
7
  6
BYLAYER
 10
44.4922542434
 20
74.3288889933
 11
44.4922542434
 21
72.6958632509
  0
LINE
  5
34F
100
AcDbEntity
  8
0
100
AcDbLine
 62
7
  6
BYLAYER
 10
45.2700772962
 20
67.984662807
 11
45.2700772962
 21
68.8011652242
  0
LINE
  5
350
100
AcDbEntity
  8
0
100
AcDbLine
 62
7
  6
BYLAYER
 10
45.2700772962
 20
96.439772044
 11
45.2700772962
 21
97.2562744611
  0
LINE
  5
351
100
AcDbEntity
  8
0
100
AcDbLine
 62
7
  6
BYLAYER
 10
45.3407918015
 20
71.3894894371
 11
45.3407918015
 21
73.8389966885
  0
LINE
  5
352
100
AcDbEntity
  8
0
100
AcDbLine
 62
7
  6
BYLAYER
 10
45.3407918015
 20
89.8408110594
 11
45.3407918015
 21
92.2903183108
  0
LINE
  5
353
100
AcDbEntity
  8
0
100
AcDbLine
 62
7
  6
BYLAYER
 10
45.9771905541
 20
97.4342929474
 11
45.9771905541
 21
94.7724950675
  0
LINE
  5
354
100
AcDbEntity
  8
0
100
AcDbLine
 62
7
  6
BYLAYER
 10
45.9771905541
 20
68.205139419
 11
45.9771905541
 21
65.5433415391
  0
LINE
  5
355
100
AcDbEntity
  8
0
100
AcDbLine
 62
7
  6
BYLAYER
 10
46.2925646277
 20
100.8861620657
 11
46.2925646277
 21
102.8469833803
  0
LINE
  5
356
100
AcDbEntity
  8
0
100
AcDbLine
 62
7
  6
BYLAYER
 10
46.6842943913
 20
97.0260555922
 11
46.6842943913
 21
95.1807392214
  0
LINE
  5
357
100
AcDbEntity
  8
0
100
AcDbLine
 62
7
  6
BYLAYER
 10
46.6842943913
 20
67.7969020638
 11
46.6842943913
 21
65.951585693
  0
LINE
  5
358
100
AcDbEntity
  8
0
100
AcDbLine
 62
7
  6
BYLAYER
 10
48.2074103135
 20
61.3244701885
 11
48.2074103135
 21
59.2574266163
  0
LINE
  5
359
100
AcDbEntity
  8
0
100
AcDbLine
 62
7
  6
BYLAYER
 10
48.2074017108
 20
99.7801517457
 11
48.2082748978
 21
101.741476689
  0
LINE
  5
35A
100
AcDbEntity
  8
0
100
AcDbLine
 62
7
  6
BYLAYER
 10
40.8546910373
 20
105.9869742658
 11
56.5159680434
 21
115.0289239024
  0
LINE
  5
35B
100
AcDbEntity
  8
0
100
AcDbLine
 62
7
  6
BYLAYER
 10
46.4404074434
 20
107.2510461778
 11
40.8538178478
 21
104.0256456411
  0
LINE
  5
35C
100
AcDbEntity
  8
0
100
AcDbLine
 62
7
  6
BYLAYER
 10
36.3251392731
 20
100.950815655
 11
36.4665600405
 21
101.0324644858
  0
LINE
  5
35D
100
AcDbEntity
  8
0
100
AcDbLine
 62
7
  6
BYLAYER
 10
77.3011522908
 20
124.4266502288
 11
78.7260082433
 21
125.2494609265
  0
LINE
  5
35E
100
AcDbEntity
  8
0
100
AcDbLine
 62
7
  6
BYLAYER
 10
37.3858038608
 20
101.1549569403
 11
37.5272246283
 21
101.2366057711
  0
LINE
  5
35F
100
AcDbEntity
  8
0
100
AcDbLine
 62
7
  6
BYLAYER
 10
79.3516817865
 20
124.7059561568
 11
77.2575385484
 21
123.4969104354
  0
LINE
  5
360
100
AcDbEntity
  8
0
100
AcDbLine
 62
7
  6
BYLAYER
 10
37.3858038608
 20
100.3384545232
 11
37.5272246283
 21
100.420103354
  0
LINE
  5
361
100
AcDbEntity
  8
0
100
AcDbLine
 62
7
  6
BYLAYER
 10
29.7136668757
 20
95.4336215824
 11
30.4207707129
 21
95.8418657362
  0
LINE
  5
362
100
AcDbEntity
  8
0
100
AcDbLine
 62
7
  6
BYLAYER
 10
38.092913586
 20
99.9302137687
 11
38.2343343534
 21
100.0118625995
  0
LINE
  5
363
100
AcDbEntity
  8
0
100
AcDbLine
 62
7
  6
BYLAYER
 10
37.3858038608
 20
99.1137008975
 11
37.5272246283
 21
99.1953497283
  0
LINE
  5
364
100
AcDbEntity
  8
0
100
AcDbLine
 62
7
  6
BYLAYER
 10
46.5672791065
 20
107.1777607363
 11
56.5159695433
 21
112.9038796814
  0
LINE
  5
365
100
AcDbEntity
  8
0
100
AcDbLine
 62
7
  6
BYLAYER
 10
79.6781574789
 20
120.8527902383
 11
79.5557232097
 21
120.7956307722
  0
LINE
  5
366
100
AcDbEntity
  8
0
100
AcDbLine
 62
7
  6
BYLAYER
 10
35.8655208952
 20
85.2698907845
 11
34.4513021521
 21
86.0847388804
  0
LINE
  5
367
100
AcDbEntity
  8
0
100
AcDbLine
 62
7
  6
BYLAYER
 10
34.4513026235
 20
90.1672506936
 11
35.8655213667
 21
89.3524025977
  0
LINE
  5
368
100
AcDbEntity
  8
0
100
AcDbLine
 62
7
  6
BYLAYER
 10
64.6802427842
 20
68.126215194
 11
71.8220510082
 21
64.0029835733
  0
LINE
  5
369
100
AcDbEntity
  8
0
100
AcDbLine
 62
7
  6
BYLAYER
 10
33.5249824063
 20
86.343539011
 11
40.5678011567
 21
82.2774576967
  0
LINE
  5
36A
100
AcDbEntity
  8
0
100
AcDbLine
 62
7
  6
BYLAYER
 10
67.6854591161
 20
66.8974234859
 11
66.2712396658
 21
67.7139049949
  0
LINE
  5
36B
100
AcDbEntity
  8
0
100
AcDbLine
 62
7
  6
BYLAYER
 10
65.3873466215
 20
68.5344593478
 11
66.2712396658
 21
68.0241550054
  0
LINE
  5
36C
100
AcDbEntity
  8
0
100
AcDbLine
 62
7
  6
BYLAYER
 10
67.9541473478
 20
67.0525497828
 11
71.8220510082
 21
64.8194650824
  0
LINE
  5
36D
100
AcDbEntity
  8
0
100
AcDbLine
 62
7
  6
BYLAYER
 10
66.2712396658
 20
71.7964170806
 11
67.6854591161
 21
70.9799355715
  0
LINE
  5
36E
100
AcDbEntity
  8
0
100
AcDbLine
 62
7
  6
BYLAYER
 10
71.8220510082
 20
69.0979586562
 11
64.6802427842
 21
73.2211902769
  0
LINE
  5
36F
100
AcDbEntity
  8
0
100
AcDbLine
 62
7
  6
BYLAYER
 10
48.3742925224
 20
64.1594053813
 11
48.3742925224
 21
66.8212032611
  0
LINE
  5
370
100
AcDbEntity
  8
0
100
AcDbLine
 62
7
  6
BYLAYER
 10
48.3742925224
 20
93.3885589097
 11
48.3742925224
 21
96.0503567895
  0
LINE
  5
371
100
AcDbEntity
  8
0
100
AcDbLine
 62
7
  6
BYLAYER
 10
49.6895166111
 20
87.0198595006
 11
49.6895166111
 21
84.1621010407
  0
LINE
  5
372
100
AcDbEntity
  8
0
100
AcDbLine
 62
7
  6
BYLAYER
 10
49.9370014822
 20
93.9086835476
 11
49.9370014822
 21
93.0921811305
  0
LINE
  5
373
100
AcDbEntity
  8
0
100
AcDbLine
 62
7
  6
BYLAYER
 10
49.9370014822
 20
66.759978178
 11
49.9370014822
 21
65.9434757609
  0
LINE
  5
374
100
AcDbEntity
  8
0
100
AcDbLine
 62
7
  6
BYLAYER
 10
50.0784222496
 20
93.8270360766
 11
50.0784222496
 21
93.1738299612
  0
LINE
  5
375
100
AcDbEntity
  8
0
100
AcDbLine
 62
7
  6
BYLAYER
 10
50.0784222496
 20
66.678330707
 11
50.0784222496
 21
66.0251245917
  0
LINE
  5
376
100
AcDbEntity
  8
0
100
AcDbLine
 62
7
  6
BYLAYER
 10
50.3849731715
 20
118.5685753644
 11
50.3849731715
 21
116.4424078169
  0
LINE
  5
377
100
AcDbEntity
  8
0
100
AcDbLine
 62
7
  6
BYLAYER
 10
50.3966204483
 20
86.6116221454
 11
50.3966204483
 21
84.5703451945
  0
LINE
  5
378
100
AcDbEntity
  8
0
100
AcDbLine
 62
7
  6
BYLAYER
 10
50.9976660699
 20
94.5210760415
 11
50.9976660699
 21
93.2963224158
  0
LINE
  5
379
100
AcDbEntity
  8
0
100
AcDbLine
 62
7
  6
BYLAYER
 10
50.9976660699
 20
92.4798199987
 11
50.9976660699
 21
91.255066373
  0
LINE
  5
37A
100
AcDbEntity
  8
0
100
AcDbLine
 62
7
  6
BYLAYER
 10
50.9976660699
 20
67.372370672
 11
50.9976660699
 21
66.1476170463
  0
LINE
  5
37B
100
AcDbEntity
  8
0
100
AcDbLine
 62
7
  6
BYLAYER
 10
50.9976660699
 20
65.3311146291
 11
50.9976660699
 21
64.1063610034
  0
LINE
  5
37C
100
AcDbEntity
  8
0
100
AcDbLine
 62
7
  6
BYLAYER
 10
51.1390868373
 20
94.4394285705
 11
51.1390868373
 21
93.3779712466
  0
LINE
  5
37D
100
AcDbEntity
  8
0
100
AcDbLine
 62
7
  6
BYLAYER
 10
51.1390868373
 20
92.5614688295
 11
51.1390868373
 21
91.3367152038
  0
LINE
  5
37E
100
AcDbEntity
  8
0
100
AcDbLine
 62
7
  6
BYLAYER
 10
51.1390868373
 20
67.2907232009
 11
51.1390868373
 21
66.229265877
  0
LINE
  5
37F
100
AcDbEntity
  8
0
100
AcDbLine
 62
7
  6
BYLAYER
 10
51.1390868373
 20
65.4127634599
 11
51.1390868373
 21
64.1880098342
  0
LINE
  5
380
100
AcDbEntity
  8
0
100
AcDbLine
 62
7
  6
BYLAYER
 10
51.704775795
 20
63.6981202489
 11
51.704775795
 21
64.9228738746
  0
LINE
  5
381
100
AcDbEntity
  8
0
100
AcDbLine
 62
7
  6
BYLAYER
 10
51.704775795
 20
65.7393762917
 11
51.704775795
 21
66.9641299174
  0
LINE
  5
382
100
AcDbEntity
  8
0
100
AcDbLine
 62
7
  6
BYLAYER
 10
51.704775795
 20
90.8468256185
 11
51.704775795
 21
92.0715792442
  0
LINE
  5
383
100
AcDbEntity
  8
0
100
AcDbLine
 62
7
  6
BYLAYER
 10
51.704775795
 20
92.8880816613
 11
51.704775795
 21
94.112835287
  0
LINE
  5
384
100
AcDbEntity
  8
0
100
AcDbLine
 62
7
  6
BYLAYER
 10
52.1644006491
 20
82.7332583998
 11
52.1644006491
 21
85.5910168598
  0
LINE
  5
385
100
AcDbEntity
  8
0
100
AcDbLine
 62
7
  6
BYLAYER
 10
52.7654403828
 20
64.3105127428
 11
52.7654403828
 21
65.12701516
  0
LINE
  5
386
100
AcDbEntity
  8
0
100
AcDbLine
 62
7
  6
BYLAYER
 10
52.7654403828
 20
91.4592181124
 11
52.7654403828
 21
92.2757205295
  0
LINE
  5
387
100
AcDbEntity
  8
0
100
AcDbLine
 62
7
  6
BYLAYER
 10
50.5448255493
 20
143.3879710331
 11
50.2927421814
 21
137.6903136064
  0
LINE
  5
388
100
AcDbEntity
  8
0
100
AcDbLine
 62
7
  6
BYLAYER
 10
77.7399213563
 20
121.8439579435
 11
77.2424726471
 21
121.5567814436
  0
LINE
  5
389
100
AcDbEntity
  8
0
100
AcDbLine
 62
7
  6
BYLAYER
 10
61.9542782285
 20
111.8891850834
 11
46.2930012215
 21
102.8472354464
  0
LINE
  5
38A
100
AcDbEntity
  8
0
100
AcDbLine
 62
7
  6
BYLAYER
 10
79.0582866719
 20
120.5084444441
 11
79.55572323
 21
120.7956279636
  0
LINE
  5
38B
100
AcDbEntity
  8
0
100
AcDbLine
 62
7
  6
BYLAYER
 10
17.9756419055
 20
84.3959578652
 11
18.117062673
 21
84.477606696
  0
LINE
  5
38C
100
AcDbEntity
  8
0
100
AcDbLine
 62
7
  6
BYLAYER
 10
48.2082748978
 20
101.741476689
 11
63.8695519051
 21
110.7834263263
  0
LINE
  5
38D
100
AcDbEntity
  8
0
100
AcDbLine
 62
7
  6
BYLAYER
 10
19.0363064932
 20
84.6000991506
 11
19.1777272607
 21
84.6817479814
  0
LINE
  5
38E
100
AcDbEntity
  8
0
100
AcDbLine
 62
7
  6
BYLAYER
 10
42.4416383956
 20
98.0727350621
 11
42.5830591631
 21
98.1543838929
  0
LINE
  5
38F
100
AcDbEntity
  8
0
100
AcDbLine
 62
7
  6
BYLAYER
 10
43.5023029833
 20
98.2768763474
 11
43.6437237508
 21
98.3585251782
  0
LINE
  5
390
100
AcDbEntity
  8
0
100
AcDbLine
 62
7
  6
BYLAYER
 10
19.0363064932
 20
83.7835967335
 11
19.1777272607
 21
83.8652455642
  0
LINE
  5
391
100
AcDbEntity
  8
0
100
AcDbLine
 62
7
  6
BYLAYER
 10
43.5023029833
 20
97.4603739303
 11
43.6437237508
 21
97.5420227611
  0
LINE
  5
392
100
AcDbEntity
  8
0
100
AcDbLine
 62
7
  6
BYLAYER
 10
19.7434162184
 20
83.3753559789
 11
19.8848369858
 21
83.4570048097
  0
LINE
  5
393
100
AcDbEntity
  8
0
100
AcDbLine
 62
7
  6
BYLAYER
 10
24.0214335883
 20
85.8208544704
 11
24.7285374255
 21
86.2290986243
  0
LINE
  5
394
100
AcDbEntity
  8
0
100
AcDbLine
 62
7
  6
BYLAYER
 10
53.7939913064
 20
103.0055524653
 11
48.2074017108
 21
99.7801517457
  0
LINE
  5
395
100
AcDbEntity
  8
0
100
AcDbLine
 62
7
  6
BYLAYER
 10
19.0363064932
 20
82.5588431078
 11
19.1777272607
 21
82.6404919385
  0
LINE
  5
396
100
AcDbEntity
  8
0
100
AcDbLine
 62
7
  6
BYLAYER
 10
44.2094127085
 20
97.0521331758
 11
44.3508334759
 21
97.1337820066
  0
LINE
  5
397
100
AcDbEntity
  8
0
100
AcDbLine
 62
7
  6
BYLAYER
 10
63.8695519051
 20
108.6572587788
 11
53.9208785861
 21
102.9322580063
  0
LINE
  5
398
100
AcDbEntity
  8
0
100
AcDbLine
 62
7
  6
BYLAYER
 10
35.1584066964
 20
90.5754947117
 11
36.5726249682
 21
89.7606468874
  0
LINE
  5
399
100
AcDbEntity
  8
0
100
AcDbLine
 62
7
  6
BYLAYER
 10
40.5678011567
 20
87.7300817463
 11
32.8178785691
 21
92.2044004159
  0
LINE
  5
39A
100
AcDbEntity
  8
0
100
AcDbLine
 62
7
  6
BYLAYER
 10
29.7136668757
 20
95.4336215824
 11
32.7188832076
 21
93.6985983757
  0
LINE
  5
39B
100
AcDbEntity
  8
0
100
AcDbLine
 62
7
  6
BYLAYER
 10
61.6750264524
 20
76.9811394781
 11
64.6802427842
 21
75.2461162713
  0
LINE
  5
39C
100
AcDbEntity
  8
0
100
AcDbLine
 62
7
  6
BYLAYER
 10
17.7281570345
 20
102.614583145
 11
20.2030410725
 21
101.1857405042
  0
LINE
  5
39D
100
AcDbEntity
  8
0
100
AcDbLine
 62
7
  6
BYLAYER
 10
36.077654402
 20
92.0207355652
 11
38.5525384401
 21
90.5918929244
  0
LINE
  5
39E
100
AcDbEntity
  8
0
100
AcDbLine
 62
7
  6
BYLAYER
 10
49.6895166111
 20
84.1621010407
 11
52.1644006491
 21
82.7332583998
  0
LINE
  5
39F
100
AcDbEntity
  8
0
100
AcDbLine
 62
7
  6
BYLAYER
 10
68.0390139787
 20
73.5682534609
 11
70.5138980167
 21
72.13941082
  0
LINE
  5
3A0
100
AcDbEntity
  8
0
100
AcDbLine
 62
7
  6
BYLAYER
 10
30.4207707129
 20
95.8418657362
 11
32.7188832076
 21
94.5150798847
  0
LINE
  5
3A1
100
AcDbEntity
  8
0
100
AcDbLine
 62
7
  6
BYLAYER
 10
62.3821302896
 20
77.3893836319
 11
64.6802427842
 21
76.0625977804
  0
LINE
  5
3A2
100
AcDbEntity
  8
0
100
AcDbLine
 62
7
  6
BYLAYER
 10
18.4352608717
 20
103.0228272988
 11
20.2030410725
 21
102.0022220132
  0
LINE
  5
3A3
100
AcDbEntity
  8
0
100
AcDbLine
 62
7
  6
BYLAYER
 10
36.7847582393
 20
92.428979719
 11
38.5525384401
 21
91.4083744334
  0
LINE
  5
3A4
100
AcDbEntity
  8
0
100
AcDbLine
 62
7
  6
BYLAYER
 10
50.3966204483
 20
84.5703451945
 11
52.1644006491
 21
83.5497399089
  0
LINE
  5
3A5
100
AcDbEntity
  8
0
100
AcDbLine
 62
7
  6
BYLAYER
 10
68.7461178159
 20
73.9764976147
 11
70.5138980167
 21
72.9558923291
  0
LINE
  5
3A6
100
AcDbEntity
  8
0
100
AcDbLine
 62
7
  6
BYLAYER
 10
86.9187776856
 20
64.5312844765
 11
86.8480667131
 21
64.572108552
  0
LINE
  5
3A7
100
AcDbEntity
  8
0
100
AcDbLine
 62
7
  6
BYLAYER
 10
64.6802427842
 20
78.0058944412
 11
61.6750264524
 21
79.740917648
  0
LINE
  5
3A8
100
AcDbEntity
  8
0
100
AcDbLine
 62
7
  6
BYLAYER
 10
32.7188832076
 20
96.4583765456
 11
29.7136668757
 21
98.1933997523
  0
LINE
  5
3A9
100
AcDbEntity
  8
0
100
AcDbLine
 62
7
  6
BYLAYER
 10
100.8487232787
 20
57.1417907399
 11
100.7780123062
 21
57.1826116559
  0
LINE
  5
3AA
100
AcDbEntity
  8
0
100
AcDbLine
 62
7
  6
BYLAYER
 10
70.5138980167
 20
74.99716928
 11
68.0390139787
 21
76.4260119208
  0
LINE
  5
3AB
100
AcDbEntity
  8
0
100
AcDbLine
 62
7
  6
BYLAYER
 10
52.1644006491
 20
85.5910168598
 11
49.6895166111
 21
87.0198595006
  0
LINE
  5
3AC
100
AcDbEntity
  8
0
100
AcDbLine
 62
7
  6
BYLAYER
 10
38.5525384401
 20
93.4496513843
 11
36.077654402
 21
94.8784940251
  0
LINE
  5
3AD
100
AcDbEntity
  8
0
100
AcDbLine
 62
7
  6
BYLAYER
 10
20.2030410725
 20
104.0434989641
 11
17.7281570345
 21
105.4723416049
  0
LINE
  5
3AE
100
AcDbEntity
  8
0
100
AcDbLine
 62
7
  6
BYLAYER
 10
43.7851504062
 20
90.7389407194
 11
45.3407918015
 21
89.8408110594
  0
LINE
  5
3AF
100
AcDbEntity
  8
0
100
AcDbLine
 62
7
  6
BYLAYER
 10
75.7465099828
 20
72.286458615
 11
77.3021513781
 21
71.3883289551
  0
LINE
  5
3B0
100
AcDbEntity
  8
0
100
AcDbLine
 62
7
  6
BYLAYER
 10
53.6452781027
 20
58.1849803541
 11
53.6461990337
 21
56.1179640781
  0
LINE
  5
3B1
100
AcDbEntity
  8
0
100
AcDbLine
 62
7
  6
BYLAYER
 10
53.6461484894
 20
96.6406681695
 11
53.6461484894
 21
98.6014858042
  0
LINE
  5
3B2
100
AcDbEntity
  8
0
100
AcDbLine
 62
7
  6
BYLAYER
 10
54.1680624526
 20
57.8831568792
 11
54.1680624526
 21
55.816120352
  0
LINE
  5
3B3
100
AcDbEntity
  8
0
100
AcDbLine
 62
7
  6
BYLAYER
 10
55.9827931649
 20
70.4710815512
 11
55.9827931649
 21
67.3683723661
  0
LINE
  5
3B4
100
AcDbEntity
  8
0
100
AcDbLine
 62
7
  6
BYLAYER
 10
56.0535006047
 20
90.377401021
 11
56.0535006047
 21
89.5608986039
  0
LINE
  5
3B5
100
AcDbEntity
  8
0
100
AcDbLine
 62
7
  6
BYLAYER
 10
56.0535006047
 20
63.2286956514
 11
56.0535006047
 21
62.4121932343
  0
LINE
  5
3B6
100
AcDbEntity
  8
0
100
AcDbLine
 62
7
  6
BYLAYER
 10
56.1949213721
 20
90.29575355
 11
56.1949213721
 21
89.6425474346
  0
LINE
  5
3B7
100
AcDbEntity
  8
0
100
AcDbLine
 62
7
  6
BYLAYER
 10
56.1949213721
 20
63.1470481804
 11
56.1949213721
 21
62.4938420651
  0
LINE
  5
3B8
100
AcDbEntity
  8
0
100
AcDbLine
 62
7
  6
BYLAYER
 10
56.5159680434
 20
115.0289239024
 11
56.5159680434
 21
112.9027563549
  0
LINE
  5
3B9
100
AcDbEntity
  8
0
100
AcDbLine
 62
7
  6
BYLAYER
 10
56.6898970022
 20
70.062844196
 11
56.6898970022
 21
67.77661652
  0
LINE
  5
3BA
100
AcDbEntity
  8
0
100
AcDbLine
 62
7
  6
BYLAYER
 10
57.1141651924
 20
90.9897935149
 11
57.1141651924
 21
89.7650398892
  0
LINE
  5
3BB
100
AcDbEntity
  8
0
100
AcDbLine
 62
7
  6
BYLAYER
 10
57.1141651924
 20
88.9485374721
 11
57.1141651924
 21
87.7237838464
  0
LINE
  5
3BC
100
AcDbEntity
  8
0
100
AcDbLine
 62
7
  6
BYLAYER
 10
57.1141651924
 20
63.8410881454
 11
57.1141651924
 21
62.6163345197
  0
LINE
  5
3BD
100
AcDbEntity
  8
0
100
AcDbLine
 62
7
  6
BYLAYER
 10
57.1141651924
 20
61.7998321025
 11
57.1141651924
 21
60.5750784768
  0
LINE
  5
3BE
100
AcDbEntity
  8
0
100
AcDbLine
 62
7
  6
BYLAYER
 10
57.2555859599
 20
90.9081460439
 11
57.2555859599
 21
89.84668872
  0
LINE
  5
3BF
100
AcDbEntity
  8
0
100
AcDbLine
 62
7
  6
BYLAYER
 10
57.2555859599
 20
89.0301863029
 11
57.2555859599
 21
87.8054326772
  0
LINE
  5
3C0
100
AcDbEntity
  8
0
100
AcDbLine
 62
7
  6
BYLAYER
 10
57.2555859599
 20
63.7594406743
 11
57.2555859599
 21
62.6979833504
  0
LINE
  5
3C1
100
AcDbEntity
  8
0
100
AcDbLine
 62
7
  6
BYLAYER
 10
57.2555859599
 20
61.8814809333
 11
57.2555859599
 21
60.6567273076
  0
LINE
  5
3C2
100
AcDbEntity
  8
0
100
AcDbLine
 62
7
  6
BYLAYER
 10
57.8212749176
 20
60.1668377223
 11
57.8212749176
 21
61.391591348
  0
LINE
  5
3C3
100
AcDbEntity
  8
0
100
AcDbLine
 62
7
  6
BYLAYER
 10
57.8212749176
 20
62.2080937651
 11
57.8212749176
 21
63.4328473908
  0
LINE
  5
3C4
100
AcDbEntity
  8
0
100
AcDbLine
 62
7
  6
BYLAYER
 10
57.8212749176
 20
87.3155430919
 11
57.8212749176
 21
88.5402967176
  0
LINE
  5
3C5
100
AcDbEntity
  8
0
100
AcDbLine
 62
7
  6
BYLAYER
 10
57.8212749176
 20
89.3567991347
 11
57.8212749176
 21
90.5815527604
  0
LINE
  5
3C6
100
AcDbEntity
  8
0
100
AcDbLine
 62
7
  6
BYLAYER
 10
54.1680538509
 20
96.3388487961
 11
54.1689270358
 21
98.3001704241
  0
LINE
  5
3C7
100
AcDbEntity
  8
0
100
AcDbLine
 62
7
  6
BYLAYER
 10
18.1615177315
 20
78.6711174379
 11
16.3746177937
 21
77.6362347442
  0
LINE
  5
3C8
100
AcDbEntity
  8
0
100
AcDbLine
 62
7
  6
BYLAYER
 10
36.077654402
 20
92.0207355652
 11
36.7847582393
 21
92.428979719
  0
LINE
  5
3C9
100
AcDbEntity
  8
0
100
AcDbLine
 62
7
  6
BYLAYER
 10
43.5023029833
 20
96.2356203046
 11
43.6437237508
 21
96.3172691354
  0
LINE
  5
3CA
100
AcDbEntity
  8
0
100
AcDbLine
 62
7
  6
BYLAYER
 10
34.4513026235
 20
90.1672506937
 11
35.1584066964
 21
90.5754947117
  0
LINE
  5
3CB
100
AcDbEntity
  8
0
100
AcDbLine
 62
7
  6
BYLAYER
 10
45.9771905541
 20
94.7724950675
 11
46.6842943913
 21
95.1807392214
  0
LINE
  5
3CC
100
AcDbEntity
  8
0
100
AcDbLine
 62
7
  6
BYLAYER
 10
69.3078620902
 20
107.6436875073
 11
53.6465850819
 21
98.6017378695
  0
LINE
  5
3CD
100
AcDbEntity
  8
0
100
AcDbLine
 62
7
  6
BYLAYER
 10
28.7237132605
 20
83.8409056283
 11
29.4308170977
 21
84.2491497822
  0
LINE
  5
3CE
100
AcDbEntity
  8
0
100
AcDbLine
 62
7
  6
BYLAYER
 10
54.1689270358
 20
98.3001704241
 11
69.8302040442
 21
107.342120062
  0
LINE
  5
3CF
100
AcDbEntity
  8
0
100
AcDbLine
 62
7
  6
BYLAYER
 10
32.8178785691
 20
85.9352948572
 11
33.5249824063
 21
86.343539011
  0
LINE
  5
3D0
100
AcDbEntity
  8
0
100
AcDbLine
 62
7
  6
BYLAYER
 10
24.092141028
 20
80.8646753386
 11
24.2335617955
 21
80.9463241694
  0
LINE
  5
3D1
100
AcDbEntity
  8
0
100
AcDbLine
 62
7
  6
BYLAYER
 10
25.1528056158
 20
81.068816624
 11
25.2942263832
 21
81.1504654548
  0
LINE
  5
3D2
100
AcDbEntity
  8
0
100
AcDbLine
 62
7
  6
BYLAYER
 10
25.1528056158
 20
80.2523142069
 11
25.2942263832
 21
80.3339630376
  0
LINE
  5
3D3
100
AcDbEntity
  8
0
100
AcDbLine
 62
7
  6
BYLAYER
 10
35.8655214845
 20
89.3524025296
 11
36.5726253217
 21
89.7603745162
  0
LINE
  5
3D4
100
AcDbEntity
  8
0
100
AcDbLine
 62
7
  6
BYLAYER
 10
44.4922542434
 20
91.1471848732
 11
45.3407918015
 21
90.6572925685
  0
LINE
  5
3D5
100
AcDbEntity
  8
0
100
AcDbLine
 62
7
  6
BYLAYER
 10
76.45361382
 20
72.6947027689
 11
77.3021513781
 21
72.2048104642
  0
LINE
  5
3D6
100
AcDbEntity
  8
0
100
AcDbLine
 62
7
  6
BYLAYER
 10
77.3021513781
 20
73.8378362065
 11
75.7465099828
 21
74.7359658664
  0
LINE
  5
3D7
100
AcDbEntity
  8
0
100
AcDbLine
 62
7
  6
BYLAYER
 10
45.3407918015
 20
92.2903183108
 11
43.7851504062
 21
93.1884479708
  0
LINE
  5
3D8
100
AcDbEntity
  8
0
100
AcDbLine
 62
7
  6
BYLAYER
 10
19.0363064932
 20
109.7075484773
 11
19.7434162184
 21
109.2993077228
  0
LINE
  5
3D9
100
AcDbEntity
  8
0
100
AcDbLine
 62
7
  6
BYLAYER
 10
25.1528056158
 20
106.1762659507
 11
25.8599153409
 21
105.7680251962
  0
LINE
  5
3DA
100
AcDbEntity
  8
0
100
AcDbLine
 62
7
  6
BYLAYER
 10
31.2693047383
 20
102.6449834241
 11
31.9764144634
 21
102.2367426696
  0
LINE
  5
3DB
100
AcDbEntity
  8
0
100
AcDbLine
 62
7
  6
BYLAYER
 10
37.3858038608
 20
99.1137008975
 11
38.092913586
 21
98.705460143
  0
LINE
  5
3DC
100
AcDbEntity
  8
0
100
AcDbLine
 62
7
  6
BYLAYER
 10
50.9976660699
 20
91.255066373
 11
51.704775795
 21
90.8468256185
  0
LINE
  5
3DD
100
AcDbEntity
  8
0
100
AcDbLine
 62
7
  6
BYLAYER
 10
57.1141651924
 20
87.7237838464
 11
57.8212749176
 21
87.3155430919
  0
LINE
  5
3DE
100
AcDbEntity
  8
0
100
AcDbLine
 62
7
  6
BYLAYER
 10
63.2306643149
 20
84.1925013198
 11
63.9377740401
 21
83.7842605653
  0
LINE
  5
3DF
100
AcDbEntity
  8
0
100
AcDbLine
 62
7
  6
BYLAYER
 10
69.3471634375
 20
80.6612187932
 11
70.0542731626
 21
80.2529780387
  0
LINE
  5
3E0
100
AcDbEntity
  8
0
100
AcDbLine
 62
7
  6
BYLAYER
 10
19.1777272607
 20
109.7891973081
 11
19.7434162184
 21
109.4626040246
  0
LINE
  5
3E1
100
AcDbEntity
  8
0
100
AcDbLine
 62
7
  6
BYLAYER
 10
25.2942263832
 20
106.2579147815
 11
25.8599153409
 21
105.931321498
  0
LINE
  5
3E2
100
AcDbEntity
  8
0
100
AcDbLine
 62
7
  6
BYLAYER
 10
31.4107255057
 20
102.7266322549
 11
31.9764144634
 21
102.4000389714
  0
LINE
  5
3E3
100
AcDbEntity
  8
0
100
AcDbLine
 62
7
  6
BYLAYER
 10
37.5272246283
 20
99.1953497283
 11
38.092913586
 21
98.8687564448
  0
LINE
  5
3E4
100
AcDbEntity
  8
0
100
AcDbLine
 62
7
  6
BYLAYER
 10
51.1390868373
 20
91.3367152038
 11
51.704775795
 21
91.0101219203
  0
LINE
  5
3E5
100
AcDbEntity
  8
0
100
AcDbLine
 62
7
  6
BYLAYER
 10
57.2555859599
 20
87.8054326772
 11
57.8212749176
 21
87.4788393937
  0
LINE
  5
3E6
100
AcDbEntity
  8
0
100
AcDbLine
 62
7
  6
BYLAYER
 10
63.3720850824
 20
84.2741501506
 11
63.9377740401
 21
83.9475568671
  0
LINE
  5
3E7
100
AcDbEntity
  8
0
100
AcDbLine
 62
7
  6
BYLAYER
 10
69.4885842049
 20
80.742867624
 11
70.0542731626
 21
80.4162743405
  0
LINE
  5
3E8
100
AcDbEntity
  8
0
100
AcDbLine
 62
7
  6
BYLAYER
 10
45.9771905541
 20
94.7724950675
 11
48.3742925224
 21
93.3885589097
  0
LINE
  5
3E9
100
AcDbEntity
  8
0
100
AcDbLine
 62
7
  6
BYLAYER
 10
43.5023029833
 20
96.2356203046
 11
44.2094127085
 21
95.8273795501
  0
LINE
  5
3EA
100
AcDbEntity
  8
0
100
AcDbLine
 62
7
  6
BYLAYER
 10
75.46366256
 20
77.7831382003
 11
76.1707722851
 21
77.3748974458
  0
LINE
  5
3EB
100
AcDbEntity
  8
0
100
AcDbLine
 62
7
  6
BYLAYER
 10
43.6437237508
 20
96.3172691354
 11
44.2094127085
 21
95.9906758519
  0
LINE
  5
3EC
100
AcDbEntity
  8
0
100
AcDbLine
 62
7
  6
BYLAYER
 10
75.6050833274
 20
77.8647870311
 11
76.1707722851
 21
77.5381937476
  0
LINE
  5
3ED
100
AcDbEntity
  8
0
100
AcDbLine
 62
7
  6
BYLAYER
 10
17.9756419055
 20
111.5446632348
 11
19.0363064932
 21
110.932302103
  0
LINE
  5
3EE
100
AcDbEntity
  8
0
100
AcDbLine
 62
7
  6
BYLAYER
 10
19.7434162184
 20
110.5240613485
 11
20.8040808061
 21
109.9117002167
  0
LINE
  5
3EF
100
AcDbEntity
  8
0
100
AcDbLine
 62
7
  6
BYLAYER
 10
24.092141028
 20
108.0133807082
 11
25.1528056158
 21
107.4010195764
  0
LINE
  5
3F0
100
AcDbEntity
  8
0
100
AcDbLine
 62
7
  6
BYLAYER
 10
25.8599153409
 20
106.9927788219
 11
26.9205799286
 21
106.3804176901
  0
LINE
  5
3F1
100
AcDbEntity
  8
0
100
AcDbLine
 62
7
  6
BYLAYER
 10
30.2086401506
 20
104.4820981816
 11
31.2693047383
 21
103.8697370498
  0
LINE
  5
3F2
100
AcDbEntity
  8
0
100
AcDbLine
 62
7
  6
BYLAYER
 10
31.9764144634
 20
103.4614962953
 11
33.0370790512
 21
102.8491351635
  0
LINE
  5
3F3
100
AcDbEntity
  8
0
100
AcDbLine
 62
7
  6
BYLAYER
 10
36.3251392731
 20
100.950815655
 11
37.3858038608
 21
100.3384545232
  0
LINE
  5
3F4
100
AcDbEntity
  8
0
100
AcDbLine
 62
7
  6
BYLAYER
 10
38.092913586
 20
99.9302137687
 11
39.1535781737
 21
99.3178526369
  0
LINE
  5
3F5
100
AcDbEntity
  8
0
100
AcDbLine
 62
7
  6
BYLAYER
 10
49.9370014822
 20
93.0921811305
 11
50.9976660699
 21
92.4798199987
  0
LINE
  5
3F6
100
AcDbEntity
  8
0
100
AcDbLine
 62
7
  6
BYLAYER
 10
51.704775795
 20
92.0715792442
 11
52.7654403828
 21
91.4592181124
  0
LINE
  5
3F7
100
AcDbEntity
  8
0
100
AcDbLine
 62
7
  6
BYLAYER
 10
56.0535006047
 20
89.5608986039
 11
57.1141651924
 21
88.9485374721
  0
LINE
  5
3F8
100
AcDbEntity
  8
0
100
AcDbLine
 62
7
  6
BYLAYER
 10
57.8212749176
 20
88.5402967176
 11
58.8819395053
 21
87.9279355858
  0
LINE
  5
3F9
100
AcDbEntity
  8
0
100
AcDbLine
 62
7
  6
BYLAYER
 10
62.1699997272
 20
86.0296160773
 11
63.2306643149
 21
85.4172549455
  0
LINE
  5
3FA
100
AcDbEntity
  8
0
100
AcDbLine
 62
7
  6
BYLAYER
 10
63.9377740401
 20
85.009014191
 11
64.9984386278
 21
84.3966530592
  0
LINE
  5
3FB
100
AcDbEntity
  8
0
100
AcDbLine
 62
7
  6
BYLAYER
 10
68.2864988497
 20
82.4983335507
 11
69.3471634375
 21
81.8859724189
  0
LINE
  5
3FC
100
AcDbEntity
  8
0
100
AcDbLine
 62
7
  6
BYLAYER
 10
70.0542731626
 20
81.4777316644
 11
71.1149377503
 21
80.8653705326
  0
LINE
  5
3FD
100
AcDbEntity
  8
0
100
AcDbLine
 62
7
  6
BYLAYER
 10
59.7762729762
 20
54.6453216447
 11
59.777193904
 21
52.5783126151
  0
LINE
  5
3FE
100
AcDbEntity
  8
0
100
AcDbLine
 62
7
  6
BYLAYER
 10
58.1041223404
 20
66.1436501026
 11
58.1041223404
 21
69.2463592877
  0
LINE
  5
3FF
100
AcDbEntity
  8
0
100
AcDbLine
 62
7
  6
BYLAYER
 10
58.8819395053
 20
60.7792302162
 11
58.8819395053
 21
61.5957326334
  0
LINE
  5
400
100
AcDbEntity
  8
0
100
AcDbLine
 62
7
  6
BYLAYER
 10
58.8819395053
 20
87.9279355858
 11
58.8819395053
 21
88.7444380029
  0
LINE
  5
401
100
AcDbEntity
  8
0
100
AcDbLine
 62
7
  6
BYLAYER
 10
59.7771433613
 20
93.1010199261
 11
59.7771433613
 21
95.0618343422
  0
LINE
  5
402
100
AcDbEntity
  8
0
100
AcDbLine
 62
7
  6
BYLAYER
 10
60.2845615751
 20
54.3518671234
 11
60.2845615751
 21
52.2848378254
  0
LINE
  5
403
100
AcDbEntity
  8
0
100
AcDbLine
 62
7
  6
BYLAYER
 10
60.6850728372
 20
67.7562805337
 11
60.6850728372
 21
65.388423524
  0
LINE
  5
404
100
AcDbEntity
  8
0
100
AcDbLine
 62
7
  6
BYLAYER
 10
61.3921766744
 20
67.3480431785
 11
61.3921766744
 21
65.7966676779
  0
LINE
  5
405
100
AcDbEntity
  8
0
100
AcDbLine
 62
7
  6
BYLAYER
 10
61.6750264524
 20
79.740917648
 11
61.6750264524
 21
76.9811394781
  0
LINE
  5
406
100
AcDbEntity
  8
0
100
AcDbLine
 62
7
  6
BYLAYER
 10
62.1699997272
 20
86.8461184944
 11
62.1699997272
 21
86.0296160773
  0
LINE
  5
407
100
AcDbEntity
  8
0
100
AcDbLine
 62
7
  6
BYLAYER
 10
62.1699997272
 20
59.6974131248
 11
62.1699997272
 21
58.8809107077
  0
LINE
  5
408
100
AcDbEntity
  8
0
100
AcDbLine
 62
7
  6
BYLAYER
 10
62.3114204947
 20
86.7644710234
 11
62.3114204947
 21
86.111264908
  0
LINE
  5
409
100
AcDbEntity
  8
0
100
AcDbLine
 62
7
  6
BYLAYER
 10
62.3114204947
 20
59.6157656538
 11
62.3114204947
 21
58.9625595385
  0
LINE
  5
40A
100
AcDbEntity
  8
0
100
AcDbLine
 62
7
  6
BYLAYER
 10
62.3821302896
 20
79.3326802928
 11
62.3821302896
 21
77.3893836319
  0
LINE
  5
40B
100
AcDbEntity
  8
0
100
AcDbLine
 62
7
  6
BYLAYER
 10
60.2845529745
 20
92.807569485
 11
60.2854261573
 21
94.7688878969
  0
LINE
  5
40C
100
AcDbEntity
  8
0
100
AcDbLine
 62
7
  6
BYLAYER
 10
24.4483531583
 20
75.0414859944
 11
22.6614596435
 21
74.0066070211
  0
LINE
  5
40D
100
AcDbEntity
  8
0
100
AcDbLine
 62
7
  6
BYLAYER
 10
43.7851504062
 20
90.7389407194
 11
44.4922542434
 21
91.1471848732
  0
LINE
  5
40E
100
AcDbEntity
  8
0
100
AcDbLine
 62
7
  6
BYLAYER
 10
59.7546434466
 20
99.5642493551
 11
54.1680538509
 21
96.3388487961
  0
LINE
  5
40F
100
AcDbEntity
  8
0
100
AcDbLine
 62
7
  6
BYLAYER
 10
25.8599153409
 20
79.8440734523
 11
26.0013361084
 21
79.9257222831
  0
LINE
  5
410
100
AcDbEntity
  8
0
100
AcDbLine
 62
7
  6
BYLAYER
 10
35.8655208952
 20
85.2698907845
 11
36.5726244968
 21
85.6781350741
  0
LINE
  5
411
100
AcDbEntity
  8
0
100
AcDbLine
 62
7
  6
BYLAYER
 10
25.1528056158
 20
79.0275605812
 11
25.2942263832
 21
79.1092094119
  0
LINE
  5
412
100
AcDbEntity
  8
0
100
AcDbLine
 62
7
  6
BYLAYER
 10
49.9370014822
 20
93.0921811305
 11
50.0784222496
 21
93.1738299612
  0
LINE
  5
413
100
AcDbEntity
  8
0
100
AcDbLine
 62
7
  6
BYLAYER
 10
50.9976660699
 20
93.2963224158
 11
51.1390868373
 21
93.3779712466
  0
LINE
  5
414
100
AcDbEntity
  8
0
100
AcDbLine
 62
7
  6
BYLAYER
 10
50.9976660699
 20
92.4798199987
 11
51.1390868373
 21
92.5614688295
  0
LINE
  5
415
100
AcDbEntity
  8
0
100
AcDbLine
 62
7
  6
BYLAYER
 10
51.704775795
 20
92.0715792442
 11
51.8461965625
 21
92.1532280749
  0
LINE
  5
416
100
AcDbEntity
  8
0
100
AcDbLine
 62
7
  6
BYLAYER
 10
50.9976660699
 20
91.255066373
 11
51.1390868373
 21
91.3367152038
  0
LINE
  5
417
100
AcDbEntity
  8
0
100
AcDbLine
 62
7
  6
BYLAYER
 10
75.4388569621
 20
104.1040360453
 11
59.7775799527
 21
95.0620864068
  0
LINE
  5
418
100
AcDbEntity
  8
0
100
AcDbLine
 62
7
  6
BYLAYER
 10
60.2854261573
 20
94.7688878969
 11
75.9467031667
 21
103.8108375354
  0
LINE
  5
419
100
AcDbEntity
  8
0
100
AcDbLine
 62
7
  6
BYLAYER
 10
69.8302040442
 20
105.2159525145
 11
59.8815334607
 21
99.4909533162
  0
LINE
  5
41A
100
AcDbEntity
  8
0
100
AcDbLine
 62
7
  6
BYLAYER
 10
78.1261334296
 20
82.5060300667
 11
78.9992141297
 21
82.0024722143
  0
LINE
  5
41B
100
AcDbEntity
  8
0
100
AcDbLine
 62
7
  6
BYLAYER
 10
18.117062673
 20
111.6263120656
 11
19.1777272607
 21
111.0139509338
  0
LINE
  5
41C
100
AcDbEntity
  8
0
100
AcDbLine
 62
7
  6
BYLAYER
 10
19.8848369858
 20
110.6057101793
 11
20.8040808061
 21
110.0749965185
  0
LINE
  5
41D
100
AcDbEntity
  8
0
100
AcDbLine
 62
7
  6
BYLAYER
 10
24.2335617955
 20
108.095029539
 11
25.2942263832
 21
107.4826684072
  0
LINE
  5
41E
100
AcDbEntity
  8
0
100
AcDbLine
 62
7
  6
BYLAYER
 10
26.0013361084
 20
107.0744276527
 11
26.9205799286
 21
106.5437139919
  0
LINE
  5
41F
100
AcDbEntity
  8
0
100
AcDbLine
 62
7
  6
BYLAYER
 10
30.350060918
 20
104.5637470124
 11
31.4107255057
 21
103.9513858806
  0
LINE
  5
420
100
AcDbEntity
  8
0
100
AcDbLine
 62
7
  6
BYLAYER
 10
32.1178352309
 20
103.5431451261
 11
33.0370790512
 21
103.0124314653
  0
LINE
  5
421
100
AcDbEntity
  8
0
100
AcDbLine
 62
7
  6
BYLAYER
 10
36.4665600405
 20
101.0324644858
 11
37.5272246283
 21
100.420103354
  0
LINE
  5
422
100
AcDbEntity
  8
0
100
AcDbLine
 62
7
  6
BYLAYER
 10
38.2343343534
 20
100.0118625995
 11
39.1535781737
 21
99.4811489387
  0
LINE
  5
423
100
AcDbEntity
  8
0
100
AcDbLine
 62
7
  6
BYLAYER
 10
50.0784222496
 20
93.1738299612
 11
51.1390868373
 21
92.5614688295
  0
LINE
  5
424
100
AcDbEntity
  8
0
100
AcDbLine
 62
7
  6
BYLAYER
 10
51.8461965625
 20
92.1532280749
 11
52.7654403828
 21
91.6225144142
  0
LINE
  5
425
100
AcDbEntity
  8
0
100
AcDbLine
 62
7
  6
BYLAYER
 10
56.1949213721
 20
89.6425474346
 11
57.2555859599
 21
89.0301863029
  0
LINE
  5
426
100
AcDbEntity
  8
0
100
AcDbLine
 62
7
  6
BYLAYER
 10
57.962695685
 20
88.6219455483
 11
58.8819395053
 21
88.0912318876
  0
LINE
  5
427
100
AcDbEntity
  8
0
100
AcDbLine
 62
7
  6
BYLAYER
 10
62.3114204947
 20
86.111264908
 11
63.3720850824
 21
85.4989037763
  0
LINE
  5
428
100
AcDbEntity
  8
0
100
AcDbLine
 62
7
  6
BYLAYER
 10
64.0791948075
 20
85.0906630217
 11
64.9984386278
 21
84.559949361
  0
LINE
  5
429
100
AcDbEntity
  8
0
100
AcDbLine
 62
7
  6
BYLAYER
 10
68.4279196172
 20
82.5799823814
 11
69.4885842049
 21
81.9676212497
  0
LINE
  5
42A
100
AcDbEntity
  8
0
100
AcDbLine
 62
7
  6
BYLAYER
 10
70.19569393
 20
81.5593804951
 11
71.1149377503
 21
81.0286668344
  0
LINE
  5
42B
100
AcDbEntity
  8
0
100
AcDbLine
 62
7
  6
BYLAYER
 10
46.6842943913
 20
95.1807392214
 11
48.3742925224
 21
94.2050404188
  0
LINE
  5
42C
100
AcDbEntity
  8
0
100
AcDbLine
 62
7
  6
BYLAYER
 10
42.4416383956
 20
98.0727350621
 11
43.5023029833
 21
97.4603739303
  0
LINE
  5
42D
100
AcDbEntity
  8
0
100
AcDbLine
 62
7
  6
BYLAYER
 10
44.2094127085
 20
97.0521331758
 11
45.2700772962
 21
96.439772044
  0
LINE
  5
42E
100
AcDbEntity
  8
0
100
AcDbLine
 62
7
  6
BYLAYER
 10
74.4029979723
 20
79.6202529578
 11
75.46366256
 21
79.007891826
  0
LINE
  5
42F
100
AcDbEntity
  8
0
100
AcDbLine
 62
7
  6
BYLAYER
 10
76.1707722851
 20
78.5996510715
 11
77.2314368728
 21
77.9872899397
  0
LINE
  5
430
100
AcDbEntity
  8
0
100
AcDbLine
 62
7
  6
BYLAYER
 10
42.5830591631
 20
98.1543838929
 11
43.6437237508
 21
97.5420227611
  0
LINE
  5
431
100
AcDbEntity
  8
0
100
AcDbLine
 62
7
  6
BYLAYER
 10
44.3508334759
 20
97.1337820066
 11
45.2700772962
 21
96.6030683458
  0
LINE
  5
432
100
AcDbEntity
  8
0
100
AcDbLine
 62
7
  6
BYLAYER
 10
74.5444187397
 20
79.7019017886
 11
75.6050833274
 21
79.0895406568
  0
LINE
  5
433
100
AcDbEntity
  8
0
100
AcDbLine
 62
7
  6
BYLAYER
 10
76.3121930526
 20
78.6812999022
 11
77.2314368728
 21
78.1505862415
  0
LINE
  5
434
100
AcDbEntity
  8
0
100
AcDbLine
 62
7
  6
BYLAYER
 10
71.1149377503
 20
81.6818729497
 11
70.0542731626
 21
82.2942340815
  0
LINE
  5
435
100
AcDbEntity
  8
0
100
AcDbLine
 62
7
  6
BYLAYER
 10
69.3471634375
 20
82.702474836
 11
68.2864988497
 21
83.3148359678
  0
LINE
  5
436
100
AcDbEntity
  8
0
100
AcDbLine
 62
7
  6
BYLAYER
 10
64.9984386278
 20
85.2131554763
 11
63.9377740401
 21
85.8255166081
  0
LINE
  5
437
100
AcDbEntity
  8
0
100
AcDbLine
 62
7
  6
BYLAYER
 10
63.2306643149
 20
86.2337573626
 11
62.1699997272
 21
86.8461184944
  0
LINE
  5
438
100
AcDbEntity
  8
0
100
AcDbLine
 62
7
  6
BYLAYER
 10
58.8819395053
 20
88.7444380029
 11
57.8212749176
 21
89.3567991347
  0
LINE
  5
439
100
AcDbEntity
  8
0
100
AcDbLine
 62
7
  6
BYLAYER
 10
57.1141651924
 20
89.7650398892
 11
56.0535006047
 21
90.377401021
  0
LINE
  5
43A
100
AcDbEntity
  8
0
100
AcDbLine
 62
7
  6
BYLAYER
 10
52.7654403828
 20
92.2757205295
 11
51.704775795
 21
92.8880816613
  0
LINE
  5
43B
100
AcDbEntity
  8
0
100
AcDbLine
 62
7
  6
BYLAYER
 10
50.9976660699
 20
93.2963224158
 11
49.9370014822
 21
93.9086835476
  0
LINE
  5
43C
100
AcDbEntity
  8
0
100
AcDbLine
 62
7
  6
BYLAYER
 10
39.1535781737
 20
100.134355054
 11
38.092913586
 21
100.7467161858
  0
LINE
  5
43D
100
AcDbEntity
  8
0
100
AcDbLine
 62
7
  6
BYLAYER
 10
37.3858038608
 20
101.1549569403
 11
36.3251392731
 21
101.7673180721
  0
LINE
  5
43E
100
AcDbEntity
  8
0
100
AcDbLine
 62
7
  6
BYLAYER
 10
33.0370790512
 20
103.6656375806
 11
31.9764144634
 21
104.2779987124
  0
LINE
  5
43F
100
AcDbEntity
  8
0
100
AcDbLine
 62
7
  6
BYLAYER
 10
31.2693047383
 20
104.6862394669
 11
30.2086401506
 21
105.2986005987
  0
LINE
  5
440
100
AcDbEntity
  8
0
100
AcDbLine
 62
7
  6
BYLAYER
 10
26.9205799286
 20
107.1969201072
 11
25.8599153409
 21
107.809281239
  0
LINE
  5
441
100
AcDbEntity
  8
0
100
AcDbLine
 62
7
  6
BYLAYER
 10
25.1528056158
 20
108.2175219935
 11
24.092141028
 21
108.8298831253
  0
LINE
  5
442
100
AcDbEntity
  8
0
100
AcDbLine
 62
7
  6
BYLAYER
 10
20.8040808061
 20
110.7282026338
 11
19.7434162184
 21
111.3405637656
  0
LINE
  5
443
100
AcDbEntity
  8
0
100
AcDbLine
 62
7
  6
BYLAYER
 10
19.0363064932
 20
111.7488045201
 11
17.9756419055
 21
112.3611656519
  0
LINE
  5
444
100
AcDbEntity
  8
0
100
AcDbLine
 62
7
  6
BYLAYER
 10
77.2314368728
 20
78.8037923568
 11
76.1707722851
 21
79.4161534886
  0
LINE
  5
445
100
AcDbEntity
  8
0
100
AcDbLine
 62
7
  6
BYLAYER
 10
75.46366256
 20
79.8243942431
 11
74.4029979723
 21
80.4367553749
  0
LINE
  5
446
100
AcDbEntity
  8
0
100
AcDbLine
 62
7
  6
BYLAYER
 10
45.2700772962
 20
97.2562744611
 11
44.2094127085
 21
97.8686355929
  0
LINE
  5
447
100
AcDbEntity
  8
0
100
AcDbLine
 62
7
  6
BYLAYER
 10
43.5023029833
 20
98.2768763474
 11
42.4416383956
 21
98.8892374792
  0
LINE
  5
448
100
AcDbEntity
  8
0
100
AcDbLine
 62
7
  6
BYLAYER
 10
70.0542731626
 20
83.5189877072
 11
69.3471634375
 21
83.9272284617
  0
LINE
  5
449
100
AcDbEntity
  8
0
100
AcDbLine
 62
7
  6
BYLAYER
 10
63.9377740401
 20
87.0502702338
 11
63.2306643149
 21
87.4585109883
  0
LINE
  5
44A
100
AcDbEntity
  8
0
100
AcDbLine
 62
7
  6
BYLAYER
 10
57.8212749176
 20
90.5815527604
 11
57.1141651924
 21
90.9897935149
  0
LINE
  5
44B
100
AcDbEntity
  8
0
100
AcDbLine
 62
7
  6
BYLAYER
 10
51.704775795
 20
94.112835287
 11
50.9976660699
 21
94.5210760415
  0
LINE
  5
44C
100
AcDbEntity
  8
0
100
AcDbLine
 62
7
  6
BYLAYER
 10
38.092913586
 20
101.9714698115
 11
37.3858038608
 21
102.379710566
  0
LINE
  5
44D
100
AcDbEntity
  8
0
100
AcDbLine
 62
7
  6
BYLAYER
 10
31.9764144634
 20
105.5027523381
 11
31.2693047383
 21
105.9109930926
  0
LINE
  5
44E
100
AcDbEntity
  8
0
100
AcDbLine
 62
7
  6
BYLAYER
 10
25.8599153409
 20
109.0340348647
 11
25.1528056158
 21
109.4422756192
  0
LINE
  5
44F
100
AcDbEntity
  8
0
100
AcDbLine
 62
7
  6
BYLAYER
 10
19.7434162184
 20
112.5653173913
 11
19.0363064932
 21
112.9735581458
  0
LINE
  5
450
100
AcDbEntity
  8
0
100
AcDbLine
 62
7
  6
BYLAYER
 10
48.3742925224
 20
96.0503567895
 11
45.9771905541
 21
97.4342929474
  0
LINE
  5
451
100
AcDbEntity
  8
0
100
AcDbLine
 62
7
  6
BYLAYER
 10
86.9187776856
 20
74.2476632404
 11
86.8480667131
 21
74.2884873158
  0
LINE
  5
452
100
AcDbEntity
  8
0
100
AcDbLine
 62
7
  6
BYLAYER
 10
76.1707722851
 20
80.6409071143
 11
75.46366256
 21
81.0491478688
  0
LINE
  5
453
100
AcDbEntity
  8
0
100
AcDbLine
 62
7
  6
BYLAYER
 10
44.2094127085
 20
99.0933892186
 11
43.5023029833
 21
99.5016299731
  0
LINE
  5
454
100
AcDbEntity
  8
0
100
AcDbLine
 62
7
  6
BYLAYER
 10
109.3762770518
 20
62.0651526238
 11
114.1847016582
 21
59.2890701862
  0
LINE
  5
455
100
AcDbEntity
  8
0
100
AcDbLine
 62
7
  6
BYLAYER
 10
78.9992147185
 20
81.9208237235
 11
15.3593394552
 21
118.6624916303
  0
LINE
  5
456
100
AcDbEntity
  8
0
100
AcDbLine
 62
7
  6
BYLAYER
 10
21.9823384559
 20
114.9199318963
 11
22.6605273897
 21
114.5283881908
  0
LINE
  5
457
100
AcDbEntity
  8
0
100
AcDbLine
 62
7
  6
BYLAYER
 10
28.0988375758
 20
111.3886493724
 11
28.6063238512
 21
111.0956586631
  0
LINE
  5
458
100
AcDbEntity
  8
0
100
AcDbLine
 62
7
  6
BYLAYER
 10
34.2149767701
 20
107.857574647
 11
34.7228229748
 21
107.5643761371
  0
LINE
  5
459
100
AcDbEntity
  8
0
100
AcDbLine
 62
7
  6
BYLAYER
 10
40.3314758937
 20
104.326292121
 11
40.8538178478
 21
104.0247246757
  0
LINE
  5
45A
100
AcDbEntity
  8
0
100
AcDbLine
 62
7
  6
BYLAYER
 10
46.2921280339
 20
100.8849858573
 11
48.2074017108
 21
99.7792271004
  0
LINE
  5
45B
100
AcDbEntity
  8
0
100
AcDbLine
 62
7
  6
BYLAYER
 10
53.6457118969
 20
96.639488282
 11
54.1680538509
 21
96.3379208367
  0
LINE
  5
45C
100
AcDbEntity
  8
0
100
AcDbLine
 62
7
  6
BYLAYER
 10
59.7767067698
 20
93.0998368205
 11
60.2845529745
 21
92.8066383107
  0
LINE
  5
45D
100
AcDbEntity
  8
0
100
AcDbLine
 62
7
  6
BYLAYER
 10
65.8932058934
 20
89.5685542945
 11
66.4009813871
 21
89.2753966088
  0
LINE
  5
45E
100
AcDbEntity
  8
0
100
AcDbLine
 62
7
  6
BYLAYER
 10
71.8392915732
 20
86.1356577904
 11
72.5174805107
 21
85.7441140828
  0
LINE
  5
45F
100
AcDbEntity
  8
0
100
AcDbLine
 62
7
  6
BYLAYER
 10
15.5007608115
 20
118.6624919703
 11
16.373685537
 21
118.1580159124
  0
LINE
  5
460
100
AcDbEntity
  8
0
100
AcDbLine
 62
7
  6
BYLAYER
 10
65.8927721003
 20
51.114031888
 11
65.8936930249
 21
49.0470300876
  0
LINE
  5
461
100
AcDbEntity
  8
0
100
AcDbLine
 62
7
  6
BYLAYER
 10
63.2306643149
 20
87.4585109883
 11
63.2306643149
 21
86.2337573626
  0
LINE
  5
462
100
AcDbEntity
  8
0
100
AcDbLine
 62
7
  6
BYLAYER
 10
63.2306643149
 20
85.4172549455
 11
63.2306643149
 21
84.1925013198
  0
LINE
  5
463
100
AcDbEntity
  8
0
100
AcDbLine
 62
7
  6
BYLAYER
 10
63.2306643149
 20
60.3098056188
 11
63.2306643149
 21
59.0850519931
  0
LINE
  5
464
100
AcDbEntity
  8
0
100
AcDbLine
 62
7
  6
BYLAYER
 10
63.2306643149
 20
58.2685495759
 11
63.2306643149
 21
57.0437959502
  0
LINE
  5
465
100
AcDbEntity
  8
0
100
AcDbLine
 62
7
  6
BYLAYER
 10
63.3720850824
 20
87.3768635173
 11
63.3720850824
 21
86.3154061934
  0
LINE
  5
466
100
AcDbEntity
  8
0
100
AcDbLine
 62
7
  6
BYLAYER
 10
63.3720850824
 20
85.4989037763
 11
63.3720850824
 21
84.2741501506
  0
LINE
  5
467
100
AcDbEntity
  8
0
100
AcDbLine
 62
7
  6
BYLAYER
 10
63.3720850824
 20
60.2281581477
 11
63.3720850824
 21
59.1667008238
  0
LINE
  5
468
100
AcDbEntity
  8
0
100
AcDbLine
 62
7
  6
BYLAYER
 10
63.3720850824
 20
58.3501984067
 11
63.3720850824
 21
57.125444781
  0
LINE
  5
469
100
AcDbEntity
  8
0
100
AcDbLine
 62
7
  6
BYLAYER
 10
63.4428007652
 20
63.7962845814
 11
63.4428007652
 21
66.164141591
  0
LINE
  5
46A
100
AcDbEntity
  8
0
100
AcDbLine
 62
7
  6
BYLAYER
 10
63.8695519051
 20
110.7834263263
 11
63.8695519051
 21
108.6572587788
  0
LINE
  5
46B
100
AcDbEntity
  8
0
100
AcDbLine
 62
7
  6
BYLAYER
 10
63.9377740401
 20
56.6355551957
 11
63.9377740401
 21
57.8603088214
  0
LINE
  5
46C
100
AcDbEntity
  8
0
100
AcDbLine
 62
7
  6
BYLAYER
 10
63.9377740401
 20
58.6768112385
 11
63.9377740401
 21
59.9015648642
  0
LINE
  5
46D
100
AcDbEntity
  8
0
100
AcDbLine
 62
7
  6
BYLAYER
 10
63.9377740401
 20
83.7842605653
 11
63.9377740401
 21
85.009014191
  0
LINE
  5
46E
100
AcDbEntity
  8
0
100
AcDbLine
 62
7
  6
BYLAYER
 10
63.9377740401
 20
85.8255166081
 11
63.9377740401
 21
87.0502702338
  0
LINE
  5
46F
100
AcDbEntity
  8
0
100
AcDbLine
 62
7
  6
BYLAYER
 10
64.6802427842
 20
73.2211902769
 11
64.6802427842
 21
68.126215194
  0
LINE
  5
470
100
AcDbEntity
  8
0
100
AcDbLine
 62
7
  6
BYLAYER
 10
64.6802427842
 20
75.2461162713
 11
64.6802427842
 21
78.0058944412
  0
LINE
  5
471
100
AcDbEntity
  8
0
100
AcDbLine
 62
7
  6
BYLAYER
 10
64.9984386278
 20
57.2479476896
 11
64.9984386278
 21
58.0644501068
  0
LINE
  5
472
100
AcDbEntity
  8
0
100
AcDbLine
 62
7
  6
BYLAYER
 10
64.9984386278
 20
84.3966530592
 11
64.9984386278
 21
85.2131554763
  0
LINE
  5
473
100
AcDbEntity
  8
0
100
AcDbLine
 62
7
  6
BYLAYER
 10
65.3873466215
 20
72.8129529217
 11
65.3873466215
 21
68.5344593478
  0
LINE
  5
474
100
AcDbEntity
  8
0
100
AcDbLine
 62
7
  6
BYLAYER
 10
65.8936424838
 20
89.5697406125
 11
65.8936424838
 21
91.5305518156
  0
LINE
  5
475
100
AcDbEntity
  8
0
100
AcDbLine
 62
7
  6
BYLAYER
 10
66.2712396658
 20
67.7139049949
 11
66.2712396658
 21
71.7964170806
  0
LINE
  5
476
100
AcDbEntity
  8
0
100
AcDbLine
 62
7
  6
BYLAYER
 10
66.400701995
 20
50.8207844604
 11
66.4007330887
 21
48.7537444396
  0
LINE
  5
477
100
AcDbEntity
  8
0
100
AcDbLine
 62
7
  6
BYLAYER
 10
67.6854591161
 20
70.9799355715
 11
67.6854591161
 21
66.8974234859
  0
LINE
  5
478
100
AcDbEntity
  8
0
100
AcDbLine
 62
7
  6
BYLAYER
 10
66.4009813871
 20
89.276330996
 11
66.4018545677
 21
91.2376461938
  0
LINE
  5
479
100
AcDbEntity
  8
0
100
AcDbLine
 62
7
  6
BYLAYER
 10
30.2086401506
 20
77.333392812
 11
30.350060918
 21
77.4150416428
  0
LINE
  5
47A
100
AcDbEntity
  8
0
100
AcDbLine
 62
7
  6
BYLAYER
 10
31.2693047383
 20
77.5375340974
 11
31.4107255057
 21
77.6191829282
  0
LINE
  5
47B
100
AcDbEntity
  8
0
100
AcDbLine
 62
7
  6
BYLAYER
 10
31.2693047383
 20
76.7210316803
 11
31.4107255057
 21
76.802680511
  0
LINE
  5
47C
100
AcDbEntity
  8
0
100
AcDbLine
 62
7
  6
BYLAYER
 10
65.8711425702
 20
96.0329700421
 11
60.2845529745
 21
92.807569485
  0
LINE
  5
47D
100
AcDbEntity
  8
0
100
AcDbLine
 62
7
  6
BYLAYER
 10
31.9764144634
 20
76.3127909257
 11
32.1178352309
 21
76.3944397565
  0
LINE
  5
47E
100
AcDbEntity
  8
0
100
AcDbLine
 62
7
  6
BYLAYER
 10
36.2544318333
 20
78.7582894172
 11
36.9615356705
 21
79.1665335711
  0
LINE
  5
47F
100
AcDbEntity
  8
0
100
AcDbLine
 62
7
  6
BYLAYER
 10
31.2693047383
 20
75.4962780546
 11
31.4107255057
 21
75.5779268853
  0
LINE
  5
480
100
AcDbEntity
  8
0
100
AcDbLine
 62
7
  6
BYLAYER
 10
56.0535006047
 20
89.5608986039
 11
56.1949213721
 21
89.6425474346
  0
LINE
  5
481
100
AcDbEntity
  8
0
100
AcDbLine
 62
7
  6
BYLAYER
 10
57.1141651924
 20
89.7650398892
 11
57.2555859599
 21
89.84668872
  0
LINE
  5
482
100
AcDbEntity
  8
0
100
AcDbLine
 62
7
  6
BYLAYER
 10
57.1141651924
 20
88.9485374721
 11
57.2555859599
 21
89.0301863029
  0
LINE
  5
483
100
AcDbEntity
  8
0
100
AcDbLine
 62
7
  6
BYLAYER
 10
49.6895166111
 20
84.1621010407
 11
50.3966204483
 21
84.5703451945
  0
LINE
  5
484
100
AcDbEntity
  8
0
100
AcDbLine
 62
7
  6
BYLAYER
 10
57.8212749176
 20
88.5402967176
 11
57.962695685
 21
88.6219455483
  0
LINE
  5
485
100
AcDbEntity
  8
0
100
AcDbLine
 62
7
  6
BYLAYER
 10
57.1141651924
 20
87.7237838464
 11
57.2555859599
 21
87.8054326772
  0
LINE
  5
486
100
AcDbEntity
  8
0
100
AcDbLine
 62
7
  6
BYLAYER
 10
75.9467031667
 20
101.6846699879
 11
65.9980353703
 21
95.9596723935
  0
LINE
  5
487
100
AcDbEntity
  8
0
100
AcDbLine
 62
7
  6
BYLAYER
 10
16.3745264117
 20
120.120284169
 11
15.5007608115
 21
120.6242374283
  0
LINE
  5
488
100
AcDbEntity
  8
0
100
AcDbLine
 62
7
  6
BYLAYER
 10
72.5183536892
 20
87.7063636665
 11
71.8401647519
 21
88.0979073743
  0
LINE
  5
489
100
AcDbEntity
  8
0
100
AcDbLine
 62
7
  6
BYLAYER
 10
66.4018545677
 20
91.2376461938
 11
65.8940790742
 21
91.5308038796
  0
LINE
  5
48A
100
AcDbEntity
  8
0
100
AcDbLine
 62
7
  6
BYLAYER
 10
60.2854261573
 20
94.7688878969
 11
59.7775799527
 21
95.0620864068
  0
LINE
  5
48B
100
AcDbEntity
  8
0
100
AcDbLine
 62
7
  6
BYLAYER
 10
54.1689270358
 20
98.3001704241
 11
53.6465850819
 21
98.6017378695
  0
LINE
  5
48C
100
AcDbEntity
  8
0
100
AcDbLine
 62
7
  6
BYLAYER
 10
48.2082748978
 20
101.741476689
 11
46.2930012215
 21
102.8472354464
  0
LINE
  5
48D
100
AcDbEntity
  8
0
100
AcDbLine
 62
7
  6
BYLAYER
 10
40.8546910373
 20
105.9869742658
 11
40.3323490835
 21
106.2885417113
  0
LINE
  5
48E
100
AcDbEntity
  8
0
100
AcDbLine
 62
7
  6
BYLAYER
 10
34.7236961665
 20
109.5266257285
 11
34.215849962
 21
109.8198242385
  0
LINE
  5
48F
100
AcDbEntity
  8
0
100
AcDbLine
 62
7
  6
BYLAYER
 10
28.6071970451
 20
113.0579082558
 11
28.0996784469
 21
113.3509176264
  0
LINE
  5
490
100
AcDbEntity
  8
0
100
AcDbLine
 62
7
  6
BYLAYER
 10
22.6613682627
 20
116.4906564459
 11
21.9831793286
 21
116.8822001518
  0
LINE
  5
491
100
AcDbEntity
  8
0
100
AcDbLine
 62
7
  6
BYLAYER
 10
78.9992141297
 20
83.9642176724
 11
78.1270066061
 21
84.4682796493
  0
LINE
  5
492
100
AcDbEntity
  8
0
100
AcDbLine
 62
7
  6
BYLAYER
 10
79.706318546
 20
82.3290678718
 11
79.6356075735
 21
82.3700095812
  0
LINE
  5
493
100
AcDbEntity
  8
0
100
AcDbLine
 62
7
  6
BYLAYER
 10
71.8385514848
 20
47.6813051908
 11
71.8394723731
 21
45.6143104381
  0
LINE
  5
494
100
AcDbEntity
  8
0
100
AcDbLine
 62
7
  6
BYLAYER
 10
68.0390139787
 20
76.4260119208
 11
68.0390139787
 21
73.5682534609
  0
LINE
  5
495
100
AcDbEntity
  8
0
100
AcDbLine
 62
7
  6
BYLAYER
 10
68.21579141
 20
63.408516498
 11
68.21579141
 21
60.3058073129
  0
LINE
  5
496
100
AcDbEntity
  8
0
100
AcDbLine
 62
7
  6
BYLAYER
 10
68.2864988497
 20
83.3148359678
 11
68.2864988497
 21
82.4983335507
  0
LINE
  5
497
100
AcDbEntity
  8
0
100
AcDbLine
 62
7
  6
BYLAYER
 10
68.2864988497
 20
56.1661305982
 11
68.2864988497
 21
55.3496281811
  0
LINE
  5
498
100
AcDbEntity
  8
0
100
AcDbLine
 62
7
  6
BYLAYER
 10
68.3925629533
 20
71.077929715
 11
68.3925629533
 21
67.3056676398
  0
LINE
  5
499
100
AcDbEntity
  8
0
100
AcDbLine
 62
7
  6
BYLAYER
 10
68.4279196172
 20
83.2331884968
 11
68.4279196172
 21
82.5799823814
  0
LINE
  5
49A
100
AcDbEntity
  8
0
100
AcDbLine
 62
7
  6
BYLAYER
 10
68.4279196172
 20
56.0844831272
 11
68.4279196172
 21
55.4312770119
  0
LINE
  5
49B
100
AcDbEntity
  8
0
100
AcDbLine
 62
7
  6
BYLAYER
 10
68.7461178159
 20
76.0177745656
 11
68.7461178159
 21
73.9764976147
  0
LINE
  5
49C
100
AcDbEntity
  8
0
100
AcDbLine
 62
7
  6
BYLAYER
 10
68.9228952472
 20
63.0002791428
 11
68.9228952472
 21
60.7140514668
  0
LINE
  5
49D
100
AcDbEntity
  8
0
100
AcDbLine
 62
7
  6
BYLAYER
 10
69.3471634375
 20
83.9272284617
 11
69.3471634375
 21
82.702474836
  0
LINE
  5
49E
100
AcDbEntity
  8
0
100
AcDbLine
 62
7
  6
BYLAYER
 10
69.3471634375
 20
81.8859724189
 11
69.3471634375
 21
80.6612187932
  0
LINE
  5
49F
100
AcDbEntity
  8
0
100
AcDbLine
 62
7
  6
BYLAYER
 10
69.3471634375
 20
56.7785230922
 11
69.3471634375
 21
55.5537694665
  0
LINE
  5
4A0
100
AcDbEntity
  8
0
100
AcDbLine
 62
7
  6
BYLAYER
 10
69.3471634375
 20
54.7372670493
 11
69.3471634375
 21
53.5125134236
  0
LINE
  5
4A1
100
AcDbEntity
  8
0
100
AcDbLine
 62
7
  6
BYLAYER
 10
69.4885842049
 20
83.8455809907
 11
69.4885842049
 21
82.7841236668
  0
LINE
  5
4A2
100
AcDbEntity
  8
0
100
AcDbLine
 62
7
  6
BYLAYER
 10
69.4885842049
 20
81.9676212497
 11
69.4885842049
 21
80.742867624
  0
LINE
  5
4A3
100
AcDbEntity
  8
0
100
AcDbLine
 62
7
  6
BYLAYER
 10
69.4885842049
 20
56.6968756211
 11
69.4885842049
 21
55.6354182972
  0
LINE
  5
4A4
100
AcDbEntity
  8
0
100
AcDbLine
 62
7
  6
BYLAYER
 10
69.4885842049
 20
54.8189158801
 11
69.4885842049
 21
53.5941622544
  0
LINE
  5
4A5
100
AcDbEntity
  8
0
100
AcDbLine
 62
7
  6
BYLAYER
 10
69.8302040442
 20
107.342120062
 11
69.8302040442
 21
105.2159525145
  0
LINE
  5
4A6
100
AcDbEntity
  8
0
100
AcDbLine
 62
7
  6
BYLAYER
 10
70.0542731626
 20
53.1042726691
 11
70.0542731626
 21
54.3290262948
  0
LINE
  5
4A7
100
AcDbEntity
  8
0
100
AcDbLine
 62
7
  6
BYLAYER
 10
70.0542731626
 20
55.1455287119
 11
70.0542731626
 21
56.3702823376
  0
LINE
  5
4A8
100
AcDbEntity
  8
0
100
AcDbLine
 62
7
  6
BYLAYER
 10
70.0542731626
 20
80.2529780387
 11
70.0542731626
 21
81.4777316644
  0
LINE
  5
4A9
100
AcDbEntity
  8
0
100
AcDbLine
 62
7
  6
BYLAYER
 10
70.0542731626
 20
82.2942340815
 11
70.0542731626
 21
83.5189877072
  0
LINE
  5
4AA
100
AcDbEntity
  8
0
100
AcDbLine
 62
7
  6
BYLAYER
 10
70.3371205854
 20
59.0810850494
 11
70.3371205854
 21
62.1837942345
  0
LINE
  5
4AB
100
AcDbEntity
  8
0
100
AcDbLine
 62
7
  6
BYLAYER
 10
70.5138980167
 20
72.13941082
 11
70.5138980167
 21
74.99716928
  0
LINE
  5
4AC
100
AcDbEntity
  8
0
100
AcDbLine
 62
7
  6
BYLAYER
 10
71.1149377503
 20
53.716665163
 11
71.1149377503
 21
54.5331675802
  0
LINE
  5
4AD
100
AcDbEntity
  8
0
100
AcDbLine
 62
7
  6
BYLAYER
 10
71.1149377503
 20
80.8653705326
 11
71.1149377503
 21
81.6818729497
  0
LINE
  5
4AE
100
AcDbEntity
  8
0
100
AcDbLine
 62
7
  6
BYLAYER
 10
71.8220510082
 20
64.0029835733
 11
71.8220510082
 21
69.0979586562
  0
LINE
  5
4AF
100
AcDbEntity
  8
0
100
AcDbLine
 62
7
  6
BYLAYER
 10
71.8397281626
 20
86.1368472536
 11
71.8397281626
 21
88.0976553108
  0
LINE
  5
4B0
100
AcDbEntity
  8
0
100
AcDbLine
 62
7
  6
BYLAYER
 10
72.5172011139
 20
47.2894947066
 11
72.517232208
 21
45.2224619149
  0
LINE
  5
4B1
100
AcDbEntity
  8
0
100
AcDbLine
 62
7
  6
BYLAYER
 10
72.5174805107
 20
85.7450516606
 11
72.5183536892
 21
87.7063636665
  0
LINE
  5
4B2
100
AcDbEntity
  8
0
100
AcDbLine
 62
7
  6
BYLAYER
 10
30.3941592196
 20
71.6087438957
 11
28.6072389898
 21
70.5738873706
  0
LINE
  5
4B3
100
AcDbEntity
  8
0
100
AcDbLine
 62
7
  6
BYLAYER
 10
81.5553560846
 20
100.5727535187
 11
65.8940790742
 21
91.5308038796
  0
LINE
  5
4B4
100
AcDbEntity
  8
0
100
AcDbLine
 62
7
  6
BYLAYER
 10
66.4018545677
 20
91.2376461938
 11
82.0631315783
 21
100.2795958328
  0
LINE
  5
4B5
100
AcDbEntity
  8
0
100
AcDbLine
 62
7
  6
BYLAYER
 10
36.3251392731
 20
73.8021102854
 11
36.4665600405
 21
73.8837591162
  0
LINE
  5
4B6
100
AcDbEntity
  8
0
100
AcDbLine
 62
7
  6
BYLAYER
 10
37.3858038608
 20
74.0062515708
 11
37.5272246283
 21
74.0879004016
  0
LINE
  5
4B7
100
AcDbEntity
  8
0
100
AcDbLine
 62
7
  6
BYLAYER
 10
37.3858038608
 20
73.1897491537
 11
37.5272246283
 21
73.2713979844
  0
LINE
  5
4B8
100
AcDbEntity
  8
0
100
AcDbLine
 62
7
  6
BYLAYER
 10
71.9875709828
 20
92.5017315308
 11
66.4009813871
 21
89.276330996
  0
LINE
  5
4B9
100
AcDbEntity
  8
0
100
AcDbLine
 62
7
  6
BYLAYER
 10
38.092913586
 20
72.7815083991
 11
38.2343343534
 21
72.8631572299
  0
LINE
  5
4BA
100
AcDbEntity
  8
0
100
AcDbLine
 62
7
  6
BYLAYER
 10
37.3858038608
 20
71.964995528
 11
37.5272246283
 21
72.0466443587
  0
LINE
  5
4BB
100
AcDbEntity
  8
0
100
AcDbLine
 62
7
  6
BYLAYER
 10
62.1699997272
 20
86.0296160773
 11
62.3114204947
 21
86.111264908
  0
LINE
  5
4BC
100
AcDbEntity
  8
0
100
AcDbLine
 62
7
  6
BYLAYER
 10
63.2306643149
 20
86.2337573626
 11
63.3720850824
 21
86.3154061934
  0
LINE
  5
4BD
100
AcDbEntity
  8
0
100
AcDbLine
 62
7
  6
BYLAYER
 10
63.2306643149
 20
85.4172549455
 11
63.3720850824
 21
85.4989037763
  0
LINE
  5
4BE
100
AcDbEntity
  8
0
100
AcDbLine
 62
7
  6
BYLAYER
 10
82.0631315783
 20
98.1534282854
 11
72.1144665496
 21
92.4284322836
  0
LINE
  5
4BF
100
AcDbEntity
  8
0
100
AcDbLine
 62
7
  6
BYLAYER
 10
25.8706918518
 20
119.1266587954
 11
21.9601740971
 21
121.384345171
  0
LINE
  5
4C0
100
AcDbEntity
  8
0
100
AcDbLine
 62
7
  6
BYLAYER
 10
31.9871937733
 20
115.5953778882
 11
28.2470159497
 21
117.7547207283
  0
LINE
  5
4C1
100
AcDbEntity
  8
0
100
AcDbLine
 62
7
  6
BYLAYER
 10
38.103389956
 20
112.0642734505
 11
34.1928807621
 21
114.3219548836
  0
LINE
  5
4C2
100
AcDbEntity
  8
0
100
AcDbLine
 62
7
  6
BYLAYER
 10
44.2198918611
 20
108.5329925304
 11
40.3093798847
 21
110.79067557
  0
LINE
  5
4C3
100
AcDbEntity
  8
0
100
AcDbLine
 62
7
  6
BYLAYER
 10
50.1805467312
 20
105.0916878429
 11
46.4403747565
 21
107.2510273061
  0
LINE
  5
4C4
100
AcDbEntity
  8
0
100
AcDbLine
 62
7
  6
BYLAYER
 10
57.5341339383
 20
100.8461921982
 11
53.7939586183
 21
103.0055335929
  0
LINE
  5
4C5
100
AcDbEntity
  8
0
100
AcDbLine
 62
7
  6
BYLAYER
 10
63.66513158
 20
97.3065423353
 11
59.7546107574
 21
99.5642304821
  0
LINE
  5
4C6
100
AcDbEntity
  8
0
100
AcDbLine
 62
7
  6
BYLAYER
 10
69.7816334851
 20
93.7752614152
 11
65.8711098799
 21
96.0329511684
  0
LINE
  5
4C7
100
AcDbEntity
  8
0
100
AcDbLine
 62
7
  6
BYLAYER
 10
75.7277218883
 20
90.3423664834
 11
71.9875382914
 21
92.5017126565
  0
LINE
  5
4C8
100
AcDbEntity
  8
0
100
AcDbLine
 62
7
  6
BYLAYER
 10
82.0145665843
 20
86.712740399
 11
78.1040374139
 21
88.9704333652
  0
LINE
  5
4C9
100
AcDbEntity
  8
0
100
AcDbLine
 62
7
  6
BYLAYER
 10
74.4029979723
 20
80.4367553749
 11
74.4029979723
 21
79.6202529578
  0
LINE
  5
4CA
100
AcDbEntity
  8
0
100
AcDbLine
 62
7
  6
BYLAYER
 10
74.4029979723
 20
51.9816461379
 11
74.4029979723
 21
51.1651437208
  0
LINE
  5
4CB
100
AcDbEntity
  8
0
100
AcDbLine
 62
7
  6
BYLAYER
 10
74.5444187397
 20
80.3551079039
 11
74.5444187397
 21
79.7019017886
  0
LINE
  5
4CC
100
AcDbEntity
  8
0
100
AcDbLine
 62
7
  6
BYLAYER
 10
74.5444187397
 20
51.8999986669
 11
74.5444187397
 21
51.2467925516
  0
LINE
  5
4CD
100
AcDbEntity
  8
0
100
AcDbLine
 62
7
  6
BYLAYER
 10
75.46366256
 20
81.0491478688
 11
75.46366256
 21
79.8243942431
  0
LINE
  5
4CE
100
AcDbEntity
  8
0
100
AcDbLine
 62
7
  6
BYLAYER
 10
75.46366256
 20
79.007891826
 11
75.46366256
 21
77.7831382003
  0
LINE
  5
4CF
100
AcDbEntity
  8
0
100
AcDbLine
 62
7
  6
BYLAYER
 10
75.46366256
 20
52.5940386319
 11
75.46366256
 21
51.3692850062
  0
LINE
  5
4D0
100
AcDbEntity
  8
0
100
AcDbLine
 62
7
  6
BYLAYER
 10
75.46366256
 20
50.552782589
 11
75.46366256
 21
49.3280289633
  0
LINE
  5
4D1
100
AcDbEntity
  8
0
100
AcDbLine
 62
7
  6
BYLAYER
 10
75.6050833274
 20
80.9675003978
 11
75.6050833274
 21
79.9060430739
  0
LINE
  5
4D2
100
AcDbEntity
  8
0
100
AcDbLine
 62
7
  6
BYLAYER
 10
75.6050833274
 20
79.0895406568
 11
75.6050833274
 21
77.8647870311
  0
LINE
  5
4D3
100
AcDbEntity
  8
0
100
AcDbLine
 62
7
  6
BYLAYER
 10
75.6050833274
 20
52.5123911608
 11
75.6050833274
 21
51.4509338369
  0
LINE
  5
4D4
100
AcDbEntity
  8
0
100
AcDbLine
 62
7
  6
BYLAYER
 10
75.6050833274
 20
50.6344314198
 11
75.6050833274
 21
49.4096777941
  0
LINE
  5
4D5
100
AcDbEntity
  8
0
100
AcDbLine
 62
7
  6
BYLAYER
 10
75.7465099828
 20
74.7359658664
 11
75.7465099828
 21
72.286458615
  0
LINE
  5
4D6
100
AcDbEntity
  8
0
100
AcDbLine
 62
7
  6
BYLAYER
 10
75.7465099828
 20
56.2846442441
 11
75.7465099828
 21
53.8351369928
  0
LINE
  5
4D7
100
AcDbEntity
  8
0
100
AcDbLine
 62
7
  6
BYLAYER
 10
75.9467031667
 20
103.8108375354
 11
75.9467031667
 21
101.6846699879
  0
LINE
  5
4D8
100
AcDbEntity
  8
0
100
AcDbLine
 62
7
  6
BYLAYER
 10
76.1707722851
 20
48.9197882088
 11
76.1707722851
 21
50.1445418345
  0
LINE
  5
4D9
100
AcDbEntity
  8
0
100
AcDbLine
 62
7
  6
BYLAYER
 10
76.1707722851
 20
50.9610442516
 11
76.1707722851
 21
52.1857978773
  0
LINE
  5
4DA
100
AcDbEntity
  8
0
100
AcDbLine
 62
7
  6
BYLAYER
 10
76.1707722851
 20
77.3748974458
 11
76.1707722851
 21
78.5996510715
  0
LINE
  5
4DB
100
AcDbEntity
  8
0
100
AcDbLine
 62
7
  6
BYLAYER
 10
76.1707722851
 20
79.4161534886
 11
76.1707722851
 21
80.6409071143
  0
LINE
  5
4DC
100
AcDbEntity
  8
0
100
AcDbLine
 62
7
  6
BYLAYER
 10
76.45361382
 20
74.3277285112
 11
76.45361382
 21
72.6947027689
  0
LINE
  5
4DD
100
AcDbEntity
  8
0
100
AcDbLine
 62
7
  6
BYLAYER
 10
76.45361382
 20
55.8764068889
 11
76.45361382
 21
54.2433811466
  0
LINE
  5
4DE
100
AcDbEntity
  8
0
100
AcDbLine
 62
7
  6
BYLAYER
 10
77.2314368728
 20
49.5321807027
 11
77.2314368728
 21
50.3486831199
  0
LINE
  5
4DF
100
AcDbEntity
  8
0
100
AcDbLine
 62
7
  6
BYLAYER
 10
77.2314368728
 20
77.9872899397
 11
77.2314368728
 21
78.8037923568
  0
LINE
  5
4E0
100
AcDbEntity
  8
0
100
AcDbLine
 62
7
  6
BYLAYER
 10
77.3021513781
 20
52.9370073328
 11
77.3021513781
 21
55.3865145842
  0
LINE
  5
4E1
100
AcDbEntity
  8
0
100
AcDbLine
 62
7
  6
BYLAYER
 10
77.3021513781
 20
71.3883289551
 11
77.3021513781
 21
73.8378362065
  0
LINE
  5
4E2
100
AcDbEntity
  8
0
100
AcDbLine
 62
7
  6
BYLAYER
 10
77.2575385484
 20
123.4969104354
 11
77.3011522908
 21
124.4266502288
  0
LINE
  5
4E3
100
AcDbEntity
  8
0
100
AcDbLine
 62
7
  6
BYLAYER
 10
36.510652091
 20
68.0774577489
 11
34.7237381108
 21
67.0426048431
  0
LINE
  5
4E4
100
AcDbEntity
  8
0
100
AcDbLine
 62
7
  6
BYLAYER
 10
63.9377740401
 20
85.009014191
 11
64.0791948075
 21
85.0906630217
  0
LINE
  5
4E5
100
AcDbEntity
  8
0
100
AcDbLine
 62
7
  6
BYLAYER
 10
63.2306643149
 20
84.1925013198
 11
63.3720850824
 21
84.2741501506
  0
LINE
  5
4E6
100
AcDbEntity
  8
0
100
AcDbLine
 62
7
  6
BYLAYER
 10
43.7851504062
 20
72.2876190971
 11
44.4922542434
 21
72.6958632509
  0
LINE
  5
4E7
100
AcDbEntity
  8
0
100
AcDbLine
 62
7
  6
BYLAYER
 10
87.5014417634
 20
97.1398570139
 11
71.8401647519
 21
88.0979073743
  0
LINE
  5
4E8
100
AcDbEntity
  8
0
100
AcDbLine
 62
7
  6
BYLAYER
 10
72.5183536892
 20
87.7063636665
 11
88.1796307008
 21
96.7483133062
  0
LINE
  5
4E9
100
AcDbEntity
  8
0
100
AcDbLine
 62
7
  6
BYLAYER
 10
42.4416383956
 20
69.6176258251
 11
42.5830591631
 21
69.6992746559
  0
LINE
  5
4EA
100
AcDbEntity
  8
0
100
AcDbLine
 62
7
  6
BYLAYER
 10
43.5023029833
 20
69.8217671105
 11
43.6437237508
 21
69.9034159413
  0
LINE
  5
4EB
100
AcDbEntity
  8
0
100
AcDbLine
 62
7
  6
BYLAYER
 10
43.5023029833
 20
69.0052646933
 11
43.6437237508
 21
69.0869135241
  0
LINE
  5
4EC
100
AcDbEntity
  8
0
100
AcDbLine
 62
7
  6
BYLAYER
 10
78.1040701064
 20
88.9704522401
 11
72.5174805107
 21
85.7450516606
  0
LINE
  5
4ED
100
AcDbEntity
  8
0
100
AcDbLine
 62
7
  6
BYLAYER
 10
68.2864988497
 20
82.4983335507
 11
68.4279196172
 21
82.5799823814
  0
LINE
  5
4EE
100
AcDbEntity
  8
0
100
AcDbLine
 62
7
  6
BYLAYER
 10
44.2094127085
 20
68.5970239388
 11
44.3508334759
 21
68.6786727696
  0
LINE
  5
4EF
100
AcDbEntity
  8
0
100
AcDbLine
 62
7
  6
BYLAYER
 10
109.1143804236
 20
105.9604772471
 11
110.62445232
 21
106.832473849
  0
LINE
  5
4F0
100
AcDbEntity
  8
0
100
AcDbLine
 62
7
  6
BYLAYER
 10
88.1796307008
 20
94.6221457588
 11
78.2309684787
 21
88.8971513721
  0
LINE
  5
4F1
100
AcDbEntity
  8
0
100
AcDbLine
 62
7
  6
BYLAYER
 10
116.6171388582
 20
72.9408931543
 11
119.0920022885
 21
71.5120624111
  0
LINE
  5
4F2
100
AcDbEntity
  8
0
100
AcDbLine
 62
7
  6
BYLAYER
 10
78.1253933379
 20
44.0516700372
 11
78.1263142229
 21
41.984682715
  0
LINE
  5
4F3
100
AcDbEntity
  8
0
100
AcDbLine
 62
7
  6
BYLAYER
 10
78.1265700179
 20
82.5072227426
 11
78.1265700179
 21
84.4680275864
  0
LINE
  5
4F4
100
AcDbEntity
  8
0
100
AcDbLine
 62
7
  6
BYLAYER
 10
78.9992141297
 20
43.4655993819
 11
78.9992141297
 21
41.4801717168
  0
LINE
  5
4F5
100
AcDbEntity
  8
0
100
AcDbLine
 62
7
  6
BYLAYER
 10
78.9992141297
 20
82.0028251162
 11
78.9992141297
 21
83.9642109849
  0
LINE
  5
4F6
100
AcDbEntity
  8
0
100
AcDbLine
 62
7
  6
BYLAYER
 10
78.9992147185
 20
43.5471919444
 11
78.9992147185
 21
81.9208237235
  0
LINE
  5
4F7
100
AcDbEntity
  8
0
100
AcDbLine
 62
7
  6
BYLAYER
 10
79.0699251022
 20
43.4247753064
 11
79.0699251022
 21
43.5880040096
  0
LINE
  5
4F8
100
AcDbEntity
  8
0
100
AcDbLine
 62
7
  6
BYLAYER
 10
79.706318546
 20
82.3290678718
 11
79.706318546
 21
70.0835728709
  0
LINE
  5
4F9
100
AcDbEntity
  8
0
100
AcDbLine
 62
7
  6
BYLAYER
 10
79.706318546
 20
56.0397312963
 11
79.706318546
 21
43.7921950393
  0
LINE
  5
4FA
100
AcDbEntity
  8
0
100
AcDbLine
 62
7
  6
BYLAYER
 10
82.0631315783
 20
100.2795958328
 11
82.0631315783
 21
98.1534282854
  0
LINE
  5
4FB
100
AcDbEntity
  8
0
100
AcDbLine
 62
7
  6
BYLAYER
 10
80.1955752699
 20
122.758070185
 11
80.1498308528
 21
121.7241354203
  0
LINE
  5
4FC
100
AcDbEntity
  8
0
100
AcDbLine
 62
7
  6
BYLAYER
 10
42.6416406969
 20
64.537802658
 11
40.854732981
 21
63.5029533801
  0
LINE
  5
4FD
100
AcDbEntity
  8
0
100
AcDbLine
 62
7
  6
BYLAYER
 10
69.3471634375
 20
82.702474836
 11
69.4885842049
 21
82.7841236668
  0
LINE
  5
4FE
100
AcDbEntity
  8
0
100
AcDbLine
 62
7
  6
BYLAYER
 10
43.5023029833
 20
67.7805110677
 11
43.6437237508
 21
67.8621598984
  0
LINE
  5
4FF
100
AcDbEntity
  8
0
100
AcDbLine
 62
7
  6
BYLAYER
 10
109.0774130553
 20
105.1249306506
 11
111.169497922
 21
106.3327892016
  0
LINE
  5
500
100
AcDbEntity
  8
0
100
AcDbLine
 62
7
  6
BYLAYER
 10
69.3471634375
 20
81.8859724189
 11
69.4885842049
 21
81.9676212497
  0
LINE
  5
501
100
AcDbEntity
  8
0
100
AcDbLine
 62
7
  6
BYLAYER
 10
61.6750264524
 20
76.9811394781
 11
62.3821302896
 21
77.3893836319
  0
LINE
  5
502
100
AcDbEntity
  8
0
100
AcDbLine
 62
7
  6
BYLAYER
 10
70.0542731626
 20
81.4777316644
 11
70.19569393
 21
81.5593804951
  0
LINE
  5
503
100
AcDbEntity
  8
0
100
AcDbLine
 62
7
  6
BYLAYER
 10
114.1847008126
 20
106.6463031263
 11
119.0920022885
 21
109.4794434546
  0
LINE
  5
504
100
AcDbEntity
  8
0
100
AcDbLine
 62
7
  6
BYLAYER
 10
69.3471634375
 20
80.6612187932
 11
69.4885842049
 21
80.742867624
  0
LINE
  5
505
100
AcDbEntity
  8
0
100
AcDbLine
 62
7
  6
BYLAYER
 10
109.5598423414
 20
103.4731336007
 11
109.0623936322
 21
103.1859571008
  0
LINE
  5
506
100
AcDbEntity
  8
0
100
AcDbLine
 62
7
  6
BYLAYER
 10
93.7882836187
 20
93.5102292895
 11
78.1270066061
 21
84.4682796493
  0
LINE
  5
507
100
AcDbEntity
  8
0
100
AcDbLine
 62
7
  6
BYLAYER
 10
45.9771905541
 20
65.5433415391
 11
46.6842943913
 21
65.951585693
  0
LINE
  5
508
100
AcDbEntity
  8
0
100
AcDbLine
 62
7
  6
BYLAYER
 10
78.9992141297
 20
83.9642109849
 11
94.6609277305
 21
93.0064193744
  0
LINE
  5
509
100
AcDbEntity
  8
0
100
AcDbLine
 62
7
  6
BYLAYER
 10
110.878207657
 20
102.1376201014
 11
111.3756442114
 21
102.4248036187
  0
LINE
  5
50A
100
AcDbEntity
  8
0
100
AcDbLine
 62
7
  6
BYLAYER
 10
111.4981878992
 20
102.4817625131
 11
111.3756441948
 21
102.4248064292
  0
LINE
  5
50B
100
AcDbEntity
  8
0
100
AcDbLine
 62
7
  6
BYLAYER
 10
91.9459661293
 20
92.4465777146
 11
88.1796307008
 21
94.6210232956
  0
LINE
  5
50C
100
AcDbEntity
  8
0
100
AcDbLine
 62
7
  6
BYLAYER
 10
85.659124274
 20
96.076205439
 11
82.0631315783
 21
98.1523058222
  0
LINE
  5
50D
100
AcDbEntity
  8
0
100
AcDbLine
 62
7
  6
BYLAYER
 10
79.7130385953
 20
99.5091019437
 11
75.9467031667
 21
101.6835475247
  0
LINE
  5
50E
100
AcDbEntity
  8
0
100
AcDbLine
 62
7
  6
BYLAYER
 10
73.5965394727
 20
103.0403844703
 11
69.8302040442
 21
105.2148300513
  0
LINE
  5
50F
100
AcDbEntity
  8
0
100
AcDbLine
 62
7
  6
BYLAYER
 10
67.4655446009
 20
106.5800359324
 11
63.8695519051
 21
108.6561363156
  0
LINE
  5
510
100
AcDbEntity
  8
0
100
AcDbLine
 62
7
  6
BYLAYER
 10
32.0355669131
 20
127.0373269885
 11
35.8038803569
 21
124.8617394257
  0
LINE
  5
511
100
AcDbEntity
  8
0
100
AcDbLine
 62
7
  6
BYLAYER
 10
38.3224087682
 20
123.4076992642
 11
41.9203794789
 21
121.3304568994
  0
LINE
  5
512
100
AcDbEntity
  8
0
100
AcDbLine
 62
7
  6
BYLAYER
 10
44.2684755489
 20
119.97481367
 11
48.0367551704
 21
117.7992456341
  0
LINE
  5
513
100
AcDbEntity
  8
0
100
AcDbLine
 62
7
  6
BYLAYER
 10
50.3849746714
 20
116.4435311434
 11
54.1532542929
 21
114.2679631075
  0
LINE
  5
514
100
AcDbEntity
  8
0
100
AcDbLine
 62
7
  6
BYLAYER
 10
56.5159695433
 20
112.9038796814
 11
60.113906432
 21
110.8266568432
  0
LINE
  5
515
100
AcDbEntity
  8
0
100
AcDbLine
 62
7
  6
BYLAYER
 10
32.03556543
 20
127.7224480587
 11
36.3972107374
 21
125.2043079343
  0
LINE
  5
516
100
AcDbEntity
  8
0
100
AcDbLine
 62
7
  6
BYLAYER
 10
38.3224072852
 20
124.0928203344
 11
42.5137098595
 21
121.673025408
  0
LINE
  5
517
100
AcDbEntity
  8
0
100
AcDbLine
 62
7
  6
BYLAYER
 10
44.268474049
 20
120.65993475
 11
48.6300964385
 21
118.1418078569
  0
LINE
  5
518
100
AcDbEntity
  8
0
100
AcDbLine
 62
7
  6
BYLAYER
 10
50.3849731715
 20
117.1286522234
 11
54.746595561
 21
114.6105253303
  0
LINE
  5
519
100
AcDbEntity
  8
0
100
AcDbLine
 62
7
  6
BYLAYER
 10
56.5159680434
 20
113.5890007613
 11
60.7072477001
 21
111.169219066
  0
LINE
  5
51A
100
AcDbEntity
  8
0
100
AcDbLine
 62
7
  6
BYLAYER
 10
63.8695519051
 20
109.3435031852
 11
68.0608315618
 21
106.92372149
  0
LINE
  5
51B
100
AcDbEntity
  8
0
100
AcDbLine
 62
7
  6
BYLAYER
 10
69.8302040442
 20
105.9021969209
 11
74.1918264337
 21
103.3840700279
  0
LINE
  5
51C
100
AcDbEntity
  8
0
100
AcDbLine
 62
7
  6
BYLAYER
 10
75.9467031667
 20
102.3709143943
 11
80.3083255562
 21
99.8527875013
  0
LINE
  5
51D
100
AcDbEntity
  8
0
100
AcDbLine
 62
7
  6
BYLAYER
 10
82.0631315783
 20
98.8396726918
 11
86.254411235
 21
96.4198909965
  0
LINE
  5
51E
100
AcDbEntity
  8
0
100
AcDbLine
 62
7
  6
BYLAYER
 10
88.1796307008
 20
95.3083901652
 11
92.5412530903
 21
92.7902632722
  0
LINE
  5
51F
100
AcDbEntity
  8
0
100
AcDbLine
 62
7
  6
BYLAYER
 10
94.6609277305
 20
91.5664962333
 11
95.2562134114
 21
91.2228156603
  0
LINE
  5
520
100
AcDbEntity
  8
0
100
AcDbLine
 62
7
  6
BYLAYER
 10
31.1624744123
 20
129.6664391303
 11
32.0355654653
 21
129.1623711794
  0
LINE
  5
521
100
AcDbEntity
  8
0
100
AcDbLine
 62
7
  6
BYLAYER
 10
37.6442183832
 20
125.9242871627
 11
38.3224073205
 21
125.5327434551
  0
LINE
  5
522
100
AcDbEntity
  8
0
100
AcDbLine
 62
7
  6
BYLAYER
 10
43.7607175056
 20
122.3930046362
 11
44.268474049
 21
122.099857891
  0
LINE
  5
523
100
AcDbEntity
  8
0
100
AcDbLine
 62
7
  6
BYLAYER
 10
49.8771269669
 20
118.8617738743
 11
50.3849731715
 21
118.5685753644
  0
LINE
  5
524
100
AcDbEntity
  8
0
100
AcDbLine
 62
7
  6
BYLAYER
 10
55.9936260894
 20
115.3304913477
 11
56.5159680434
 21
115.0289239024
  0
LINE
  5
525
100
AcDbEntity
  8
0
100
AcDbLine
 62
7
  6
BYLAYER
 10
61.9542782285
 20
111.8891850834
 11
63.8695519051
 21
110.7834263263
  0
LINE
  5
526
100
AcDbEntity
  8
0
100
AcDbLine
 62
7
  6
BYLAYER
 10
69.3078620902
 20
107.6436875073
 11
69.8302040442
 21
107.342120062
  0
LINE
  5
527
100
AcDbEntity
  8
0
100
AcDbLine
 62
7
  6
BYLAYER
 10
75.4388569621
 20
104.1040360453
 11
75.9467031667
 21
103.8108375354
  0
LINE
  5
528
100
AcDbEntity
  8
0
100
AcDbLine
 62
7
  6
BYLAYER
 10
81.5553560846
 20
100.5727535187
 11
82.0631315783
 21
100.2795958329
  0
LINE
  5
529
100
AcDbEntity
  8
0
100
AcDbLine
 62
7
  6
BYLAYER
 10
87.5014417634
 20
97.1398570139
 11
88.1796307008
 21
96.7483133062
  0
LINE
  5
52A
100
AcDbEntity
  8
0
100
AcDbLine
 62
7
  6
BYLAYER
 10
93.7882836187
 20
93.5102292895
 11
94.6609277305
 21
93.0064193744
  0
LINE
  5
52B
100
AcDbEntity
  8
0
100
AcDbLine
 62
7
  6
BYLAYER
 10
85.0803077089
 20
68.7475171752
 11
85.0803077089
 21
63.5790568748
  0
LINE
  5
52C
100
AcDbEntity
  8
0
100
AcDbLine
 62
7
  6
BYLAYER
 10
86.9187776856
 20
74.2476632404
 11
86.9187776856
 21
69.9202004296
  0
LINE
  5
52D
100
AcDbEntity
  8
0
100
AcDbLine
 62
7
  6
BYLAYER
 10
86.9187776856
 20
64.5312844765
 11
86.9187776856
 21
60.2038216658
  0
LINE
  5
52E
100
AcDbEntity
  8
0
100
AcDbLine
 62
7
  6
BYLAYER
 10
49.9370014822
 20
65.9434757609
 11
50.0784222496
 21
66.0251245917
  0
LINE
  5
52F
100
AcDbEntity
  8
0
100
AcDbLine
 62
7
  6
BYLAYER
 10
50.9976660699
 20
66.1476170463
 11
51.1390868373
 21
66.229265877
  0
LINE
  5
530
100
AcDbEntity
  8
0
100
AcDbLine
 62
7
  6
BYLAYER
 10
74.4029979723
 20
79.6202529578
 11
74.5444187397
 21
79.7019017886
  0
LINE
  5
531
100
AcDbEntity
  8
0
100
AcDbLine
 62
7
  6
BYLAYER
 10
78.9992141297
 20
82.0024722143
 11
79.6356075735
 21
82.3698919473
  0
LINE
  5
532
100
AcDbEntity
  8
0
100
AcDbLine
 62
7
  6
BYLAYER
 10
78.9992147185
 20
81.9208237235
 11
79.706318546
 21
82.3290678718
  0
LINE
  5
533
100
AcDbEntity
  8
0
100
AcDbLine
 62
7
  6
BYLAYER
 10
75.46366256
 20
79.8243942431
 11
75.6050833274
 21
79.9060430739
  0
LINE
  5
534
100
AcDbEntity
  8
0
100
AcDbLine
 62
7
  6
BYLAYER
 10
94.6609277305
 20
90.8791293637
 11
95.2562134114
 21
91.2228156603
  0
LINE
  5
535
100
AcDbEntity
  8
0
100
AcDbLine
 62
7
  6
BYLAYER
 10
50.9976660699
 20
65.3311146291
 11
51.1390868373
 21
65.4127634599
  0
LINE
  5
536
100
AcDbEntity
  8
0
100
AcDbLine
 62
7
  6
BYLAYER
 10
75.46366256
 20
79.007891826
 11
75.6050833274
 21
79.0895406568
  0
LINE
  5
537
100
AcDbEntity
  8
0
100
AcDbLine
 62
7
  6
BYLAYER
 10
95.3004287948
 20
90.2735855613
 11
100.7780123062
 21
93.43592683
  0
LINE
  5
538
100
AcDbEntity
  8
0
100
AcDbLine
 62
7
  6
BYLAYER
 10
100.8487232787
 20
93.3949975643
 11
113.9326174446
 21
100.9486456996
  0
LINE
  5
539
100
AcDbEntity
  8
0
100
AcDbLine
 62
7
  6
BYLAYER
 10
51.704775795
 20
64.9228738746
 11
51.8461965625
 21
65.0045227054
  0
LINE
  5
53A
100
AcDbEntity
  8
0
100
AcDbLine
 62
7
  6
BYLAYER
 10
55.9827931649
 20
67.3683723661
 11
56.6898970022
 21
67.77661652
  0
LINE
  5
53B
100
AcDbEntity
  8
0
100
AcDbLine
 62
7
  6
BYLAYER
 10
50.9976660699
 20
64.1063610034
 11
51.1390868373
 21
64.1880098342
  0
LINE
  5
53C
100
AcDbEntity
  8
0
100
AcDbLine
 62
7
  6
BYLAYER
 10
76.1707722851
 20
78.5996510715
 11
76.3121930526
 21
78.6812999022
  0
LINE
  5
53D
100
AcDbEntity
  8
0
100
AcDbLine
 62
7
  6
BYLAYER
 10
68.0390139787
 20
73.5682534609
 11
68.7461178159
 21
73.9764976147
  0
LINE
  5
53E
100
AcDbEntity
  8
0
100
AcDbLine
 62
7
  6
BYLAYER
 10
75.46366256
 20
77.7831382003
 11
75.6050833274
 21
77.8647870311
  0
LINE
  5
53F
100
AcDbEntity
  8
0
100
AcDbLine
 62
7
  6
BYLAYER
 10
66.2712396658
 20
71.7964170806
 11
66.7096552713
 21
72.0495349375
  0
LINE
  5
540
100
AcDbEntity
  8
0
100
AcDbLine
 62
7
  6
BYLAYER
 10
67.6854591161
 20
70.9799355715
 11
68.1238747216
 21
71.2330534285
  0
LINE
  5
541
100
AcDbEntity
  8
0
100
AcDbLine
 62
7
  6
BYLAYER
 10
37.2088480155
 20
130.1366654711
 11
37.279558988
 21
130.0959465859
  0
LINE
  5
542
100
AcDbEntity
  8
0
100
AcDbLine
 62
7
  6
BYLAYER
 10
100.8487232806
 20
93.3950717134
 11
100.7780123054
 21
93.4358957874
  0
LINE
  5
543
100
AcDbEntity
  8
0
100
AcDbLine
 62
7
  6
BYLAYER
 10
88.1796307008
 20
96.7483133062
 11
88.1796307008
 21
94.6221457588
  0
LINE
  5
544
100
AcDbEntity
  8
0
100
AcDbLine
 62
7
  6
BYLAYER
 10
49.9947890529
 20
60.2925478248
 11
48.20788885
 21
59.2577028979
  0
LINE
  5
545
100
AcDbEntity
  8
0
100
AcDbLine
 62
7
  6
BYLAYER
 10
64.6802427842
 20
68.126215194
 11
65.3873466215
 21
68.5344593478
  0
LINE
  5
546
100
AcDbEntity
  8
0
100
AcDbLine
 62
7
  6
BYLAYER
 10
119.0920022885
 20
99.1098441101
 11
116.6171388582
 21
97.6809895715
  0
LINE
  5
547
100
AcDbEntity
  8
0
100
AcDbLine
 62
7
  6
BYLAYER
 10
60.6850728372
 20
65.388423524
 11
61.3921766744
 21
65.7966676779
  0
LINE
  5
548
100
AcDbEntity
  8
0
100
AcDbLine
 62
7
  6
BYLAYER
 10
56.0535006047
 20
62.4121932343
 11
56.1949213721
 21
62.4938420651
  0
LINE
  5
549
100
AcDbEntity
  8
0
100
AcDbLine
 62
7
  6
BYLAYER
 10
57.1141651924
 20
62.6163345197
 11
57.2555859599
 21
62.6979833504
  0
LINE
  5
54A
100
AcDbEntity
  8
0
100
AcDbLine
 62
7
  6
BYLAYER
 10
57.1141651924
 20
61.7998321025
 11
57.2555859599
 21
61.8814809333
  0
LINE
  5
54B
100
AcDbEntity
  8
0
100
AcDbLine
 62
7
  6
BYLAYER
 10
75.7465099828
 20
72.286458615
 11
76.45361382
 21
72.6947027689
  0
LINE
  5
54C
100
AcDbEntity
  8
0
100
AcDbLine
 62
7
  6
BYLAYER
 10
57.8212749176
 20
61.391591348
 11
57.962695685
 21
61.4732401788
  0
LINE
  5
54D
100
AcDbEntity
  8
0
100
AcDbLine
 62
7
  6
BYLAYER
 10
67.6854591161
 20
66.8974234859
 11
68.3925629533
 21
67.3056676398
  0
LINE
  5
54E
100
AcDbEntity
  8
0
100
AcDbLine
 62
7
  6
BYLAYER
 10
57.1141651924
 20
60.5750784768
 11
57.2555859599
 21
60.6567273076
  0
LINE
  5
54F
100
AcDbEntity
  8
0
100
AcDbLine
 62
7
  6
BYLAYER
 10
95.2562134114
 20
91.2228156603
 11
95.3004287948
 21
90.2735855613
  0
LINE
  5
550
100
AcDbEntity
  8
0
100
AcDbLine
 62
7
  6
BYLAYER
 10
94.6609277305
 20
53.1853769272
 11
94.6609277305
 21
50.5503172352
  0
LINE
  5
551
100
AcDbEntity
  8
0
100
AcDbLine
 62
7
  6
BYLAYER
 10
94.6609277305
 20
90.8791293637
 11
94.6609277305
 21
93.0064193744
  0
LINE
  5
552
100
AcDbEntity
  8
0
100
AcDbLine
 62
7
  6
BYLAYER
 10
95.3005223567
 20
54.0201965068
 11
95.2793932079
 21
53.5424460056
  0
LINE
  5
553
100
AcDbEntity
  8
0
100
AcDbLine
 62
7
  6
BYLAYER
 10
55.9554351001
 20
56.8512380325
 11
54.1685409875
 21
55.8163966327
  0
LINE
  5
554
100
AcDbEntity
  8
0
100
AcDbLine
 62
7
  6
BYLAYER
 10
79.706318546
 20
70.1652217017
 11
86.8480667131
 21
74.2884873158
  0
LINE
  5
555
100
AcDbEntity
  8
0
100
AcDbLine
 62
7
  6
BYLAYER
 10
79.706318546
 20
70.0835728709
 11
86.9187776856
 21
74.2476632404
  0
LINE
  5
556
100
AcDbEntity
  8
0
100
AcDbLine
 62
7
  6
BYLAYER
 10
62.1699997272
 20
58.8809107077
 11
62.3114204947
 21
58.9625595385
  0
LINE
  5
557
100
AcDbEntity
  8
0
100
AcDbLine
 62
7
  6
BYLAYER
 10
63.2306643149
 20
59.0850519931
 11
63.3720850824
 21
59.1667008238
  0
LINE
  5
558
100
AcDbEntity
  8
0
100
AcDbLine
 62
7
  6
BYLAYER
 10
63.2306643149
 20
58.2685495759
 11
63.3720850824
 21
58.3501984067
  0
LINE
  5
559
100
AcDbEntity
  8
0
100
AcDbLine
 62
7
  6
BYLAYER
 10
63.9377740401
 20
57.8603088214
 11
64.0791948075
 21
57.9419576522
  0
LINE
  5
55A
100
AcDbEntity
  8
0
100
AcDbLine
 62
7
  6
BYLAYER
 10
68.21579141
 20
60.3058073129
 11
68.9228952472
 21
60.7140514668
  0
LINE
  5
55B
100
AcDbEntity
  8
0
100
AcDbLine
 62
7
  6
BYLAYER
 10
63.2306643149
 20
57.0437959502
 11
63.3720850824
 21
57.125444781
  0
LINE
  5
55C
100
AcDbEntity
  8
0
100
AcDbLine
 62
7
  6
BYLAYER
 10
110.8782113178
 20
102.1376151687
 11
109.0623916172
 21
103.185955445
  0
LINE
  5
55D
100
AcDbEntity
  8
0
100
AcDbLine
 62
7
  6
BYLAYER
 10
79.0582903327
 20
120.5084395115
 11
77.2424706321
 21
121.5567797877
  0
LINE
  5
55E
100
AcDbEntity
  8
0
100
AcDbLine
 62
7
  6
BYLAYER
 10
111.3756442114
 20
102.4248036187
 11
113.9326174427
 21
100.9485715502
  0
LINE
  5
55F
100
AcDbEntity
  8
0
100
AcDbLine
 62
7
  6
BYLAYER
 10
50.2927421795
 20
137.6902394571
 11
77.7399213563
 21
121.8439579435
  0
LINE
  5
560
100
AcDbEntity
  8
0
100
AcDbLine
 62
7
  6
BYLAYER
 10
79.55572323
 20
120.7956279636
 11
109.5598423414
 21
103.4731336007
  0
LINE
  5
561
100
AcDbEntity
  8
0
100
AcDbLine
 62
7
  6
BYLAYER
 10
100.7780123062
 20
57.1826116559
 11
100.7780123062
 21
93.43592683
  0
LINE
  5
562
100
AcDbEntity
  8
0
100
AcDbLine
 62
7
  6
BYLAYER
 10
100.8487232787
 20
57.1417907399
 11
100.8487232787
 21
93.3949975643
  0
LINE
  5
563
100
AcDbEntity
  8
0
100
AcDbLine
 62
7
  6
BYLAYER
 10
86.9187776856
 20
69.9202004296
 11
85.0803077089
 21
68.7475171752
  0
LINE
  5
564
100
AcDbEntity
  8
0
100
AcDbLine
 62
7
  6
BYLAYER
 10
62.0719279715
 20
53.3199518857
 11
60.2850401085
 21
52.2851141052
  0
LINE
  5
565
100
AcDbEntity
  8
0
100
AcDbLine
 62
7
  6
BYLAYER
 10
68.2864988497
 20
55.3496281811
 11
68.4279196172
 21
55.4312770119
  0
LINE
  5
566
100
AcDbEntity
  8
0
100
AcDbLine
 62
7
  6
BYLAYER
 10
69.3471634375
 20
55.5537694665
 11
69.4885842049
 21
55.6354182972
  0
LINE
  5
567
100
AcDbEntity
  8
0
100
AcDbLine
 62
7
  6
BYLAYER
 10
69.3471634375
 20
54.7372670493
 11
69.4885842049
 21
54.8189158801
  0
LINE
  5
568
100
AcDbEntity
  8
0
100
AcDbLine
 62
7
  6
BYLAYER
 10
86.8480667131
 20
64.572108552
 11
85.0803077089
 21
63.6565053937
  0
LINE
  5
569
100
AcDbEntity
  8
0
100
AcDbLine
 62
7
  6
BYLAYER
 10
50.5448255493
 20
143.3879710331
 11
114.1847008126
 21
106.6463031263
  0
LINE
  5
56A
100
AcDbEntity
  8
0
100
AcDbLine
 62
7
  6
BYLAYER
 10
68.1880765907
 20
49.7888644889
 11
66.4011621894
 21
48.7540492579
  0
LINE
  5
56B
100
AcDbEntity
  8
0
100
AcDbLine
 62
7
  6
BYLAYER
 10
70.0542731626
 20
54.3290262948
 11
70.19569393
 21
54.4106751256
  0
LINE
  5
56C
100
AcDbEntity
  8
0
100
AcDbLine
 62
7
  6
BYLAYER
 10
69.3471634375
 20
53.5125134236
 11
69.4885842049
 21
53.5941622544
  0
LINE
  5
56D
100
AcDbEntity
  8
0
100
AcDbLine
 62
7
  6
BYLAYER
 10
75.7465099828
 20
53.8351369928
 11
76.45361382
 21
54.2433811466
  0
LINE
  5
56E
100
AcDbEntity
  8
0
100
AcDbLine
 62
7
  6
BYLAYER
 10
86.9187776856
 20
60.2038216658
 11
79.706318546
 21
56.0397312963
  0
LINE
  5
56F
100
AcDbEntity
  8
0
100
AcDbLine
 62
7
  6
BYLAYER
 10
85.0803077089
 20
63.5790568748
 11
86.9187776856
 21
64.5312844765
  0
LINE
  5
570
100
AcDbEntity
  8
0
100
AcDbLine
 62
7
  6
BYLAYER
 10
55.4521270249
 20
146.2210927143
 11
119.0920022882
 21
109.4794248074
  0
LINE
  5
571
100
AcDbEntity
  8
0
100
AcDbLine
 62
7
  6
BYLAYER
 10
112.0230409088
 20
63.5932551296
 11
112.0503951605
 21
63.0060532455
  0
LINE
  5
572
100
AcDbEntity
  8
0
100
AcDbLine
 62
7
  6
BYLAYER
 10
109.0774130553
 20
105.1249306506
 11
109.1143804236
 21
105.9604772471
  0
LINE
  5
573
100
AcDbEntity
  8
0
100
AcDbLine
 62
7
  6
BYLAYER
 10
112.0135301889
 20
104.2866877156
 11
111.9765629284
 21
103.4511435571
  0
LINE
  5
574
100
AcDbEntity
  8
0
100
AcDbLine
 62
7
  6
BYLAYER
 10
74.3045694586
 20
46.2575783442
 11
72.5176613064
 21
45.2227667326
  0
LINE
  5
575
100
AcDbEntity
  8
0
100
AcDbLine
 62
7
  6
BYLAYER
 10
74.4029979723
 20
51.1651437208
 11
74.5444187397
 21
51.2467925516
  0
LINE
  5
576
100
AcDbEntity
  8
0
100
AcDbLine
 62
7
  6
BYLAYER
 10
75.46366256
 20
51.3692850062
 11
75.6050833274
 21
51.4509338369
  0
LINE
  5
577
100
AcDbEntity
  8
0
100
AcDbLine
 62
7
  6
BYLAYER
 10
75.46366256
 20
50.552782589
 11
75.6050833274
 21
50.6344314198
  0
LINE
  5
578
100
AcDbEntity
  8
0
100
AcDbLine
 62
7
  6
BYLAYER
 10
76.1707722851
 20
50.1445418345
 11
76.3121930526
 21
50.2261906653
  0
LINE
  5
579
100
AcDbEntity
  8
0
100
AcDbLine
 62
7
  6
BYLAYER
 10
75.46366256
 20
49.3280289633
 11
75.6050833274
 21
49.4096777941
  0
LINE
  5
57A
100
AcDbEntity
  8
0
100
AcDbLine
 62
7
  6
BYLAYER
 10
114.1847016582
 20
59.2890701862
 11
113.9327091149
 21
64.6957973014
  0
LINE
  5
57B
100
AcDbEntity
  8
0
100
AcDbLine
 62
7
  6
BYLAYER
 10
116.6171388582
 20
97.6809895715
 11
116.6171388582
 21
70.0832078726
  0
LINE
  5
57C
100
AcDbEntity
  8
0
100
AcDbLine
 62
7
  6
BYLAYER
 10
113.9326174446
 20
100.9486456996
 11
114.1847008126
 21
106.6463031263
  0
LINE
  5
57D
100
AcDbEntity
  8
0
100
AcDbLine
 62
7
  6
BYLAYER
 10
116.6171388582
 20
70.0832078726
 11
119.0920022885
 21
71.5120624111
  0
LINE
  5
57E
100
AcDbEntity
  8
0
100
AcDbLine
 62
7
  6
BYLAYER
 10
95.3005223567
 20
54.0201955745
 11
100.7780123062
 21
57.1826125883
  0
LINE
  5
57F
100
AcDbEntity
  8
0
100
AcDbLine
 62
7
  6
BYLAYER
 10
113.9327091149
 20
64.6957973014
 11
100.8487232787
 21
57.1417907399
  0
LINE
  5
580
100
AcDbEntity
  8
0
100
AcDbLine
 62
7
  6
BYLAYER
 10
95.2793932079
 20
53.5424460056
 11
94.6609277305
 21
53.1853769272
  0
LINE
  5
581
100
AcDbEntity
  8
0
100
AcDbLine
 62
7
  6
BYLAYER
 10
78.9992147185
 20
43.5471794082
 11
79.0699251022
 21
43.5880038236
  0
LINE
  5
582
100
AcDbEntity
  8
0
100
AcDbLine
 62
7
  6
BYLAYER
 10
79.0699251022
 20
43.4247753064
 11
79.706318546
 21
43.7921950393
  0
LINE
  5
583
100
AcDbEntity
  8
0
100
AcDbLine
 62
7
  6
BYLAYER
 10
119.0920022885
 20
109.4794434546
 11
119.0920022885
 21
99.1098441101
  0
LINE
  5
584
100
AcDbEntity
  8
0
100
AcDbLine
 62
7
  6
BYLAYER
 10
119.0920022885
 20
71.5120624111
 11
119.0920022885
 21
62.1222846141
  0
LINE
  5
585
100
AcDbEntity
  8
0
100
AcDbLine
 62
7
  6
BYLAYER
 10
94.6609277305
 20
50.5503172352
 11
78.9992141297
 21
41.4801717168
  0
LINE
  5
586
100
AcDbEntity
  8
0
100
AcDbLine
 62
7
  6
BYLAYER
 10
119.0920022885
 20
62.1222846141
 11
114.1847016582
 21
59.2890701862
  0
SPLINE
  5
587
100
AcDbEntity
  8
0
100
AcDbSpline
 62
7
  6
BYLAYER
 70
0
 71
3
 72
16
 73
12
 74
0
 42
0.0000001
 43
0.0000001
 44
0.0000000001
 40
0.0
 40
0.0
 40
0.0
 40
0.0
 40
0.044542679
 40
0.0903850738
 40
0.1906261475
 40
0.3071814617
 40
0.4393584655
 40
0.5821496643
 40
0.7282971545
 40
0.8699158384
 40
1.0
 40
1.0
 40
1.0
 40
1.0
 10
103.4351366723
 20
109.9135040498
 30
0.0
 10
103.4816188206
 20
109.9403666922
 30
0.0
 10
103.5830997978
 20
109.9833739384
 30
0.0
 10
103.811784022
 20
110.0204774033
 30
0.0
 10
104.1320397368
 20
109.9634460727
 30
0.0
 10
104.5054155682
 20
109.7596400632
 30
0.0
 10
104.8578878653
 20
109.4404715153
 30
0.0
 10
105.162655731
 20
109.0310843956
 30
0.0
 10
105.3959036994
 20
108.5644633362
 30
0.0
 10
105.5388916954
 20
108.0788508921
 30
0.0
 10
105.5675601275
 20
107.7492961344
 30
0.0
 10
105.5606301355
 20
107.5926625549
 30
0.0
  0
SPLINE
  5
588
100
AcDbEntity
  8
0
100
AcDbSpline
 62
7
  6
BYLAYER
 70
0
 71
3
 72
16
 73
12
 74
0
 42
0.0000001
 43
0.0000001
 44
0.0000000001
 40
0.0
 40
0.0
 40
0.0
 40
0.0
 40
0.0445430326
 40
0.0903872744
 40
0.1906265576
 40
0.3071797288
 40
0.4393537145
 40
0.5821461934
 40
0.7282851289
 40
0.8699253238
 40
1.0
 40
1.0
 40
1.0
 40
1.0
 10
97.4576633601
 20
113.1098300662
 30
0.0
 10
97.4964063034
 20
113.1322019639
 30
0.0
 10
97.5809367131
 20
113.1681316691
 30
0.0
 10
97.7715371146
 20
113.1989364914
 30
0.0
 10
98.038394356
 20
113.1514701384
 30
0.0
 10
98.3495385042
 20
112.9816161676
 30
0.0
 10
98.643269415
 20
112.7156649772
 30
0.0
 10
98.8972152534
 20
112.3745068543
 30
0.0
 10
99.0916446905
 20
111.9856705946
 30
0.0
 10
99.2107426427
 20
111.5809764093
 30
0.0
 10
99.2346708744
 20
111.3063435106
 30
0.0
 10
99.2288963546
 20
111.1758262292
 30
0.0
  0
SPLINE
  5
589
100
AcDbEntity
  8
0
100
AcDbSpline
 62
7
  6
BYLAYER
 70
0
 71
3
 72
16
 73
12
 74
0
 42
0.0000001
 43
0.0000001
 44
0.0000000001
 40
0.0
 40
0.0
 40
0.0
 40
0.0
 40
0.044542679
 40
0.0903850738
 40
0.1906261475
 40
0.3071814617
 40
0.4393584655
 40
0.5821496643
 40
0.7282971544
 40
0.8699158384
 40
1.0
 40
1.0
 40
1.0
 40
1.0
 10
91.1997342542
 20
116.9774571216
 30
0.0
 10
91.2462164025
 20
117.0043197639
 30
0.0
 10
91.3476973797
 20
117.0473270102
 30
0.0
 10
91.5763816039
 20
117.084430475
 30
0.0
 10
91.8966373187
 20
117.0273991445
 30
0.0
 10
92.2700131501
 20
116.823593135
 30
0.0
 10
92.6224854471
 20
116.5044245871
 30
0.0
 10
92.9272533129
 20
116.0950374675
 30
0.0
 10
93.1605012812
 20
115.6284164081
 30
0.0
 10
93.3034892772
 20
115.142803964
 30
0.0
 10
93.3321577094
 20
114.8132492063
 30
0.0
 10
93.3252277174
 20
114.6566156268
 30
0.0
  0
SPLINE
  5
58A
100
AcDbEntity
  8
0
100
AcDbSpline
 62
7
  6
BYLAYER
 70
0
 71
3
 72
16
 73
12
 74
0
 42
0.0000001
 43
0.0000001
 44
0.0000000001
 40
0.0
 40
0.0
 40
0.0
 40
0.0
 40
0.044542679
 40
0.0903850738
 40
0.1906261475
 40
0.3071814617
 40
0.4393584655
 40
0.5821496643
 40
0.7282971545
 40
0.8699158384
 40
1.0
 40
1.0
 40
1.0
 40
1.0
 10
71.6162929983
 20
128.2837064208
 30
0.0
 10
71.6627751466
 20
128.3105690632
 30
0.0
 10
71.7642561238
 20
128.3535763094
 30
0.0
 10
71.992940348
 20
128.3906797743
 30
0.0
 10
72.3131960628
 20
128.3336484437
 30
0.0
 10
72.6865718942
 20
128.1298424342
 30
0.0
 10
73.0390441912
 20
127.8106738863
 30
0.0
 10
73.343812057
 20
127.4012867666
 30
0.0
 10
73.5770600254
 20
126.9346657072
 30
0.0
 10
73.7200480214
 20
126.4490532631
 30
0.0
 10
73.7487164534
 20
126.1194985054
 30
0.0
 10
73.7417864614
 20
125.9628649259
 30
0.0
  0
SPLINE
  5
58B
100
AcDbEntity
  8
0
100
AcDbSpline
 62
7
  6
BYLAYER
 70
0
 71
3
 72
16
 73
12
 74
0
 42
0.0000001
 43
0.0000001
 44
0.0000000001
 40
0.0
 40
0.0
 40
0.0
 40
0.0
 40
0.0445430326
 40
0.0903872744
 40
0.1906265576
 40
0.3071797288
 40
0.4393537145
 40
0.5821461934
 40
0.7282851289
 40
0.8699253238
 40
1.0
 40
1.0
 40
1.0
 40
1.0
 10
65.6377590215
 20
131.4806447983
 30
0.0
 10
65.6765019648
 20
131.5030166961
 30
0.0
 10
65.7610323745
 20
131.5389464013
 30
0.0
 10
65.951632776
 20
131.5697512235
 30
0.0
 10
66.2184900175
 20
131.5222848705
 30
0.0
 10
66.5296341657
 20
131.3524308997
 30
0.0
 10
66.8233650765
 20
131.0864797092
 30
0.0
 10
67.0773109149
 20
130.7453215863
 30
0.0
 10
67.2717403519
 20
130.3564853266
 30
0.0
 10
67.3908383041
 20
129.9517911413
 30
0.0
 10
67.4147665358
 20
129.6771582426
 30
0.0
 10
67.408992016
 20
129.5466409612
 30
0.0
  0
SPLINE
  5
58C
100
AcDbEntity
  8
0
100
AcDbSpline
 62
7
  6
BYLAYER
 70
0
 71
3
 72
16
 73
12
 74
0
 42
0.0000001
 43
0.0000001
 44
0.0000000001
 40
0.0
 40
0.0
 40
0.0
 40
0.0
 40
0.044542679
 40
0.0903850738
 40
0.1906261475
 40
0.3071814617
 40
0.4393584655
 40
0.5821496643
 40
0.7282971545
 40
0.8699158384
 40
1.0
 40
1.0
 40
1.0
 40
1.0
 10
59.3822340886
 20
135.3468838351
 30
0.0
 10
59.4287162369
 20
135.3737464775
 30
0.0
 10
59.5301972141
 20
135.4167537237
 30
0.0
 10
59.7588814384
 20
135.4538571886
 30
0.0
 10
60.0791371532
 20
135.396825858
 30
0.0
 10
60.4525129845
 20
135.1930198486
 30
0.0
 10
60.8049852815
 20
134.8738513007
 30
0.0
 10
61.1097531473
 20
134.464464181
 30
0.0
 10
61.3430011157
 20
133.9978431217
 30
0.0
 10
61.4859891117
 20
133.5122306776
 30
0.0
 10
61.5146575438
 20
133.1826759199
 30
0.0
 10
61.5077275518
 20
133.0260423404
 30
0.0
  0
SPLINE
  5
58D
100
AcDbEntity
  8
0
100
AcDbSpline
 62
7
  6
BYLAYER
 70
0
 71
3
 72
17
 73
13
 74
0
 42
0.0000001
 43
0.0000001
 44
0.0000000001
 40
0.0
 40
0.0
 40
0.0
 40
0.0
 40
0.0445297936
 40
0.0903589268
 40
0.1905710025
 40
0.2468685476
 40
0.3073818827
 40
0.4395206499
 40
0.5822705415
 40
0.7283757536
 40
0.8699534696
 40
1.0
 40
1.0
 40
1.0
 40
1.0
 10
84.8233689296
 20
120.8106749593
 30
0.0
 10
84.8763069319
 20
120.8412685243
 30
0.0
 10
84.991894157
 20
120.8902504079
 30
0.0
 10
85.2522648196
 20
120.9324980453
 30
0.0
 10
85.533853665
 20
120.8825057131
 30
0.0
 10
85.8073006188
 20
120.763157059
 30
0.0
 10
86.0996330432
 20
120.5838635418
 30
0.0
 10
86.4437645608
 20
120.2717785312
 30
0.0
 10
86.7908097884
 20
119.805743912
 30
0.0
 10
87.0564677128
 20
119.2742551333
 30
0.0
 10
87.2193113779
 20
118.7212120398
 30
0.0
 10
87.2519623092
 20
118.3458826111
 30
0.0
 10
87.2440698183
 20
118.1674943678
 30
0.0
  0
SPLINE
  5
58E
100
AcDbEntity
  8
0
100
AcDbSpline
 62
7
  6
BYLAYER
 70
0
 71
3
 72
17
 73
13
 74
0
 42
0.0000001
 43
0.0000001
 44
0.0000000001
 40
0.0
 40
0.0
 40
0.0
 40
0.0
 40
0.0445297936
 40
0.0903589268
 40
0.1905710025
 40
0.2468685476
 40
0.3073818827
 40
0.4395206499
 40
0.5822705415
 40
0.7283757536
 40
0.8699534696
 40
1.0
 40
1.0
 40
1.0
 40
1.0
 10
53.0058687641
 20
139.1801016729
 30
0.0
 10
53.0588067663
 20
139.2106952378
 30
0.0
 10
53.1743939914
 20
139.2596771214
 30
0.0
 10
53.434764654
 20
139.3019247589
 30
0.0
 10
53.7163534994
 20
139.2519324266
 30
0.0
 10
53.9898004532
 20
139.1325837725
 30
0.0
 10
54.2821328776
 20
138.9532902554
 30
0.0
 10
54.6262643952
 20
138.6412052448
 30
0.0
 10
54.9733096228
 20
138.1751706257
 30
0.0
 10
55.2389675472
 20
137.643681847
 30
0.0
 10
55.4018112124
 20
137.0906387535
 30
0.0
 10
55.4344621436
 20
136.7153093248
 30
0.0
 10
55.4265696527
 20
136.5369210815
 30
0.0
  0
SPLINE
  5
58F
100
AcDbEntity
  8
0
100
AcDbSpline
 62
7
  6
BYLAYER
 70
0
 71
3
 72
16
 73
12
 74
0
 42
0.0000001
 43
0.0000001
 44
0.0000000001
 40
0.0
 40
0.0
 40
0.0
 40
0.0
 40
0.044528436
 40
0.090287782
 40
0.1899914132
 40
0.3055122497
 40
0.4365023752
 40
0.5784481023
 40
0.7245852082
 40
0.8673927831
 40
1.0
 40
1.0
 40
1.0
 40
1.0
 10
77.7728140451
 20
125.3013218713
 30
0.0
 10
77.8244646328
 20
125.3311582204
 30
0.0
 10
77.9369142665
 20
125.3792413534
 30
0.0
 10
78.1897755993
 20
125.4225127191
 30
0.0
 10
78.5441125769
 20
125.3649753917
 30
0.0
 10
78.9597096144
 20
125.1475852027
 30
0.0
 10
79.3548520734
 20
124.802989573
 30
0.0
 10
79.7010066096
 20
124.3571852095
 30
0.0
 10
79.9724176521
 20
123.8444937086
 30
0.0
 10
80.1482073194
 20
123.3050031987
 30
0.0
 10
80.1948358743
 20
122.935705278
 30
0.0
 10
80.1955755824
 20
122.7580703465
 30
0.0
  0
SPLINE
  5
590
100
AcDbEntity
  8
0
100
AcDbSpline
 62
7
  6
BYLAYER
 70
0
 71
3
 72
17
 73
13
 74
0
 42
0.0000001
 43
0.0000001
 44
0.0000000001
 40
0.0
 40
0.0
 40
0.0
 40
0.0
 40
0.0445317674
 40
0.0903623594
 40
0.1905762441
 40
0.2468795071
 40
0.3074015915
 40
0.4395553799
 40
0.5823188175
 40
0.7284233806
 40
0.8699739824
 40
1.0
 40
1.0
 40
1.0
 40
1.0
 10
109.5927359802
 20
106.9304958884
 30
0.0
 10
109.6456851331
 20
106.9610942267
 30
0.0
 10
109.7612977282
 20
107.0100785886
 30
0.0
 10
110.0217176777
 20
107.0523181695
 30
0.0
 10
110.3033599417
 20
107.002291824
 30
0.0
 10
110.5768525117
 20
106.8828776731
 30
0.0
 10
110.8692426701
 20
106.7035009508
 30
0.0
 10
111.213423674
 20
106.3912852394
 30
0.0
 10
111.56046629
 20
105.9250930197
 30
0.0
 10
111.8260832746
 20
105.3934943156
 30
0.0
 10
111.9887456261
 20
104.8403909511
 30
0.0
 10
112.0214726789
 20
104.4650728233
 30
0.0
 10
112.0135301888
 20
104.2866877156
 30
0.0
  0
SPLINE
  5
591
100
AcDbEntity
  8
0
100
AcDbSpline
 62
7
  6
BYLAYER
 70
0
 71
3
 72
11
 73
7
 74
0
 42
0.0000001
 43
0.0000001
 44
0.0000000001
 40
0.0
 40
0.0
 40
0.0
 40
0.0
 40
0.2177839466
 40
0.4509170841
 40
0.710307871
 40
1.0
 40
1.0
 40
1.0
 40
1.0
 10
38.8775822126
 20
70.4385299779
 30
0.0
 10
38.9806576166
 20
70.498058998
 30
0.0
 10
39.1735379879
 20
70.6601797378
 30
0.0
 10
39.37886394
 20
70.9959138764
 30
0.0
 10
39.5008088715
 20
71.4096443587
 30
0.0
 10
39.5248143121
 20
71.7107665735
 30
0.0
 10
39.5248143121
 20
71.8690986227
 30
0.0
  0
SPLINE
  5
592
100
AcDbEntity
  8
0
100
AcDbSpline
 62
7
  6
BYLAYER
 70
0
 71
3
 72
11
 73
7
 74
0
 42
0.0000001
 43
0.0000001
 44
0.0000000001
 40
0.0
 40
0.0
 40
0.0
 40
0.0
 40
0.2177839466
 40
0.4509170841
 40
0.710307871
 40
1.0
 40
1.0
 40
1.0
 40
1.0
 10
32.76108309
 20
73.9698125045
 30
0.0
 10
32.8641584941
 20
74.0293415246
 30
0.0
 10
33.0570388653
 20
74.1914622644
 30
0.0
 10
33.2623648175
 20
74.527196403
 30
0.0
 10
33.384309749
 20
74.9409268853
 30
0.0
 10
33.4083151896
 20
75.2420491001
 30
0.0
 10
33.4083151896
 20
75.4003811493
 30
0.0
  0
SPLINE
  5
593
100
AcDbEntity
  8
0
100
AcDbSpline
 62
7
  6
BYLAYER
 70
0
 71
3
 72
11
 73
7
 74
0
 42
0.0000001
 43
0.0000001
 44
0.0000000001
 40
0.0
 40
0.0
 40
0.0
 40
0.0
 40
0.2177839466
 40
0.4509170841
 40
0.710307871
 40
1.0
 40
1.0
 40
1.0
 40
1.0
 10
26.6445839675
 20
77.5010950311
 30
0.0
 10
26.7476593716
 20
77.5606240512
 30
0.0
 10
26.9405397428
 20
77.722744791
 30
0.0
 10
27.145865695
 20
78.0584789296
 30
0.0
 10
27.2678106265
 20
78.4722094119
 30
0.0
 10
27.2918160671
 20
78.7733316267
 30
0.0
 10
27.2918160671
 20
78.9316636759
 30
0.0
  0
SPLINE
  5
594
100
AcDbEntity
  8
0
100
AcDbSpline
 62
7
  6
BYLAYER
 70
0
 71
3
 72
11
 73
7
 74
0
 42
0.0000001
 43
0.0000001
 44
0.0000000001
 40
0.0
 40
0.0
 40
0.0
 40
0.0
 40
0.2177839466
 40
0.4509170841
 40
0.710307871
 40
1.0
 40
1.0
 40
1.0
 40
1.0
 10
20.528084845
 20
81.0323775577
 30
0.0
 10
20.631160249
 20
81.0919065778
 30
0.0
 10
20.8240406203
 20
81.2540273176
 30
0.0
 10
21.0293665724
 20
81.5897614562
 30
0.0
 10
21.151311504
 20
82.0034919385
 30
0.0
 10
21.1753169446
 20
82.3046141533
 30
0.0
 10
21.1753169446
 20
82.4629462025
 30
0.0
  0
SPLINE
  5
595
100
AcDbEntity
  8
0
100
AcDbSpline
 62
7
  6
BYLAYER
 70
0
 71
3
 72
11
 73
7
 74
0
 42
0.0000001
 43
0.0000001
 44
0.0000000001
 40
0.0
 40
0.0
 40
0.0
 40
0.0
 40
0.2177839466
 40
0.4509170841
 40
0.710307871
 40
1.0
 40
1.0
 40
1.0
 40
1.0
 10
20.528084845
 20
108.1810829272
 30
0.0
 10
20.631160249
 20
108.2406119474
 30
0.0
 10
20.8240406203
 20
108.4027326871
 30
0.0
 10
21.0293665724
 20
108.7384668258
 30
0.0
 10
21.151311504
 20
109.1521973081
 30
0.0
 10
21.1753169446
 20
109.4533195228
 30
0.0
 10
21.1753169446
 20
109.611651572
 30
0.0
  0
SPLINE
  5
596
100
AcDbEntity
  8
0
100
AcDbSpline
 62
7
  6
BYLAYER
 70
0
 71
3
 72
11
 73
7
 74
0
 42
0.0000001
 43
0.0000001
 44
0.0000000001
 40
0.0
 40
0.0
 40
0.0
 40
0.0
 40
0.2177839466
 40
0.4509170841
 40
0.710307871
 40
1.0
 40
1.0
 40
1.0
 40
1.0
 10
26.6445839675
 20
104.6498004006
 30
0.0
 10
26.7476593716
 20
104.7093294208
 30
0.0
 10
26.9405397428
 20
104.8714501605
 30
0.0
 10
27.145865695
 20
105.2071842992
 30
0.0
 10
27.2678106265
 20
105.6209147815
 30
0.0
 10
27.2918160671
 20
105.9220369962
 30
0.0
 10
27.2918160671
 20
106.0803690454
 30
0.0
  0
SPLINE
  5
597
100
AcDbEntity
  8
0
100
AcDbSpline
 62
7
  6
BYLAYER
 70
0
 71
3
 72
11
 73
7
 74
0
 42
0.0000001
 43
0.0000001
 44
0.0000000001
 40
0.0
 40
0.0
 40
0.0
 40
0.0
 40
0.2177839466
 40
0.4509170841
 40
0.710307871
 40
1.0
 40
1.0
 40
1.0
 40
1.0
 10
32.76108309
 20
101.118517874
 30
0.0
 10
32.8641584941
 20
101.1780468942
 30
0.0
 10
33.0570388653
 20
101.3401676339
 30
0.0
 10
33.2623648175
 20
101.6759017726
 30
0.0
 10
33.384309749
 20
102.0896322549
 30
0.0
 10
33.4083151896
 20
102.3907544696
 30
0.0
 10
33.4083151896
 20
102.5490865188
 30
0.0
  0
SPLINE
  5
598
100
AcDbEntity
  8
0
100
AcDbSpline
 62
7
  6
BYLAYER
 70
0
 71
3
 72
11
 73
7
 74
0
 42
0.0000001
 43
0.0000001
 44
0.0000000001
 40
0.0
 40
0.0
 40
0.0
 40
0.0
 40
0.2177839466
 40
0.4509170841
 40
0.710307871
 40
1.0
 40
1.0
 40
1.0
 40
1.0
 10
38.8775822126
 20
97.5872353474
 30
0.0
 10
38.9806576166
 20
97.6467643676
 30
0.0
 10
39.1735379879
 20
97.8088851073
 30
0.0
 10
39.37886394
 20
98.144619246
 30
0.0
 10
39.5008088715
 20
98.5583497283
 30
0.0
 10
39.5248143121
 20
98.859471943
 30
0.0
 10
39.5248143121
 20
99.0178039922
 30
0.0
  0
SPLINE
  5
599
100
AcDbEntity
  8
0
100
AcDbSpline
 62
7
  6
BYLAYER
 70
0
 71
3
 72
11
 73
7
 74
0
 42
0.0000001
 43
0.0000001
 44
0.0000000001
 40
0.0
 40
0.0
 40
0.0
 40
0.0
 40
0.2177839466
 40
0.4509170841
 40
0.710307871
 40
1.0
 40
1.0
 40
1.0
 40
1.0
 10
44.9940813351
 20
66.2540455176
 30
0.0
 10
45.0971567391
 20
66.3135745377
 30
0.0
 10
45.2900371104
 20
66.4756952774
 30
0.0
 10
45.4953630625
 20
66.8114294161
 30
0.0
 10
45.617307994
 20
67.2251598984
 30
0.0
 10
45.6413134347
 20
67.5262821132
 30
0.0
 10
45.6413134347
 20
67.6846141624
 30
0.0
  0
SPLINE
  5
59A
100
AcDbEntity
  8
0
100
AcDbSpline
 62
7
  6
BYLAYER
 70
0
 71
3
 72
11
 73
7
 74
0
 42
0.0000001
 43
0.0000001
 44
0.0000000001
 40
0.0
 40
0.0
 40
0.0
 40
0.0
 40
0.2177839466
 40
0.4509170841
 40
0.710307871
 40
1.0
 40
1.0
 40
1.0
 40
1.0
 10
44.9940813351
 20
94.7091547545
 30
0.0
 10
45.0971567391
 20
94.7686837747
 30
0.0
 10
45.2900371104
 20
94.9308045144
 30
0.0
 10
45.4953630625
 20
95.2665386531
 30
0.0
 10
45.617307994
 20
95.6802691354
 30
0.0
 10
45.6413134347
 20
95.9813913501
 30
0.0
 10
45.6413134347
 20
96.1397233993
 30
0.0
  0
SPLINE
  5
59B
100
AcDbEntity
  8
0
100
AcDbSpline
 62
7
  6
BYLAYER
 70
0
 71
3
 72
11
 73
7
 74
0
 42
0.0000001
 43
0.0000001
 44
0.0000000001
 40
0.0
 40
0.0
 40
0.0
 40
0.0
 40
0.2177839466
 40
0.4509170841
 40
0.710307871
 40
1.0
 40
1.0
 40
1.0
 40
1.0
 10
70.8389417892
 20
51.9860478735
 30
0.0
 10
70.9420171932
 20
52.0455768937
 30
0.0
 10
71.1348975645
 20
52.2076976334
 30
0.0
 10
71.3402235166
 20
52.5434317721
 30
0.0
 10
71.4621684482
 20
52.9571622544
 30
0.0
 10
71.4861738888
 20
53.2582844692
 30
0.0
 10
71.4861738888
 20
53.4166165184
 30
0.0
  0
SPLINE
  5
59C
100
AcDbEntity
  8
0
100
AcDbSpline
 62
7
  6
BYLAYER
 70
0
 71
3
 72
11
 73
7
 74
0
 42
0.0000001
 43
0.0000001
 44
0.0000000001
 40
0.0
 40
0.0
 40
0.0
 40
0.0
 40
0.2177839466
 40
0.4509170841
 40
0.710307871
 40
1.0
 40
1.0
 40
1.0
 40
1.0
 10
64.7224426667
 20
55.5173304001
 30
0.0
 10
64.8255180707
 20
55.5768594203
 30
0.0
 10
65.018398442
 20
55.73898016
 30
0.0
 10
65.2237243941
 20
56.0747142987
 30
0.0
 10
65.3456693256
 20
56.488444781
 30
0.0
 10
65.3696747663
 20
56.7895669958
 30
0.0
 10
65.3696747663
 20
56.947899045
 30
0.0
  0
SPLINE
  5
59D
100
AcDbEntity
  8
0
100
AcDbSpline
 62
7
  6
BYLAYER
 70
0
 71
3
 72
11
 73
7
 74
0
 42
0.0000001
 43
0.0000001
 44
0.0000000001
 40
0.0
 40
0.0
 40
0.0
 40
0.0
 40
0.2177839466
 40
0.4509170841
 40
0.710307871
 40
1.0
 40
1.0
 40
1.0
 40
1.0
 10
58.6059435442
 20
59.0486129267
 30
0.0
 10
58.7090189482
 20
59.1081419469
 30
0.0
 10
58.9018993195
 20
59.2702626866
 30
0.0
 10
59.1072252716
 20
59.6059968253
 30
0.0
 10
59.2291702031
 20
60.0197273076
 30
0.0
 10
59.2531756437
 20
60.3208495224
 30
0.0
 10
59.2531756437
 20
60.4791815716
 30
0.0
  0
SPLINE
  5
59E
100
AcDbEntity
  8
0
100
AcDbSpline
 62
7
  6
BYLAYER
 70
0
 71
3
 72
11
 73
7
 74
0
 42
0.0000001
 43
0.0000001
 44
0.0000000001
 40
0.0
 40
0.0
 40
0.0
 40
0.0
 40
0.2177839466
 40
0.4509170841
 40
0.710307871
 40
1.0
 40
1.0
 40
1.0
 40
1.0
 10
52.4894444216
 20
62.5798954533
 30
0.0
 10
52.5925198257
 20
62.6394244735
 30
0.0
 10
52.7854001969
 20
62.8015452132
 30
0.0
 10
52.9907261491
 20
63.1372793519
 30
0.0
 10
53.1126710806
 20
63.5510098342
 30
0.0
 10
53.1366765212
 20
63.852132049
 30
0.0
 10
53.1366765212
 20
64.0104640982
 30
0.0
  0
SPLINE
  5
59F
100
AcDbEntity
  8
0
100
AcDbSpline
 62
7
  6
BYLAYER
 70
0
 71
3
 72
11
 73
7
 74
0
 42
0.0000001
 43
0.0000001
 44
0.0000000001
 40
0.0
 40
0.0
 40
0.0
 40
0.0
 40
0.2177839466
 40
0.4509170841
 40
0.710307871
 40
1.0
 40
1.0
 40
1.0
 40
1.0
 10
52.4894444216
 20
89.7286008229
 30
0.0
 10
52.5925198257
 20
89.7881298431
 30
0.0
 10
52.7854001969
 20
89.9502505828
 30
0.0
 10
52.9907261491
 20
90.2859847215
 30
0.0
 10
53.1126710806
 20
90.6997152038
 30
0.0
 10
53.1366765212
 20
91.0008374185
 30
0.0
 10
53.1366765212
 20
91.1591694677
 30
0.0
  0
SPLINE
  5
5A0
100
AcDbEntity
  8
0
100
AcDbSpline
 62
7
  6
BYLAYER
 70
0
 71
3
 72
11
 73
7
 74
0
 42
0.0000001
 43
0.0000001
 44
0.0000000001
 40
0.0
 40
0.0
 40
0.0
 40
0.0
 40
0.2177839466
 40
0.4509170841
 40
0.710307871
 40
1.0
 40
1.0
 40
1.0
 40
1.0
 10
58.6059435442
 20
86.1973182963
 30
0.0
 10
58.7090189482
 20
86.2568473165
 30
0.0
 10
58.9018993195
 20
86.4189680562
 30
0.0
 10
59.1072252716
 20
86.7547021949
 30
0.0
 10
59.2291702031
 20
87.1684326772
 30
0.0
 10
59.2531756437
 20
87.4695548919
 30
0.0
 10
59.2531756437
 20
87.6278869411
 30
0.0
  0
SPLINE
  5
5A1
100
AcDbEntity
  8
0
100
AcDbSpline
 62
7
  6
BYLAYER
 70
0
 71
3
 72
11
 73
7
 74
0
 42
0.0000001
 43
0.0000001
 44
0.0000000001
 40
0.0
 40
0.0
 40
0.0
 40
0.0
 40
0.2177839466
 40
0.4509170841
 40
0.710307871
 40
1.0
 40
1.0
 40
1.0
 40
1.0
 10
64.7224426667
 20
82.6660357697
 30
0.0
 10
64.8255180707
 20
82.7255647899
 30
0.0
 10
65.018398442
 20
82.8876855296
 30
0.0
 10
65.2237243941
 20
83.2234196683
 30
0.0
 10
65.3456693256
 20
83.6371501506
 30
0.0
 10
65.3696747663
 20
83.9382723653
 30
0.0
 10
65.3696747663
 20
84.0966044145
 30
0.0
  0
SPLINE
  5
5A2
100
AcDbEntity
  8
0
100
AcDbSpline
 62
7
  6
BYLAYER
 70
0
 71
3
 72
11
 73
7
 74
0
 42
0.0000001
 43
0.0000001
 44
0.0000000001
 40
0.0
 40
0.0
 40
0.0
 40
0.0
 40
0.2177839466
 40
0.4509170841
 40
0.710307871
 40
1.0
 40
1.0
 40
1.0
 40
1.0
 10
70.8389417892
 20
79.1347532431
 30
0.0
 10
70.9420171932
 20
79.1942822633
 30
0.0
 10
71.1348975645
 20
79.356403003
 30
0.0
 10
71.3402235166
 20
79.6921371417
 30
0.0
 10
71.4621684482
 20
80.105867624
 30
0.0
 10
71.4861738888
 20
80.4069898387
 30
0.0
 10
71.4861738888
 20
80.5653218879
 30
0.0
  0
SPLINE
  5
5A3
100
AcDbEntity
  8
0
100
AcDbSpline
 62
7
  6
BYLAYER
 70
0
 71
3
 72
11
 73
7
 74
0
 42
0.0000001
 43
0.0000001
 44
0.0000000001
 40
0.0
 40
0.0
 40
0.0
 40
0.0
 40
0.2177839466
 40
0.4509170841
 40
0.710307871
 40
1.0
 40
1.0
 40
1.0
 40
1.0
 10
76.9554409117
 20
47.8015634132
 30
0.0
 10
77.0585163158
 20
47.8610924334
 30
0.0
 10
77.251396687
 20
48.0232131731
 30
0.0
 10
77.4567226392
 20
48.3589473118
 30
0.0
 10
77.5786675707
 20
48.7726777941
 30
0.0
 10
77.6026730113
 20
49.0738000089
 30
0.0
 10
77.6026730113
 20
49.2321320581
 30
0.0
  0
SPLINE
  5
5A4
100
AcDbEntity
  8
0
100
AcDbSpline
 62
7
  6
BYLAYER
 70
0
 71
3
 72
11
 73
7
 74
0
 42
0.0000001
 43
0.0000001
 44
0.0000000001
 40
0.0
 40
0.0
 40
0.0
 40
0.0
 40
0.2177839466
 40
0.4509170841
 40
0.710307871
 40
1.0
 40
1.0
 40
1.0
 40
1.0
 10
76.9554409117
 20
76.2566726502
 30
0.0
 10
77.0585163158
 20
76.3162016704
 30
0.0
 10
77.251396687
 20
76.4783224101
 30
0.0
 10
77.4567226392
 20
76.8140565488
 30
0.0
 10
77.5786675707
 20
77.2277870311
 30
0.0
 10
77.6026730113
 20
77.5289092458
 30
0.0
 10
77.6026730113
 20
77.687241295
 30
0.0
  0
SPLINE
  5
5A5
100
AcDbEntity
  8
0
100
AcDbSpline
 62
7
  6
BYLAYER
 70
0
 71
3
 72
11
 73
7
 74
0
 42
0.0000001
 43
0.0000001
 44
0.0000000001
 40
0.0
 40
0.0
 40
0.0
 40
0.0
 40
0.2859812262
 40
0.5450334167
 40
0.7800153435
 40
1.0
 40
1.0
 40
1.0
 40
1.0
 10
105.5606301355
 20
107.5926625549
 30
0.0
 10
105.556468955
 20
107.498610412
 30
0.0
 10
105.5341489103
 20
107.3194192548
 30
0.0
 10
105.451151641
 20
107.0741609413
 30
0.0
 10
105.3212758394
 20
106.8747883651
 30
0.0
 10
105.2034347566
 20
106.7776045463
 30
0.0
 10
105.140733973
 20
106.741368942
 30
0.0
  0
SPLINE
  5
5A6
100
AcDbEntity
  8
0
100
AcDbSpline
 62
7
  6
BYLAYER
 70
0
 71
3
 72
11
 73
7
 74
0
 42
0.0000001
 43
0.0000001
 44
0.0000000001
 40
0.0
 40
0.0
 40
0.0
 40
0.0
 40
0.2858829168
 40
0.5450457071
 40
0.7800470594
 40
1.0
 40
1.0
 40
1.0
 40
1.0
 10
99.2288963546
 20
111.1758262292
 30
0.0
 10
99.2254299221
 20
111.0974769712
 30
0.0
 10
99.2067723781
 20
110.9481595074
 30
0.0
 10
99.1376820287
 20
110.7437494288
 30
0.0
 10
99.0294400914
 20
110.5775725563
 30
0.0
 10
98.9312167282
 20
110.4966155383
 30
0.0
 10
98.8789633926
 20
110.4664421394
 30
0.0
  0
SPLINE
  5
5A7
100
AcDbEntity
  8
0
100
AcDbSpline
 62
7
  6
BYLAYER
 70
0
 71
3
 72
11
 73
7
 74
0
 42
0.0000001
 43
0.0000001
 44
0.0000000001
 40
0.0
 40
0.0
 40
0.0
 40
0.0
 40
0.2859812262
 40
0.5450334167
 40
0.7800153435
 40
1.0
 40
1.0
 40
1.0
 40
1.0
 10
93.3252277174
 20
114.6566156268
 30
0.0
 10
93.3210665369
 20
114.5625634838
 30
0.0
 10
93.2987464922
 20
114.3833723266
 30
0.0
 10
93.2157492229
 20
114.1381140131
 30
0.0
 10
93.0858734214
 20
113.9387414369
 30
0.0
 10
92.9680323385
 20
113.8415576181
 30
0.0
 10
92.9053315549
 20
113.8053220138
 30
0.0
  0
SPLINE
  5
5A8
100
AcDbEntity
  8
0
100
AcDbSpline
 62
7
  6
BYLAYER
 70
0
 71
3
 72
11
 73
7
 74
0
 42
0.0000001
 43
0.0000001
 44
0.0000000001
 40
0.0
 40
0.0
 40
0.0
 40
0.0
 40
0.2859812262
 40
0.5450334167
 40
0.7800153435
 40
1.0
 40
1.0
 40
1.0
 40
1.0
 10
73.7417864614
 20
125.9628649259
 30
0.0
 10
73.7376252809
 20
125.8688127829
 30
0.0
 10
73.7153052362
 20
125.6896216258
 30
0.0
 10
73.632307967
 20
125.4443633123
 30
0.0
 10
73.5024321654
 20
125.2449907361
 30
0.0
 10
73.3845910826
 20
125.1478069173
 30
0.0
 10
73.321890299
 20
125.111571313
 30
0.0
  0
SPLINE
  5
5A9
100
AcDbEntity
  8
0
100
AcDbSpline
 62
7
  6
BYLAYER
 70
0
 71
3
 72
11
 73
7
 74
0
 42
0.0000001
 43
0.0000001
 44
0.0000000001
 40
0.0
 40
0.0
 40
0.0
 40
0.0
 40
0.2858829168
 40
0.5450457071
 40
0.7800470594
 40
1.0
 40
1.0
 40
1.0
 40
1.0
 10
67.408992016
 20
129.5466409612
 30
0.0
 10
67.4055255835
 20
129.4682917032
 30
0.0
 10
67.3868680395
 20
129.3189742394
 30
0.0
 10
67.3177776901
 20
129.1145641609
 30
0.0
 10
67.2095357528
 20
128.9483872884
 30
0.0
 10
67.1113123896
 20
128.8674302704
 30
0.0
 10
67.059059054
 20
128.8372568715
 30
0.0
  0
SPLINE
  5
5AA
100
AcDbEntity
  8
0
100
AcDbSpline
 62
7
  6
BYLAYER
 70
0
 71
3
 72
11
 73
7
 74
0
 42
0.0000001
 43
0.0000001
 44
0.0000000001
 40
0.0
 40
0.0
 40
0.0
 40
0.0
 40
0.2859812262
 40
0.5450334167
 40
0.7800153435
 40
1.0
 40
1.0
 40
1.0
 40
1.0
 10
61.5077275518
 20
133.0260423404
 30
0.0
 10
61.5035663713
 20
132.9319901975
 30
0.0
 10
61.4812463266
 20
132.7527990402
 30
0.0
 10
61.3982490574
 20
132.5075407267
 30
0.0
 10
61.2683732558
 20
132.3081681504
 30
0.0
 10
61.150532173
 20
132.2109843316
 30
0.0
 10
61.0878313893
 20
132.1747487273
 30
0.0
  0
SPLINE
  5
5AB
100
AcDbEntity
  8
0
100
AcDbSpline
 62
7
  6
BYLAYER
 70
0
 71
3
 72
11
 73
7
 74
0
 42
0.0000001
 43
0.0000001
 44
0.0000000001
 40
0.0
 40
0.0
 40
0.0
 40
0.0
 40
0.2859812262
 40
0.5450334167
 40
0.7800153435
 40
1.0
 40
1.0
 40
1.0
 40
1.0
 10
87.2440698183
 20
118.1674943678
 30
0.0
 10
87.239330696
 20
118.0603794272
 30
0.0
 10
87.2139106451
 20
117.8563006094
 30
0.0
 10
87.1193859773
 20
117.5769786413
 30
0.0
 10
86.97147187
 20
117.3499154295
 30
0.0
 10
86.8372639701
 20
117.2392338581
 30
0.0
 10
86.7658547443
 20
117.197965531
 30
0.0
  0
SPLINE
  5
5AC
100
AcDbEntity
  8
0
100
AcDbSpline
 62
7
  6
BYLAYER
 70
0
 71
3
 72
11
 73
7
 74
0
 42
0.0000001
 43
0.0000001
 44
0.0000000001
 40
0.0
 40
0.0
 40
0.0
 40
0.0
 40
0.2859812262
 40
0.5450334167
 40
0.7800153435
 40
1.0
 40
1.0
 40
1.0
 40
1.0
 10
55.4265696527
 20
136.5369210815
 30
0.0
 10
55.4218305305
 20
136.4298061409
 30
0.0
 10
55.3964104796
 20
136.225727323
 30
0.0
 10
55.3018858118
 20
135.9464053548
 30
0.0
 10
55.1539717045
 20
135.7193421431
 30
0.0
 10
55.0197638046
 20
135.6086605717
 30
0.0
 10
54.9483545788
 20
135.5673922446
 30
0.0
  0
SPLINE
  5
5AD
100
AcDbEntity
  8
0
100
AcDbSpline
 62
7
  6
BYLAYER
 70
0
 71
3
 72
11
 73
7
 74
0
 42
0.0000001
 43
0.0000001
 44
0.0000000001
 40
0.0
 40
0.0
 40
0.0
 40
0.0
 40
0.2828729198
 40
0.5407833082
 40
0.7769794537
 40
1.0
 40
1.0
 40
1.0
 40
1.0
 10
80.1498308528
 20
121.7241354203
 30
0.0
 10
80.1405970262
 20
121.6277251804
 30
0.0
 10
80.1083009206
 20
121.4442534356
 30
0.0
 10
80.0113045008
 20
121.194341524
 30
0.0
 10
79.8691210825
 20
120.9908522872
 30
0.0
 10
79.7444018956
 20
120.89075278
 30
0.0
 10
79.6782912138
 20
120.8525421133
 30
0.0
  0
SPLINE
  5
5AE
100
AcDbEntity
  8
0
100
AcDbSpline
 62
7
  6
BYLAYER
 70
0
 71
3
 72
9
 73
5
 74
0
 42
0.0000001
 43
0.0000001
 44
0.0000000001
 40
0.0
 40
0.0
 40
0.0
 40
0.0
 40
0.2440528634
 40
1.0
 40
1.0
 40
1.0
 40
1.0
 10
77.6026730113
 20
77.687241295
 30
0.0
 10
77.6026730113
 20
77.7147122292
 30
0.0
 10
77.6010798575
 20
77.8272706914
 30
0.0
 10
77.5933258521
 20
77.9397198542
 30
0.0
 10
77.5844366509
 20
78.0243447384
 30
0.0
  0
SPLINE
  5
5AF
100
AcDbEntity
  8
0
100
AcDbSpline
 62
7
  6
BYLAYER
 70
0
 71
3
 72
9
 73
5
 74
0
 42
0.0000001
 43
0.0000001
 44
0.0000000001
 40
0.0
 40
0.0
 40
0.0
 40
0.0
 40
0.2407331342
 40
1.0
 40
1.0
 40
1.0
 40
1.0
 10
77.5844366509
 20
78.0243447384
 30
0.0
 10
77.5775365932
 20
78.0900330452
 30
0.0
 10
77.5412687399
 20
78.362082699
 30
0.0
 10
77.4760707336
 20
78.6299879498
 30
0.0
 10
77.4137051492
 20
78.8287527962
 30
0.0
  0
SPLINE
  5
5B0
100
AcDbEntity
  8
0
100
AcDbSpline
 62
7
  6
BYLAYER
 70
0
 71
3
 72
9
 73
5
 74
0
 42
0.0000001
 43
0.0000001
 44
0.0000000001
 40
0.0
 40
0.0
 40
0.0
 40
0.0
 40
0.5000652712
 40
1.0
 40
1.0
 40
1.0
 40
1.0
 10
77.4137051492
 20
78.8287527962
 30
0.0
 10
77.3002741395
 20
79.1902678439
 30
0.0
 10
76.9877661
 20
79.8877719747
 30
0.0
 10
76.539152439
 20
80.5065927759
 30
0.0
 10
76.2824410926
 20
80.7851319388
 30
0.0
  0
SPLINE
  5
5B1
100
AcDbEntity
  8
0
100
AcDbSpline
 62
7
  6
BYLAYER
 70
0
 71
3
 72
9
 73
5
 74
0
 42
0.0000001
 43
0.0000001
 44
0.0000000001
 40
0.0
 40
0.0
 40
0.0
 40
0.0
 40
0.2590056436
 40
1.0
 40
1.0
 40
1.0
 40
1.0
 10
76.2824410926
 20
80.7851319388
 30
0.0
 10
76.2343842436
 20
80.8372749962
 30
0.0
 10
76.0443715131
 20
81.0343748333
 30
0.0
 10
75.8360092244
 20
81.2142145249
 30
0.0
 10
75.671700319
 20
81.3332061548
 30
0.0
  0
SPLINE
  5
5B2
100
AcDbEntity
  8
0
100
AcDbSpline
 62
7
  6
BYLAYER
 70
0
 71
3
 72
12
 73
8
 74
0
 42
0.0000001
 43
0.0000001
 44
0.0000000001
 40
0.0
 40
0.0
 40
0.0
 40
0.0
 40
0.2961344769
 40
0.5579079807
 40
0.7882359598
 40
0.8954337128
 40
1.0
 40
1.0
 40
1.0
 40
1.0
 10
75.671700319
 20
81.3332061548
 30
0.0
 10
75.5140327163
 20
81.4473881888
 30
0.0
 10
75.1981644213
 20
81.6389115111
 30
0.0
 10
74.7037018027
 20
81.8088397513
 30
0.0
 10
74.3023775434
 20
81.8279303169
 30
0.0
 10
74.0178935639
 20
81.7613208563
 30
0.0
 10
73.8899944023
 20
81.7036921032
 30
0.0
 10
73.8304693287
 20
81.6693146556
 30
0.0
  0
SPLINE
  5
5B3
100
AcDbEntity
  8
0
100
AcDbSpline
 62
7
  6
BYLAYER
 70
0
 71
3
 72
9
 73
5
 74
0
 42
0.0000001
 43
0.0000001
 44
0.0000000001
 40
0.0
 40
0.0
 40
0.0
 40
0.0
 40
0.2440528634
 40
1.0
 40
1.0
 40
1.0
 40
1.0
 10
77.6026730113
 20
49.2321320581
 30
0.0
 10
77.6026730113
 20
49.2596029923
 30
0.0
 10
77.6010798575
 20
49.3721614544
 30
0.0
 10
77.5933258521
 20
49.4846106172
 30
0.0
 10
77.5844366509
 20
49.5692355015
 30
0.0
  0
SPLINE
  5
5B4
100
AcDbEntity
  8
0
100
AcDbSpline
 62
7
  6
BYLAYER
 70
0
 71
3
 72
9
 73
5
 74
0
 42
0.0000001
 43
0.0000001
 44
0.0000000001
 40
0.0
 40
0.0
 40
0.0
 40
0.0
 40
0.2407331342
 40
1.0
 40
1.0
 40
1.0
 40
1.0
 10
77.5844366509
 20
49.5692355015
 30
0.0
 10
77.5775365932
 20
49.6349238083
 30
0.0
 10
77.5412687399
 20
49.9069734621
 30
0.0
 10
77.4760707336
 20
50.1748787128
 30
0.0
 10
77.4137051492
 20
50.3736435592
 30
0.0
  0
SPLINE
  5
5B5
100
AcDbEntity
  8
0
100
AcDbSpline
 62
7
  6
BYLAYER
 70
0
 71
3
 72
9
 73
5
 74
0
 42
0.0000001
 43
0.0000001
 44
0.0000000001
 40
0.0
 40
0.0
 40
0.0
 40
0.0
 40
0.5000652712
 40
1.0
 40
1.0
 40
1.0
 40
1.0
 10
77.4137051492
 20
50.3736435592
 30
0.0
 10
77.3002741395
 20
50.7351586069
 30
0.0
 10
76.9877661
 20
51.4326627378
 30
0.0
 10
76.539152439
 20
52.0514835389
 30
0.0
 10
76.2824410926
 20
52.3300227018
 30
0.0
  0
SPLINE
  5
5B6
100
AcDbEntity
  8
0
100
AcDbSpline
 62
7
  6
BYLAYER
 70
0
 71
3
 72
9
 73
5
 74
0
 42
0.0000001
 43
0.0000001
 44
0.0000000001
 40
0.0
 40
0.0
 40
0.0
 40
0.0
 40
0.2590056436
 40
1.0
 40
1.0
 40
1.0
 40
1.0
 10
76.2824410926
 20
52.3300227018
 30
0.0
 10
76.2343842436
 20
52.3821657592
 30
0.0
 10
76.0443715131
 20
52.5792655963
 30
0.0
 10
75.8360092244
 20
52.7591052879
 30
0.0
 10
75.671700319
 20
52.8780969178
 30
0.0
  0
SPLINE
  5
5B7
100
AcDbEntity
  8
0
100
AcDbSpline
 62
7
  6
BYLAYER
 70
0
 71
3
 72
12
 73
8
 74
0
 42
0.0000001
 43
0.0000001
 44
0.0000000001
 40
0.0
 40
0.0
 40
0.0
 40
0.0
 40
0.2961344769
 40
0.5579079807
 40
0.7882359598
 40
0.8954337128
 40
1.0
 40
1.0
 40
1.0
 40
1.0
 10
75.671700319
 20
52.8780969178
 30
0.0
 10
75.5140327163
 20
52.9922789519
 30
0.0
 10
75.1981644213
 20
53.1838022741
 30
0.0
 10
74.7037018027
 20
53.3537305143
 30
0.0
 10
74.3023775434
 20
53.3728210799
 30
0.0
 10
74.0178935639
 20
53.3062116194
 30
0.0
 10
73.8899944023
 20
53.2485828663
 30
0.0
 10
73.8304693287
 20
53.2142054186
 30
0.0
  0
SPLINE
  5
5B8
100
AcDbEntity
  8
0
100
AcDbSpline
 62
7
  6
BYLAYER
 70
0
 71
3
 72
9
 73
5
 74
0
 42
0.0000001
 43
0.0000001
 44
0.0000000001
 40
0.0
 40
0.0
 40
0.0
 40
0.0
 40
0.2440528634
 40
1.0
 40
1.0
 40
1.0
 40
1.0
 10
71.4861738888
 20
80.5653218879
 30
0.0
 10
71.4861738888
 20
80.5927928221
 30
0.0
 10
71.4845807349
 20
80.7053512843
 30
0.0
 10
71.4768267296
 20
80.8178004471
 30
0.0
 10
71.4679375283
 20
80.9024253313
 30
0.0
  0
SPLINE
  5
5B9
100
AcDbEntity
  8
0
100
AcDbSpline
 62
7
  6
BYLAYER
 70
0
 71
3
 72
9
 73
5
 74
0
 42
0.0000001
 43
0.0000001
 44
0.0000000001
 40
0.0
 40
0.0
 40
0.0
 40
0.0
 40
0.2407331342
 40
1.0
 40
1.0
 40
1.0
 40
1.0
 10
71.4679375283
 20
80.9024253313
 30
0.0
 10
71.4610374707
 20
80.9681136381
 30
0.0
 10
71.4247696174
 20
81.2401632919
 30
0.0
 10
71.3595716111
 20
81.5080685427
 30
0.0
 10
71.2972060267
 20
81.7068333891
 30
0.0
  0
SPLINE
  5
5BA
100
AcDbEntity
  8
0
100
AcDbSpline
 62
7
  6
BYLAYER
 70
0
 71
3
 72
9
 73
5
 74
0
 42
0.0000001
 43
0.0000001
 44
0.0000000001
 40
0.0
 40
0.0
 40
0.0
 40
0.0
 40
0.5000652712
 40
1.0
 40
1.0
 40
1.0
 40
1.0
 10
71.2972060267
 20
81.7068333891
 30
0.0
 10
71.183775017
 20
82.0683484368
 30
0.0
 10
70.8712669775
 20
82.7658525676
 30
0.0
 10
70.4226533165
 20
83.3846733688
 30
0.0
 10
70.16594197
 20
83.6632125317
 30
0.0
  0
SPLINE
  5
5BB
100
AcDbEntity
  8
0
100
AcDbSpline
 62
7
  6
BYLAYER
 70
0
 71
3
 72
9
 73
5
 74
0
 42
0.0000001
 43
0.0000001
 44
0.0000000001
 40
0.0
 40
0.0
 40
0.0
 40
0.0
 40
0.2590056436
 40
1.0
 40
1.0
 40
1.0
 40
1.0
 10
70.16594197
 20
83.6632125317
 30
0.0
 10
70.1178851211
 20
83.7153555891
 30
0.0
 10
69.9278723906
 20
83.9124554262
 30
0.0
 10
69.7195101019
 20
84.0922951178
 30
0.0
 10
69.5552011965
 20
84.2112867477
 30
0.0
  0
SPLINE
  5
5BC
100
AcDbEntity
  8
0
100
AcDbSpline
 62
7
  6
BYLAYER
 70
0
 71
3
 72
12
 73
8
 74
0
 42
0.0000001
 43
0.0000001
 44
0.0000000001
 40
0.0
 40
0.0
 40
0.0
 40
0.0
 40
0.2961344769
 40
0.5579079807
 40
0.7882359598
 40
0.8954337128
 40
1.0
 40
1.0
 40
1.0
 40
1.0
 10
69.5552011965
 20
84.2112867477
 30
0.0
 10
69.3975335938
 20
84.3254687817
 30
0.0
 10
69.0816652987
 20
84.516992104
 30
0.0
 10
68.5872026802
 20
84.6869203442
 30
0.0
 10
68.1858784209
 20
84.7060109098
 30
0.0
 10
67.9013944414
 20
84.6394014492
 30
0.0
 10
67.7734952798
 20
84.5817726961
 30
0.0
 10
67.7139702062
 20
84.5473952485
 30
0.0
  0
SPLINE
  5
5BD
100
AcDbEntity
  8
0
100
AcDbSpline
 62
7
  6
BYLAYER
 70
0
 71
3
 72
9
 73
5
 74
0
 42
0.0000001
 43
0.0000001
 44
0.0000000001
 40
0.0
 40
0.0
 40
0.0
 40
0.0
 40
0.2440528634
 40
1.0
 40
1.0
 40
1.0
 40
1.0
 10
65.3696747663
 20
84.0966044145
 30
0.0
 10
65.3696747663
 20
84.1240753487
 30
0.0
 10
65.3680816124
 20
84.2366338109
 30
0.0
 10
65.360327607
 20
84.3490829737
 30
0.0
 10
65.3514384058
 20
84.4337078579
 30
0.0
  0
SPLINE
  5
5BE
100
AcDbEntity
  8
0
100
AcDbSpline
 62
7
  6
BYLAYER
 70
0
 71
3
 72
9
 73
5
 74
0
 42
0.0000001
 43
0.0000001
 44
0.0000000001
 40
0.0
 40
0.0
 40
0.0
 40
0.0
 40
0.2407331342
 40
1.0
 40
1.0
 40
1.0
 40
1.0
 10
65.3514384058
 20
84.4337078579
 30
0.0
 10
65.3445383482
 20
84.4993961647
 30
0.0
 10
65.3082704948
 20
84.7714458185
 30
0.0
 10
65.2430724886
 20
85.0393510693
 30
0.0
 10
65.1807069042
 20
85.2381159157
 30
0.0
  0
SPLINE
  5
5BF
100
AcDbEntity
  8
0
100
AcDbSpline
 62
7
  6
BYLAYER
 70
0
 71
3
 72
9
 73
5
 74
0
 42
0.0000001
 43
0.0000001
 44
0.0000000001
 40
0.0
 40
0.0
 40
0.0
 40
0.0
 40
0.5000652712
 40
1.0
 40
1.0
 40
1.0
 40
1.0
 10
65.1807069042
 20
85.2381159157
 30
0.0
 10
65.0672758944
 20
85.5996309634
 30
0.0
 10
64.754767855
 20
86.2971350942
 30
0.0
 10
64.306154194
 20
86.9159558954
 30
0.0
 10
64.0494428475
 20
87.1944950583
 30
0.0
  0
SPLINE
  5
5C0
100
AcDbEntity
  8
0
100
AcDbSpline
 62
7
  6
BYLAYER
 70
0
 71
3
 72
9
 73
5
 74
0
 42
0.0000001
 43
0.0000001
 44
0.0000000001
 40
0.0
 40
0.0
 40
0.0
 40
0.0
 40
0.2590056436
 40
1.0
 40
1.0
 40
1.0
 40
1.0
 10
64.0494428475
 20
87.1944950583
 30
0.0
 10
64.0013859986
 20
87.2466381157
 30
0.0
 10
63.811373268
 20
87.4437379528
 30
0.0
 10
63.6030109794
 20
87.6235776444
 30
0.0
 10
63.438702074
 20
87.7425692743
 30
0.0
  0
SPLINE
  5
5C1
100
AcDbEntity
  8
0
100
AcDbSpline
 62
7
  6
BYLAYER
 70
0
 71
3
 72
12
 73
8
 74
0
 42
0.0000001
 43
0.0000001
 44
0.0000000001
 40
0.0
 40
0.0
 40
0.0
 40
0.0
 40
0.2961344769
 40
0.5579079807
 40
0.7882359598
 40
0.8954337128
 40
1.0
 40
1.0
 40
1.0
 40
1.0
 10
63.438702074
 20
87.7425692743
 30
0.0
 10
63.2810344713
 20
87.8567513083
 30
0.0
 10
62.9651661762
 20
88.0482746306
 30
0.0
 10
62.4707035577
 20
88.2182028708
 30
0.0
 10
62.0693792984
 20
88.2372934364
 30
0.0
 10
61.7848953188
 20
88.1706839758
 30
0.0
 10
61.6569961573
 20
88.1130552227
 30
0.0
 10
61.5974710837
 20
88.0786777751
 30
0.0
  0
SPLINE
  5
5C2
100
AcDbEntity
  8
0
100
AcDbSpline
 62
7
  6
BYLAYER
 70
0
 71
3
 72
9
 73
5
 74
0
 42
0.0000001
 43
0.0000001
 44
0.0000000001
 40
0.0
 40
0.0
 40
0.0
 40
0.0
 40
0.2440528634
 40
1.0
 40
1.0
 40
1.0
 40
1.0
 10
59.2531756437
 20
87.6278869411
 30
0.0
 10
59.2531756437
 20
87.6553578753
 30
0.0
 10
59.2515824899
 20
87.7679163375
 30
0.0
 10
59.2438284845
 20
87.8803655003
 30
0.0
 10
59.2349392833
 20
87.9649903845
 30
0.0
  0
SPLINE
  5
5C3
100
AcDbEntity
  8
0
100
AcDbSpline
 62
7
  6
BYLAYER
 70
0
 71
3
 72
9
 73
5
 74
0
 42
0.0000001
 43
0.0000001
 44
0.0000000001
 40
0.0
 40
0.0
 40
0.0
 40
0.0
 40
0.2407331342
 40
1.0
 40
1.0
 40
1.0
 40
1.0
 10
59.2349392833
 20
87.9649903845
 30
0.0
 10
59.2280392257
 20
88.0306786913
 30
0.0
 10
59.1917713723
 20
88.3027283451
 30
0.0
 10
59.1265733661
 20
88.5706335959
 30
0.0
 10
59.0642077816
 20
88.7693984423
 30
0.0
  0
SPLINE
  5
5C4
100
AcDbEntity
  8
0
100
AcDbSpline
 62
7
  6
BYLAYER
 70
0
 71
3
 72
9
 73
5
 74
0
 42
0.0000001
 43
0.0000001
 44
0.0000000001
 40
0.0
 40
0.0
 40
0.0
 40
0.0
 40
0.5000652712
 40
1.0
 40
1.0
 40
1.0
 40
1.0
 10
59.0642077816
 20
88.7693984423
 30
0.0
 10
58.9507767719
 20
89.13091349
 30
0.0
 10
58.6382687325
 20
89.8284176208
 30
0.0
 10
58.1896550715
 20
90.447238422
 30
0.0
 10
57.932943725
 20
90.7257775849
 30
0.0
  0
SPLINE
  5
5C5
100
AcDbEntity
  8
0
100
AcDbSpline
 62
7
  6
BYLAYER
 70
0
 71
3
 72
9
 73
5
 74
0
 42
0.0000001
 43
0.0000001
 44
0.0000000001
 40
0.0
 40
0.0
 40
0.0
 40
0.0
 40
0.2590056436
 40
1.0
 40
1.0
 40
1.0
 40
1.0
 10
57.932943725
 20
90.7257775849
 30
0.0
 10
57.8848868761
 20
90.7779206423
 30
0.0
 10
57.6948741455
 20
90.9750204794
 30
0.0
 10
57.4865118569
 20
91.154860171
 30
0.0
 10
57.3222029515
 20
91.2738518009
 30
0.0
  0
SPLINE
  5
5C6
100
AcDbEntity
  8
0
100
AcDbSpline
 62
7
  6
BYLAYER
 70
0
 71
3
 72
12
 73
8
 74
0
 42
0.0000001
 43
0.0000001
 44
0.0000000001
 40
0.0
 40
0.0
 40
0.0
 40
0.0
 40
0.2961344769
 40
0.5579079807
 40
0.7882359598
 40
0.8954337128
 40
1.0
 40
1.0
 40
1.0
 40
1.0
 10
57.3222029515
 20
91.2738518009
 30
0.0
 10
57.1645353488
 20
91.3880338349
 30
0.0
 10
56.8486670537
 20
91.5795571572
 30
0.0
 10
56.3542044352
 20
91.7494853974
 30
0.0
 10
55.9528801759
 20
91.768575963
 30
0.0
 10
55.6683961963
 20
91.7019665024
 30
0.0
 10
55.5404970347
 20
91.6443377493
 30
0.0
 10
55.4809719611
 20
91.6099603017
 30
0.0
  0
SPLINE
  5
5C7
100
AcDbEntity
  8
0
100
AcDbSpline
 62
7
  6
BYLAYER
 70
0
 71
3
 72
9
 73
5
 74
0
 42
0.0000001
 43
0.0000001
 44
0.0000000001
 40
0.0
 40
0.0
 40
0.0
 40
0.0
 40
0.2440528634
 40
1.0
 40
1.0
 40
1.0
 40
1.0
 10
53.1366765212
 20
91.1591694677
 30
0.0
 10
53.1366765212
 20
91.1866404019
 30
0.0
 10
53.1350833674
 20
91.2991988641
 30
0.0
 10
53.127329362
 20
91.4116480269
 30
0.0
 10
53.1184401608
 20
91.4962729111
 30
0.0
  0
SPLINE
  5
5C8
100
AcDbEntity
  8
0
100
AcDbSpline
 62
7
  6
BYLAYER
 70
0
 71
3
 72
9
 73
5
 74
0
 42
0.0000001
 43
0.0000001
 44
0.0000000001
 40
0.0
 40
0.0
 40
0.0
 40
0.0
 40
0.2407331342
 40
1.0
 40
1.0
 40
1.0
 40
1.0
 10
53.1184401608
 20
91.4962729111
 30
0.0
 10
53.1115401032
 20
91.5619612179
 30
0.0
 10
53.0752722498
 20
91.8340108717
 30
0.0
 10
53.0100742435
 20
92.1019161225
 30
0.0
 10
52.9477086591
 20
92.3006809689
 30
0.0
  0
SPLINE
  5
5C9
100
AcDbEntity
  8
0
100
AcDbSpline
 62
7
  6
BYLAYER
 70
0
 71
3
 72
9
 73
5
 74
0
 42
0.0000001
 43
0.0000001
 44
0.0000000001
 40
0.0
 40
0.0
 40
0.0
 40
0.0
 40
0.5000652712
 40
1.0
 40
1.0
 40
1.0
 40
1.0
 10
52.9477086591
 20
92.3006809689
 30
0.0
 10
52.8342776494
 20
92.6621960166
 30
0.0
 10
52.52176961
 20
93.3597001474
 30
0.0
 10
52.0731559489
 20
93.9785209486
 30
0.0
 10
51.8164446025
 20
94.2570601115
 30
0.0
  0
SPLINE
  5
5CA
100
AcDbEntity
  8
0
100
AcDbSpline
 62
7
  6
BYLAYER
 70
0
 71
3
 72
9
 73
5
 74
0
 42
0.0000001
 43
0.0000001
 44
0.0000000001
 40
0.0
 40
0.0
 40
0.0
 40
0.0
 40
0.2590056436
 40
1.0
 40
1.0
 40
1.0
 40
1.0
 10
51.8164446025
 20
94.2570601115
 30
0.0
 10
51.7683877535
 20
94.3092031689
 30
0.0
 10
51.578375023
 20
94.506303006
 30
0.0
 10
51.3700127343
 20
94.6861426976
 30
0.0
 10
51.205703829
 20
94.8051343275
 30
0.0
  0
SPLINE
  5
5CB
100
AcDbEntity
  8
0
100
AcDbSpline
 62
7
  6
BYLAYER
 70
0
 71
3
 72
12
 73
8
 74
0
 42
0.0000001
 43
0.0000001
 44
0.0000000001
 40
0.0
 40
0.0
 40
0.0
 40
0.0
 40
0.2961344769
 40
0.5579079807
 40
0.7882359598
 40
0.8954337128
 40
1.0
 40
1.0
 40
1.0
 40
1.0
 10
51.205703829
 20
94.8051343275
 30
0.0
 10
51.0480362262
 20
94.9193163615
 30
0.0
 10
50.7321679312
 20
95.1108396838
 30
0.0
 10
50.2377053127
 20
95.280767924
 30
0.0
 10
49.8363810533
 20
95.2998584896
 30
0.0
 10
49.5518970738
 20
95.233249029
 30
0.0
 10
49.4239979122
 20
95.1756202759
 30
0.0
 10
49.3644728386
 20
95.1412428283
 30
0.0
  0
SPLINE
  5
5CC
100
AcDbEntity
  8
0
100
AcDbSpline
 62
7
  6
BYLAYER
 70
0
 71
3
 72
9
 73
5
 74
0
 42
0.0000001
 43
0.0000001
 44
0.0000000001
 40
0.0
 40
0.0
 40
0.0
 40
0.0
 40
0.2440528634
 40
1.0
 40
1.0
 40
1.0
 40
1.0
 10
53.1366765212
 20
64.0104640982
 30
0.0
 10
53.1366765212
 20
64.0379350324
 30
0.0
 10
53.1350833674
 20
64.1504934945
 30
0.0
 10
53.127329362
 20
64.2629426573
 30
0.0
 10
53.1184401608
 20
64.3475675416
 30
0.0
  0
SPLINE
  5
5CD
100
AcDbEntity
  8
0
100
AcDbSpline
 62
7
  6
BYLAYER
 70
0
 71
3
 72
9
 73
5
 74
0
 42
0.0000001
 43
0.0000001
 44
0.0000000001
 40
0.0
 40
0.0
 40
0.0
 40
0.0
 40
0.2407331342
 40
1.0
 40
1.0
 40
1.0
 40
1.0
 10
53.1184401608
 20
64.3475675416
 30
0.0
 10
53.1115401032
 20
64.4132558484
 30
0.0
 10
53.0752722498
 20
64.6853055022
 30
0.0
 10
53.0100742435
 20
64.9532107529
 30
0.0
 10
52.9477086591
 20
65.1519755993
 30
0.0
  0
SPLINE
  5
5CE
100
AcDbEntity
  8
0
100
AcDbSpline
 62
7
  6
BYLAYER
 70
0
 71
3
 72
9
 73
5
 74
0
 42
0.0000001
 43
0.0000001
 44
0.0000000001
 40
0.0
 40
0.0
 40
0.0
 40
0.0
 40
0.5000652712
 40
1.0
 40
1.0
 40
1.0
 40
1.0
 10
52.9477086591
 20
65.1519755993
 30
0.0
 10
52.8342776494
 20
65.513490647
 30
0.0
 10
52.52176961
 20
66.2109947779
 30
0.0
 10
52.0731559489
 20
66.829815579
 30
0.0
 10
51.8164446025
 20
67.108354742
 30
0.0
  0
SPLINE
  5
5CF
100
AcDbEntity
  8
0
100
AcDbSpline
 62
7
  6
BYLAYER
 70
0
 71
3
 72
9
 73
5
 74
0
 42
0.0000001
 43
0.0000001
 44
0.0000000001
 40
0.0
 40
0.0
 40
0.0
 40
0.0
 40
0.2590056436
 40
1.0
 40
1.0
 40
1.0
 40
1.0
 10
51.8164446025
 20
67.108354742
 30
0.0
 10
51.7683877535
 20
67.1604977993
 30
0.0
 10
51.578375023
 20
67.3575976364
 30
0.0
 10
51.3700127343
 20
67.537437328
 30
0.0
 10
51.205703829
 20
67.6564289579
 30
0.0
  0
SPLINE
  5
5D0
100
AcDbEntity
  8
0
100
AcDbSpline
 62
7
  6
BYLAYER
 70
0
 71
3
 72
12
 73
8
 74
0
 42
0.0000001
 43
0.0000001
 44
0.0000000001
 40
0.0
 40
0.0
 40
0.0
 40
0.0
 40
0.2961344769
 40
0.5579079807
 40
0.7882359598
 40
0.8954337128
 40
1.0
 40
1.0
 40
1.0
 40
1.0
 10
51.205703829
 20
67.6564289579
 30
0.0
 10
51.0480362262
 20
67.770610992
 30
0.0
 10
50.7321679312
 20
67.9621343142
 30
0.0
 10
50.2377053127
 20
68.1320625544
 30
0.0
 10
49.8363810533
 20
68.15115312
 30
0.0
 10
49.5518970738
 20
68.0845436595
 30
0.0
 10
49.4239979122
 20
68.0269149064
 30
0.0
 10
49.3644728386
 20
67.9925374587
 30
0.0
  0
SPLINE
  5
5D1
100
AcDbEntity
  8
0
100
AcDbSpline
 62
7
  6
BYLAYER
 70
0
 71
3
 72
9
 73
5
 74
0
 42
0.0000001
 43
0.0000001
 44
0.0000000001
 40
0.0
 40
0.0
 40
0.0
 40
0.0
 40
0.2440528634
 40
1.0
 40
1.0
 40
1.0
 40
1.0
 10
59.2531756437
 20
60.4791815716
 30
0.0
 10
59.2531756437
 20
60.5066525058
 30
0.0
 10
59.2515824899
 20
60.6192109679
 30
0.0
 10
59.2438284845
 20
60.7316601307
 30
0.0
 10
59.2349392833
 20
60.816285015
 30
0.0
  0
SPLINE
  5
5D2
100
AcDbEntity
  8
0
100
AcDbSpline
 62
7
  6
BYLAYER
 70
0
 71
3
 72
9
 73
5
 74
0
 42
0.0000001
 43
0.0000001
 44
0.0000000001
 40
0.0
 40
0.0
 40
0.0
 40
0.0
 40
0.2407331342
 40
1.0
 40
1.0
 40
1.0
 40
1.0
 10
59.2349392833
 20
60.816285015
 30
0.0
 10
59.2280392257
 20
60.8819733218
 30
0.0
 10
59.1917713723
 20
61.1540229756
 30
0.0
 10
59.1265733661
 20
61.4219282263
 30
0.0
 10
59.0642077816
 20
61.6206930727
 30
0.0
  0
SPLINE
  5
5D3
100
AcDbEntity
  8
0
100
AcDbSpline
 62
7
  6
BYLAYER
 70
0
 71
3
 72
9
 73
5
 74
0
 42
0.0000001
 43
0.0000001
 44
0.0000000001
 40
0.0
 40
0.0
 40
0.0
 40
0.0
 40
0.5000652712
 40
1.0
 40
1.0
 40
1.0
 40
1.0
 10
59.0642077816
 20
61.6206930727
 30
0.0
 10
58.9507767719
 20
61.9822081204
 30
0.0
 10
58.6382687325
 20
62.6797122513
 30
0.0
 10
58.1896550715
 20
63.2985330524
 30
0.0
 10
57.932943725
 20
63.5770722154
 30
0.0
  0
SPLINE
  5
5D4
100
AcDbEntity
  8
0
100
AcDbSpline
 62
7
  6
BYLAYER
 70
0
 71
3
 72
9
 73
5
 74
0
 42
0.0000001
 43
0.0000001
 44
0.0000000001
 40
0.0
 40
0.0
 40
0.0
 40
0.0
 40
0.2590056436
 40
1.0
 40
1.0
 40
1.0
 40
1.0
 10
57.932943725
 20
63.5770722154
 30
0.0
 10
57.8848868761
 20
63.6292152727
 30
0.0
 10
57.6948741455
 20
63.8263151098
 30
0.0
 10
57.4865118569
 20
64.0061548014
 30
0.0
 10
57.3222029515
 20
64.1251464313
 30
0.0
  0
SPLINE
  5
5D5
100
AcDbEntity
  8
0
100
AcDbSpline
 62
7
  6
BYLAYER
 70
0
 71
3
 72
12
 73
8
 74
0
 42
0.0000001
 43
0.0000001
 44
0.0000000001
 40
0.0
 40
0.0
 40
0.0
 40
0.0
 40
0.2961344769
 40
0.5579079807
 40
0.7882359598
 40
0.8954337128
 40
1.0
 40
1.0
 40
1.0
 40
1.0
 10
57.3222029515
 20
64.1251464313
 30
0.0
 10
57.1645353488
 20
64.2393284654
 30
0.0
 10
56.8486670537
 20
64.4308517876
 30
0.0
 10
56.3542044352
 20
64.6007800278
 30
0.0
 10
55.9528801759
 20
64.6198705934
 30
0.0
 10
55.6683961963
 20
64.5532611329
 30
0.0
 10
55.5404970347
 20
64.4956323798
 30
0.0
 10
55.4809719611
 20
64.4612549321
 30
0.0
  0
SPLINE
  5
5D6
100
AcDbEntity
  8
0
100
AcDbSpline
 62
7
  6
BYLAYER
 70
0
 71
3
 72
9
 73
5
 74
0
 42
0.0000001
 43
0.0000001
 44
0.0000000001
 40
0.0
 40
0.0
 40
0.0
 40
0.0
 40
0.2440528634
 40
1.0
 40
1.0
 40
1.0
 40
1.0
 10
65.3696747663
 20
56.947899045
 30
0.0
 10
65.3696747663
 20
56.9753699792
 30
0.0
 10
65.3680816124
 20
57.0879284413
 30
0.0
 10
65.360327607
 20
57.2003776041
 30
0.0
 10
65.3514384058
 20
57.2850024884
 30
0.0
  0
SPLINE
  5
5D7
100
AcDbEntity
  8
0
100
AcDbSpline
 62
7
  6
BYLAYER
 70
0
 71
3
 72
9
 73
5
 74
0
 42
0.0000001
 43
0.0000001
 44
0.0000000001
 40
0.0
 40
0.0
 40
0.0
 40
0.0
 40
0.2407331342
 40
1.0
 40
1.0
 40
1.0
 40
1.0
 10
65.3514384058
 20
57.2850024884
 30
0.0
 10
65.3445383482
 20
57.3506907952
 30
0.0
 10
65.3082704948
 20
57.622740449
 30
0.0
 10
65.2430724886
 20
57.8906456997
 30
0.0
 10
65.1807069042
 20
58.0894105461
 30
0.0
  0
SPLINE
  5
5D8
100
AcDbEntity
  8
0
100
AcDbSpline
 62
7
  6
BYLAYER
 70
0
 71
3
 72
9
 73
5
 74
0
 42
0.0000001
 43
0.0000001
 44
0.0000000001
 40
0.0
 40
0.0
 40
0.0
 40
0.0
 40
0.5000652712
 40
1.0
 40
1.0
 40
1.0
 40
1.0
 10
65.1807069042
 20
58.0894105461
 30
0.0
 10
65.0672758944
 20
58.4509255938
 30
0.0
 10
64.754767855
 20
59.1484297247
 30
0.0
 10
64.306154194
 20
59.7672505258
 30
0.0
 10
64.0494428475
 20
60.0457896888
 30
0.0
  0
SPLINE
  5
5D9
100
AcDbEntity
  8
0
100
AcDbSpline
 62
7
  6
BYLAYER
 70
0
 71
3
 72
9
 73
5
 74
0
 42
0.0000001
 43
0.0000001
 44
0.0000000001
 40
0.0
 40
0.0
 40
0.0
 40
0.0
 40
0.2590056436
 40
1.0
 40
1.0
 40
1.0
 40
1.0
 10
64.0494428475
 20
60.0457896888
 30
0.0
 10
64.0013859986
 20
60.0979327461
 30
0.0
 10
63.811373268
 20
60.2950325832
 30
0.0
 10
63.6030109794
 20
60.4748722748
 30
0.0
 10
63.438702074
 20
60.5938639047
 30
0.0
  0
SPLINE
  5
5DA
100
AcDbEntity
  8
0
100
AcDbSpline
 62
7
  6
BYLAYER
 70
0
 71
3
 72
12
 73
8
 74
0
 42
0.0000001
 43
0.0000001
 44
0.0000000001
 40
0.0
 40
0.0
 40
0.0
 40
0.0
 40
0.2961344769
 40
0.5579079807
 40
0.7882359598
 40
0.8954337128
 40
1.0
 40
1.0
 40
1.0
 40
1.0
 10
63.438702074
 20
60.5938639047
 30
0.0
 10
63.2810344713
 20
60.7080459388
 30
0.0
 10
62.9651661762
 20
60.899569261
 30
0.0
 10
62.4707035577
 20
61.0694975012
 30
0.0
 10
62.0693792984
 20
61.0885880668
 30
0.0
 10
61.7848953188
 20
61.0219786063
 30
0.0
 10
61.6569961573
 20
60.9643498532
 30
0.0
 10
61.5974710837
 20
60.9299724055
 30
0.0
  0
SPLINE
  5
5DB
100
AcDbEntity
  8
0
100
AcDbSpline
 62
7
  6
BYLAYER
 70
0
 71
3
 72
9
 73
5
 74
0
 42
0.0000001
 43
0.0000001
 44
0.0000000001
 40
0.0
 40
0.0
 40
0.0
 40
0.0
 40
0.2440528634
 40
1.0
 40
1.0
 40
1.0
 40
1.0
 10
71.4861738888
 20
53.4166165184
 30
0.0
 10
71.4861738888
 20
53.4440874526
 30
0.0
 10
71.4845807349
 20
53.5566459147
 30
0.0
 10
71.4768267296
 20
53.6690950775
 30
0.0
 10
71.4679375283
 20
53.7537199618
 30
0.0
  0
SPLINE
  5
5DC
100
AcDbEntity
  8
0
100
AcDbSpline
 62
7
  6
BYLAYER
 70
0
 71
3
 72
9
 73
5
 74
0
 42
0.0000001
 43
0.0000001
 44
0.0000000001
 40
0.0
 40
0.0
 40
0.0
 40
0.0
 40
0.2407331342
 40
1.0
 40
1.0
 40
1.0
 40
1.0
 10
71.4679375283
 20
53.7537199618
 30
0.0
 10
71.4610374707
 20
53.8194082686
 30
0.0
 10
71.4247696174
 20
54.0914579224
 30
0.0
 10
71.3595716111
 20
54.3593631731
 30
0.0
 10
71.2972060267
 20
54.5581280195
 30
0.0
  0
SPLINE
  5
5DD
100
AcDbEntity
  8
0
100
AcDbSpline
 62
7
  6
BYLAYER
 70
0
 71
3
 72
9
 73
5
 74
0
 42
0.0000001
 43
0.0000001
 44
0.0000000001
 40
0.0
 40
0.0
 40
0.0
 40
0.0
 40
0.5000652712
 40
1.0
 40
1.0
 40
1.0
 40
1.0
 10
71.2972060267
 20
54.5581280195
 30
0.0
 10
71.183775017
 20
54.9196430672
 30
0.0
 10
70.8712669775
 20
55.6171471981
 30
0.0
 10
70.4226533165
 20
56.2359679992
 30
0.0
 10
70.16594197
 20
56.5145071622
 30
0.0
  0
SPLINE
  5
5DE
100
AcDbEntity
  8
0
100
AcDbSpline
 62
7
  6
BYLAYER
 70
0
 71
3
 72
9
 73
5
 74
0
 42
0.0000001
 43
0.0000001
 44
0.0000000001
 40
0.0
 40
0.0
 40
0.0
 40
0.0
 40
0.2590056436
 40
1.0
 40
1.0
 40
1.0
 40
1.0
 10
70.16594197
 20
56.5145071622
 30
0.0
 10
70.1178851211
 20
56.5666502195
 30
0.0
 10
69.9278723906
 20
56.7637500566
 30
0.0
 10
69.7195101019
 20
56.9435897482
 30
0.0
 10
69.5552011965
 20
57.0625813781
 30
0.0
  0
SPLINE
  5
5DF
100
AcDbEntity
  8
0
100
AcDbSpline
 62
7
  6
BYLAYER
 70
0
 71
3
 72
12
 73
8
 74
0
 42
0.0000001
 43
0.0000001
 44
0.0000000001
 40
0.0
 40
0.0
 40
0.0
 40
0.0
 40
0.2961344769
 40
0.5579079807
 40
0.7882359598
 40
0.8954337128
 40
1.0
 40
1.0
 40
1.0
 40
1.0
 10
69.5552011965
 20
57.0625813781
 30
0.0
 10
69.3975335938
 20
57.1767634122
 30
0.0
 10
69.0816652987
 20
57.3682867344
 30
0.0
 10
68.5872026802
 20
57.5382149746
 30
0.0
 10
68.1858784209
 20
57.5573055402
 30
0.0
 10
67.9013944414
 20
57.4906960797
 30
0.0
 10
67.7734952798
 20
57.4330673266
 30
0.0
 10
67.7139702062
 20
57.3986898789
 30
0.0
  0
SPLINE
  5
5E0
100
AcDbEntity
  8
0
100
AcDbSpline
 62
7
  6
BYLAYER
 70
0
 71
3
 72
9
 73
5
 74
0
 42
0.0000001
 43
0.0000001
 44
0.0000000001
 40
0.0
 40
0.0
 40
0.0
 40
0.0
 40
0.2440528634
 40
1.0
 40
1.0
 40
1.0
 40
1.0
 10
45.6413134347
 20
96.1397233993
 30
0.0
 10
45.6413134347
 20
96.1671943336
 30
0.0
 10
45.6397202808
 20
96.2797527957
 30
0.0
 10
45.6319662754
 20
96.3922019585
 30
0.0
 10
45.6230770742
 20
96.4768268428
 30
0.0
  0
SPLINE
  5
5E1
100
AcDbEntity
  8
0
100
AcDbSpline
 62
7
  6
BYLAYER
 70
0
 71
3
 72
9
 73
5
 74
0
 42
0.0000001
 43
0.0000001
 44
0.0000000001
 40
0.0
 40
0.0
 40
0.0
 40
0.0
 40
0.2407331342
 40
1.0
 40
1.0
 40
1.0
 40
1.0
 10
45.6230770742
 20
96.4768268428
 30
0.0
 10
45.6161770166
 20
96.5425151495
 30
0.0
 10
45.5799091632
 20
96.8145648034
 30
0.0
 10
45.514711157
 20
97.0824700541
 30
0.0
 10
45.4523455726
 20
97.2812349005
 30
0.0
  0
SPLINE
  5
5E2
100
AcDbEntity
  8
0
100
AcDbSpline
 62
7
  6
BYLAYER
 70
0
 71
3
 72
9
 73
5
 74
0
 42
0.0000001
 43
0.0000001
 44
0.0000000001
 40
0.0
 40
0.0
 40
0.0
 40
0.0
 40
0.5000652712
 40
1.0
 40
1.0
 40
1.0
 40
1.0
 10
45.4523455726
 20
97.2812349005
 30
0.0
 10
45.3389145628
 20
97.6427499482
 30
0.0
 10
45.0264065234
 20
98.340254079
 30
0.0
 10
44.5777928624
 20
98.9590748802
 30
0.0
 10
44.3210815159
 20
99.2376140431
 30
0.0
  0
SPLINE
  5
5E3
100
AcDbEntity
  8
0
100
AcDbSpline
 62
7
  6
BYLAYER
 70
0
 71
3
 72
9
 73
5
 74
0
 42
0.0000001
 43
0.0000001
 44
0.0000000001
 40
0.0
 40
0.0
 40
0.0
 40
0.0
 40
0.2590056436
 40
1.0
 40
1.0
 40
1.0
 40
1.0
 10
44.3210815159
 20
99.2376140431
 30
0.0
 10
44.273024667
 20
99.2897571005
 30
0.0
 10
44.0830119364
 20
99.4868569376
 30
0.0
 10
43.8746496478
 20
99.6666966292
 30
0.0
 10
43.7103407424
 20
99.7856882591
 30
0.0
  0
SPLINE
  5
5E4
100
AcDbEntity
  8
0
100
AcDbSpline
 62
7
  6
BYLAYER
 70
0
 71
3
 72
12
 73
8
 74
0
 42
0.0000001
 43
0.0000001
 44
0.0000000001
 40
0.0
 40
0.0
 40
0.0
 40
0.0
 40
0.2961344769
 40
0.5579079807
 40
0.7882359598
 40
0.8954337128
 40
1.0
 40
1.0
 40
1.0
 40
1.0
 10
43.7103407424
 20
99.7856882591
 30
0.0
 10
43.5526731397
 20
99.8998702931
 30
0.0
 10
43.2368048446
 20
100.0913936154
 30
0.0
 10
42.7423422261
 20
100.2613218556
 30
0.0
 10
42.3410179668
 20
100.2804124212
 30
0.0
 10
42.0565339872
 20
100.2138029607
 30
0.0
 10
41.9286348257
 20
100.1561742076
 30
0.0
 10
41.8691097521
 20
100.1217967599
 30
0.0
  0
SPLINE
  5
5E5
100
AcDbEntity
  8
0
100
AcDbSpline
 62
7
  6
BYLAYER
 70
0
 71
3
 72
9
 73
5
 74
0
 42
0.0000001
 43
0.0000001
 44
0.0000000001
 40
0.0
 40
0.0
 40
0.0
 40
0.0
 40
0.2440528634
 40
1.0
 40
1.0
 40
1.0
 40
1.0
 10
45.6413134347
 20
67.6846141624
 30
0.0
 10
45.6413134347
 20
67.7120850966
 30
0.0
 10
45.6397202808
 20
67.8246435587
 30
0.0
 10
45.6319662754
 20
67.9370927216
 30
0.0
 10
45.6230770742
 20
68.0217176058
 30
0.0
  0
SPLINE
  5
5E6
100
AcDbEntity
  8
0
100
AcDbSpline
 62
7
  6
BYLAYER
 70
0
 71
3
 72
9
 73
5
 74
0
 42
0.0000001
 43
0.0000001
 44
0.0000000001
 40
0.0
 40
0.0
 40
0.0
 40
0.0
 40
0.2407331342
 40
1.0
 40
1.0
 40
1.0
 40
1.0
 10
45.6230770742
 20
68.0217176058
 30
0.0
 10
45.6161770166
 20
68.0874059126
 30
0.0
 10
45.5799091632
 20
68.3594555664
 30
0.0
 10
45.514711157
 20
68.6273608171
 30
0.0
 10
45.4523455726
 20
68.8261256636
 30
0.0
  0
SPLINE
  5
5E7
100
AcDbEntity
  8
0
100
AcDbSpline
 62
7
  6
BYLAYER
 70
0
 71
3
 72
9
 73
5
 74
0
 42
0.0000001
 43
0.0000001
 44
0.0000000001
 40
0.0
 40
0.0
 40
0.0
 40
0.0
 40
0.5000652712
 40
1.0
 40
1.0
 40
1.0
 40
1.0
 10
45.4523455726
 20
68.8261256636
 30
0.0
 10
45.3389145628
 20
69.1876407112
 30
0.0
 10
45.0264065234
 20
69.8851448421
 30
0.0
 10
44.5777928624
 20
70.5039656433
 30
0.0
 10
44.3210815159
 20
70.7825048062
 30
0.0
  0
SPLINE
  5
5E8
100
AcDbEntity
  8
0
100
AcDbSpline
 62
7
  6
BYLAYER
 70
0
 71
3
 72
9
 73
5
 74
0
 42
0.0000001
 43
0.0000001
 44
0.0000000001
 40
0.0
 40
0.0
 40
0.0
 40
0.0
 40
0.2590056436
 40
1.0
 40
1.0
 40
1.0
 40
1.0
 10
44.3210815159
 20
70.7825048062
 30
0.0
 10
44.273024667
 20
70.8346478636
 30
0.0
 10
44.0830119364
 20
71.0317477006
 30
0.0
 10
43.8746496478
 20
71.2115873922
 30
0.0
 10
43.7103407424
 20
71.3305790221
 30
0.0
  0
SPLINE
  5
5E9
100
AcDbEntity
  8
0
100
AcDbSpline
 62
7
  6
BYLAYER
 70
0
 71
3
 72
12
 73
8
 74
0
 42
0.0000001
 43
0.0000001
 44
0.0000000001
 40
0.0
 40
0.0
 40
0.0
 40
0.0
 40
0.2961344769
 40
0.5579079807
 40
0.7882359598
 40
0.8954337128
 40
1.0
 40
1.0
 40
1.0
 40
1.0
 10
43.7103407424
 20
71.3305790221
 30
0.0
 10
43.5526731397
 20
71.4447610562
 30
0.0
 10
43.2368048446
 20
71.6362843784
 30
0.0
 10
42.7423422261
 20
71.8062126187
 30
0.0
 10
42.3410179668
 20
71.8253031842
 30
0.0
 10
42.0565339872
 20
71.7586937237
 30
0.0
 10
41.9286348257
 20
71.7010649706
 30
0.0
 10
41.8691097521
 20
71.6666875229
 30
0.0
  0
SPLINE
  5
5EA
100
AcDbEntity
  8
0
100
AcDbSpline
 62
7
  6
BYLAYER
 70
0
 71
3
 72
9
 73
5
 74
0
 42
0.0000001
 43
0.0000001
 44
0.0000000001
 40
0.0
 40
0.0
 40
0.0
 40
0.0
 40
0.2440528634
 40
1.0
 40
1.0
 40
1.0
 40
1.0
 10
39.5248143121
 20
99.0178039922
 30
0.0
 10
39.5248143121
 20
99.0452749265
 30
0.0
 10
39.5232211583
 20
99.1578333886
 30
0.0
 10
39.5154671529
 20
99.2702825514
 30
0.0
 10
39.5065779517
 20
99.3549074357
 30
0.0
  0
SPLINE
  5
5EB
100
AcDbEntity
  8
0
100
AcDbSpline
 62
7
  6
BYLAYER
 70
0
 71
3
 72
9
 73
5
 74
0
 42
0.0000001
 43
0.0000001
 44
0.0000000001
 40
0.0
 40
0.0
 40
0.0
 40
0.0
 40
0.2407331342
 40
1.0
 40
1.0
 40
1.0
 40
1.0
 10
39.5065779517
 20
99.3549074357
 30
0.0
 10
39.4996778941
 20
99.4205957424
 30
0.0
 10
39.4634100407
 20
99.6926453962
 30
0.0
 10
39.3982120345
 20
99.960550647
 30
0.0
 10
39.33584645
 20
100.1593154934
 30
0.0
  0
SPLINE
  5
5EC
100
AcDbEntity
  8
0
100
AcDbSpline
 62
7
  6
BYLAYER
 70
0
 71
3
 72
9
 73
5
 74
0
 42
0.0000001
 43
0.0000001
 44
0.0000000001
 40
0.0
 40
0.0
 40
0.0
 40
0.0
 40
0.5000652712
 40
1.0
 40
1.0
 40
1.0
 40
1.0
 10
39.33584645
 20
100.1593154934
 30
0.0
 10
39.2224154403
 20
100.5208305411
 30
0.0
 10
38.9099074009
 20
101.2183346719
 30
0.0
 10
38.4612937399
 20
101.8371554731
 30
0.0
 10
38.2045823934
 20
102.115694636
 30
0.0
  0
SPLINE
  5
5ED
100
AcDbEntity
  8
0
100
AcDbSpline
 62
7
  6
BYLAYER
 70
0
 71
3
 72
9
 73
5
 74
0
 42
0.0000001
 43
0.0000001
 44
0.0000000001
 40
0.0
 40
0.0
 40
0.0
 40
0.0
 40
0.2590056436
 40
1.0
 40
1.0
 40
1.0
 40
1.0
 10
38.2045823934
 20
102.115694636
 30
0.0
 10
38.1565255445
 20
102.1678376934
 30
0.0
 10
37.9665128139
 20
102.3649375305
 30
0.0
 10
37.7581505253
 20
102.5447772221
 30
0.0
 10
37.5938416199
 20
102.663768852
 30
0.0
  0
SPLINE
  5
5EE
100
AcDbEntity
  8
0
100
AcDbSpline
 62
7
  6
BYLAYER
 70
0
 71
3
 72
12
 73
8
 74
0
 42
0.0000001
 43
0.0000001
 44
0.0000000001
 40
0.0
 40
0.0
 40
0.0
 40
0.0
 40
0.2961344769
 40
0.5579079807
 40
0.7882359598
 40
0.8954337128
 40
1.0
 40
1.0
 40
1.0
 40
1.0
 10
37.5938416199
 20
102.663768852
 30
0.0
 10
37.4361740172
 20
102.777950886
 30
0.0
 10
37.1203057221
 20
102.9694742083
 30
0.0
 10
36.6258431036
 20
103.1394024485
 30
0.0
 10
36.2245188443
 20
103.1584930141
 30
0.0
 10
35.9400348647
 20
103.0918835536
 30
0.0
 10
35.8121357031
 20
103.0342548005
 30
0.0
 10
35.7526106295
 20
102.9998773528
 30
0.0
  0
SPLINE
  5
5EF
100
AcDbEntity
  8
0
100
AcDbSpline
 62
7
  6
BYLAYER
 70
0
 71
3
 72
9
 73
5
 74
0
 42
0.0000001
 43
0.0000001
 44
0.0000000001
 40
0.0
 40
0.0
 40
0.0
 40
0.0
 40
0.2440528634
 40
1.0
 40
1.0
 40
1.0
 40
1.0
 10
33.4083151896
 20
102.5490865188
 30
0.0
 10
33.4083151896
 20
102.5765574531
 30
0.0
 10
33.4067220358
 20
102.6891159152
 30
0.0
 10
33.3989680304
 20
102.801565078
 30
0.0
 10
33.3900788292
 20
102.8861899623
 30
0.0
  0
SPLINE
  5
5F0
100
AcDbEntity
  8
0
100
AcDbSpline
 62
7
  6
BYLAYER
 70
0
 71
3
 72
9
 73
5
 74
0
 42
0.0000001
 43
0.0000001
 44
0.0000000001
 40
0.0
 40
0.0
 40
0.0
 40
0.0
 40
0.2407331342
 40
1.0
 40
1.0
 40
1.0
 40
1.0
 10
33.3900788292
 20
102.8861899623
 30
0.0
 10
33.3831787716
 20
102.951878269
 30
0.0
 10
33.3469109182
 20
103.2239279229
 30
0.0
 10
33.2817129119
 20
103.4918331736
 30
0.0
 10
33.2193473275
 20
103.69059802
 30
0.0
  0
SPLINE
  5
5F1
100
AcDbEntity
  8
0
100
AcDbSpline
 62
7
  6
BYLAYER
 70
0
 71
3
 72
9
 73
5
 74
0
 42
0.0000001
 43
0.0000001
 44
0.0000000001
 40
0.0
 40
0.0
 40
0.0
 40
0.0
 40
0.5000652712
 40
1.0
 40
1.0
 40
1.0
 40
1.0
 10
33.2193473275
 20
103.69059802
 30
0.0
 10
33.1059163178
 20
104.0521130677
 30
0.0
 10
32.7934082784
 20
104.7496171985
 30
0.0
 10
32.3447946173
 20
105.3684379997
 30
0.0
 10
32.0880832709
 20
105.6469771626
 30
0.0
  0
SPLINE
  5
5F2
100
AcDbEntity
  8
0
100
AcDbSpline
 62
7
  6
BYLAYER
 70
0
 71
3
 72
9
 73
5
 74
0
 42
0.0000001
 43
0.0000001
 44
0.0000000001
 40
0.0
 40
0.0
 40
0.0
 40
0.0
 40
0.2590056436
 40
1.0
 40
1.0
 40
1.0
 40
1.0
 10
32.0880832709
 20
105.6469771626
 30
0.0
 10
32.0400264219
 20
105.69912022
 30
0.0
 10
31.8500136914
 20
105.8962200571
 30
0.0
 10
31.6416514027
 20
106.0760597487
 30
0.0
 10
31.4773424974
 20
106.1950513786
 30
0.0
  0
SPLINE
  5
5F3
100
AcDbEntity
  8
0
100
AcDbSpline
 62
7
  6
BYLAYER
 70
0
 71
3
 72
12
 73
8
 74
0
 42
0.0000001
 43
0.0000001
 44
0.0000000001
 40
0.0
 40
0.0
 40
0.0
 40
0.0
 40
0.2961344769
 40
0.5579079807
 40
0.7882359598
 40
0.8954337128
 40
1.0
 40
1.0
 40
1.0
 40
1.0
 10
31.4773424974
 20
106.1950513786
 30
0.0
 10
31.3196748946
 20
106.3092334126
 30
0.0
 10
31.0038065996
 20
106.5007567349
 30
0.0
 10
30.5093439811
 20
106.6706849751
 30
0.0
 10
30.1080197217
 20
106.6897755407
 30
0.0
 10
29.8235357422
 20
106.6231660802
 30
0.0
 10
29.6956365806
 20
106.5655373271
 30
0.0
 10
29.636111507
 20
106.5311598794
 30
0.0
  0
SPLINE
  5
5F4
100
AcDbEntity
  8
0
100
AcDbSpline
 62
7
  6
BYLAYER
 70
0
 71
3
 72
9
 73
5
 74
0
 42
0.0000001
 43
0.0000001
 44
0.0000000001
 40
0.0
 40
0.0
 40
0.0
 40
0.0
 40
0.2440528634
 40
1.0
 40
1.0
 40
1.0
 40
1.0
 10
27.2918160671
 20
106.0803690454
 30
0.0
 10
27.2918160671
 20
106.1078399797
 30
0.0
 10
27.2902229132
 20
106.2203984418
 30
0.0
 10
27.2824689079
 20
106.3328476046
 30
0.0
 10
27.2735797066
 20
106.4174724889
 30
0.0
  0
SPLINE
  5
5F5
100
AcDbEntity
  8
0
100
AcDbSpline
 62
7
  6
BYLAYER
 70
0
 71
3
 72
9
 73
5
 74
0
 42
0.0000001
 43
0.0000001
 44
0.0000000001
 40
0.0
 40
0.0
 40
0.0
 40
0.0
 40
0.2407331342
 40
1.0
 40
1.0
 40
1.0
 40
1.0
 10
27.2735797066
 20
106.4174724889
 30
0.0
 10
27.266679649
 20
106.4831607956
 30
0.0
 10
27.2304117957
 20
106.7552104495
 30
0.0
 10
27.1652137894
 20
107.0231157002
 30
0.0
 10
27.102848205
 20
107.2218805466
 30
0.0
  0
SPLINE
  5
5F6
100
AcDbEntity
  8
0
100
AcDbSpline
 62
7
  6
BYLAYER
 70
0
 71
3
 72
9
 73
5
 74
0
 42
0.0000001
 43
0.0000001
 44
0.0000000001
 40
0.0
 40
0.0
 40
0.0
 40
0.0
 40
0.5000652712
 40
1.0
 40
1.0
 40
1.0
 40
1.0
 10
27.102848205
 20
107.2218805466
 30
0.0
 10
26.9894171953
 20
107.5833955943
 30
0.0
 10
26.6769091558
 20
108.2808997251
 30
0.0
 10
26.2282954948
 20
108.8997205263
 30
0.0
 10
25.9715841484
 20
109.1782596892
 30
0.0
  0
SPLINE
  5
5F7
100
AcDbEntity
  8
0
100
AcDbSpline
 62
7
  6
BYLAYER
 70
0
 71
3
 72
9
 73
5
 74
0
 42
0.0000001
 43
0.0000001
 44
0.0000000001
 40
0.0
 40
0.0
 40
0.0
 40
0.0
 40
0.2590056436
 40
1.0
 40
1.0
 40
1.0
 40
1.0
 10
25.9715841484
 20
109.1782596892
 30
0.0
 10
25.9235272994
 20
109.2304027466
 30
0.0
 10
25.7335145689
 20
109.4275025837
 30
0.0
 10
25.5251522802
 20
109.6073422753
 30
0.0
 10
25.3608433748
 20
109.7263339052
 30
0.0
  0
SPLINE
  5
5F8
100
AcDbEntity
  8
0
100
AcDbSpline
 62
7
  6
BYLAYER
 70
0
 71
3
 72
12
 73
8
 74
0
 42
0.0000001
 43
0.0000001
 44
0.0000000001
 40
0.0
 40
0.0
 40
0.0
 40
0.0
 40
0.2961344769
 40
0.5579079807
 40
0.7882359598
 40
0.8954337128
 40
1.0
 40
1.0
 40
1.0
 40
1.0
 10
25.3608433748
 20
109.7263339052
 30
0.0
 10
25.2031757721
 20
109.8405159392
 30
0.0
 10
24.8873074771
 20
110.0320392615
 30
0.0
 10
24.3928448585
 20
110.2019675017
 30
0.0
 10
23.9915205992
 20
110.2210580673
 30
0.0
 10
23.7070366197
 20
110.1544486068
 30
0.0
 10
23.5791374581
 20
110.0968198537
 30
0.0
 10
23.5196123845
 20
110.062442406
 30
0.0
  0
SPLINE
  5
5F9
100
AcDbEntity
  8
0
100
AcDbSpline
 62
7
  6
BYLAYER
 70
0
 71
3
 72
9
 73
5
 74
0
 42
0.0000001
 43
0.0000001
 44
0.0000000001
 40
0.0
 40
0.0
 40
0.0
 40
0.0
 40
0.2440528634
 40
1.0
 40
1.0
 40
1.0
 40
1.0
 10
21.1753169446
 20
109.611651572
 30
0.0
 10
21.1753169446
 20
109.6391225063
 30
0.0
 10
21.1737237907
 20
109.7516809684
 30
0.0
 10
21.1659697854
 20
109.8641301312
 30
0.0
 10
21.1570805841
 20
109.9487550155
 30
0.0
  0
SPLINE
  5
5FA
100
AcDbEntity
  8
0
100
AcDbSpline
 62
7
  6
BYLAYER
 70
0
 71
3
 72
9
 73
5
 74
0
 42
0.0000001
 43
0.0000001
 44
0.0000000001
 40
0.0
 40
0.0
 40
0.0
 40
0.0
 40
0.2407331342
 40
1.0
 40
1.0
 40
1.0
 40
1.0
 10
21.1570805841
 20
109.9487550155
 30
0.0
 10
21.1501805265
 20
110.0144433222
 30
0.0
 10
21.1139126731
 20
110.2864929761
 30
0.0
 10
21.0487146669
 20
110.5543982268
 30
0.0
 10
20.9863490825
 20
110.7531630732
 30
0.0
  0
SPLINE
  5
5FB
100
AcDbEntity
  8
0
100
AcDbSpline
 62
7
  6
BYLAYER
 70
0
 71
3
 72
9
 73
5
 74
0
 42
0.0000001
 43
0.0000001
 44
0.0000000001
 40
0.0
 40
0.0
 40
0.0
 40
0.0
 40
0.5000652712
 40
1.0
 40
1.0
 40
1.0
 40
1.0
 10
20.9863490825
 20
110.7531630732
 30
0.0
 10
20.8729180728
 20
111.1146781209
 30
0.0
 10
20.5604100333
 20
111.8121822517
 30
0.0
 10
20.1117963723
 20
112.4310030529
 30
0.0
 10
19.8550850258
 20
112.7095422158
 30
0.0
  0
SPLINE
  5
5FC
100
AcDbEntity
  8
0
100
AcDbSpline
 62
7
  6
BYLAYER
 70
0
 71
3
 72
9
 73
5
 74
0
 42
0.0000001
 43
0.0000001
 44
0.0000000001
 40
0.0
 40
0.0
 40
0.0
 40
0.0
 40
0.2590056436
 40
1.0
 40
1.0
 40
1.0
 40
1.0
 10
19.8550850258
 20
112.7095422158
 30
0.0
 10
19.8070281769
 20
112.7616852732
 30
0.0
 10
19.6170154464
 20
112.9587851103
 30
0.0
 10
19.4086531577
 20
113.1386248019
 30
0.0
 10
19.2443442523
 20
113.2576164318
 30
0.0
  0
SPLINE
  5
5FD
100
AcDbEntity
  8
0
100
AcDbSpline
 62
7
  6
BYLAYER
 70
0
 71
3
 72
12
 73
8
 74
0
 42
0.0000001
 43
0.0000001
 44
0.0000000001
 40
0.0
 40
0.0
 40
0.0
 40
0.0
 40
0.2961344769
 40
0.5579079807
 40
0.7882359598
 40
0.8954337128
 40
1.0
 40
1.0
 40
1.0
 40
1.0
 10
19.2443442523
 20
113.2576164318
 30
0.0
 10
19.0866766496
 20
113.3717984658
 30
0.0
 10
18.7708083545
 20
113.5633217881
 30
0.0
 10
18.276345736
 20
113.7332500283
 30
0.0
 10
17.8750214767
 20
113.7523405939
 30
0.0
 10
17.5905374971
 20
113.6857311334
 30
0.0
 10
17.4626383356
 20
113.6281023803
 30
0.0
 10
17.403113262
 20
113.5937249326
 30
0.0
  0
SPLINE
  5
5FE
100
AcDbEntity
  8
0
100
AcDbSpline
 62
7
  6
BYLAYER
 70
0
 71
3
 72
9
 73
5
 74
0
 42
0.0000001
 43
0.0000001
 44
0.0000000001
 40
0.0
 40
0.0
 40
0.0
 40
0.0
 40
0.2440528634
 40
1.0
 40
1.0
 40
1.0
 40
1.0
 10
21.1753169446
 20
82.4629462025
 30
0.0
 10
21.1753169446
 20
82.4904171367
 30
0.0
 10
21.1737237907
 20
82.6029755988
 30
0.0
 10
21.1659697854
 20
82.7154247617
 30
0.0
 10
21.1570805841
 20
82.8000496459
 30
0.0
  0
SPLINE
  5
5FF
100
AcDbEntity
  8
0
100
AcDbSpline
 62
7
  6
BYLAYER
 70
0
 71
3
 72
9
 73
5
 74
0
 42
0.0000001
 43
0.0000001
 44
0.0000000001
 40
0.0
 40
0.0
 40
0.0
 40
0.0
 40
0.2407331342
 40
1.0
 40
1.0
 40
1.0
 40
1.0
 10
21.1570805841
 20
82.8000496459
 30
0.0
 10
21.1501805265
 20
82.8657379527
 30
0.0
 10
21.1139126731
 20
83.1377876065
 30
0.0
 10
21.0487146669
 20
83.4056928572
 30
0.0
 10
20.9863490825
 20
83.6044577037
 30
0.0
  0
SPLINE
  5
600
100
AcDbEntity
  8
0
100
AcDbSpline
 62
7
  6
BYLAYER
 70
0
 71
3
 72
9
 73
5
 74
0
 42
0.0000001
 43
0.0000001
 44
0.0000000001
 40
0.0
 40
0.0
 40
0.0
 40
0.0
 40
0.5000652712
 40
1.0
 40
1.0
 40
1.0
 40
1.0
 10
20.9863490825
 20
83.6044577037
 30
0.0
 10
20.8729180728
 20
83.9659727513
 30
0.0
 10
20.5604100333
 20
84.6634768822
 30
0.0
 10
20.1117963723
 20
85.2822976834
 30
0.0
 10
19.8550850258
 20
85.5608368463
 30
0.0
  0
SPLINE
  5
601
100
AcDbEntity
  8
0
100
AcDbSpline
 62
7
  6
BYLAYER
 70
0
 71
3
 72
9
 73
5
 74
0
 42
0.0000001
 43
0.0000001
 44
0.0000000001
 40
0.0
 40
0.0
 40
0.0
 40
0.0
 40
0.2590056436
 40
1.0
 40
1.0
 40
1.0
 40
1.0
 10
19.8550850258
 20
85.5608368463
 30
0.0
 10
19.8070281769
 20
85.6129799037
 30
0.0
 10
19.6170154464
 20
85.8100797407
 30
0.0
 10
19.4086531577
 20
85.9899194323
 30
0.0
 10
19.2443442523
 20
86.1089110622
 30
0.0
  0
SPLINE
  5
602
100
AcDbEntity
  8
0
100
AcDbSpline
 62
7
  6
BYLAYER
 70
0
 71
3
 72
12
 73
8
 74
0
 42
0.0000001
 43
0.0000001
 44
0.0000000001
 40
0.0
 40
0.0
 40
0.0
 40
0.0
 40
0.2961344769
 40
0.5579079807
 40
0.7882359598
 40
0.8954337128
 40
1.0
 40
1.0
 40
1.0
 40
1.0
 10
19.2443442523
 20
86.1089110622
 30
0.0
 10
19.0866766496
 20
86.2230930963
 30
0.0
 10
18.7708083545
 20
86.4146164186
 30
0.0
 10
18.276345736
 20
86.5845446588
 30
0.0
 10
17.8750214767
 20
86.6036352243
 30
0.0
 10
17.5905374971
 20
86.5370257638
 30
0.0
 10
17.4626383356
 20
86.4793970107
 30
0.0
 10
17.403113262
 20
86.445019563
 30
0.0
  0
SPLINE
  5
603
100
AcDbEntity
  8
0
100
AcDbSpline
 62
7
  6
BYLAYER
 70
0
 71
3
 72
9
 73
5
 74
0
 42
0.0000001
 43
0.0000001
 44
0.0000000001
 40
0.0
 40
0.0
 40
0.0
 40
0.0
 40
0.2440528634
 40
1.0
 40
1.0
 40
1.0
 40
1.0
 10
27.2918160671
 20
78.9316636759
 30
0.0
 10
27.2918160671
 20
78.9591346101
 30
0.0
 10
27.2902229132
 20
79.0716930722
 30
0.0
 10
27.2824689079
 20
79.1841422351
 30
0.0
 10
27.2735797066
 20
79.2687671193
 30
0.0
  0
SPLINE
  5
604
100
AcDbEntity
  8
0
100
AcDbSpline
 62
7
  6
BYLAYER
 70
0
 71
3
 72
9
 73
5
 74
0
 42
0.0000001
 43
0.0000001
 44
0.0000000001
 40
0.0
 40
0.0
 40
0.0
 40
0.0
 40
0.2407331342
 40
1.0
 40
1.0
 40
1.0
 40
1.0
 10
27.2735797066
 20
79.2687671193
 30
0.0
 10
27.266679649
 20
79.3344554261
 30
0.0
 10
27.2304117957
 20
79.6065050799
 30
0.0
 10
27.1652137894
 20
79.8744103306
 30
0.0
 10
27.102848205
 20
80.0731751771
 30
0.0
  0
SPLINE
  5
605
100
AcDbEntity
  8
0
100
AcDbSpline
 62
7
  6
BYLAYER
 70
0
 71
3
 72
9
 73
5
 74
0
 42
0.0000001
 43
0.0000001
 44
0.0000000001
 40
0.0
 40
0.0
 40
0.0
 40
0.0
 40
0.5000652712
 40
1.0
 40
1.0
 40
1.0
 40
1.0
 10
27.102848205
 20
80.0731751771
 30
0.0
 10
26.9894171953
 20
80.4346902247
 30
0.0
 10
26.6769091558
 20
81.1321943556
 30
0.0
 10
26.2282954948
 20
81.7510151568
 30
0.0
 10
25.9715841484
 20
82.0295543197
 30
0.0
  0
SPLINE
  5
606
100
AcDbEntity
  8
0
100
AcDbSpline
 62
7
  6
BYLAYER
 70
0
 71
3
 72
9
 73
5
 74
0
 42
0.0000001
 43
0.0000001
 44
0.0000000001
 40
0.0
 40
0.0
 40
0.0
 40
0.0
 40
0.2590056436
 40
1.0
 40
1.0
 40
1.0
 40
1.0
 10
25.9715841484
 20
82.0295543197
 30
0.0
 10
25.9235272994
 20
82.0816973771
 30
0.0
 10
25.7335145689
 20
82.2787972141
 30
0.0
 10
25.5251522802
 20
82.4586369057
 30
0.0
 10
25.3608433748
 20
82.5776285356
 30
0.0
  0
SPLINE
  5
607
100
AcDbEntity
  8
0
100
AcDbSpline
 62
7
  6
BYLAYER
 70
0
 71
3
 72
12
 73
8
 74
0
 42
0.0000001
 43
0.0000001
 44
0.0000000001
 40
0.0
 40
0.0
 40
0.0
 40
0.0
 40
0.2961344769
 40
0.5579079807
 40
0.7882359598
 40
0.8954337128
 40
1.0
 40
1.0
 40
1.0
 40
1.0
 10
25.3608433748
 20
82.5776285356
 30
0.0
 10
25.2031757721
 20
82.6918105697
 30
0.0
 10
24.8873074771
 20
82.883333892
 30
0.0
 10
24.3928448585
 20
83.0532621322
 30
0.0
 10
23.9915205992
 20
83.0723526977
 30
0.0
 10
23.7070366197
 20
83.0057432372
 30
0.0
 10
23.5791374581
 20
82.9481144841
 30
0.0
 10
23.5196123845
 20
82.9137370364
 30
0.0
  0
SPLINE
  5
608
100
AcDbEntity
  8
0
100
AcDbSpline
 62
7
  6
BYLAYER
 70
0
 71
3
 72
9
 73
5
 74
0
 42
0.0000001
 43
0.0000001
 44
0.0000000001
 40
0.0
 40
0.0
 40
0.0
 40
0.0
 40
0.2440528634
 40
1.0
 40
1.0
 40
1.0
 40
1.0
 10
33.4083151896
 20
75.4003811493
 30
0.0
 10
33.4083151896
 20
75.4278520835
 30
0.0
 10
33.4067220358
 20
75.5404105456
 30
0.0
 10
33.3989680304
 20
75.6528597085
 30
0.0
 10
33.3900788292
 20
75.7374845927
 30
0.0
  0
SPLINE
  5
609
100
AcDbEntity
  8
0
100
AcDbSpline
 62
7
  6
BYLAYER
 70
0
 71
3
 72
9
 73
5
 74
0
 42
0.0000001
 43
0.0000001
 44
0.0000000001
 40
0.0
 40
0.0
 40
0.0
 40
0.0
 40
0.2407331342
 40
1.0
 40
1.0
 40
1.0
 40
1.0
 10
33.3900788292
 20
75.7374845927
 30
0.0
 10
33.3831787716
 20
75.8031728995
 30
0.0
 10
33.3469109182
 20
76.0752225533
 30
0.0
 10
33.2817129119
 20
76.343127804
 30
0.0
 10
33.2193473275
 20
76.5418926505
 30
0.0
  0
SPLINE
  5
60A
100
AcDbEntity
  8
0
100
AcDbSpline
 62
7
  6
BYLAYER
 70
0
 71
3
 72
9
 73
5
 74
0
 42
0.0000001
 43
0.0000001
 44
0.0000000001
 40
0.0
 40
0.0
 40
0.0
 40
0.0
 40
0.5000652712
 40
1.0
 40
1.0
 40
1.0
 40
1.0
 10
33.2193473275
 20
76.5418926505
 30
0.0
 10
33.1059163178
 20
76.9034076981
 30
0.0
 10
32.7934082784
 20
77.600911829
 30
0.0
 10
32.3447946173
 20
78.2197326302
 30
0.0
 10
32.0880832709
 20
78.4982717931
 30
0.0
  0
SPLINE
  5
60B
100
AcDbEntity
  8
0
100
AcDbSpline
 62
7
  6
BYLAYER
 70
0
 71
3
 72
9
 73
5
 74
0
 42
0.0000001
 43
0.0000001
 44
0.0000000001
 40
0.0
 40
0.0
 40
0.0
 40
0.0
 40
0.2590056436
 40
1.0
 40
1.0
 40
1.0
 40
1.0
 10
32.0880832709
 20
78.4982717931
 30
0.0
 10
32.0400264219
 20
78.5504148505
 30
0.0
 10
31.8500136914
 20
78.7475146875
 30
0.0
 10
31.6416514027
 20
78.9273543791
 30
0.0
 10
31.4773424974
 20
79.046346009
 30
0.0
  0
SPLINE
  5
60C
100
AcDbEntity
  8
0
100
AcDbSpline
 62
7
  6
BYLAYER
 70
0
 71
3
 72
12
 73
8
 74
0
 42
0.0000001
 43
0.0000001
 44
0.0000000001
 40
0.0
 40
0.0
 40
0.0
 40
0.0
 40
0.2961344769
 40
0.5579079807
 40
0.7882359598
 40
0.8954337128
 40
1.0
 40
1.0
 40
1.0
 40
1.0
 10
31.4773424974
 20
79.046346009
 30
0.0
 10
31.3196748946
 20
79.1605280431
 30
0.0
 10
31.0038065996
 20
79.3520513654
 30
0.0
 10
30.5093439811
 20
79.5219796056
 30
0.0
 10
30.1080197217
 20
79.5410701711
 30
0.0
 10
29.8235357422
 20
79.4744607106
 30
0.0
 10
29.6956365806
 20
79.4168319575
 30
0.0
 10
29.636111507
 20
79.3824545098
 30
0.0
  0
SPLINE
  5
60D
100
AcDbEntity
  8
0
100
AcDbSpline
 62
7
  6
BYLAYER
 70
0
 71
3
 72
9
 73
5
 74
0
 42
0.0000001
 43
0.0000001
 44
0.0000000001
 40
0.0
 40
0.0
 40
0.0
 40
0.0
 40
0.2440528634
 40
1.0
 40
1.0
 40
1.0
 40
1.0
 10
39.5248143121
 20
71.8690986227
 30
0.0
 10
39.5248143121
 20
71.8965695569
 30
0.0
 10
39.5232211583
 20
72.009128019
 30
0.0
 10
39.5154671529
 20
72.1215771819
 30
0.0
 10
39.5065779517
 20
72.2062020661
 30
0.0
  0
SPLINE
  5
60E
100
AcDbEntity
  8
0
100
AcDbSpline
 62
7
  6
BYLAYER
 70
0
 71
3
 72
9
 73
5
 74
0
 42
0.0000001
 43
0.0000001
 44
0.0000000001
 40
0.0
 40
0.0
 40
0.0
 40
0.0
 40
0.2407331342
 40
1.0
 40
1.0
 40
1.0
 40
1.0
 10
39.5065779517
 20
72.2062020661
 30
0.0
 10
39.4996778941
 20
72.2718903729
 30
0.0
 10
39.4634100407
 20
72.5439400267
 30
0.0
 10
39.3982120345
 20
72.8118452774
 30
0.0
 10
39.33584645
 20
73.0106101239
 30
0.0
  0
SPLINE
  5
60F
100
AcDbEntity
  8
0
100
AcDbSpline
 62
7
  6
BYLAYER
 70
0
 71
3
 72
9
 73
5
 74
0
 42
0.0000001
 43
0.0000001
 44
0.0000000001
 40
0.0
 40
0.0
 40
0.0
 40
0.0
 40
0.5000652712
 40
1.0
 40
1.0
 40
1.0
 40
1.0
 10
39.33584645
 20
73.0106101239
 30
0.0
 10
39.2224154403
 20
73.3721251715
 30
0.0
 10
38.9099074009
 20
74.0696293024
 30
0.0
 10
38.4612937399
 20
74.6884501036
 30
0.0
 10
38.2045823934
 20
74.9669892665
 30
0.0
  0
SPLINE
  5
610
100
AcDbEntity
  8
0
100
AcDbSpline
 62
7
  6
BYLAYER
 70
0
 71
3
 72
9
 73
5
 74
0
 42
0.0000001
 43
0.0000001
 44
0.0000000001
 40
0.0
 40
0.0
 40
0.0
 40
0.0
 40
0.2590056436
 40
1.0
 40
1.0
 40
1.0
 40
1.0
 10
38.2045823934
 20
74.9669892665
 30
0.0
 10
38.1565255445
 20
75.0191323239
 30
0.0
 10
37.9665128139
 20
75.2162321609
 30
0.0
 10
37.7581505253
 20
75.3960718525
 30
0.0
 10
37.5938416199
 20
75.5150634824
 30
0.0
  0
SPLINE
  5
611
100
AcDbEntity
  8
0
100
AcDbSpline
 62
7
  6
BYLAYER
 70
0
 71
3
 72
12
 73
8
 74
0
 42
0.0000001
 43
0.0000001
 44
0.0000000001
 40
0.0
 40
0.0
 40
0.0
 40
0.0
 40
0.2961344769
 40
0.5579079807
 40
0.7882359598
 40
0.8954337128
 40
1.0
 40
1.0
 40
1.0
 40
1.0
 10
37.5938416199
 20
75.5150634824
 30
0.0
 10
37.4361740172
 20
75.6292455165
 30
0.0
 10
37.1203057221
 20
75.8207688388
 30
0.0
 10
36.6258431036
 20
75.990697079
 30
0.0
 10
36.2245188443
 20
76.0097876445
 30
0.0
 10
35.9400348647
 20
75.943178184
 30
0.0
 10
35.8121357031
 20
75.8855494309
 30
0.0
 10
35.7526106295
 20
75.8511719832
 30
0.0
  0
SPLINE
  5
612
100
AcDbEntity
  8
0
100
AcDbSpline
 62
7
  6
BYLAYER
 70
0
 71
3
 72
11
 73
7
 74
0
 42
0.0000001
 43
0.0000001
 44
0.0000000001
 40
0.0
 40
0.0
 40
0.0
 40
0.0
 40
0.293791194
 40
0.5537582034
 40
0.7847881454
 40
1.0
 40
1.0
 40
1.0
 40
1.0
 10
112.0503989094
 20
63.0060510756
 30
0.0
 10
112.0551230363
 20
62.9054414808
 30
0.0
 10
112.0490423094
 20
62.714434781
 30
0.0
 10
111.9839045575
 20
62.4507865797
 30
0.0
 10
111.8625410319
 20
62.2369629211
 30
0.0
 10
111.7434302989
 20
62.1348919784
 30
0.0
 10
111.6795503181
 20
62.0979731913
 30
0.0
  0
SPLINE
  5
613
100
AcDbEntity
  8
0
100
AcDbSpline
 62
7
  6
BYLAYER
 70
0
 71
3
 72
11
 73
7
 74
0
 42
0.0000001
 43
0.0000001
 44
0.0000000001
 40
0.0
 40
0.0
 40
0.0
 40
0.0
 40
0.2860640033
 40
0.5449268098
 40
0.779913558
 40
1.0
 40
1.0
 40
1.0
 40
1.0
 10
111.9765629284
 20
103.4511435571
 30
0.0
 10
111.9718225925
 20
103.3440011835
 30
0.0
 10
111.9464050761
 20
103.1399562289
 30
0.0
 10
111.8517029783
 20
102.8607568628
 30
0.0
 10
111.7039130518
 20
102.6336829273
 30
0.0
 10
111.5696864482
 20
102.5229414906
 30
0.0
 10
111.4982320553
 20
102.481680559
 30
0.0
  0
SPLINE
  5
614
100
AcDbEntity
  8
0
100
AcDbSpline
 62
7
  6
BYLAYER
 70
0
 71
3
 72
9
 73
5
 74
0
 42
0.0000001
 43
0.0000001
 44
0.0000000001
 40
0.0
 40
0.0
 40
0.0
 40
0.0
 40
0.2461996355
 40
1.0
 40
1.0
 40
1.0
 40
1.0
 10
45.1911521972
 20
66.4014275674
 30
0.0
 10
45.1729095506
 20
66.3959833005
 30
0.0
 10
45.0982489465
 20
66.375787068
 30
0.0
 10
45.021545828
 20
66.3632908997
 30
0.0
 10
44.9634999496
 20
66.3579772105
 30
0.0
  0
SPLINE
  5
615
100
AcDbEntity
  8
0
100
AcDbSpline
 62
7
  6
BYLAYER
 70
0
 71
3
 72
15
 73
11
 74
0
 42
0.0000001
 43
0.0000001
 44
0.0000000001
 40
0.0
 40
0.0
 40
0.0
 40
0.0
 40
0.1994164376
 40
0.2594900075
 40
0.3230217468
 40
0.4581981409
 40
0.5997143037
 40
0.7412523568
 40
0.8764822659
 40
1.0
 40
1.0
 40
1.0
 40
1.0
 10
44.9634999496
 20
66.3579772105
 30
0.0
 10
44.5838466599
 20
66.3232226394
 30
0.0
 10
44.0744303998
 20
66.5016624009
 30
0.0
 10
43.5613394779
 20
66.8394290855
 30
0.0
 10
43.1755114504
 20
67.1515618941
 30
0.0
 10
42.7287983503
 20
67.6283929255
 30
0.0
 10
42.2767999783
 20
68.2915294761
 30
0.0
 10
41.9278631992
 20
69.014527987
 30
0.0
 10
41.7046429347
 20
69.7496959736
 30
0.0
 10
41.6461399548
 20
70.2449264007
 30
0.0
 10
41.6461399548
 20
70.4810653704
 30
0.0
  0
SPLINE
  5
616
100
AcDbEntity
  8
0
100
AcDbSpline
 62
7
  6
BYLAYER
 70
0
 71
3
 72
11
 73
7
 74
0
 42
0.0000001
 43
0.0000001
 44
0.0000000001
 40
0.0
 40
0.0
 40
0.0
 40
0.0
 40
0.2177839466
 40
0.4509170841
 40
0.710307871
 40
1.0
 40
1.0
 40
1.0
 40
1.0
 10
41.8691097521
 20
71.6666875229
 30
0.0
 10
41.766034348
 20
71.6071585028
 30
0.0
 10
41.5731539768
 20
71.445037763
 30
0.0
 10
41.3678280246
 20
71.1093036244
 30
0.0
 10
41.2458830931
 20
70.6955731421
 30
0.0
 10
41.2218776525
 20
70.3944509273
 30
0.0
 10
41.2218776525
 20
70.2361188781
 30
0.0
  0
SPLINE
  5
617
100
AcDbEntity
  8
0
100
AcDbSpline
 62
7
  6
BYLAYER
 70
0
 71
3
 72
9
 73
5
 74
0
 42
0.0000001
 43
0.0000001
 44
0.0000000001
 40
0.0
 40
0.0
 40
0.0
 40
0.0
 40
0.5218428225
 40
1.0
 40
1.0
 40
1.0
 40
1.0
 10
77.7399213397
 20
121.843960754
 30
0.0
 10
77.5792545211
 20
122.1004866724
 30
0.0
 10
77.3357369188
 20
122.6346651817
 30
0.0
 10
77.2454580953
 20
123.2196448159
 30
0.0
 10
77.2578773186
 20
123.496714354
 30
0.0
  0
SPLINE
  5
618
100
AcDbEntity
  8
0
100
AcDbSpline
 62
7
  6
BYLAYER
 70
0
 71
3
 72
9
 73
5
 74
0
 42
0.0000001
 43
0.0000001
 44
0.0000000001
 40
0.0
 40
0.0
 40
0.0
 40
0.0
 40
0.2461996355
 40
1.0
 40
1.0
 40
1.0
 40
1.0
 10
45.1911521972
 20
94.8565368043
 30
0.0
 10
45.1729095506
 20
94.8510925374
 30
0.0
 10
45.0982489465
 20
94.830896305
 30
0.0
 10
45.021545828
 20
94.8184001367
 30
0.0
 10
44.9634999496
 20
94.8130864474
 30
0.0
  0
SPLINE
  5
619
100
AcDbEntity
  8
0
100
AcDbSpline
 62
7
  6
BYLAYER
 70
0
 71
3
 72
15
 73
11
 74
0
 42
0.0000001
 43
0.0000001
 44
0.0000000001
 40
0.0
 40
0.0
 40
0.0
 40
0.0
 40
0.1994164376
 40
0.2594900075
 40
0.3230217468
 40
0.4581981409
 40
0.5997143037
 40
0.7412523568
 40
0.8764822659
 40
1.0
 40
1.0
 40
1.0
 40
1.0
 10
44.9634999496
 20
94.8130864474
 30
0.0
 10
44.5838466599
 20
94.7783318763
 30
0.0
 10
44.0744303998
 20
94.9567716378
 30
0.0
 10
43.5613394779
 20
95.2945383225
 30
0.0
 10
43.1755114504
 20
95.606671131
 30
0.0
 10
42.7287983503
 20
96.0835021624
 30
0.0
 10
42.2767999783
 20
96.7466387131
 30
0.0
 10
41.9278631992
 20
97.4696372239
 30
0.0
 10
41.7046429347
 20
98.2048052105
 30
0.0
 10
41.6461399548
 20
98.7000356377
 30
0.0
 10
41.6461399548
 20
98.9361746074
 30
0.0
  0
SPLINE
  5
61A
100
AcDbEntity
  8
0
100
AcDbSpline
 62
7
  6
BYLAYER
 70
0
 71
3
 72
11
 73
7
 74
0
 42
0.0000001
 43
0.0000001
 44
0.0000000001
 40
0.0
 40
0.0
 40
0.0
 40
0.0
 40
0.2177839466
 40
0.4509170841
 40
0.710307871
 40
1.0
 40
1.0
 40
1.0
 40
1.0
 10
41.8691097521
 20
100.1217967599
 30
0.0
 10
41.766034348
 20
100.0622677397
 30
0.0
 10
41.5731539768
 20
99.900147
 30
0.0
 10
41.3678280246
 20
99.5644128613
 30
0.0
 10
41.2458830931
 20
99.150682379
 30
0.0
 10
41.2218776525
 20
98.8495601643
 30
0.0
 10
41.2218776525
 20
98.6912281151
 30
0.0
  0
SPLINE
  5
61B
100
AcDbEntity
  8
0
100
AcDbSpline
 62
7
  6
BYLAYER
 70
0
 71
3
 72
17
 73
13
 74
0
 42
0.0000001
 43
0.0000001
 44
0.0000000001
 40
0.0
 40
0.0
 40
0.0
 40
0.0
 40
0.0445297935
 40
0.0903589269
 40
0.1905710031
 40
0.2468685486
 40
0.3073818842
 40
0.4395206524
 40
0.5822705448
 40
0.7283757568
 40
0.8699534718
 40
1.0
 40
1.0
 40
1.0
 40
1.0
 10
86.7658547443
 20
117.197965531
 30
0.0
 10
86.712916741
 20
117.1673719653
 30
0.0
 10
86.5973295132
 20
117.1183900808
 30
0.0
 10
86.336958844
 20
117.0761424445
 30
0.0
 10
86.0553699917
 20
117.1261347817
 30
0.0
 10
85.7819230322
 20
117.2454834431
 30
0.0
 10
85.4895906021
 20
117.4247769699
 30
0.0
 10
85.1454590801
 20
117.7368619947
 30
0.0
 10
84.7984138516
 20
118.2028966317
 30
0.0
 10
84.5327559341
 20
118.7343854265
 30
0.0
 10
84.3699122754
 20
119.2874285317
 30
0.0
 10
84.3372613686
 20
119.6627579648
 30
0.0
 10
84.3451538595
 20
119.841146209
 30
0.0
  0
SPLINE
  5
61C
100
AcDbEntity
  8
0
100
AcDbSpline
 62
7
  6
BYLAYER
 70
0
 71
3
 72
9
 73
5
 74
0
 42
0.0000001
 43
0.0000001
 44
0.0000000001
 40
0.0
 40
0.0
 40
0.0
 40
0.0
 40
0.2461996355
 40
1.0
 40
1.0
 40
1.0
 40
1.0
 10
71.0360126513
 20
52.1334299234
 30
0.0
 10
71.0177700047
 20
52.1279856564
 30
0.0
 10
70.9431094006
 20
52.107789424
 30
0.0
 10
70.8664062821
 20
52.0952932557
 30
0.0
 10
70.8083604037
 20
52.0899795664
 30
0.0
  0
SPLINE
  5
61D
100
AcDbEntity
  8
0
100
AcDbSpline
 62
7
  6
BYLAYER
 70
0
 71
3
 72
15
 73
11
 74
0
 42
0.0000001
 43
0.0000001
 44
0.0000000001
 40
0.0
 40
0.0
 40
0.0
 40
0.0
 40
0.1994164376
 40
0.2594900075
 40
0.3230217468
 40
0.4581981409
 40
0.5997143037
 40
0.7412523568
 40
0.8764822659
 40
1.0
 40
1.0
 40
1.0
 40
1.0
 10
70.8083604037
 20
52.0899795664
 30
0.0
 10
70.4287071141
 20
52.0552249953
 30
0.0
 10
69.9192908539
 20
52.2336647569
 30
0.0
 10
69.4061999321
 20
52.5714314415
 30
0.0
 10
69.0203719045
 20
52.88356425
 30
0.0
 10
68.5736588044
 20
53.3603952815
 30
0.0
 10
68.1216604324
 20
54.0235318321
 30
0.0
 10
67.7727236534
 20
54.746530343
 30
0.0
 10
67.5495033888
 20
55.4816983295
 30
0.0
 10
67.4910004089
 20
55.9769287567
 30
0.0
 10
67.4910004089
 20
56.2130677264
 30
0.0
  0
SPLINE
  5
61E
100
AcDbEntity
  8
0
100
AcDbSpline
 62
7
  6
BYLAYER
 70
0
 71
3
 72
11
 73
7
 74
0
 42
0.0000001
 43
0.0000001
 44
0.0000000001
 40
0.0
 40
0.0
 40
0.0
 40
0.0
 40
0.2177839466
 40
0.4509170841
 40
0.710307871
 40
1.0
 40
1.0
 40
1.0
 40
1.0
 10
67.7139702062
 20
57.3986898789
 30
0.0
 10
67.6108948022
 20
57.3391608587
 30
0.0
 10
67.4180144309
 20
57.177040119
 30
0.0
 10
67.2126884788
 20
56.8413059804
 30
0.0
 10
67.0907435472
 20
56.4275754981
 30
0.0
 10
67.0667381066
 20
56.1264532833
 30
0.0
 10
67.0667381066
 20
55.9681212341
 30
0.0
  0
SPLINE
  5
61F
100
AcDbEntity
  8
0
100
AcDbSpline
 62
7
  6
BYLAYER
 70
0
 71
3
 72
9
 73
5
 74
0
 42
0.0000001
 43
0.0000001
 44
0.0000000001
 40
0.0
 40
0.0
 40
0.0
 40
0.0
 40
0.2461996355
 40
1.0
 40
1.0
 40
1.0
 40
1.0
 10
64.9195135288
 20
55.66471245
 30
0.0
 10
64.9012708822
 20
55.659268183
 30
0.0
 10
64.8266102781
 20
55.6390719506
 30
0.0
 10
64.7499071596
 20
55.6265757823
 30
0.0
 10
64.6918612812
 20
55.621262093
 30
0.0
  0
SPLINE
  5
620
100
AcDbEntity
  8
0
100
AcDbSpline
 62
7
  6
BYLAYER
 70
0
 71
3
 72
15
 73
11
 74
0
 42
0.0000001
 43
0.0000001
 44
0.0000000001
 40
0.0
 40
0.0
 40
0.0
 40
0.0
 40
0.1994164376
 40
0.2594900075
 40
0.3230217468
 40
0.4581981409
 40
0.5997143037
 40
0.7412523568
 40
0.8764822659
 40
1.0
 40
1.0
 40
1.0
 40
1.0
 10
64.6918612812
 20
55.621262093
 30
0.0
 10
64.3122079915
 20
55.5865075219
 30
0.0
 10
63.8027917314
 20
55.7649472835
 30
0.0
 10
63.2897008095
 20
56.1027139681
 30
0.0
 10
62.903872782
 20
56.4148467766
 30
0.0
 10
62.4571596819
 20
56.8916778081
 30
0.0
 10
62.0051613099
 20
57.5548143587
 30
0.0
 10
61.6562245308
 20
58.2778128696
 30
0.0
 10
61.4330042663
 20
59.0129808561
 30
0.0
 10
61.3745012864
 20
59.5082112833
 30
0.0
 10
61.3745012864
 20
59.744350253
 30
0.0
  0
SPLINE
  5
621
100
AcDbEntity
  8
0
100
AcDbSpline
 62
7
  6
BYLAYER
 70
0
 71
3
 72
11
 73
7
 74
0
 42
0.0000001
 43
0.0000001
 44
0.0000000001
 40
0.0
 40
0.0
 40
0.0
 40
0.0
 40
0.2177839466
 40
0.4509170841
 40
0.710307871
 40
1.0
 40
1.0
 40
1.0
 40
1.0
 10
61.5974710837
 20
60.9299724055
 30
0.0
 10
61.4943956796
 20
60.8704433853
 30
0.0
 10
61.3015153084
 20
60.7083226456
 30
0.0
 10
61.0961893562
 20
60.372588507
 30
0.0
 10
60.9742444247
 20
59.9588580247
 30
0.0
 10
60.9502389841
 20
59.6577358099
 30
0.0
 10
60.9502389841
 20
59.4994037607
 30
0.0
  0
SPLINE
  5
622
100
AcDbEntity
  8
0
100
AcDbSpline
 62
7
  6
BYLAYER
 70
0
 71
3
 72
16
 73
12
 74
0
 42
0.0000001
 43
0.0000001
 44
0.0000000001
 40
0.0
 40
0.0
 40
0.0
 40
0.0
 40
0.044542679
 40
0.0903850738
 40
0.1906261481
 40
0.3071814632
 40
0.4393584681
 40
0.5821496676
 40
0.7282971577
 40
0.8699158406
 40
1.0
 40
1.0
 40
1.0
 40
1.0
 10
92.9053315549
 20
113.8053220138
 30
0.0
 10
92.8588494056
 20
113.7784593707
 30
0.0
 10
92.7573684261
 20
113.7354521237
 30
0.0
 10
92.5286841959
 20
113.6983486598
 30
0.0
 10
92.2084284731
 20
113.7553799961
 30
0.0
 10
91.8350526343
 20
113.9591860171
 30
0.0
 10
91.4825803327
 20
114.2783545797
 30
0.0
 10
91.1778124661
 20
114.687741715
 30
0.0
 10
90.944564504
 20
115.1543627887
 30
0.0
 10
90.8015765136
 20
115.6399752431
 30
0.0
 10
90.772908103
 20
115.9695300047
 30
0.0
 10
90.7798380951
 20
116.126163585
 30
0.0
  0
SPLINE
  5
623
100
AcDbEntity
  8
0
100
AcDbSpline
 62
7
  6
BYLAYER
 70
0
 71
3
 72
9
 73
5
 74
0
 42
0.0000001
 43
0.0000001
 44
0.0000000001
 40
0.0
 40
0.0
 40
0.0
 40
0.0
 40
0.2461996355
 40
1.0
 40
1.0
 40
1.0
 40
1.0
 10
58.8030144063
 20
59.1959949766
 30
0.0
 10
58.7847717597
 20
59.1905507096
 30
0.0
 10
58.7101111556
 20
59.1703544772
 30
0.0
 10
58.633408037
 20
59.1578583089
 30
0.0
 10
58.5753621586
 20
59.1525446196
 30
0.0
  0
SPLINE
  5
624
100
AcDbEntity
  8
0
100
AcDbSpline
 62
7
  6
BYLAYER
 70
0
 71
3
 72
15
 73
11
 74
0
 42
0.0000001
 43
0.0000001
 44
0.0000000001
 40
0.0
 40
0.0
 40
0.0
 40
0.0
 40
0.1994164376
 40
0.2594900075
 40
0.3230217468
 40
0.4581981409
 40
0.5997143037
 40
0.7412523568
 40
0.8764822659
 40
1.0
 40
1.0
 40
1.0
 40
1.0
 10
58.5753621586
 20
59.1525446196
 30
0.0
 10
58.195708869
 20
59.1177900485
 30
0.0
 10
57.6862926089
 20
59.2962298101
 30
0.0
 10
57.173201687
 20
59.6339964947
 30
0.0
 10
56.7873736594
 20
59.9461293032
 30
0.0
 10
56.3406605593
 20
60.4229603347
 30
0.0
 10
55.8886621874
 20
61.0860968853
 30
0.0
 10
55.5397254083
 20
61.8090953962
 30
0.0
 10
55.3165051438
 20
62.5442633827
 30
0.0
 10
55.2580021639
 20
63.0394938099
 30
0.0
 10
55.2580021639
 20
63.2756327796
 30
0.0
  0
SPLINE
  5
625
100
AcDbEntity
  8
0
100
AcDbSpline
 62
7
  6
BYLAYER
 70
0
 71
3
 72
11
 73
7
 74
0
 42
0.0000001
 43
0.0000001
 44
0.0000000001
 40
0.0
 40
0.0
 40
0.0
 40
0.0
 40
0.2177839466
 40
0.4509170841
 40
0.710307871
 40
1.0
 40
1.0
 40
1.0
 40
1.0
 10
55.4809719611
 20
64.4612549321
 30
0.0
 10
55.3778965571
 20
64.4017259119
 30
0.0
 10
55.1850161859
 20
64.2396051722
 30
0.0
 10
54.9796902337
 20
63.9038710336
 30
0.0
 10
54.8577453022
 20
63.4901405513
 30
0.0
 10
54.8337398616
 20
63.1890183365
 30
0.0
 10
54.8337398616
 20
63.0306862873
 30
0.0
  0
SPLINE
  5
626
100
AcDbEntity
  8
0
100
AcDbSpline
 62
7
  6
BYLAYER
 70
0
 71
3
 72
9
 73
5
 74
0
 42
0.0000001
 43
0.0000001
 44
0.0000000001
 40
0.0
 40
0.0
 40
0.0
 40
0.0
 40
0.2461996355
 40
1.0
 40
1.0
 40
1.0
 40
1.0
 10
52.6865152838
 20
62.7272775032
 30
0.0
 10
52.6682726371
 20
62.7218332362
 30
0.0
 10
52.593612033
 20
62.7016370038
 30
0.0
 10
52.5169089145
 20
62.6891408355
 30
0.0
 10
52.4588630361
 20
62.6838271462
 30
0.0
  0
SPLINE
  5
627
100
AcDbEntity
  8
0
100
AcDbSpline
 62
7
  6
BYLAYER
 70
0
 71
3
 72
15
 73
11
 74
0
 42
0.0000001
 43
0.0000001
 44
0.0000000001
 40
0.0
 40
0.0
 40
0.0
 40
0.0
 40
0.1994164376
 40
0.2594900075
 40
0.3230217468
 40
0.4581981409
 40
0.5997143037
 40
0.7412523568
 40
0.8764822659
 40
1.0
 40
1.0
 40
1.0
 40
1.0
 10
52.4588630361
 20
62.6838271462
 30
0.0
 10
52.0792097465
 20
62.6490725751
 30
0.0
 10
51.5697934863
 20
62.8275123367
 30
0.0
 10
51.0567025645
 20
63.1652790213
 30
0.0
 10
50.6708745369
 20
63.4774118298
 30
0.0
 10
50.2241614368
 20
63.9542428613
 30
0.0
 10
49.7721630649
 20
64.6173794119
 30
0.0
 10
49.4232262858
 20
65.3403779228
 30
0.0
 10
49.2000060212
 20
66.0755459093
 30
0.0
 10
49.1415030414
 20
66.5707763365
 30
0.0
 10
49.1415030414
 20
66.8069153062
 30
0.0
  0
SPLINE
  5
628
100
AcDbEntity
  8
0
100
AcDbSpline
 62
7
  6
BYLAYER
 70
0
 71
3
 72
11
 73
7
 74
0
 42
0.0000001
 43
0.0000001
 44
0.0000000001
 40
0.0
 40
0.0
 40
0.0
 40
0.0
 40
0.2177839466
 40
0.4509170841
 40
0.710307871
 40
1.0
 40
1.0
 40
1.0
 40
1.0
 10
49.3644728386
 20
67.9925374587
 30
0.0
 10
49.2613974346
 20
67.9330084385
 30
0.0
 10
49.0685170633
 20
67.7708876988
 30
0.0
 10
48.8631911112
 20
67.4351535602
 30
0.0
 10
48.7412461797
 20
67.0214230779
 30
0.0
 10
48.7172407391
 20
66.7203008631
 30
0.0
 10
48.7172407391
 20
66.5619688139
 30
0.0
  0
SPLINE
  5
629
100
AcDbEntity
  8
0
100
AcDbSpline
 62
7
  6
BYLAYER
 70
0
 71
3
 72
9
 73
5
 74
0
 42
0.0000001
 43
0.0000001
 44
0.0000000001
 40
0.0
 40
0.0
 40
0.0
 40
0.0
 40
0.2461996355
 40
1.0
 40
1.0
 40
1.0
 40
1.0
 10
52.6865152838
 20
89.8759828727
 30
0.0
 10
52.6682726371
 20
89.8705386058
 30
0.0
 10
52.593612033
 20
89.8503423733
 30
0.0
 10
52.5169089145
 20
89.8378462051
 30
0.0
 10
52.4588630361
 20
89.8325325158
 30
0.0
  0
SPLINE
  5
62A
100
AcDbEntity
  8
0
100
AcDbSpline
 62
7
  6
BYLAYER
 70
0
 71
3
 72
15
 73
11
 74
0
 42
0.0000001
 43
0.0000001
 44
0.0000000001
 40
0.0
 40
0.0
 40
0.0
 40
0.0
 40
0.1994164376
 40
0.2594900075
 40
0.3230217468
 40
0.4581981409
 40
0.5997143037
 40
0.7412523568
 40
0.8764822659
 40
1.0
 40
1.0
 40
1.0
 40
1.0
 10
52.4588630361
 20
89.8325325158
 30
0.0
 10
52.0792097465
 20
89.7977779447
 30
0.0
 10
51.5697934863
 20
89.9762177062
 30
0.0
 10
51.0567025645
 20
90.3139843909
 30
0.0
 10
50.6708745369
 20
90.6261171994
 30
0.0
 10
50.2241614368
 20
91.1029482308
 30
0.0
 10
49.7721630649
 20
91.7660847815
 30
0.0
 10
49.4232262858
 20
92.4890832923
 30
0.0
 10
49.2000060212
 20
93.2242512789
 30
0.0
 10
49.1415030414
 20
93.7194817061
 30
0.0
 10
49.1415030414
 20
93.9556206758
 30
0.0
  0
SPLINE
  5
62B
100
AcDbEntity
  8
0
100
AcDbSpline
 62
7
  6
BYLAYER
 70
0
 71
3
 72
11
 73
7
 74
0
 42
0.0000001
 43
0.0000001
 44
0.0000000001
 40
0.0
 40
0.0
 40
0.0
 40
0.0
 40
0.2177839466
 40
0.4509170841
 40
0.710307871
 40
1.0
 40
1.0
 40
1.0
 40
1.0
 10
49.3644728386
 20
95.1412428283
 30
0.0
 10
49.2613974346
 20
95.0817138081
 30
0.0
 10
49.0685170633
 20
94.9195930684
 30
0.0
 10
48.8631911112
 20
94.5838589297
 30
0.0
 10
48.7412461797
 20
94.1701284474
 30
0.0
 10
48.7172407391
 20
93.8690062327
 30
0.0
 10
48.7172407391
 20
93.7106741835
 30
0.0
  0
SPLINE
  5
62C
100
AcDbEntity
  8
0
100
AcDbSpline
 62
7
  6
BYLAYER
 70
0
 71
3
 72
16
 73
12
 74
0
 42
0.0000001
 43
0.0000001
 44
0.0000000001
 40
0.0
 40
0.0
 40
0.0
 40
0.0
 40
0.044542679
 40
0.0903850738
 40
0.1906261481
 40
0.3071814632
 40
0.4393584681
 40
0.5821496676
 40
0.7282971577
 40
0.8699158406
 40
1.0
 40
1.0
 40
1.0
 40
1.0
 10
73.321890299
 20
125.111571313
 30
0.0
 10
73.2754081497
 20
125.08470867
 30
0.0
 10
73.1739271702
 20
125.0417014229
 30
0.0
 10
72.9452429401
 20
125.004597959
 30
0.0
 10
72.6249872173
 20
125.0616292953
 30
0.0
 10
72.2516113785
 20
125.2654353162
 30
0.0
 10
71.8991390769
 20
125.5846038788
 30
0.0
 10
71.5943712103
 20
125.9939910141
 30
0.0
 10
71.3611232481
 20
126.4606120878
 30
0.0
 10
71.2181352577
 20
126.9462245421
 30
0.0
 10
71.1894668472
 20
127.2757793038
 30
0.0
 10
71.1963968392
 20
127.432412884
 30
0.0
  0
SPLINE
  5
62D
100
AcDbEntity
  8
0
100
AcDbSpline
 62
7
  6
BYLAYER
 70
0
 71
3
 72
9
 73
5
 74
0
 42
0.0000001
 43
0.0000001
 44
0.0000000001
 40
0.0
 40
0.0
 40
0.0
 40
0.0
 40
0.2461996355
 40
1.0
 40
1.0
 40
1.0
 40
1.0
 10
58.8030144063
 20
86.3447003461
 30
0.0
 10
58.7847717597
 20
86.3392560792
 30
0.0
 10
58.7101111556
 20
86.3190598467
 30
0.0
 10
58.633408037
 20
86.3065636785
 30
0.0
 10
58.5753621586
 20
86.3012499892
 30
0.0
  0
SPLINE
  5
62E
100
AcDbEntity
  8
0
100
AcDbSpline
 62
7
  6
BYLAYER
 70
0
 71
3
 72
15
 73
11
 74
0
 42
0.0000001
 43
0.0000001
 44
0.0000000001
 40
0.0
 40
0.0
 40
0.0
 40
0.0
 40
0.1994164376
 40
0.2594900075
 40
0.3230217468
 40
0.4581981409
 40
0.5997143037
 40
0.7412523568
 40
0.8764822659
 40
1.0
 40
1.0
 40
1.0
 40
1.0
 10
58.5753621586
 20
86.3012499892
 30
0.0
 10
58.195708869
 20
86.2664954181
 30
0.0
 10
57.6862926089
 20
86.4449351796
 30
0.0
 10
57.173201687
 20
86.7827018643
 30
0.0
 10
56.7873736594
 20
87.0948346728
 30
0.0
 10
56.3406605593
 20
87.5716657042
 30
0.0
 10
55.8886621874
 20
88.2348022549
 30
0.0
 10
55.5397254083
 20
88.9578007657
 30
0.0
 10
55.3165051438
 20
89.6929687523
 30
0.0
 10
55.2580021639
 20
90.1881991795
 30
0.0
 10
55.2580021639
 20
90.4243381492
 30
0.0
  0
SPLINE
  5
62F
100
AcDbEntity
  8
0
100
AcDbSpline
 62
7
  6
BYLAYER
 70
0
 71
3
 72
9
 73
5
 74
0
 42
0.0000001
 43
0.0000001
 44
0.0000000001
 40
0.0
 40
0.0
 40
0.0
 40
0.0
 40
0.2461996355
 40
1.0
 40
1.0
 40
1.0
 40
1.0
 10
39.0746530747
 20
70.5859120277
 30
0.0
 10
39.0564104281
 20
70.5804677608
 30
0.0
 10
38.981749824
 20
70.5602715283
 30
0.0
 10
38.9050467054
 20
70.54777536
 30
0.0
 10
38.847000827
 20
70.5424616708
 30
0.0
  0
SPLINE
  5
630
100
AcDbEntity
  8
0
100
AcDbSpline
 62
7
  6
BYLAYER
 70
0
 71
3
 72
15
 73
11
 74
0
 42
0.0000001
 43
0.0000001
 44
0.0000000001
 40
0.0
 40
0.0
 40
0.0
 40
0.0
 40
0.1994164376
 40
0.2594900075
 40
0.3230217468
 40
0.4581981409
 40
0.5997143037
 40
0.7412523568
 40
0.8764822659
 40
1.0
 40
1.0
 40
1.0
 40
1.0
 10
38.847000827
 20
70.5424616708
 30
0.0
 10
38.4673475374
 20
70.5077070997
 30
0.0
 10
37.9579312773
 20
70.6861468612
 30
0.0
 10
37.4448403554
 20
71.0239135458
 30
0.0
 10
37.0590123278
 20
71.3360463544
 30
0.0
 10
36.6122992277
 20
71.8128773858
 30
0.0
 10
36.1603008558
 20
72.4760139364
 30
0.0
 10
35.8113640767
 20
73.1990124473
 30
0.0
 10
35.5881438122
 20
73.9341804339
 30
0.0
 10
35.5296408323
 20
74.429410861
 30
0.0
 10
35.5296408323
 20
74.6655498307
 30
0.0
  0
SPLINE
  5
631
100
AcDbEntity
  8
0
100
AcDbSpline
 62
7
  6
BYLAYER
 70
0
 71
3
 72
10
 73
6
 74
0
 42
0.0000001
 43
0.0000001
 44
0.0000000001
 40
0.0
 40
0.0
 40
0.0
 40
0.0
 40
0.5209410643
 40
0.7693051774
 40
1.0
 40
1.0
 40
1.0
 40
1.0
 10
109.5598423248
 20
103.4731364112
 30
0.0
 10
109.3992827827
 20
103.7294910485
 30
0.0
 10
109.2110859987
 20
104.1429170555
 30
0.0
 10
109.0869813106
 20
104.711567386
 30
0.0
 10
109.0714923144
 20
104.9911084411
 30
0.0
 10
109.0774130553
 20
105.1249306506
 30
0.0
  0
SPLINE
  5
632
100
AcDbEntity
  8
0
100
AcDbSpline
 62
7
  6
BYLAYER
 70
0
 71
3
 72
11
 73
7
 74
0
 42
0.0000001
 43
0.0000001
 44
0.0000000001
 40
0.0
 40
0.0
 40
0.0
 40
0.0
 40
0.2177839466
 40
0.4509170841
 40
0.710307871
 40
1.0
 40
1.0
 40
1.0
 40
1.0
 10
55.4809719611
 20
91.6099603017
 30
0.0
 10
55.3778965571
 20
91.5504312815
 30
0.0
 10
55.1850161859
 20
91.3883105418
 30
0.0
 10
54.9796902337
 20
91.0525764031
 30
0.0
 10
54.8577453022
 20
90.6388459208
 30
0.0
 10
54.8337398616
 20
90.3377237061
 30
0.0
 10
54.8337398616
 20
90.1793916569
 30
0.0
  0
SPLINE
  5
633
100
AcDbEntity
  8
0
100
AcDbSpline
 62
7
  6
BYLAYER
 70
0
 71
3
 72
11
 73
7
 74
0
 42
0.0000001
 43
0.0000001
 44
0.0000000001
 40
0.0
 40
0.0
 40
0.0
 40
0.0
 40
0.2859656944
 40
0.5450090039
 40
0.7800069619
 40
1.0
 40
1.0
 40
1.0
 40
1.0
 10
109.1143804236
 20
105.9604772471
 30
0.0
 10
109.1190915041
 20
106.067635945
 30
0.0
 10
109.1445432566
 20
106.2718020437
 30
0.0
 10
109.2391264533
 20
106.5512289172
 30
0.0
 10
109.3870148066
 20
106.7784602605
 30
0.0
 10
109.5212908841
 20
106.8892090859
 30
0.0
 10
109.5927359802
 20
106.9304958884
 30
0.0
  0
SPLINE
  5
634
100
AcDbEntity
  8
0
100
AcDbSpline
 62
7
  6
BYLAYER
 70
0
 71
3
 72
17
 73
13
 74
0
 42
0.0000001
 43
0.0000001
 44
0.0000000001
 40
0.0
 40
0.0
 40
0.0
 40
0.0
 40
0.0445297935
 40
0.0903589269
 40
0.1905710031
 40
0.2468685486
 40
0.3073818842
 40
0.4395206524
 40
0.5822705448
 40
0.7283757568
 40
0.8699534718
 40
1.0
 40
1.0
 40
1.0
 40
1.0
 10
54.9483545788
 20
135.5673922446
 30
0.0
 10
54.8954165755
 20
135.5367986789
 30
0.0
 10
54.7798293477
 20
135.4878167944
 30
0.0
 10
54.5194586784
 20
135.445569158
 30
0.0
 10
54.2378698262
 20
135.4955614952
 30
0.0
 10
53.9644228666
 20
135.6149101566
 30
0.0
 10
53.6720904365
 20
135.7942036834
 30
0.0
 10
53.3279589146
 20
136.1062887083
 30
0.0
 10
52.980913686
 20
136.5723233453
 30
0.0
 10
52.7152557686
 20
137.1038121401
 30
0.0
 10
52.5524121098
 20
137.6568552453
 30
0.0
 10
52.5197612031
 20
138.0321846785
 30
0.0
 10
52.527653694
 20
138.2105729227
 30
0.0
  0
SPLINE
  5
635
100
AcDbEntity
  8
0
100
AcDbSpline
 62
7
  6
BYLAYER
 70
0
 71
3
 72
9
 73
5
 74
0
 42
0.0000001
 43
0.0000001
 44
0.0000000001
 40
0.0
 40
0.0
 40
0.0
 40
0.0
 40
0.2461996355
 40
1.0
 40
1.0
 40
1.0
 40
1.0
 10
64.9195135288
 20
82.8134178195
 30
0.0
 10
64.9012708822
 20
82.8079735526
 30
0.0
 10
64.8266102781
 20
82.7877773201
 30
0.0
 10
64.7499071596
 20
82.7752811519
 30
0.0
 10
64.6918612812
 20
82.7699674626
 30
0.0
  0
SPLINE
  5
636
100
AcDbEntity
  8
0
100
AcDbSpline
 62
7
  6
BYLAYER
 70
0
 71
3
 72
15
 73
11
 74
0
 42
0.0000001
 43
0.0000001
 44
0.0000000001
 40
0.0
 40
0.0
 40
0.0
 40
0.0
 40
0.1994164376
 40
0.2594900075
 40
0.3230217468
 40
0.4581981409
 40
0.5997143037
 40
0.7412523568
 40
0.8764822659
 40
1.0
 40
1.0
 40
1.0
 40
1.0
 10
64.6918612812
 20
82.7699674626
 30
0.0
 10
64.3122079915
 20
82.7352128915
 30
0.0
 10
63.8027917314
 20
82.913652653
 30
0.0
 10
63.2897008095
 20
83.2514193377
 30
0.0
 10
62.903872782
 20
83.5635521462
 30
0.0
 10
62.4571596819
 20
84.0403831776
 30
0.0
 10
62.0051613099
 20
84.7035197283
 30
0.0
 10
61.6562245308
 20
85.4265182391
 30
0.0
 10
61.4330042663
 20
86.1616862257
 30
0.0
 10
61.3745012864
 20
86.6569166529
 30
0.0
 10
61.3745012864
 20
86.8930556226
 30
0.0
  0
SPLINE
  5
637
100
AcDbEntity
  8
0
100
AcDbSpline
 62
7
  6
BYLAYER
 70
0
 71
3
 72
11
 73
7
 74
0
 42
0.0000001
 43
0.0000001
 44
0.0000000001
 40
0.0
 40
0.0
 40
0.0
 40
0.0
 40
0.2177839466
 40
0.4509170841
 40
0.710307871
 40
1.0
 40
1.0
 40
1.0
 40
1.0
 10
61.5974710837
 20
88.0786777751
 30
0.0
 10
61.4943956796
 20
88.0191487549
 30
0.0
 10
61.3015153084
 20
87.8570280152
 30
0.0
 10
61.0961893562
 20
87.5212938765
 30
0.0
 10
60.9742444247
 20
87.1075633942
 30
0.0
 10
60.9502389841
 20
86.8064411795
 30
0.0
 10
60.9502389841
 20
86.6481091303
 30
0.0
  0
SPLINE
  5
638
100
AcDbEntity
  8
0
100
AcDbSpline
 62
7
  6
BYLAYER
 70
0
 71
3
 72
11
 73
7
 74
0
 42
0.0000001
 43
0.0000001
 44
0.0000000001
 40
0.0
 40
0.0
 40
0.0
 40
0.0
 40
0.2177839466
 40
0.4509170841
 40
0.710307871
 40
1.0
 40
1.0
 40
1.0
 40
1.0
 10
35.7526106295
 20
75.8511719832
 30
0.0
 10
35.6495352255
 20
75.7916429631
 30
0.0
 10
35.4566548543
 20
75.6295222233
 30
0.0
 10
35.2513289021
 20
75.2937880847
 30
0.0
 10
35.1293839706
 20
74.8800576024
 30
0.0
 10
35.10537853
 20
74.5789353876
 30
0.0
 10
35.10537853
 20
74.4206033384
 30
0.0
  0
SPLINE
  5
639
100
AcDbEntity
  8
0
100
AcDbSpline
 62
7
  6
BYLAYER
 70
0
 71
3
 72
9
 73
5
 74
0
 42
0.0000001
 43
0.0000001
 44
0.0000000001
 40
0.0
 40
0.0
 40
0.0
 40
0.0
 40
0.2461996355
 40
1.0
 40
1.0
 40
1.0
 40
1.0
 10
71.0360126513
 20
79.2821352929
 30
0.0
 10
71.0177700047
 20
79.276691026
 30
0.0
 10
70.9431094006
 20
79.2564947935
 30
0.0
 10
70.8664062821
 20
79.2439986253
 30
0.0
 10
70.8083604037
 20
79.238684936
 30
0.0
  0
SPLINE
  5
63A
100
AcDbEntity
  8
0
100
AcDbSpline
 62
7
  6
BYLAYER
 70
0
 71
3
 72
15
 73
11
 74
0
 42
0.0000001
 43
0.0000001
 44
0.0000000001
 40
0.0
 40
0.0
 40
0.0
 40
0.0
 40
0.1994164376
 40
0.2594900075
 40
0.3230217468
 40
0.4581981409
 40
0.5997143037
 40
0.7412523568
 40
0.8764822659
 40
1.0
 40
1.0
 40
1.0
 40
1.0
 10
70.8083604037
 20
79.238684936
 30
0.0
 10
70.4287071141
 20
79.2039303649
 30
0.0
 10
69.9192908539
 20
79.3823701264
 30
0.0
 10
69.4061999321
 20
79.7201368111
 30
0.0
 10
69.0203719045
 20
80.0322696196
 30
0.0
 10
68.5736588044
 20
80.509100651
 30
0.0
 10
68.1216604324
 20
81.1722372017
 30
0.0
 10
67.7727236534
 20
81.8952357125
 30
0.0
 10
67.5495033888
 20
82.6304036991
 30
0.0
 10
67.4910004089
 20
83.1256341263
 30
0.0
 10
67.4910004089
 20
83.361773096
 30
0.0
  0
SPLINE
  5
63B
100
AcDbEntity
  8
0
100
AcDbSpline
 62
7
  6
BYLAYER
 70
0
 71
3
 72
11
 73
7
 74
0
 42
0.0000001
 43
0.0000001
 44
0.0000000001
 40
0.0
 40
0.0
 40
0.0
 40
0.0
 40
0.2177839466
 40
0.4509170841
 40
0.710307871
 40
1.0
 40
1.0
 40
1.0
 40
1.0
 10
67.7139702062
 20
84.5473952485
 30
0.0
 10
67.6108948022
 20
84.4878662283
 30
0.0
 10
67.4180144309
 20
84.3257454886
 30
0.0
 10
67.2126884788
 20
83.9900113499
 30
0.0
 10
67.0907435472
 20
83.5762808676
 30
0.0
 10
67.0667381066
 20
83.2751586529
 30
0.0
 10
67.0667381066
 20
83.1168266037
 30
0.0
  0
SPLINE
  5
63C
100
AcDbEntity
  8
0
100
AcDbSpline
 62
7
  6
BYLAYER
 70
0
 71
3
 72
9
 73
5
 74
0
 42
0.0000001
 43
0.0000001
 44
0.0000000001
 40
0.0
 40
0.0
 40
0.0
 40
0.0
 40
0.2461996355
 40
1.0
 40
1.0
 40
1.0
 40
1.0
 10
32.9581539522
 20
74.1171945543
 30
0.0
 10
32.9399113055
 20
74.1117502874
 30
0.0
 10
32.8652507014
 20
74.0915540549
 30
0.0
 10
32.7885475829
 20
74.0790578866
 30
0.0
 10
32.7305017045
 20
74.0737441974
 30
0.0
  0
SPLINE
  5
63D
100
AcDbEntity
  8
0
100
AcDbSpline
 62
7
  6
BYLAYER
 70
0
 71
3
 72
15
 73
11
 74
0
 42
0.0000001
 43
0.0000001
 44
0.0000000001
 40
0.0
 40
0.0
 40
0.0
 40
0.0
 40
0.1994164376
 40
0.2594900075
 40
0.3230217468
 40
0.4581981409
 40
0.5997143037
 40
0.7412523568
 40
0.8764822659
 40
1.0
 40
1.0
 40
1.0
 40
1.0
 10
32.7305017045
 20
74.0737441974
 30
0.0
 10
32.3508484149
 20
74.0389896263
 30
0.0
 10
31.8414321547
 20
74.2174293878
 30
0.0
 10
31.3283412329
 20
74.5551960724
 30
0.0
 10
30.9425132053
 20
74.867328881
 30
0.0
 10
30.4958001052
 20
75.3441599124
 30
0.0
 10
30.0438017333
 20
76.007296463
 30
0.0
 10
29.6948649542
 20
76.7302949739
 30
0.0
 10
29.4716446896
 20
77.4654629605
 30
0.0
 10
29.4131417098
 20
77.9606933876
 30
0.0
 10
29.4131417098
 20
78.1968323573
 30
0.0
  0
SPLINE
  5
63E
100
AcDbEntity
  8
0
100
AcDbSpline
 62
7
  6
BYLAYER
 70
0
 71
3
 72
9
 73
5
 74
0
 42
0.0000001
 43
0.0000001
 44
0.0000000001
 40
0.0
 40
0.0
 40
0.0
 40
0.0
 40
0.2461996355
 40
1.0
 40
1.0
 40
1.0
 40
1.0
 10
77.1525117738
 20
47.948945463
 30
0.0
 10
77.1342691272
 20
47.9435011961
 30
0.0
 10
77.0596085231
 20
47.9233049637
 30
0.0
 10
76.9829054046
 20
47.9108087954
 30
0.0
 10
76.9248595262
 20
47.9054951061
 30
0.0
  0
SPLINE
  5
63F
100
AcDbEntity
  8
0
100
AcDbSpline
 62
7
  6
BYLAYER
 70
0
 71
3
 72
15
 73
11
 74
0
 42
0.0000001
 43
0.0000001
 44
0.0000000001
 40
0.0
 40
0.0
 40
0.0
 40
0.0
 40
0.1994164376
 40
0.2594900075
 40
0.3230217468
 40
0.4581981409
 40
0.5997143037
 40
0.7412523568
 40
0.8764822659
 40
1.0
 40
1.0
 40
1.0
 40
1.0
 10
76.9248595262
 20
47.9054951061
 30
0.0
 10
76.5452062366
 20
47.870740535
 30
0.0
 10
76.0357899764
 20
48.0491802965
 30
0.0
 10
75.5226990546
 20
48.3869469812
 30
0.0
 10
75.136871027
 20
48.6990797897
 30
0.0
 10
74.6901579269
 20
49.1759108212
 30
0.0
 10
74.238159555
 20
49.8390473718
 30
0.0
 10
73.8892227759
 20
50.5620458826
 30
0.0
 10
73.6660025113
 20
51.2972138692
 30
0.0
 10
73.6074995315
 20
51.7924442964
 30
0.0
 10
73.6074995315
 20
52.0285832661
 30
0.0
  0
SPLINE
  5
640
100
AcDbEntity
  8
0
100
AcDbSpline
 62
7
  6
BYLAYER
 70
0
 71
3
 72
11
 73
7
 74
0
 42
0.0000001
 43
0.0000001
 44
0.0000000001
 40
0.0
 40
0.0
 40
0.0
 40
0.0
 40
0.2177839466
 40
0.4509170841
 40
0.710307871
 40
1.0
 40
1.0
 40
1.0
 40
1.0
 10
29.636111507
 20
79.3824545098
 30
0.0
 10
29.533036103
 20
79.3229254897
 30
0.0
 10
29.3401557317
 20
79.1608047499
 30
0.0
 10
29.1348297796
 20
78.8250706113
 30
0.0
 10
29.0128848481
 20
78.411340129
 30
0.0
 10
28.9888794075
 20
78.1102179142
 30
0.0
 10
28.9888794075
 20
77.951885865
 30
0.0
  0
SPLINE
  5
641
100
AcDbEntity
  8
0
100
AcDbSpline
 62
7
  6
BYLAYER
 70
0
 71
3
 72
10
 73
6
 74
0
 42
0.0000001
 43
0.0000001
 44
0.0000000001
 40
0.0
 40
0.0
 40
0.0
 40
0.0
 40
0.2783602789
 40
0.5377474743
 40
1.0
 40
1.0
 40
1.0
 40
1.0
 10
35.5296408323
 20
74.6655498307
 30
0.0
 10
35.5296408323
 20
74.7732351991
 30
0.0
 10
35.5411995233
 20
74.9817059313
 30
0.0
 10
35.6116192073
 20
75.3623321152
 30
0.0
 10
35.7238553488
 20
75.6261328793
 30
0.0
 10
35.8269730777
 20
75.7722328019
 30
0.0
  0
SPLINE
  5
642
100
AcDbEntity
  8
0
100
AcDbSpline
 62
7
  6
BYLAYER
 70
0
 71
3
 72
9
 73
5
 74
0
 42
0.0000001
 43
0.0000001
 44
0.0000000001
 40
0.0
 40
0.0
 40
0.0
 40
0.0
 40
0.2543937375
 40
1.0
 40
1.0
 40
1.0
 40
1.0
 10
35.8269730777
 20
75.7722328019
 30
0.0
 10
35.8380872168
 20
75.7879796078
 30
0.0
 10
35.8831958178
 20
75.8488599615
 30
0.0
 10
35.9340877483
 20
75.9054911747
 30
0.0
 10
35.9749583522
 20
75.9444880282
 30
0.0
  0
SPLINE
  5
643
100
AcDbEntity
  8
0
100
AcDbSpline
 62
7
  6
BYLAYER
 70
0
 71
3
 72
11
 73
7
 74
0
 42
0.0000001
 43
0.0000001
 44
0.0000000001
 40
0.0
 40
0.0
 40
0.0
 40
0.0
 40
0.2177839466
 40
0.4509170841
 40
0.710307871
 40
1.0
 40
1.0
 40
1.0
 40
1.0
 10
73.8304693287
 20
53.2142054186
 30
0.0
 10
73.7273939247
 20
53.1546763984
 30
0.0
 10
73.5345135534
 20
52.9925556587
 30
0.0
 10
73.3291876013
 20
52.6568215201
 30
0.0
 10
73.2072426698
 20
52.2430910377
 30
0.0
 10
73.1832372291
 20
51.941968823
 30
0.0
 10
73.1832372291
 20
51.7836367738
 30
0.0
  0
SPLINE
  5
644
100
AcDbEntity
  8
0
100
AcDbSpline
 62
7
  6
BYLAYER
 70
0
 71
3
 72
10
 73
6
 74
0
 42
0.0000001
 43
0.0000001
 44
0.0000000001
 40
0.0
 40
0.0
 40
0.0
 40
0.0
 40
0.2783602789
 40
0.5377474743
 40
1.0
 40
1.0
 40
1.0
 40
1.0
 10
29.4131417098
 20
78.1968323573
 30
0.0
 10
29.4131417098
 20
78.3045177257
 30
0.0
 10
29.4247004008
 20
78.5129884579
 30
0.0
 10
29.4951200848
 20
78.8936146418
 30
0.0
 10
29.6073562263
 20
79.1574154059
 30
0.0
 10
29.7104739552
 20
79.3035153285
 30
0.0
  0
SPLINE
  5
645
100
AcDbEntity
  8
0
100
AcDbSpline
 62
7
  6
BYLAYER
 70
0
 71
3
 72
9
 73
5
 74
0
 42
0.0000001
 43
0.0000001
 44
0.0000000001
 40
0.0
 40
0.0
 40
0.0
 40
0.0
 40
0.2543937375
 40
1.0
 40
1.0
 40
1.0
 40
1.0
 10
29.7104739552
 20
79.3035153285
 30
0.0
 10
29.7215880943
 20
79.3192621344
 30
0.0
 10
29.7666966953
 20
79.3801424881
 30
0.0
 10
29.8175886258
 20
79.4367737013
 30
0.0
 10
29.8584592296
 20
79.4757705548
 30
0.0
  0
SPLINE
  5
646
100
AcDbEntity
  8
0
100
AcDbSpline
 62
7
  6
BYLAYER
 70
0
 71
3
 72
9
 73
5
 74
0
 42
0.0000001
 43
0.0000001
 44
0.0000000001
 40
0.0
 40
0.0
 40
0.0
 40
0.0
 40
0.2461996355
 40
1.0
 40
1.0
 40
1.0
 40
1.0
 10
77.1525117738
 20
76.4040547
 30
0.0
 10
77.1342691272
 20
76.3986104331
 30
0.0
 10
77.0596085231
 20
76.3784142006
 30
0.0
 10
76.9829054046
 20
76.3659180324
 30
0.0
 10
76.9248595262
 20
76.3606043431
 30
0.0
  0
SPLINE
  5
647
100
AcDbEntity
  8
0
100
AcDbSpline
 62
7
  6
BYLAYER
 70
0
 71
3
 72
15
 73
11
 74
0
 42
0.0000001
 43
0.0000001
 44
0.0000000001
 40
0.0
 40
0.0
 40
0.0
 40
0.0
 40
0.1994164376
 40
0.2594900075
 40
0.3230217468
 40
0.4581981409
 40
0.5997143037
 40
0.7412523568
 40
0.8764822659
 40
1.0
 40
1.0
 40
1.0
 40
1.0
 10
76.9248595262
 20
76.3606043431
 30
0.0
 10
76.5452062366
 20
76.325849772
 30
0.0
 10
76.0357899764
 20
76.5042895335
 30
0.0
 10
75.5226990546
 20
76.8420562182
 30
0.0
 10
75.136871027
 20
77.1541890267
 30
0.0
 10
74.6901579269
 20
77.6310200581
 30
0.0
 10
74.238159555
 20
78.2941566088
 30
0.0
 10
73.8892227759
 20
79.0171551196
 30
0.0
 10
73.6660025113
 20
79.7523231062
 30
0.0
 10
73.6074995315
 20
80.2475535334
 30
0.0
 10
73.6074995315
 20
80.4836925031
 30
0.0
  0
SPLINE
  5
648
100
AcDbEntity
  8
0
100
AcDbSpline
 62
7
  6
BYLAYER
 70
0
 71
3
 72
11
 73
7
 74
0
 42
0.0000001
 43
0.0000001
 44
0.0000000001
 40
0.0
 40
0.0
 40
0.0
 40
0.0
 40
0.2177839466
 40
0.4509170841
 40
0.710307871
 40
1.0
 40
1.0
 40
1.0
 40
1.0
 10
73.8304693287
 20
81.6693146556
 30
0.0
 10
73.7273939247
 20
81.6097856354
 30
0.0
 10
73.5345135534
 20
81.4476648957
 30
0.0
 10
73.3291876013
 20
81.111930757
 30
0.0
 10
73.2072426698
 20
80.6982002747
 30
0.0
 10
73.1832372291
 20
80.39707806
 30
0.0
 10
73.1832372291
 20
80.2387460108
 30
0.0
  0
SPLINE
  5
649
100
AcDbEntity
  8
0
100
AcDbSpline
 62
7
  6
BYLAYER
 70
0
 71
3
 72
9
 73
5
 74
0
 42
0.0000001
 43
0.0000001
 44
0.0000000001
 40
0.0
 40
0.0
 40
0.0
 40
0.0
 40
0.2461996355
 40
1.0
 40
1.0
 40
1.0
 40
1.0
 10
26.8416548296
 20
77.6484770809
 30
0.0
 10
26.823412183
 20
77.643032814
 30
0.0
 10
26.7487515789
 20
77.6228365815
 30
0.0
 10
26.6720484604
 20
77.6103404132
 30
0.0
 10
26.614002582
 20
77.605026724
 30
0.0
  0
SPLINE
  5
64A
100
AcDbEntity
  8
0
100
AcDbSpline
 62
7
  6
BYLAYER
 70
0
 71
3
 72
15
 73
11
 74
0
 42
0.0000001
 43
0.0000001
 44
0.0000000001
 40
0.0
 40
0.0
 40
0.0
 40
0.0
 40
0.1994164376
 40
0.2594900075
 40
0.3230217468
 40
0.4581981409
 40
0.5997143037
 40
0.7412523568
 40
0.8764822659
 40
1.0
 40
1.0
 40
1.0
 40
1.0
 10
26.614002582
 20
77.605026724
 30
0.0
 10
26.2343492924
 20
77.5702721529
 30
0.0
 10
25.7249330322
 20
77.7487119144
 30
0.0
 10
25.2118421104
 20
78.086478599
 30
0.0
 10
24.8260140828
 20
78.3986114076
 30
0.0
 10
24.3793009827
 20
78.875442439
 30
0.0
 10
23.9273026108
 20
79.5385789896
 30
0.0
 10
23.5783658317
 20
80.2615775005
 30
0.0
 10
23.3551455671
 20
80.9967454871
 30
0.0
 10
23.2966425873
 20
81.4919759142
 30
0.0
 10
23.2966425873
 20
81.7281148839
 30
0.0
  0
SPLINE
  5
64B
100
AcDbEntity
  8
0
100
AcDbSpline
 62
7
  6
BYLAYER
 70
0
 71
3
 72
10
 73
6
 74
0
 42
0.0000001
 43
0.0000001
 44
0.0000000001
 40
0.0
 40
0.0
 40
0.0
 40
0.0
 40
0.2783602789
 40
0.5377474743
 40
1.0
 40
1.0
 40
1.0
 40
1.0
 10
23.2966425873
 20
81.7281148839
 30
0.0
 10
23.2966425873
 20
81.8358002523
 30
0.0
 10
23.3082012783
 20
82.0442709845
 30
0.0
 10
23.3786209623
 20
82.4248971684
 30
0.0
 10
23.4908571038
 20
82.6886979325
 30
0.0
 10
23.5939748327
 20
82.8347978551
 30
0.0
  0
SPLINE
  5
64C
100
AcDbEntity
  8
0
100
AcDbSpline
 62
7
  6
BYLAYER
 70
0
 71
3
 72
9
 73
5
 74
0
 42
0.0000001
 43
0.0000001
 44
0.0000000001
 40
0.0
 40
0.0
 40
0.0
 40
0.0
 40
0.2543937375
 40
1.0
 40
1.0
 40
1.0
 40
1.0
 10
23.5939748327
 20
82.8347978551
 30
0.0
 10
23.6050889718
 20
82.850544661
 30
0.0
 10
23.6501975728
 20
82.9114250147
 30
0.0
 10
23.7010895033
 20
82.9680562279
 30
0.0
 10
23.7419601071
 20
83.0070530814
 30
0.0
  0
SPLINE
  5
64D
100
AcDbEntity
  8
0
100
AcDbSpline
 62
7
  6
BYLAYER
 70
0
 71
3
 72
17
 73
13
 74
0
 42
0.0000001
 43
0.0000001
 44
0.0000000001
 40
0.0
 40
0.0
 40
0.0
 40
0.0
 40
0.1286930371
 40
0.2702795962
 40
0.4174375935
 40
0.5617786795
 40
0.6954478243
 40
0.81271112
 40
0.8646738576
 40
0.9125098523
 40
0.9571380034
 40
1.0
 40
1.0
 40
1.0
 40
1.0
 10
73.1832372291
 20
80.2387460108
 30
0.0
 10
73.1832372291
 20
79.9716279316
 30
0.0
 10
73.2579559534
 20
79.4099873237
 30
0.0
 10
73.536892069
 20
78.5853468197
 30
0.0
 10
73.966662079
 20
77.7909565364
 30
0.0
 10
74.512772852
 20
77.0919625198
 30
0.0
 10
75.1305635013
 20
76.5448274992
 30
0.0
 10
75.6897364918
 20
76.2390428131
 30
0.0
 10
76.1271622948
 20
76.1227093888
 30
0.0
 10
76.4282179231
 20
76.1005064274
 30
0.0
 10
76.7085417207
 20
76.1416624708
 30
0.0
 10
76.8784006632
 20
76.2121796836
 30
0.0
 10
76.9554409117
 20
76.2566726502
 30
0.0
  0
SPLINE
  5
64E
100
AcDbEntity
  8
0
100
AcDbSpline
 62
7
  6
BYLAYER
 70
0
 71
3
 72
16
 73
12
 74
0
 42
0.0000001
 43
0.0000001
 44
0.0000000001
 40
0.0
 40
0.0
 40
0.0
 40
0.0
 40
0.0445430326
 40
0.0903872744
 40
0.1906265576
 40
0.3071797289
 40
0.4393537145
 40
0.5821461934
 40
0.7282851289
 40
0.8699253238
 40
1.0
 40
1.0
 40
1.0
 40
1.0
 10
67.059059054
 20
128.8372568715
 30
0.0
 10
67.0203161107
 20
128.8148849738
 30
0.0
 10
66.935785701
 20
128.7789552686
 30
0.0
 10
66.7451852995
 20
128.7481504463
 30
0.0
 10
66.478328058
 20
128.7956167993
 30
0.0
 10
66.1671839098
 20
128.9654707702
 30
0.0
 10
65.873452999
 20
129.2314219607
 30
0.0
 10
65.6195071606
 20
129.5725800836
 30
0.0
 10
65.4250777236
 20
129.9614163434
 30
0.0
 10
65.3059797713
 20
130.3661105287
 30
0.0
 10
65.2820515397
 20
130.6407434274
 30
0.0
 10
65.2878260595
 20
130.7712607088
 30
0.0
  0
SPLINE
  5
64F
100
AcDbEntity
  8
0
100
AcDbSpline
 62
7
  6
BYLAYER
 70
0
 71
3
 72
17
 73
13
 74
0
 42
0.0000001
 43
0.0000001
 44
0.0000000001
 40
0.0
 40
0.0
 40
0.0
 40
0.0
 40
0.1286930371
 40
0.2702795962
 40
0.4174375935
 40
0.5617786795
 40
0.6954478243
 40
0.81271112
 40
0.8646738576
 40
0.9125098523
 40
0.9571380034
 40
1.0
 40
1.0
 40
1.0
 40
1.0
 10
73.1832372291
 20
51.7836367738
 30
0.0
 10
73.1832372291
 20
51.5165186947
 30
0.0
 10
73.2579559534
 20
50.9548780868
 30
0.0
 10
73.536892069
 20
50.1302375827
 30
0.0
 10
73.966662079
 20
49.3358472995
 30
0.0
 10
74.512772852
 20
48.6368532829
 30
0.0
 10
75.1305635013
 20
48.0897182622
 30
0.0
 10
75.6897364918
 20
47.7839335761
 30
0.0
 10
76.1271622948
 20
47.6676001519
 30
0.0
 10
76.4282179231
 20
47.6453971905
 30
0.0
 10
76.7085417207
 20
47.6865532339
 30
0.0
 10
76.8784006632
 20
47.7570704466
 30
0.0
 10
76.9554409117
 20
47.8015634132
 30
0.0
  0
SPLINE
  5
650
100
AcDbEntity
  8
0
100
AcDbSpline
 62
7
  6
BYLAYER
 70
0
 71
3
 72
17
 73
13
 74
0
 42
0.0000001
 43
0.0000001
 44
0.0000000001
 40
0.0
 40
0.0
 40
0.0
 40
0.0
 40
0.1286930371
 40
0.2702795962
 40
0.4174375935
 40
0.5617786795
 40
0.6954478243
 40
0.81271112
 40
0.8646738576
 40
0.9125098523
 40
0.9571380034
 40
1.0
 40
1.0
 40
1.0
 40
1.0
 10
67.0667381066
 20
83.1168266037
 30
0.0
 10
67.0667381066
 20
82.8497085245
 30
0.0
 10
67.1414568309
 20
82.2880679166
 30
0.0
 10
67.4203929465
 20
81.4634274126
 30
0.0
 10
67.8501629565
 20
80.6690371293
 30
0.0
 10
68.3962737295
 20
79.9700431127
 30
0.0
 10
69.0140643788
 20
79.4229080921
 30
0.0
 10
69.5732373692
 20
79.117123406
 30
0.0
 10
70.0106631723
 20
79.0007899817
 30
0.0
 10
70.3117188005
 20
78.9785870203
 30
0.0
 10
70.5920425982
 20
79.0197430637
 30
0.0
 10
70.7619015407
 20
79.0902602765
 30
0.0
 10
70.8389417892
 20
79.1347532431
 30
0.0
  0
SPLINE
  5
651
100
AcDbEntity
  8
0
100
AcDbSpline
 62
7
  6
BYLAYER
 70
0
 71
3
 72
11
 73
7
 74
0
 42
0.0000001
 43
0.0000001
 44
0.0000000001
 40
0.0
 40
0.0
 40
0.0
 40
0.0
 40
0.2859812244
 40
0.5450334131
 40
0.7800153409
 40
1.0
 40
1.0
 40
1.0
 40
1.0
 10
103.0152405132
 20
109.0622105131
 30
0.0
 10
103.0194016933
 20
109.1562626482
 30
0.0
 10
103.0417217451
 20
109.3354537901
 30
0.0
 10
103.1247190218
 20
109.5807120785
 30
0.0
 10
103.2545948167
 20
109.7800846375
 30
0.0
 10
103.3724358926
 20
109.8772684479
 30
0.0
 10
103.4351366723
 20
109.9135040498
 30
0.0
  0
SPLINE
  5
652
100
AcDbEntity
  8
0
100
AcDbSpline
 62
7
  6
BYLAYER
 70
0
 71
3
 72
17
 73
13
 74
0
 42
0.0000001
 43
0.0000001
 44
0.0000000001
 40
0.0
 40
0.0
 40
0.0
 40
0.0
 40
0.1286930371
 40
0.2702795962
 40
0.4174375935
 40
0.5617786795
 40
0.6954478243
 40
0.81271112
 40
0.8646738576
 40
0.9125098523
 40
0.9571380034
 40
1.0
 40
1.0
 40
1.0
 40
1.0
 10
60.9502389841
 20
86.6481091303
 30
0.0
 10
60.9502389841
 20
86.3809910511
 30
0.0
 10
61.0249577084
 20
85.8193504432
 30
0.0
 10
61.303893824
 20
84.9947099392
 30
0.0
 10
61.7336638339
 20
84.2003196559
 30
0.0
 10
62.279774607
 20
83.5013256393
 30
0.0
 10
62.8975652563
 20
82.9541906187
 30
0.0
 10
63.4567382467
 20
82.6484059326
 30
0.0
 10
63.8941640497
 20
82.5320725083
 30
0.0
 10
64.195219678
 20
82.5098695469
 30
0.0
 10
64.4755434757
 20
82.5510255903
 30
0.0
 10
64.6454024181
 20
82.6215428031
 30
0.0
 10
64.7224426667
 20
82.6660357697
 30
0.0
  0
SPLINE
  5
653
100
AcDbEntity
  8
0
100
AcDbSpline
 62
7
  6
BYLAYER
 70
0
 71
3
 72
17
 73
13
 74
0
 42
0.0000001
 43
0.0000001
 44
0.0000000001
 40
0.0
 40
0.0
 40
0.0
 40
0.0
 40
0.1286930371
 40
0.2702795962
 40
0.4174375935
 40
0.5617786795
 40
0.6954478243
 40
0.81271112
 40
0.8646738576
 40
0.9125098523
 40
0.9571380034
 40
1.0
 40
1.0
 40
1.0
 40
1.0
 10
54.8337398616
 20
90.1793916569
 30
0.0
 10
54.8337398616
 20
89.9122735777
 30
0.0
 10
54.9084585859
 20
89.3506329698
 30
0.0
 10
55.1873947015
 20
88.5259924658
 30
0.0
 10
55.6171647114
 20
87.7316021825
 30
0.0
 10
56.1632754844
 20
87.0326081659
 30
0.0
 10
56.7810661338
 20
86.4854731453
 30
0.0
 10
57.3402391242
 20
86.1796884592
 30
0.0
 10
57.7776649272
 20
86.0633550349
 30
0.0
 10
58.0787205555
 20
86.0411520735
 30
0.0
 10
58.3590443532
 20
86.0823081169
 30
0.0
 10
58.5289032956
 20
86.1528253297
 30
0.0
 10
58.6059435442
 20
86.1973182963
 30
0.0
  0
SPLINE
  5
654
100
AcDbEntity
  8
0
100
AcDbSpline
 62
7
  6
BYLAYER
 70
0
 71
3
 72
11
 73
7
 74
0
 42
0.0000001
 43
0.0000001
 44
0.0000000001
 40
0.0
 40
0.0
 40
0.0
 40
0.0
 40
0.2177839466
 40
0.4509170841
 40
0.710307871
 40
1.0
 40
1.0
 40
1.0
 40
1.0
 10
23.5196123845
 20
82.9137370364
 30
0.0
 10
23.4165369805
 20
82.8542080163
 30
0.0
 10
23.2236566092
 20
82.6920872765
 30
0.0
 10
23.0183306571
 20
82.3563531379
 30
0.0
 10
22.8963857256
 20
81.9426226556
 30
0.0
 10
22.8723802849
 20
81.6415004408
 30
0.0
 10
22.8723802849
 20
81.4831683916
 30
0.0
  0
SPLINE
  5
655
100
AcDbEntity
  8
0
100
AcDbSpline
 62
7
  6
BYLAYER
 70
0
 71
3
 72
17
 73
13
 74
0
 42
0.0000001
 43
0.0000001
 44
0.0000000001
 40
0.0
 40
0.0
 40
0.0
 40
0.0
 40
0.1286930371
 40
0.2702795962
 40
0.4174375935
 40
0.5617786795
 40
0.6954478243
 40
0.81271112
 40
0.8646738576
 40
0.9125098523
 40
0.9571380034
 40
1.0
 40
1.0
 40
1.0
 40
1.0
 10
48.7172407391
 20
93.7106741835
 30
0.0
 10
48.7172407391
 20
93.4435561043
 30
0.0
 10
48.7919594634
 20
92.8819154964
 30
0.0
 10
49.0708955789
 20
92.0572749924
 30
0.0
 10
49.5006655889
 20
91.2628847091
 30
0.0
 10
50.0467763619
 20
90.5638906925
 30
0.0
 10
50.6645670112
 20
90.0167556719
 30
0.0
 10
51.2237400017
 20
89.7109709858
 30
0.0
 10
51.6611658047
 20
89.5946375615
 30
0.0
 10
51.962221433
 20
89.5724346001
 30
0.0
 10
52.2425452307
 20
89.6135906435
 30
0.0
 10
52.4124041731
 20
89.6841078563
 30
0.0
 10
52.4894444216
 20
89.7286008229
 30
0.0
  0
SPLINE
  5
656
100
AcDbEntity
  8
0
100
AcDbSpline
 62
7
  6
BYLAYER
 70
0
 71
3
 72
17
 73
13
 74
0
 42
0.0000001
 43
0.0000001
 44
0.0000000001
 40
0.0
 40
0.0
 40
0.0
 40
0.0
 40
0.1286930371
 40
0.2702795962
 40
0.4174375935
 40
0.5617786795
 40
0.6954478243
 40
0.81271112
 40
0.8646738576
 40
0.9125098523
 40
0.9571380034
 40
1.0
 40
1.0
 40
1.0
 40
1.0
 10
48.7172407391
 20
66.5619688139
 30
0.0
 10
48.7172407391
 20
66.2948507348
 30
0.0
 10
48.7919594634
 20
65.7332101269
 30
0.0
 10
49.0708955789
 20
64.9085696228
 30
0.0
 10
49.5006655889
 20
64.1141793396
 30
0.0
 10
50.0467763619
 20
63.415185323
 30
0.0
 10
50.6645670112
 20
62.8680503023
 30
0.0
 10
51.2237400017
 20
62.5622656162
 30
0.0
 10
51.6611658047
 20
62.445932192
 30
0.0
 10
51.962221433
 20
62.4237292306
 30
0.0
 10
52.2425452307
 20
62.464885274
 30
0.0
 10
52.4124041731
 20
62.5354024867
 30
0.0
 10
52.4894444216
 20
62.5798954533
 30
0.0
  0
SPLINE
  5
657
100
AcDbEntity
  8
0
100
AcDbSpline
 62
7
  6
BYLAYER
 70
0
 71
3
 72
17
 73
13
 74
0
 42
0.0000001
 43
0.0000001
 44
0.0000000001
 40
0.0
 40
0.0
 40
0.0
 40
0.0
 40
0.1286930371
 40
0.2702795962
 40
0.4174375935
 40
0.5617786795
 40
0.6954478243
 40
0.81271112
 40
0.8646738576
 40
0.9125098523
 40
0.9571380034
 40
1.0
 40
1.0
 40
1.0
 40
1.0
 10
54.8337398616
 20
63.0306862873
 30
0.0
 10
54.8337398616
 20
62.7635682082
 30
0.0
 10
54.9084585859
 20
62.2019276003
 30
0.0
 10
55.1873947015
 20
61.3772870962
 30
0.0
 10
55.6171647114
 20
60.582896813
 30
0.0
 10
56.1632754844
 20
59.8839027964
 30
0.0
 10
56.7810661338
 20
59.3367677757
 30
0.0
 10
57.3402391242
 20
59.0309830896
 30
0.0
 10
57.7776649272
 20
58.9146496654
 30
0.0
 10
58.0787205555
 20
58.892446704
 30
0.0
 10
58.3590443532
 20
58.9336027474
 30
0.0
 10
58.5289032956
 20
59.0041199601
 30
0.0
 10
58.6059435442
 20
59.0486129267
 30
0.0
  0
SPLINE
  5
658
100
AcDbEntity
  8
0
100
AcDbSpline
 62
7
  6
BYLAYER
 70
0
 71
3
 72
10
 73
6
 74
0
 42
0.0000001
 43
0.0000001
 44
0.0000000001
 40
0.0
 40
0.0
 40
0.0
 40
0.0
 40
0.2783602789
 40
0.5377474743
 40
1.0
 40
1.0
 40
1.0
 40
1.0
 10
17.1801434647
 20
85.2593974105
 30
0.0
 10
17.1801434647
 20
85.3670827789
 30
0.0
 10
17.1917021557
 20
85.5755535111
 30
0.0
 10
17.2621218397
 20
85.956179695
 30
0.0
 10
17.3743579813
 20
86.2199804591
 30
0.0
 10
17.4774757102
 20
86.3660803817
 30
0.0
  0
SPLINE
  5
659
100
AcDbEntity
  8
0
100
AcDbSpline
 62
7
  6
BYLAYER
 70
0
 71
3
 72
9
 73
5
 74
0
 42
0.0000001
 43
0.0000001
 44
0.0000000001
 40
0.0
 40
0.0
 40
0.0
 40
0.0
 40
0.2543937375
 40
1.0
 40
1.0
 40
1.0
 40
1.0
 10
17.4774757102
 20
86.3660803817
 30
0.0
 10
17.4885898493
 20
86.3818271876
 30
0.0
 10
17.5336984502
 20
86.4427075413
 30
0.0
 10
17.5845903808
 20
86.4993387545
 30
0.0
 10
17.6254609846
 20
86.538335608
 30
0.0
  0
SPLINE
  5
65A
100
AcDbEntity
  8
0
100
AcDbSpline
 62
7
  6
BYLAYER
 70
0
 71
3
 72
10
 73
6
 74
0
 42
0.0000001
 43
0.0000001
 44
0.0000000001
 40
0.0
 40
0.0
 40
0.0
 40
0.0
 40
0.2783602789
 40
0.5377474743
 40
1.0
 40
1.0
 40
1.0
 40
1.0
 10
73.6074995315
 20
80.4836925031
 30
0.0
 10
73.6074995315
 20
80.5913778715
 30
0.0
 10
73.6190582225
 20
80.7998486036
 30
0.0
 10
73.6894779065
 20
81.1804747875
 30
0.0
 10
73.801714048
 20
81.4442755516
 30
0.0
 10
73.9048317769
 20
81.5903754742
 30
0.0
  0
SPLINE
  5
65B
100
AcDbEntity
  8
0
100
AcDbSpline
 62
7
  6
BYLAYER
 70
0
 71
3
 72
9
 73
5
 74
0
 42
0.0000001
 43
0.0000001
 44
0.0000000001
 40
0.0
 40
0.0
 40
0.0
 40
0.0
 40
0.2543937375
 40
1.0
 40
1.0
 40
1.0
 40
1.0
 10
73.9048317769
 20
81.5903754742
 30
0.0
 10
73.915945916
 20
81.6061222801
 30
0.0
 10
73.961054517
 20
81.6670026339
 30
0.0
 10
74.0119464475
 20
81.723633847
 30
0.0
 10
74.0528170513
 20
81.7626307005
 30
0.0
  0
SPLINE
  5
65C
100
AcDbEntity
  8
0
100
AcDbSpline
 62
7
  6
BYLAYER
 70
0
 71
3
 72
17
 73
13
 74
0
 42
0.0000001
 43
0.0000001
 44
0.0000000001
 40
0.0
 40
0.0
 40
0.0
 40
0.0
 40
0.1286930371
 40
0.2702795962
 40
0.4174375935
 40
0.5617786795
 40
0.6954478243
 40
0.81271112
 40
0.8646738576
 40
0.9125098523
 40
0.9571380034
 40
1.0
 40
1.0
 40
1.0
 40
1.0
 10
60.9502389841
 20
59.4994037607
 30
0.0
 10
60.9502389841
 20
59.2322856816
 30
0.0
 10
61.0249577084
 20
58.6706450737
 30
0.0
 10
61.303893824
 20
57.8460045696
 30
0.0
 10
61.7336638339
 20
57.0516142864
 30
0.0
 10
62.279774607
 20
56.3526202698
 30
0.0
 10
62.8975652563
 20
55.8054852491
 30
0.0
 10
63.4567382467
 20
55.499700563
 30
0.0
 10
63.8941640497
 20
55.3833671388
 30
0.0
 10
64.195219678
 20
55.3611641774
 30
0.0
 10
64.4755434757
 20
55.4023202208
 30
0.0
 10
64.6454024181
 20
55.4728374335
 30
0.0
 10
64.7224426667
 20
55.5173304001
 30
0.0
  0
SPLINE
  5
65D
100
AcDbEntity
  8
0
100
AcDbSpline
 62
7
  6
BYLAYER
 70
0
 71
3
 72
9
 73
5
 74
0
 42
0.0000001
 43
0.0000001
 44
0.0000000001
 40
0.0
 40
0.0
 40
0.0
 40
0.0
 40
0.2461996355
 40
1.0
 40
1.0
 40
1.0
 40
1.0
 10
20.7251557071
 20
81.1797596075
 30
0.0
 10
20.7069130605
 20
81.1743153406
 30
0.0
 10
20.6322524564
 20
81.1541191081
 30
0.0
 10
20.5555493379
 20
81.1416229398
 30
0.0
 10
20.4975034595
 20
81.1363092506
 30
0.0
  0
SPLINE
  5
65E
100
AcDbEntity
  8
0
100
AcDbSpline
 62
7
  6
BYLAYER
 70
0
 71
3
 72
15
 73
11
 74
0
 42
0.0000001
 43
0.0000001
 44
0.0000000001
 40
0.0
 40
0.0
 40
0.0
 40
0.0
 40
0.1994164376
 40
0.2594900075
 40
0.3230217468
 40
0.4581981409
 40
0.5997143037
 40
0.7412523568
 40
0.8764822659
 40
1.0
 40
1.0
 40
1.0
 40
1.0
 10
20.4975034595
 20
81.1363092506
 30
0.0
 10
20.1178501699
 20
81.1015546795
 30
0.0
 10
19.6084339097
 20
81.279994441
 30
0.0
 10
19.0953429878
 20
81.6177611256
 30
0.0
 10
18.7095149603
 20
81.9298939342
 30
0.0
 10
18.2628018602
 20
82.4067249656
 30
0.0
 10
17.8108034882
 20
83.0698615162
 30
0.0
 10
17.4618667092
 20
83.7928600271
 30
0.0
 10
17.2386464446
 20
84.5280280137
 30
0.0
 10
17.1801434647
 20
85.0232584408
 30
0.0
 10
17.1801434647
 20
85.2593974105
 30
0.0
  0
SPLINE
  5
65F
100
AcDbEntity
  8
0
100
AcDbSpline
 62
7
  6
BYLAYER
 70
0
 71
3
 72
17
 73
13
 74
0
 42
0.0000001
 43
0.0000001
 44
0.0000000001
 40
0.0
 40
0.0
 40
0.0
 40
0.0
 40
0.1286930371
 40
0.2702795962
 40
0.4174375935
 40
0.5617786795
 40
0.6954478243
 40
0.81271112
 40
0.8646738576
 40
0.9125098523
 40
0.9571380034
 40
1.0
 40
1.0
 40
1.0
 40
1.0
 10
67.0667381066
 20
55.9681212341
 30
0.0
 10
67.0667381066
 20
55.701003155
 30
0.0
 10
67.1414568309
 20
55.1393625471
 30
0.0
 10
67.4203929465
 20
54.314722043
 30
0.0
 10
67.8501629565
 20
53.5203317598
 30
0.0
 10
68.3962737295
 20
52.8213377432
 30
0.0
 10
69.0140643788
 20
52.2742027225
 30
0.0
 10
69.5732373692
 20
51.9684180364
 30
0.0
 10
70.0106631723
 20
51.8520846122
 30
0.0
 10
70.3117188005
 20
51.8298816508
 30
0.0
 10
70.5920425982
 20
51.8710376942
 30
0.0
 10
70.7619015407
 20
51.9415549069
 30
0.0
 10
70.8389417892
 20
51.9860478735
 30
0.0
  0
SPLINE
  5
660
100
AcDbEntity
  8
0
100
AcDbSpline
 62
7
  6
BYLAYER
 70
0
 71
3
 72
11
 73
7
 74
0
 42
0.0000001
 43
0.0000001
 44
0.0000000001
 40
0.0
 40
0.0
 40
0.0
 40
0.0
 40
0.2858829168
 40
0.5450457071
 40
0.7800470594
 40
1.0
 40
1.0
 40
1.0
 40
1.0
 10
97.1077303982
 20
112.4004459768
 30
0.0
 10
97.1111968306
 20
112.4787952348
 30
0.0
 10
97.1298543747
 20
112.6281126985
 30
0.0
 10
97.1989447241
 20
112.8325227769
 30
0.0
 10
97.3071866614
 20
112.9986996493
 30
0.0
 10
97.4054100245
 20
113.0796566673
 30
0.0
 10
97.4576633601
 20
113.1098300662
 30
0.0
  0
SPLINE
  5
661
100
AcDbEntity
  8
0
100
AcDbSpline
 62
7
  6
BYLAYER
 70
0
 71
3
 72
17
 73
13
 74
0
 42
0.0000001
 43
0.0000001
 44
0.0000000001
 40
0.0
 40
0.0
 40
0.0
 40
0.0
 40
0.1286930371
 40
0.2702795962
 40
0.4174375935
 40
0.5617786795
 40
0.6954478243
 40
0.81271112
 40
0.8646738576
 40
0.9125098523
 40
0.9571380034
 40
1.0
 40
1.0
 40
1.0
 40
1.0
 10
41.2218776525
 20
98.6912281151
 30
0.0
 10
41.2218776525
 20
98.424110036
 30
0.0
 10
41.2965963768
 20
97.8624694281
 30
0.0
 10
41.5755324924
 20
97.037828924
 30
0.0
 10
42.0053025023
 20
96.2434386408
 30
0.0
 10
42.5514132754
 20
95.5444446241
 30
0.0
 10
43.1692039247
 20
94.9973096035
 30
0.0
 10
43.7283769151
 20
94.6915249174
 30
0.0
 10
44.1658027181
 20
94.5751914932
 30
0.0
 10
44.4668583464
 20
94.5529885317
 30
0.0
 10
44.7471821441
 20
94.5941445752
 30
0.0
 10
44.9170410865
 20
94.6646617879
 30
0.0
 10
44.9940813351
 20
94.7091547545
 30
0.0
  0
SPLINE
  5
662
100
AcDbEntity
  8
0
100
AcDbSpline
 62
7
  6
BYLAYER
 70
0
 71
3
 72
17
 73
13
 74
0
 42
0.0000001
 43
0.0000001
 44
0.0000000001
 40
0.0
 40
0.0
 40
0.0
 40
0.0
 40
0.1286930371
 40
0.2702795962
 40
0.4174375935
 40
0.5617786795
 40
0.6954478243
 40
0.81271112
 40
0.8646738576
 40
0.9125098523
 40
0.9571380034
 40
1.0
 40
1.0
 40
1.0
 40
1.0
 10
41.2218776525
 20
70.2361188781
 30
0.0
 10
41.2218776525
 20
69.969000799
 30
0.0
 10
41.2965963768
 20
69.4073601911
 30
0.0
 10
41.5755324924
 20
68.582719687
 30
0.0
 10
42.0053025023
 20
67.7883294038
 30
0.0
 10
42.5514132754
 20
67.0893353872
 30
0.0
 10
43.1692039247
 20
66.5422003666
 30
0.0
 10
43.7283769151
 20
66.2364156804
 30
0.0
 10
44.1658027181
 20
66.1200822562
 30
0.0
 10
44.4668583464
 20
66.0978792948
 30
0.0
 10
44.7471821441
 20
66.1390353382
 30
0.0
 10
44.9170410865
 20
66.2095525509
 30
0.0
 10
44.9940813351
 20
66.2540455176
 30
0.0
  0
SPLINE
  5
663
100
AcDbEntity
  8
0
100
AcDbSpline
 62
7
  6
BYLAYER
 70
0
 71
3
 72
16
 73
12
 74
0
 42
0.0000001
 43
0.0000001
 44
0.0000000001
 40
0.0
 40
0.0
 40
0.0
 40
0.0
 40
0.044542679
 40
0.0903850738
 40
0.1906261481
 40
0.3071814632
 40
0.4393584681
 40
0.5821496676
 40
0.7282971577
 40
0.8699158406
 40
1.0
 40
1.0
 40
1.0
 40
1.0
 10
105.140733973
 20
106.741368942
 30
0.0
 10
105.0942518237
 20
106.714506299
 30
0.0
 10
104.9927708442
 20
106.6714990519
 30
0.0
 10
104.7640866141
 20
106.634395588
 30
0.0
 10
104.4438308913
 20
106.6914269243
 30
0.0
 10
104.0704550525
 20
106.8952329453
 30
0.0
 10
103.7179827509
 20
107.2144015078
 30
0.0
 10
103.4132148843
 20
107.6237886432
 30
0.0
 10
103.1799669221
 20
108.0904097168
 30
0.0
 10
103.0369789317
 20
108.5760221712
 30
0.0
 10
103.0083105212
 20
108.9055769328
 30
0.0
 10
103.0152405132
 20
109.0622105131
 30
0.0
  0
SPLINE
  5
664
100
AcDbEntity
  8
0
100
AcDbSpline
 62
7
  6
BYLAYER
 70
0
 71
3
 72
17
 73
13
 74
0
 42
0.0000001
 43
0.0000001
 44
0.0000000001
 40
0.0
 40
0.0
 40
0.0
 40
0.0
 40
0.1286930371
 40
0.2702795962
 40
0.4174375935
 40
0.5617786795
 40
0.6954478243
 40
0.81271112
 40
0.8646738576
 40
0.9125098523
 40
0.9571380034
 40
1.0
 40
1.0
 40
1.0
 40
1.0
 10
35.10537853
 20
101.569308708
 30
0.0
 10
35.10537853
 20
101.3021906289
 30
0.0
 10
35.1800972543
 20
100.7405500209
 30
0.0
 10
35.4590333699
 20
99.9159095169
 30
0.0
 10
35.8888033798
 20
99.1215192336
 30
0.0
 10
36.4349141528
 20
98.422525217
 30
0.0
 10
37.0527048022
 20
97.8753901964
 30
0.0
 10
37.6118777926
 20
97.5696055103
 30
0.0
 10
38.0493035956
 20
97.4532720861
 30
0.0
 10
38.3503592239
 20
97.4310691246
 30
0.0
 10
38.6306830216
 20
97.4722251681
 30
0.0
 10
38.800541964
 20
97.5427423808
 30
0.0
 10
38.8775822126
 20
97.5872353474
 30
0.0
  0
SPLINE
  5
665
100
AcDbEntity
  8
0
100
AcDbSpline
 62
7
  6
BYLAYER
 70
0
 71
3
 72
10
 73
6
 74
0
 42
0.0000001
 43
0.0000001
 44
0.0000000001
 40
0.0
 40
0.0
 40
0.0
 40
0.0
 40
0.2783602789
 40
0.5377474743
 40
1.0
 40
1.0
 40
1.0
 40
1.0
 10
73.6074995315
 20
52.0285832661
 30
0.0
 10
73.6074995315
 20
52.1362686345
 30
0.0
 10
73.6190582225
 20
52.3447393667
 30
0.0
 10
73.6894779065
 20
52.7253655506
 30
0.0
 10
73.801714048
 20
52.9891663147
 30
0.0
 10
73.9048317769
 20
53.1352662373
 30
0.0
  0
SPLINE
  5
666
100
AcDbEntity
  8
0
100
AcDbSpline
 62
7
  6
BYLAYER
 70
0
 71
3
 72
9
 73
5
 74
0
 42
0.0000001
 43
0.0000001
 44
0.0000000001
 40
0.0
 40
0.0
 40
0.0
 40
0.0
 40
0.2543937375
 40
1.0
 40
1.0
 40
1.0
 40
1.0
 10
73.9048317769
 20
53.1352662373
 30
0.0
 10
73.915945916
 20
53.1510130432
 30
0.0
 10
73.961054517
 20
53.2118933969
 30
0.0
 10
74.0119464475
 20
53.26852461
 30
0.0
 10
74.0528170513
 20
53.3075214636
 30
0.0
  0
SPLINE
  5
667
100
AcDbEntity
  8
0
100
AcDbSpline
 62
7
  6
BYLAYER
 70
0
 71
3
 72
17
 73
13
 74
0
 42
0.0000001
 43
0.0000001
 44
0.0000000001
 40
0.0
 40
0.0
 40
0.0
 40
0.0
 40
0.1286930371
 40
0.2702795962
 40
0.4174375935
 40
0.5617786795
 40
0.6954478243
 40
0.81271112
 40
0.8646738576
 40
0.9125098523
 40
0.9571380034
 40
1.0
 40
1.0
 40
1.0
 40
1.0
 10
28.9888794075
 20
105.1005912346
 30
0.0
 10
28.9888794075
 20
104.8334731555
 30
0.0
 10
29.0635981318
 20
104.2718325475
 30
0.0
 10
29.3425342473
 20
103.4471920435
 30
0.0
 10
29.7723042573
 20
102.6528017602
 30
0.0
 10
30.3184150303
 20
101.9538077436
 30
0.0
 10
30.9362056796
 20
101.406672723
 30
0.0
 10
31.4953786701
 20
101.1008880369
 30
0.0
 10
31.9328044731
 20
100.9845546127
 30
0.0
 10
32.2338601014
 20
100.9623516512
 30
0.0
 10
32.5141838991
 20
101.0035076947
 30
0.0
 10
32.6840428415
 20
101.0740249074
 30
0.0
 10
32.76108309
 20
101.118517874
 30
0.0
  0
SPLINE
  5
668
100
AcDbEntity
  8
0
100
AcDbSpline
 62
7
  6
BYLAYER
 70
0
 71
3
 72
11
 73
7
 74
0
 42
0.0000001
 43
0.0000001
 44
0.0000000001
 40
0.0
 40
0.0
 40
0.0
 40
0.0
 40
0.2859812244
 40
0.5450334131
 40
0.7800153409
 40
1.0
 40
1.0
 40
1.0
 40
1.0
 10
90.7798380951
 20
116.126163585
 30
0.0
 10
90.7839992752
 20
116.2202157201
 30
0.0
 10
90.806319327
 20
116.399406862
 30
0.0
 10
90.8893166038
 20
116.6446651503
 30
0.0
 10
91.0191923986
 20
116.8440377093
 30
0.0
 10
91.1370334745
 20
116.9412215197
 30
0.0
 10
91.1997342542
 20
116.9774571216
 30
0.0
  0
SPLINE
  5
669
100
AcDbEntity
  8
0
100
AcDbSpline
 62
7
  6
BYLAYER
 70
0
 71
3
 72
17
 73
13
 74
0
 42
0.0000001
 43
0.0000001
 44
0.0000000001
 40
0.0
 40
0.0
 40
0.0
 40
0.0
 40
0.1286930371
 40
0.2702795962
 40
0.4174375935
 40
0.5617786795
 40
0.6954478243
 40
0.81271112
 40
0.8646738576
 40
0.9125098523
 40
0.9571380034
 40
1.0
 40
1.0
 40
1.0
 40
1.0
 10
22.8723802849
 20
108.6318737612
 30
0.0
 10
22.8723802849
 20
108.3647556821
 30
0.0
 10
22.9470990092
 20
107.8031150741
 30
0.0
 10
23.2260351248
 20
106.9784745701
 30
0.0
 10
23.6558051348
 20
106.1840842868
 30
0.0
 10
24.2019159078
 20
105.4850902702
 30
0.0
 10
24.8197065571
 20
104.9379552496
 30
0.0
 10
25.3788795475
 20
104.6321705635
 30
0.0
 10
25.8163053506
 20
104.5158371393
 30
0.0
 10
26.1173609788
 20
104.4936341778
 30
0.0
 10
26.3976847765
 20
104.5347902213
 30
0.0
 10
26.567543719
 20
104.605307434
 30
0.0
 10
26.6445839675
 20
104.6498004006
 30
0.0
  0
SPLINE
  5
66A
100
AcDbEntity
  8
0
100
AcDbSpline
 62
7
  6
BYLAYER
 70
0
 71
3
 72
17
 73
13
 74
0
 42
0.0000001
 43
0.0000001
 44
0.0000000001
 40
0.0
 40
0.0
 40
0.0
 40
0.0
 40
0.1286930371
 40
0.2702795962
 40
0.4174375935
 40
0.5617786795
 40
0.6954478243
 40
0.81271112
 40
0.8646738576
 40
0.9125098523
 40
0.9571380034
 40
1.0
 40
1.0
 40
1.0
 40
1.0
 10
16.7558811624
 20
112.1631562878
 30
0.0
 10
16.7558811624
 20
111.8960382087
 30
0.0
 10
16.8305998867
 20
111.3343976007
 30
0.0
 10
17.1095360023
 20
110.5097570967
 30
0.0
 10
17.5393060123
 20
109.7153668134
 30
0.0
 10
18.0854167853
 20
109.0163727968
 30
0.0
 10
18.7032074346
 20
108.4692377762
 30
0.0
 10
19.262380425
 20
108.1634530901
 30
0.0
 10
19.6998062281
 20
108.0471196659
 30
0.0
 10
20.0008618563
 20
108.0249167044
 30
0.0
 10
20.281185654
 20
108.0660727479
 30
0.0
 10
20.4510445964
 20
108.1365899606
 30
0.0
 10
20.528084845
 20
108.1810829272
 30
0.0
  0
SPLINE
  5
66B
100
AcDbEntity
  8
0
100
AcDbSpline
 62
7
  6
BYLAYER
 70
0
 71
3
 72
17
 73
13
 74
0
 42
0.0000001
 43
0.0000001
 44
0.0000000001
 40
0.0
 40
0.0
 40
0.0
 40
0.0
 40
0.1286930371
 40
0.2702795962
 40
0.4174375935
 40
0.5617786795
 40
0.6954478243
 40
0.81271112
 40
0.8646738576
 40
0.9125098523
 40
0.9571380034
 40
1.0
 40
1.0
 40
1.0
 40
1.0
 10
16.7558811624
 20
85.0144509182
 30
0.0
 10
16.7558811624
 20
84.7473328391
 30
0.0
 10
16.8305998867
 20
84.1856922312
 30
0.0
 10
17.1095360023
 20
83.3610517271
 30
0.0
 10
17.5393060123
 20
82.5666614439
 30
0.0
 10
18.0854167853
 20
81.8676674273
 30
0.0
 10
18.7032074346
 20
81.3205324067
 30
0.0
 10
19.262380425
 20
81.0147477205
 30
0.0
 10
19.6998062281
 20
80.8984142963
 30
0.0
 10
20.0008618563
 20
80.8762113349
 30
0.0
 10
20.281185654
 20
80.9173673783
 30
0.0
 10
20.4510445964
 20
80.987884591
 30
0.0
 10
20.528084845
 20
81.0323775577
 30
0.0
  0
SPLINE
  5
66C
100
AcDbEntity
  8
0
100
AcDbSpline
 62
7
  6
BYLAYER
 70
0
 71
3
 72
11
 73
7
 74
0
 42
0.0000001
 43
0.0000001
 44
0.0000000001
 40
0.0
 40
0.0
 40
0.0
 40
0.0
 40
0.2177839466
 40
0.4509170841
 40
0.710307871
 40
1.0
 40
1.0
 40
1.0
 40
1.0
 10
17.403113262
 20
86.445019563
 30
0.0
 10
17.300037858
 20
86.3854905429
 30
0.0
 10
17.1071574867
 20
86.2233698031
 30
0.0
 10
16.9018315345
 20
85.8876356645
 30
0.0
 10
16.779886603
 20
85.4739051822
 30
0.0
 10
16.7558811624
 20
85.1727829674
 30
0.0
 10
16.7558811624
 20
85.0144509182
 30
0.0
  0
SPLINE
  5
66D
100
AcDbEntity
  8
0
100
AcDbSpline
 62
7
  6
BYLAYER
 70
0
 71
3
 72
17
 73
13
 74
0
 42
0.0000001
 43
0.0000001
 44
0.0000000001
 40
0.0
 40
0.0
 40
0.0
 40
0.0
 40
0.1286930371
 40
0.2702795962
 40
0.4174375935
 40
0.5617786795
 40
0.6954478243
 40
0.81271112
 40
0.8646738576
 40
0.9125098523
 40
0.9571380034
 40
1.0
 40
1.0
 40
1.0
 40
1.0
 10
22.8723802849
 20
81.4831683916
 30
0.0
 10
22.8723802849
 20
81.2160503125
 30
0.0
 10
22.9470990092
 20
80.6544097046
 30
0.0
 10
23.2260351248
 20
79.8297692005
 30
0.0
 10
23.6558051348
 20
79.0353789173
 30
0.0
 10
24.2019159078
 20
78.3363849007
 30
0.0
 10
24.8197065571
 20
77.7892498801
 30
0.0
 10
25.3788795475
 20
77.4834651939
 30
0.0
 10
25.8163053506
 20
77.3671317697
 30
0.0
 10
26.1173609788
 20
77.3449288083
 30
0.0
 10
26.3976847765
 20
77.3860848517
 30
0.0
 10
26.567543719
 20
77.4566020644
 30
0.0
 10
26.6445839675
 20
77.5010950311
 30
0.0
  0
SPLINE
  5
66E
100
AcDbEntity
  8
0
100
AcDbSpline
 62
7
  6
BYLAYER
 70
0
 71
3
 72
17
 73
13
 74
0
 42
0.0000001
 43
0.0000001
 44
0.0000000001
 40
0.0
 40
0.0
 40
0.0
 40
0.0
 40
0.1286930371
 40
0.2702795962
 40
0.4174375935
 40
0.5617786795
 40
0.6954478243
 40
0.81271112
 40
0.8646738576
 40
0.9125098523
 40
0.9571380034
 40
1.0
 40
1.0
 40
1.0
 40
1.0
 10
28.9888794075
 20
77.951885865
 30
0.0
 10
28.9888794075
 20
77.6847677859
 30
0.0
 10
29.0635981318
 20
77.123127178
 30
0.0
 10
29.3425342473
 20
76.2984866739
 30
0.0
 10
29.7723042573
 20
75.5040963907
 30
0.0
 10
30.3184150303
 20
74.8051023741
 30
0.0
 10
30.9362056796
 20
74.2579673535
 30
0.0
 10
31.4953786701
 20
73.9521826673
 30
0.0
 10
31.9328044731
 20
73.8358492431
 30
0.0
 10
32.2338601014
 20
73.8136462817
 30
0.0
 10
32.5141838991
 20
73.8548023251
 30
0.0
 10
32.6840428415
 20
73.9253195378
 30
0.0
 10
32.76108309
 20
73.9698125045
 30
0.0
  0
SPLINE
  5
66F
100
AcDbEntity
  8
0
100
AcDbSpline
 62
7
  6
BYLAYER
 70
0
 71
3
 72
11
 73
7
 74
0
 42
0.0000001
 43
0.0000001
 44
0.0000000001
 40
0.0
 40
0.0
 40
0.0
 40
0.0
 40
0.2859812244
 40
0.5450334131
 40
0.7800153409
 40
1.0
 40
1.0
 40
1.0
 40
1.0
 10
71.1963968392
 20
127.432412884
 30
0.0
 10
71.2005580194
 20
127.5264650191
 30
0.0
 10
71.2228780711
 20
127.7056561611
 30
0.0
 10
71.3058753478
 20
127.9509144495
 30
0.0
 10
71.4357511427
 20
128.1502870085
 30
0.0
 10
71.5535922186
 20
128.2474708189
 30
0.0
 10
71.6162929983
 20
128.2837064208
 30
0.0
  0
SPLINE
  5
670
100
AcDbEntity
  8
0
100
AcDbSpline
 62
7
  6
BYLAYER
 70
0
 71
3
 72
17
 73
13
 74
0
 42
0.0000001
 43
0.0000001
 44
0.0000000001
 40
0.0
 40
0.0
 40
0.0
 40
0.0
 40
0.1286930371
 40
0.2702795962
 40
0.4174375935
 40
0.5617786795
 40
0.6954478243
 40
0.81271112
 40
0.8646738576
 40
0.9125098523
 40
0.9571380034
 40
1.0
 40
1.0
 40
1.0
 40
1.0
 10
35.10537853
 20
74.4206033384
 30
0.0
 10
35.10537853
 20
74.1534852593
 30
0.0
 10
35.1800972543
 20
73.5918446514
 30
0.0
 10
35.4590333699
 20
72.7672041473
 30
0.0
 10
35.8888033798
 20
71.9728138641
 30
0.0
 10
36.4349141528
 20
71.2738198475
 30
0.0
 10
37.0527048022
 20
70.7266848269
 30
0.0
 10
37.6118777926
 20
70.4209001407
 30
0.0
 10
38.0493035956
 20
70.3045667165
 30
0.0
 10
38.3503592239
 20
70.2823637551
 30
0.0
 10
38.6306830216
 20
70.3235197985
 30
0.0
 10
38.800541964
 20
70.3940370112
 30
0.0
 10
38.8775822126
 20
70.4385299779
 30
0.0
  0
SPLINE
  5
671
100
AcDbEntity
  8
0
100
AcDbSpline
 62
7
  6
BYLAYER
 70
0
 71
3
 72
10
 73
6
 74
0
 42
0.0000001
 43
0.0000001
 44
0.0000000001
 40
0.0
 40
0.0
 40
0.0
 40
0.0
 40
0.2783602789
 40
0.5377474743
 40
1.0
 40
1.0
 40
1.0
 40
1.0
 10
17.1801434647
 20
112.4081027801
 30
0.0
 10
17.1801434647
 20
112.5157881485
 30
0.0
 10
17.1917021557
 20
112.7242588806
 30
0.0
 10
17.2621218397
 20
113.1048850645
 30
0.0
 10
17.3743579813
 20
113.3686858286
 30
0.0
 10
17.4774757102
 20
113.5147857513
 30
0.0
  0
SPLINE
  5
672
100
AcDbEntity
  8
0
100
AcDbSpline
 62
7
  6
BYLAYER
 70
0
 71
3
 72
9
 73
5
 74
0
 42
0.0000001
 43
0.0000001
 44
0.0000000001
 40
0.0
 40
0.0
 40
0.0
 40
0.0
 40
0.2543937375
 40
1.0
 40
1.0
 40
1.0
 40
1.0
 10
17.4774757102
 20
113.5147857513
 30
0.0
 10
17.4885898493
 20
113.5305325571
 30
0.0
 10
17.5336984502
 20
113.5914129109
 30
0.0
 10
17.5845903808
 20
113.648044124
 30
0.0
 10
17.6254609846
 20
113.6870409775
 30
0.0
  0
SPLINE
  5
673
100
AcDbEntity
  8
0
100
AcDbSpline
 62
7
  6
BYLAYER
 70
0
 71
3
 72
10
 73
6
 74
0
 42
0.0000001
 43
0.0000001
 44
0.0000000001
 40
0.0
 40
0.0
 40
0.0
 40
0.0
 40
0.2783602789
 40
0.5377474743
 40
1.0
 40
1.0
 40
1.0
 40
1.0
 10
67.4910004089
 20
83.361773096
 30
0.0
 10
67.4910004089
 20
83.4694584644
 30
0.0
 10
67.5025591
 20
83.6779291965
 30
0.0
 10
67.5729787839
 20
84.0585553804
 30
0.0
 10
67.6852149255
 20
84.3223561445
 30
0.0
 10
67.7883326544
 20
84.4684560671
 30
0.0
  0
SPLINE
  5
674
100
AcDbEntity
  8
0
100
AcDbSpline
 62
7
  6
BYLAYER
 70
0
 71
3
 72
9
 73
5
 74
0
 42
0.0000001
 43
0.0000001
 44
0.0000000001
 40
0.0
 40
0.0
 40
0.0
 40
0.0
 40
0.2543937375
 40
1.0
 40
1.0
 40
1.0
 40
1.0
 10
67.7883326544
 20
84.4684560671
 30
0.0
 10
67.7994467935
 20
84.484202873
 30
0.0
 10
67.8445553945
 20
84.5450832268
 30
0.0
 10
67.895447325
 20
84.6017144399
 30
0.0
 10
67.9363179288
 20
84.6407112934
 30
0.0
  0
SPLINE
  5
675
100
AcDbEntity
  8
0
100
AcDbSpline
 62
7
  6
BYLAYER
 70
0
 71
3
 72
9
 73
5
 74
0
 42
0.0000001
 43
0.0000001
 44
0.0000000001
 40
0.0
 40
0.0
 40
0.0
 40
0.0
 40
0.2461996355
 40
1.0
 40
1.0
 40
1.0
 40
1.0
 10
20.7251557071
 20
108.328464977
 30
0.0
 10
20.7069130605
 20
108.3230207101
 30
0.0
 10
20.6322524564
 20
108.3028244777
 30
0.0
 10
20.5555493379
 20
108.2903283094
 30
0.0
 10
20.4975034595
 20
108.2850146201
 30
0.0
  0
SPLINE
  5
676
100
AcDbEntity
  8
0
100
AcDbSpline
 62
7
  6
BYLAYER
 70
0
 71
3
 72
15
 73
11
 74
0
 42
0.0000001
 43
0.0000001
 44
0.0000000001
 40
0.0
 40
0.0
 40
0.0
 40
0.0
 40
0.1994164376
 40
0.2594900075
 40
0.3230217468
 40
0.4581981409
 40
0.5997143037
 40
0.7412523568
 40
0.8764822659
 40
1.0
 40
1.0
 40
1.0
 40
1.0
 10
20.4975034595
 20
108.2850146201
 30
0.0
 10
20.1178501699
 20
108.250260049
 30
0.0
 10
19.6084339097
 20
108.4286998105
 30
0.0
 10
19.0953429878
 20
108.7664664952
 30
0.0
 10
18.7095149603
 20
109.0785993037
 30
0.0
 10
18.2628018602
 20
109.5554303351
 30
0.0
 10
17.8108034882
 20
110.2185668858
 30
0.0
 10
17.4618667092
 20
110.9415653966
 30
0.0
 10
17.2386464446
 20
111.6767333832
 30
0.0
 10
17.1801434647
 20
112.1719638104
 30
0.0
 10
17.1801434647
 20
112.4081027801
 30
0.0
  0
SPLINE
  5
677
100
AcDbEntity
  8
0
100
AcDbSpline
 62
7
  6
BYLAYER
 70
0
 71
3
 72
10
 73
6
 74
0
 42
0.0000001
 43
0.0000001
 44
0.0000000001
 40
0.0
 40
0.0
 40
0.0
 40
0.0
 40
0.2783602789
 40
0.5377474743
 40
1.0
 40
1.0
 40
1.0
 40
1.0
 10
61.3745012864
 20
86.8930556226
 30
0.0
 10
61.3745012864
 20
87.000740991
 30
0.0
 10
61.3860599774
 20
87.2092117231
 30
0.0
 10
61.4564796614
 20
87.589837907
 30
0.0
 10
61.5687158029
 20
87.8536386711
 30
0.0
 10
61.6718335319
 20
87.9997385937
 30
0.0
  0
SPLINE
  5
678
100
AcDbEntity
  8
0
100
AcDbSpline
 62
7
  6
BYLAYER
 70
0
 71
3
 72
9
 73
5
 74
0
 42
0.0000001
 43
0.0000001
 44
0.0000000001
 40
0.0
 40
0.0
 40
0.0
 40
0.0
 40
0.2543937375
 40
1.0
 40
1.0
 40
1.0
 40
1.0
 10
61.6718335319
 20
87.9997385937
 30
0.0
 10
61.6829476709
 20
88.0154853996
 30
0.0
 10
61.7280562719
 20
88.0763657534
 30
0.0
 10
61.7789482025
 20
88.1329969665
 30
0.0
 10
61.8198188063
 20
88.17199382
 30
0.0
  0
SPLINE
  5
679
100
AcDbEntity
  8
0
100
AcDbSpline
 62
7
  6
BYLAYER
 70
0
 71
3
 72
11
 73
7
 74
0
 42
0.0000001
 43
0.0000001
 44
0.0000000001
 40
0.0
 40
0.0
 40
0.0
 40
0.0
 40
0.2177839466
 40
0.4509170841
 40
0.710307871
 40
1.0
 40
1.0
 40
1.0
 40
1.0
 10
17.403113262
 20
113.5937249326
 30
0.0
 10
17.300037858
 20
113.5341959124
 30
0.0
 10
17.1071574867
 20
113.3720751727
 30
0.0
 10
16.9018315345
 20
113.036341034
 30
0.0
 10
16.779886603
 20
112.6226105517
 30
0.0
 10
16.7558811624
 20
112.321488337
 30
0.0
 10
16.7558811624
 20
112.1631562878
 30
0.0
  0
SPLINE
  5
67A
100
AcDbEntity
  8
0
100
AcDbSpline
 62
7
  6
BYLAYER
 70
0
 71
3
 72
10
 73
6
 74
0
 42
0.0000001
 43
0.0000001
 44
0.0000000001
 40
0.0
 40
0.0
 40
0.0
 40
0.0
 40
0.2783602789
 40
0.5377474743
 40
1.0
 40
1.0
 40
1.0
 40
1.0
 10
23.2966425873
 20
108.8768202535
 30
0.0
 10
23.2966425873
 20
108.9845056219
 30
0.0
 10
23.3082012783
 20
109.192976354
 30
0.0
 10
23.3786209623
 20
109.5736025379
 30
0.0
 10
23.4908571038
 20
109.837403302
 30
0.0
 10
23.5939748327
 20
109.9835032247
 30
0.0
  0
SPLINE
  5
67B
100
AcDbEntity
  8
0
100
AcDbSpline
 62
7
  6
BYLAYER
 70
0
 71
3
 72
9
 73
5
 74
0
 42
0.0000001
 43
0.0000001
 44
0.0000000001
 40
0.0
 40
0.0
 40
0.0
 40
0.0
 40
0.2543937375
 40
1.0
 40
1.0
 40
1.0
 40
1.0
 10
23.5939748327
 20
109.9835032247
 30
0.0
 10
23.6050889718
 20
109.9992500305
 30
0.0
 10
23.6501975728
 20
110.0601303843
 30
0.0
 10
23.7010895033
 20
110.1167615974
 30
0.0
 10
23.7419601071
 20
110.1557584509
 30
0.0
  0
SPLINE
  5
67C
100
AcDbEntity
  8
0
100
AcDbSpline
 62
7
  6
BYLAYER
 70
0
 71
3
 72
10
 73
6
 74
0
 42
0.0000001
 43
0.0000001
 44
0.0000000001
 40
0.0
 40
0.0
 40
0.0
 40
0.0
 40
0.2783602789
 40
0.5377474743
 40
1.0
 40
1.0
 40
1.0
 40
1.0
 10
55.2580021639
 20
90.4243381492
 30
0.0
 10
55.2580021639
 20
90.5320235176
 30
0.0
 10
55.2695608549
 20
90.7404942497
 30
0.0
 10
55.3399805389
 20
91.1211204336
 30
0.0
 10
55.4522166804
 20
91.3849211977
 30
0.0
 10
55.5553344093
 20
91.5310211203
 30
0.0
  0
SPLINE
  5
67D
100
AcDbEntity
  8
0
100
AcDbSpline
 62
7
  6
BYLAYER
 70
0
 71
3
 72
9
 73
5
 74
0
 42
0.0000001
 43
0.0000001
 44
0.0000000001
 40
0.0
 40
0.0
 40
0.0
 40
0.0
 40
0.2543937375
 40
1.0
 40
1.0
 40
1.0
 40
1.0
 10
55.5553344093
 20
91.5310211203
 30
0.0
 10
55.5664485484
 20
91.5467679262
 30
0.0
 10
55.6115571494
 20
91.60764828
 30
0.0
 10
55.6624490799
 20
91.6642794931
 30
0.0
 10
55.7033196838
 20
91.7032763466
 30
0.0
  0
SPLINE
  5
67E
100
AcDbEntity
  8
0
100
AcDbSpline
 62
7
  6
BYLAYER
 70
0
 71
3
 72
11
 73
7
 74
0
 42
0.0000001
 43
0.0000001
 44
0.0000000001
 40
0.0
 40
0.0
 40
0.0
 40
0.0
 40
0.2858829168
 40
0.5450457071
 40
0.7800470594
 40
1.0
 40
1.0
 40
1.0
 40
1.0
 10
65.2878260595
 20
130.7712607088
 30
0.0
 10
65.291292492
 20
130.8496099668
 30
0.0
 10
65.3099500361
 20
130.9989274306
 30
0.0
 10
65.3790403855
 20
131.203337509
 30
0.0
 10
65.4872823227
 20
131.3695143814
 30
0.0
 10
65.5855056859
 20
131.4504713994
 30
0.0
 10
65.6377590215
 20
131.4806447983
 30
0.0
  0
SPLINE
  5
67F
100
AcDbEntity
  8
0
100
AcDbSpline
 62
7
  6
BYLAYER
 70
0
 71
3
 72
9
 73
5
 74
0
 42
0.0000001
 43
0.0000001
 44
0.0000000001
 40
0.0
 40
0.0
 40
0.0
 40
0.0
 40
0.2461996355
 40
1.0
 40
1.0
 40
1.0
 40
1.0
 10
26.8416548296
 20
104.7971824504
 30
0.0
 10
26.823412183
 20
104.7917381835
 30
0.0
 10
26.7487515789
 20
104.7715419511
 30
0.0
 10
26.6720484604
 20
104.7590457828
 30
0.0
 10
26.614002582
 20
104.7537320935
 30
0.0
  0
SPLINE
  5
680
100
AcDbEntity
  8
0
100
AcDbSpline
 62
7
  6
BYLAYER
 70
0
 71
3
 72
15
 73
11
 74
0
 42
0.0000001
 43
0.0000001
 44
0.0000000001
 40
0.0
 40
0.0
 40
0.0
 40
0.0
 40
0.1994164376
 40
0.2594900075
 40
0.3230217468
 40
0.4581981409
 40
0.5997143037
 40
0.7412523568
 40
0.8764822659
 40
1.0
 40
1.0
 40
1.0
 40
1.0
 10
26.614002582
 20
104.7537320935
 30
0.0
 10
26.2343492924
 20
104.7189775224
 30
0.0
 10
25.7249330322
 20
104.8974172839
 30
0.0
 10
25.2118421104
 20
105.2351839686
 30
0.0
 10
24.8260140828
 20
105.5473167771
 30
0.0
 10
24.3793009827
 20
106.0241478085
 30
0.0
 10
23.9273026108
 20
106.6872843592
 30
0.0
 10
23.5783658317
 20
107.41028287
 30
0.0
 10
23.3551455671
 20
108.1454508566
 30
0.0
 10
23.2966425873
 20
108.6406812838
 30
0.0
 10
23.2966425873
 20
108.8768202535
 30
0.0
  0
SPLINE
  5
681
100
AcDbEntity
  8
0
100
AcDbSpline
 62
7
  6
BYLAYER
 70
0
 71
3
 72
11
 73
7
 74
0
 42
0.0000001
 43
0.0000001
 44
0.0000000001
 40
0.0
 40
0.0
 40
0.0
 40
0.0
 40
0.2859812244
 40
0.5450334131
 40
0.7800153409
 40
1.0
 40
1.0
 40
1.0
 40
1.0
 10
58.9623379296
 20
134.4955902985
 30
0.0
 10
58.9664991097
 20
134.5896424336
 30
0.0
 10
58.9888191615
 20
134.7688335756
 30
0.0
 10
59.0718164382
 20
135.0140918639
 30
0.0
 10
59.2016922331
 20
135.2134644229
 30
0.0
 10
59.319533309
 20
135.3106482332
 30
0.0
 10
59.3822340886
 20
135.3468838351
 30
0.0
  0
SPLINE
  5
682
100
AcDbEntity
  8
0
100
AcDbSpline
 62
7
  6
BYLAYER
 70
0
 71
3
 72
10
 73
6
 74
0
 42
0.0000001
 43
0.0000001
 44
0.0000000001
 40
0.0
 40
0.0
 40
0.0
 40
0.0
 40
0.2783602789
 40
0.5377474743
 40
1.0
 40
1.0
 40
1.0
 40
1.0
 10
49.1415030414
 20
93.9556206758
 30
0.0
 10
49.1415030414
 20
94.0633060442
 30
0.0
 10
49.1530617324
 20
94.2717767763
 30
0.0
 10
49.2234814164
 20
94.6524029602
 30
0.0
 10
49.3357175579
 20
94.9162037243
 30
0.0
 10
49.4388352868
 20
95.0623036469
 30
0.0
  0
SPLINE
  5
683
100
AcDbEntity
  8
0
100
AcDbSpline
 62
7
  6
BYLAYER
 70
0
 71
3
 72
9
 73
5
 74
0
 42
0.0000001
 43
0.0000001
 44
0.0000000001
 40
0.0
 40
0.0
 40
0.0
 40
0.0
 40
0.2543937375
 40
1.0
 40
1.0
 40
1.0
 40
1.0
 10
49.4388352868
 20
95.0623036469
 30
0.0
 10
49.4499494259
 20
95.0780504528
 30
0.0
 10
49.4950580269
 20
95.1389308066
 30
0.0
 10
49.5459499574
 20
95.1955620197
 30
0.0
 10
49.5868205612
 20
95.2345588732
 30
0.0
  0
SPLINE
  5
684
100
AcDbEntity
  8
0
100
AcDbSpline
 62
7
  6
BYLAYER
 70
0
 71
3
 72
11
 73
7
 74
0
 42
0.0000001
 43
0.0000001
 44
0.0000000001
 40
0.0
 40
0.0
 40
0.0
 40
0.0
 40
0.2859812244
 40
0.5450334131
 40
0.7800153409
 40
1.0
 40
1.0
 40
1.0
 40
1.0
 10
84.3451538595
 20
119.841146209
 30
0.0
 10
84.3498929814
 20
119.9482611407
 30
0.0
 10
84.3753130403
 20
120.1523399413
 30
0.0
 10
84.4698377166
 20
120.4316618809
 30
0.0
 10
84.6177518163
 20
120.6587250731
 30
0.0
 10
84.7519597084
 20
120.769406635
 30
0.0
 10
84.8233689296
 20
120.8106749593
 30
0.0
  0
SPLINE
  5
685
100
AcDbEntity
  8
0
100
AcDbSpline
 62
7
  6
BYLAYER
 70
0
 71
3
 72
10
 73
6
 74
0
 42
0.0000001
 43
0.0000001
 44
0.0000000001
 40
0.0
 40
0.0
 40
0.0
 40
0.0
 40
0.2783602789
 40
0.5377474743
 40
1.0
 40
1.0
 40
1.0
 40
1.0
 10
29.4131417098
 20
105.3455377269
 30
0.0
 10
29.4131417098
 20
105.4532230953
 30
0.0
 10
29.4247004008
 20
105.6616938274
 30
0.0
 10
29.4951200848
 20
106.0423200113
 30
0.0
 10
29.6073562263
 20
106.3061207754
 30
0.0
 10
29.7104739552
 20
106.4522206981
 30
0.0
  0
SPLINE
  5
686
100
AcDbEntity
  8
0
100
AcDbSpline
 62
7
  6
BYLAYER
 70
0
 71
3
 72
9
 73
5
 74
0
 42
0.0000001
 43
0.0000001
 44
0.0000000001
 40
0.0
 40
0.0
 40
0.0
 40
0.0
 40
0.2543937375
 40
1.0
 40
1.0
 40
1.0
 40
1.0
 10
29.7104739552
 20
106.4522206981
 30
0.0
 10
29.7215880943
 20
106.4679675039
 30
0.0
 10
29.7666966953
 20
106.5288478577
 30
0.0
 10
29.8175886258
 20
106.5854790708
 30
0.0
 10
29.8584592296
 20
106.6244759243
 30
0.0
  0
SPLINE
  5
687
100
AcDbEntity
  8
0
100
AcDbSpline
 62
7
  6
BYLAYER
 70
0
 71
3
 72
10
 73
6
 74
0
 42
0.0000001
 43
0.0000001
 44
0.0000000001
 40
0.0
 40
0.0
 40
0.0
 40
0.0
 40
0.2783602789
 40
0.5377474743
 40
1.0
 40
1.0
 40
1.0
 40
1.0
 10
49.1415030414
 20
66.8069153062
 30
0.0
 10
49.1415030414
 20
66.9146006746
 30
0.0
 10
49.1530617324
 20
67.1230714068
 30
0.0
 10
49.2234814164
 20
67.5036975907
 30
0.0
 10
49.3357175579
 20
67.7674983548
 30
0.0
 10
49.4388352868
 20
67.9135982774
 30
0.0
  0
SPLINE
  5
688
100
AcDbEntity
  8
0
100
AcDbSpline
 62
7
  6
BYLAYER
 70
0
 71
3
 72
9
 73
5
 74
0
 42
0.0000001
 43
0.0000001
 44
0.0000000001
 40
0.0
 40
0.0
 40
0.0
 40
0.0
 40
0.2543937375
 40
1.0
 40
1.0
 40
1.0
 40
1.0
 10
49.4388352868
 20
67.9135982774
 30
0.0
 10
49.4499494259
 20
67.9293450833
 30
0.0
 10
49.4950580269
 20
67.990225437
 30
0.0
 10
49.5459499574
 20
68.0468566501
 30
0.0
 10
49.5868205612
 20
68.0858535037
 30
0.0
  0
SPLINE
  5
689
100
AcDbEntity
  8
0
100
AcDbSpline
 62
7
  6
BYLAYER
 70
0
 71
3
 72
11
 73
7
 74
0
 42
0.0000001
 43
0.0000001
 44
0.0000000001
 40
0.0
 40
0.0
 40
0.0
 40
0.0
 40
0.2177839466
 40
0.4509170841
 40
0.710307871
 40
1.0
 40
1.0
 40
1.0
 40
1.0
 10
23.5196123845
 20
110.062442406
 30
0.0
 10
23.4165369805
 20
110.0029133858
 30
0.0
 10
23.2236566092
 20
109.8407926461
 30
0.0
 10
23.0183306571
 20
109.5050585074
 30
0.0
 10
22.8963857256
 20
109.0913280251
 30
0.0
 10
22.8723802849
 20
108.7902058104
 30
0.0
 10
22.8723802849
 20
108.6318737612
 30
0.0
  0
SPLINE
  5
68A
100
AcDbEntity
  8
0
100
AcDbSpline
 62
7
  6
BYLAYER
 70
0
 71
3
 72
11
 73
7
 74
0
 42
0.0000001
 43
0.0000001
 44
0.0000000001
 40
0.0
 40
0.0
 40
0.0
 40
0.0
 40
0.2859812244
 40
0.5450334131
 40
0.7800153409
 40
1.0
 40
1.0
 40
1.0
 40
1.0
 10
52.527653694
 20
138.2105729227
 30
0.0
 10
52.5323928159
 20
138.3176878543
 30
0.0
 10
52.5578128748
 20
138.5217666549
 30
0.0
 10
52.6523375511
 20
138.8010885945
 30
0.0
 10
52.8002516508
 20
139.0281517867
 30
0.0
 10
52.9344595428
 20
139.1388333485
 30
0.0
 10
53.0058687641
 20
139.1801016729
 30
0.0
  0
SPLINE
  5
68B
100
AcDbEntity
  8
0
100
AcDbSpline
 62
7
  6
BYLAYER
 70
0
 71
3
 72
10
 73
6
 74
0
 42
0.0000001
 43
0.0000001
 44
0.0000000001
 40
0.0
 40
0.0
 40
0.0
 40
0.0
 40
0.2783602789
 40
0.5377474743
 40
1.0
 40
1.0
 40
1.0
 40
1.0
 10
55.2580021639
 20
63.2756327796
 30
0.0
 10
55.2580021639
 20
63.383318148
 30
0.0
 10
55.2695608549
 20
63.5917888802
 30
0.0
 10
55.3399805389
 20
63.9724150641
 30
0.0
 10
55.4522166804
 20
64.2362158282
 30
0.0
 10
55.5553344093
 20
64.3823157508
 30
0.0
  0
SPLINE
  5
68C
100
AcDbEntity
  8
0
100
AcDbSpline
 62
7
  6
BYLAYER
 70
0
 71
3
 72
9
 73
5
 74
0
 42
0.0000001
 43
0.0000001
 44
0.0000000001
 40
0.0
 40
0.0
 40
0.0
 40
0.0
 40
0.2543937375
 40
1.0
 40
1.0
 40
1.0
 40
1.0
 10
55.5553344093
 20
64.3823157508
 30
0.0
 10
55.5664485484
 20
64.3980625567
 30
0.0
 10
55.6115571494
 20
64.4589429104
 30
0.0
 10
55.6624490799
 20
64.5155741235
 30
0.0
 10
55.7033196838
 20
64.5545709771
 30
0.0
  0
SPLINE
  5
68D
100
AcDbEntity
  8
0
100
AcDbSpline
 62
7
  6
BYLAYER
 70
0
 71
3
 72
16
 73
12
 74
0
 42
0.0000001
 43
0.0000001
 44
0.0000000001
 40
0.0
 40
0.0
 40
0.0
 40
0.0
 40
0.044542679
 40
0.0903850738
 40
0.1906261481
 40
0.3071814632
 40
0.4393584681
 40
0.5821496676
 40
0.7282971577
 40
0.8699158406
 40
1.0
 40
1.0
 40
1.0
 40
1.0
 10
61.0878313893
 20
132.1747487273
 30
0.0
 10
61.0413492401
 20
132.1478860843
 30
0.0
 10
60.9398682605
 20
132.1048788372
 30
0.0
 10
60.7111840304
 20
132.0677753733
 30
0.0
 10
60.3909283076
 20
132.1248067097
 30
0.0
 10
60.0175524688
 20
132.3286127306
 30
0.0
 10
59.6650801672
 20
132.6477812932
 30
0.0
 10
59.3603123006
 20
133.0571684286
 30
0.0
 10
59.1270643384
 20
133.5237895023
 30
0.0
 10
58.984076348
 20
134.0094019566
 30
0.0
 10
58.9554079376
 20
134.3389567183
 30
0.0
 10
58.9623379296
 20
134.4955902985
 30
0.0
  0
SPLINE
  5
68E
100
AcDbEntity
  8
0
100
AcDbSpline
 62
7
  6
BYLAYER
 70
0
 71
3
 72
9
 73
5
 74
0
 42
0.0000001
 43
0.0000001
 44
0.0000000001
 40
0.0
 40
0.0
 40
0.0
 40
0.0
 40
0.2461996355
 40
1.0
 40
1.0
 40
1.0
 40
1.0
 10
32.9581539522
 20
101.2658999238
 30
0.0
 10
32.9399113055
 20
101.2604556569
 30
0.0
 10
32.8652507014
 20
101.2402594245
 30
0.0
 10
32.7885475829
 20
101.2277632562
 30
0.0
 10
32.7305017045
 20
101.2224495669
 30
0.0
  0
SPLINE
  5
68F
100
AcDbEntity
  8
0
100
AcDbSpline
 62
7
  6
BYLAYER
 70
0
 71
3
 72
15
 73
11
 74
0
 42
0.0000001
 43
0.0000001
 44
0.0000000001
 40
0.0
 40
0.0
 40
0.0
 40
0.0
 40
0.1994164376
 40
0.2594900075
 40
0.3230217468
 40
0.4581981409
 40
0.5997143037
 40
0.7412523568
 40
0.8764822659
 40
1.0
 40
1.0
 40
1.0
 40
1.0
 10
32.7305017045
 20
101.2224495669
 30
0.0
 10
32.3508484149
 20
101.1876949958
 30
0.0
 10
31.8414321547
 20
101.3661347573
 30
0.0
 10
31.3283412329
 20
101.703901442
 30
0.0
 10
30.9425132053
 20
102.0160342505
 30
0.0
 10
30.4958001052
 20
102.4928652819
 30
0.0
 10
30.0438017333
 20
103.1560018326
 30
0.0
 10
29.6948649542
 20
103.8790003434
 30
0.0
 10
29.4716446896
 20
104.61416833
 30
0.0
 10
29.4131417098
 20
105.1093987572
 30
0.0
 10
29.4131417098
 20
105.3455377269
 30
0.0
  0
SPLINE
  5
690
100
AcDbEntity
  8
0
100
AcDbSpline
 62
7
  6
BYLAYER
 70
0
 71
3
 72
11
 73
7
 74
0
 42
0.0000001
 43
0.0000001
 44
0.0000000001
 40
0.0
 40
0.0
 40
0.0
 40
0.0
 40
0.2829824387
 40
0.5409584042
 40
0.7771727135
 40
1.0
 40
1.0
 40
1.0
 40
1.0
 10
77.3007581757
 20
124.4268795088
 30
0.0
 10
77.3098643415
 20
124.5236117155
 30
0.0
 10
77.3421143408
 20
124.7077009784
 30
0.0
 10
77.4393294018
 20
124.9583893398
 30
0.0
 10
77.5816015462
 20
125.1626032314
 30
0.0
 10
77.7065666661
 20
125.2630535764
 30
0.0
 10
77.7728140451
 20
125.3013218713
 30
0.0
  0
SPLINE
  5
691
100
AcDbEntity
  8
0
100
AcDbSpline
 62
7
  6
BYLAYER
 70
0
 71
3
 72
10
 73
6
 74
0
 42
0.0000001
 43
0.0000001
 44
0.0000000001
 40
0.0
 40
0.0
 40
0.0
 40
0.0
 40
0.2783602789
 40
0.5377474743
 40
1.0
 40
1.0
 40
1.0
 40
1.0
 10
35.5296408323
 20
101.8142552003
 30
0.0
 10
35.5296408323
 20
101.9219405687
 30
0.0
 10
35.5411995233
 20
102.1304113008
 30
0.0
 10
35.6116192073
 20
102.5110374847
 30
0.0
 10
35.7238553488
 20
102.7748382488
 30
0.0
 10
35.8269730777
 20
102.9209381715
 30
0.0
  0
SPLINE
  5
692
100
AcDbEntity
  8
0
100
AcDbSpline
 62
7
  6
BYLAYER
 70
0
 71
3
 72
9
 73
5
 74
0
 42
0.0000001
 43
0.0000001
 44
0.0000000001
 40
0.0
 40
0.0
 40
0.0
 40
0.0
 40
0.2543937375
 40
1.0
 40
1.0
 40
1.0
 40
1.0
 10
35.8269730777
 20
102.9209381715
 30
0.0
 10
35.8380872168
 20
102.9366849773
 30
0.0
 10
35.8831958178
 20
102.9975653311
 30
0.0
 10
35.9340877483
 20
103.0541965442
 30
0.0
 10
35.9749583522
 20
103.0931933977
 30
0.0
  0
SPLINE
  5
693
100
AcDbEntity
  8
0
100
AcDbSpline
 62
7
  6
BYLAYER
 70
0
 71
3
 72
10
 73
6
 74
0
 42
0.0000001
 43
0.0000001
 44
0.0000000001
 40
0.0
 40
0.0
 40
0.0
 40
0.0
 40
0.2783602789
 40
0.5377474743
 40
1.0
 40
1.0
 40
1.0
 40
1.0
 10
61.3745012864
 20
59.744350253
 30
0.0
 10
61.3745012864
 20
59.8520356214
 30
0.0
 10
61.3860599774
 20
60.0605063536
 30
0.0
 10
61.4564796614
 20
60.4411325375
 30
0.0
 10
61.5687158029
 20
60.7049333016
 30
0.0
 10
61.6718335319
 20
60.8510332242
 30
0.0
  0
SPLINE
  5
694
100
AcDbEntity
  8
0
100
AcDbSpline
 62
7
  6
BYLAYER
 70
0
 71
3
 72
9
 73
5
 74
0
 42
0.0000001
 43
0.0000001
 44
0.0000000001
 40
0.0
 40
0.0
 40
0.0
 40
0.0
 40
0.2543937375
 40
1.0
 40
1.0
 40
1.0
 40
1.0
 10
61.6718335319
 20
60.8510332242
 30
0.0
 10
61.6829476709
 20
60.8667800301
 30
0.0
 10
61.7280562719
 20
60.9276603838
 30
0.0
 10
61.7789482025
 20
60.9842915969
 30
0.0
 10
61.8198188063
 20
61.0232884505
 30
0.0
  0
SPLINE
  5
695
100
AcDbEntity
  8
0
100
AcDbSpline
 62
7
  6
BYLAYER
 70
0
 71
3
 72
13
 73
9
 74
0
 42
0.0000001
 43
0.0000001
 44
0.0000000001
 40
0.0
 40
0.0
 40
0.0
 40
0.0
 40
0.0963840078
 40
0.1973719436
 40
0.306037944
 40
0.4243972075
 40
0.6924486125
 40
1.0
 40
1.0
 40
1.0
 40
1.0
 10
111.6795503181
 20
62.0979731913
 30
0.0
 10
111.6353304817
 20
62.0724167852
 30
0.0
 10
111.5377350621
 20
62.0314802385
 30
0.0
 10
111.3763730871
 20
62.0055015557
 30
0.0
 10
111.2016753727
 20
62.0138123888
 30
0.0
 10
110.9448077127
 20
62.0722479625
 30
0.0
 10
110.6096702693
 20
62.2338583919
 30
0.0
 10
110.3670303131
 20
62.4215622017
 30
0.0
 10
110.2464486743
 20
62.5311960863
 30
0.0
  0
SPLINE
  5
696
100
AcDbEntity
  8
0
100
AcDbSpline
 62
7
  6
BYLAYER
 70
0
 71
3
 72
11
 73
7
 74
0
 42
0.0000001
 43
0.0000001
 44
0.0000000001
 40
0.0
 40
0.0
 40
0.0
 40
0.0
 40
0.2177839466
 40
0.4509170841
 40
0.710307871
 40
1.0
 40
1.0
 40
1.0
 40
1.0
 10
29.636111507
 20
106.5311598794
 30
0.0
 10
29.533036103
 20
106.4716308592
 30
0.0
 10
29.3401557317
 20
106.3095101195
 30
0.0
 10
29.1348297796
 20
105.9737759808
 30
0.0
 10
29.0128848481
 20
105.5600454985
 30
0.0
 10
28.9888794075
 20
105.2589232838
 30
0.0
 10
28.9888794075
 20
105.1005912346
 30
0.0
  0
SPLINE
  5
697
100
AcDbEntity
  8
0
100
AcDbSpline
 62
7
  6
BYLAYER
 70
0
 71
3
 72
16
 73
12
 74
0
 42
0.0000001
 43
0.0000001
 44
0.0000000001
 40
0.0
 40
0.0
 40
0.0
 40
0.0
 40
0.0445430326
 40
0.0903872744
 40
0.1906265576
 40
0.3071797289
 40
0.4393537145
 40
0.5821461934
 40
0.7282851289
 40
0.8699253238
 40
1.0
 40
1.0
 40
1.0
 40
1.0
 10
98.8789633926
 20
110.4664421394
 30
0.0
 10
98.8402204493
 20
110.4440702416
 30
0.0
 10
98.7556900396
 20
110.4081405364
 30
0.0
 10
98.5650896381
 20
110.3773357142
 30
0.0
 10
98.2982323966
 20
110.4248020672
 30
0.0
 10
97.9870882483
 20
110.5946560381
 30
0.0
 10
97.6933573375
 20
110.8606072286
 30
0.0
 10
97.4394114991
 20
111.2017653516
 30
0.0
 10
97.2449820621
 20
111.5906016114
 30
0.0
 10
97.1258841099
 20
111.9952957967
 30
0.0
 10
97.1019558783
 20
112.2699286954
 30
0.0
 10
97.1077303982
 20
112.4004459768
 30
0.0
  0
SPLINE
  5
698
100
AcDbEntity
  8
0
100
AcDbSpline
 62
7
  6
BYLAYER
 70
0
 71
3
 72
10
 73
6
 74
0
 42
0.0000001
 43
0.0000001
 44
0.0000000001
 40
0.0
 40
0.0
 40
0.0
 40
0.0
 40
0.2783602789
 40
0.5377474743
 40
1.0
 40
1.0
 40
1.0
 40
1.0
 10
67.4910004089
 20
56.2130677264
 30
0.0
 10
67.4910004089
 20
56.3207530948
 30
0.0
 10
67.5025591
 20
56.529223827
 30
0.0
 10
67.5729787839
 20
56.9098500109
 30
0.0
 10
67.6852149255
 20
57.173650775
 30
0.0
 10
67.7883326544
 20
57.3197506976
 30
0.0
  0
SPLINE
  5
699
100
AcDbEntity
  8
0
100
AcDbSpline
 62
7
  6
BYLAYER
 70
0
 71
3
 72
9
 73
5
 74
0
 42
0.0000001
 43
0.0000001
 44
0.0000000001
 40
0.0
 40
0.0
 40
0.0
 40
0.0
 40
0.2543937375
 40
1.0
 40
1.0
 40
1.0
 40
1.0
 10
67.7883326544
 20
57.3197506976
 30
0.0
 10
67.7994467935
 20
57.3354975035
 30
0.0
 10
67.8445553945
 20
57.3963778572
 30
0.0
 10
67.895447325
 20
57.4530090703
 30
0.0
 10
67.9363179288
 20
57.4920059239
 30
0.0
  0
SPLINE
  5
69A
100
AcDbEntity
  8
0
100
AcDbSpline
 62
7
  6
BYLAYER
 70
0
 71
3
 72
9
 73
5
 74
0
 42
0.0000001
 43
0.0000001
 44
0.0000000001
 40
0.0
 40
0.0
 40
0.0
 40
0.0
 40
0.2461996355
 40
1.0
 40
1.0
 40
1.0
 40
1.0
 10
39.0746530747
 20
97.7346173972
 30
0.0
 10
39.0564104281
 20
97.7291731303
 30
0.0
 10
38.981749824
 20
97.7089768979
 30
0.0
 10
38.9050467054
 20
97.6964807296
 30
0.0
 10
38.847000827
 20
97.6911670403
 30
0.0
  0
SPLINE
  5
69B
100
AcDbEntity
  8
0
100
AcDbSpline
 62
7
  6
BYLAYER
 70
0
 71
3
 72
15
 73
11
 74
0
 42
0.0000001
 43
0.0000001
 44
0.0000000001
 40
0.0
 40
0.0
 40
0.0
 40
0.0
 40
0.1994164376
 40
0.2594900075
 40
0.3230217468
 40
0.4581981409
 40
0.5997143037
 40
0.7412523568
 40
0.8764822659
 40
1.0
 40
1.0
 40
1.0
 40
1.0
 10
38.847000827
 20
97.6911670403
 30
0.0
 10
38.4673475374
 20
97.6564124692
 30
0.0
 10
37.9579312773
 20
97.8348522307
 30
0.0
 10
37.4448403554
 20
98.1726189154
 30
0.0
 10
37.0590123278
 20
98.4847517239
 30
0.0
 10
36.6122992277
 20
98.9615827553
 30
0.0
 10
36.1603008558
 20
99.624719306
 30
0.0
 10
35.8113640767
 20
100.3477178168
 30
0.0
 10
35.5881438122
 20
101.0828858034
 30
0.0
 10
35.5296408323
 20
101.5781162306
 30
0.0
 10
35.5296408323
 20
101.8142552003
 30
0.0
  0
SPLINE
  5
69C
100
AcDbEntity
  8
0
100
AcDbSpline
 62
7
  6
BYLAYER
 70
0
 71
3
 72
10
 73
6
 74
0
 42
0.0000001
 43
0.0000001
 44
0.0000000001
 40
0.0
 40
0.0
 40
0.0
 40
0.0
 40
0.2783602789
 40
0.5377474743
 40
1.0
 40
1.0
 40
1.0
 40
1.0
 10
41.6461399548
 20
70.4810653704
 30
0.0
 10
41.6461399548
 20
70.5887507388
 30
0.0
 10
41.6576986458
 20
70.797221471
 30
0.0
 10
41.7281183298
 20
71.1778476549
 30
0.0
 10
41.8403544713
 20
71.441648419
 30
0.0
 10
41.9434722003
 20
71.5877483416
 30
0.0
  0
SPLINE
  5
69D
100
AcDbEntity
  8
0
100
AcDbSpline
 62
7
  6
BYLAYER
 70
0
 71
3
 72
9
 73
5
 74
0
 42
0.0000001
 43
0.0000001
 44
0.0000000001
 40
0.0
 40
0.0
 40
0.0
 40
0.0
 40
0.2543937375
 40
1.0
 40
1.0
 40
1.0
 40
1.0
 10
41.9434722003
 20
71.5877483416
 30
0.0
 10
41.9545863393
 20
71.6034951475
 30
0.0
 10
41.9996949403
 20
71.6643755012
 30
0.0
 10
42.0505868709
 20
71.7210067144
 30
0.0
 10
42.0914574747
 20
71.7600035679
 30
0.0
  0
SPLINE
  5
69E
100
AcDbEntity
  8
0
100
AcDbSpline
 62
7
  6
BYLAYER
 70
0
 71
3
 72
10
 73
6
 74
0
 42
0.0000001
 43
0.0000001
 44
0.0000000001
 40
0.0
 40
0.0
 40
0.0
 40
0.0
 40
0.2783602789
 40
0.5377474743
 40
1.0
 40
1.0
 40
1.0
 40
1.0
 10
41.6461399548
 20
98.9361746074
 30
0.0
 10
41.6461399548
 20
99.0438599758
 30
0.0
 10
41.6576986458
 20
99.2523307079
 30
0.0
 10
41.7281183298
 20
99.6329568918
 30
0.0
 10
41.8403544713
 20
99.8967576559
 30
0.0
 10
41.9434722003
 20
100.0428575786
 30
0.0
  0
SPLINE
  5
69F
100
AcDbEntity
  8
0
100
AcDbSpline
 62
7
  6
BYLAYER
 70
0
 71
3
 72
9
 73
5
 74
0
 42
0.0000001
 43
0.0000001
 44
0.0000000001
 40
0.0
 40
0.0
 40
0.0
 40
0.0
 40
0.2543937375
 40
1.0
 40
1.0
 40
1.0
 40
1.0
 10
41.9434722003
 20
100.0428575786
 30
0.0
 10
41.9545863393
 20
100.0586043844
 30
0.0
 10
41.9996949403
 20
100.1194847382
 30
0.0
 10
42.0505868709
 20
100.1761159513
 30
0.0
 10
42.0914574747
 20
100.2151128048
 30
0.0
  0
SPLINE
  5
6A0
100
AcDbEntity
  8
0
100
AcDbSpline
 62
7
  6
BYLAYER
 70
0
 71
3
 72
11
 73
7
 74
0
 42
0.0000001
 43
0.0000001
 44
0.0000000001
 40
0.0
 40
0.0
 40
0.0
 40
0.0
 40
0.2177839466
 40
0.4509170841
 40
0.710307871
 40
1.0
 40
1.0
 40
1.0
 40
1.0
 10
35.7526106295
 20
102.9998773528
 30
0.0
 10
35.6495352255
 20
102.9403483326
 30
0.0
 10
35.4566548543
 20
102.7782275929
 30
0.0
 10
35.2513289021
 20
102.4424934542
 30
0.0
 10
35.1293839706
 20
102.0287629719
 30
0.0
 10
35.10537853
 20
101.7276407572
 30
0.0
 10
35.10537853
 20
101.569308708
 30
0.0
  0
ENDSEC
  0
SECTION
  2
OBJECTS
  0
DICTIONARY
  5
C
100
AcDbDictionary
280
0
281
1
  3
ACAD_GROUP
350
D
  3
ACAD_MLINESTYLE
350
17
  3
ACAD_LAYOUT
350
1A
  3
ACAD_PLOTSETTINGS
350
19
  3
ACAD_PLOTSTYLENAME
350
E
  0
DICTIONARY
  5
D
102
{ACAD_REACTORS
330
C
102
}
100
AcDbDictionary
280
0
281
1
  0
ACDBDICTIONARYWDFLT
  5
E
102
{ACAD_REACTORS
330
C
102
}
100
AcDbDictionary
281
1
  3
Normal
350
F
100
AcDbDictionaryWithDefault
340
F
  0
DICTIONARY
  5
17
102
{ACAD_REACTORS
330
C
102
}
100
AcDbDictionary
280
0
281
1
  3
Standard
350
18
  0
DICTIONARY
  5
19
102
{ACAD_REACTORS
330
C
102
}
100
AcDbDictionary
281
1
  0
DICTIONARY
  5
1A
102
{ACAD_REACTORS
330
C
102
}
100
AcDbDictionary
281
1
  3
Model
350
6A1
  3
Layout1
350
6A2
  0
ACDBPLACEHOLDER
  5
F
102
{ACAD_REACTORS
330
E
102
}
  0
MLINESTYLE
  5
18
102
{ACAD_REACTORS
330
17
102
}
100
AcDbMlineStyle
  2
STANDARD
 70
0
  3

 62
256
 51
90.0
 52
90.0
 71
2
 49
0.5
 62
256
  6
BYLAYER
 49
-0.5
 62
256
  6
BYLAYER
  0
LAYOUT
  5
6A1
102
{ACAD_REACTORS
330
1A
102
}
100
AcDbPlotSettings
  1

  2
none_device
  4

  6

 40
0.0
 41
0.0
 42
0.0
 43
0.0
 44
210.0
 45
297.0
 46
0.0
 47
0.0
 48
0.0
 49
0.0
140
0.0
141
0.0
142
1.0
143
1.0
 70
1024
 72
1
 73
0
 74
0
  7

 75
0
147
1.0
148
0.0
149
0.0
100
AcDbLayout
  1
Model
 70
0
 71
0
 10
0.0
 20
0.0
 11
210.0
 21
297.0
 12
0.0
 22
0.0
 32
0.0
 14
0.0
 24
0.0
 34
0.0
 15
0.0
 25
0.0
 35
0.0
146
0.0
 13
0.0
 23
0.0
 33
0.0
 16
1.0
 26
0.0
 36
0.0
 17
0.0
 27
1.0
 37
0.0
 76
0
330
210
345
0
346
0
  0
LAYOUT
  5
6A2
102
{ACAD_REACTORS
330
1A
102
}
100
AcDbPlotSettings
  1

  2
none_device
  4

  6

 40
0.0
 41
0.0
 42
0.0
 43
0.0
 44
210.0
 45
297.0
 46
0.0
 47
0.0
 48
0.0
 49
0.0
140
0.0
141
0.0
142
1.0
143
1.0
 70
0
 72
1
 73
0
 74
0
  7

 75
0
147
1.0
148
0.0
149
0.0
100
AcDbLayout
  1
Layout1
 70
0
 71
1
 10
0.0
 20
0.0
 11
210.0
 21
297.0
 12
0.0
 22
0.0
 32
0.0
 14
0.0
 24
0.0
 34
0.0
 15
0.0
 25
0.0
 35
0.0
146
0.0
 13
0.0
 23
0.0
 33
0.0
 16
1.0
 26
0.0
 36
0.0
 17
0.0
 27
1.0
 37
0.0
 76
0
330
211
345
0
346
0
  0
ENDSEC
  0
EOF
