999
DXF file: C:\Users\sesa63760\Dev\_Creo\CAD\MCADID0005752_3D-CAD\mcadid0005752_3d-simplified_6.dxf
999
Pro/ENGINEER 2019471 by Parametric Technology Corporation
  0
SECTION
  2
HEADER
  9
$ACADVER
  1
AC1024
  9
$DWGCODEPAGE
  3
ANSI_1252
  9
$EXTMAX
 10
220.779003361
 20
312.2445904677
 30
0.0
  9
$EXTMIN
 10
0.0
 20
0.0
 30
0.0
  9
$LIMMIN
 10
0.0
 20
0.0
  9
$LIMMAX
 10
220.779003361
 20
312.2445904677
  9
$VIEWCTR
 10
110.3895016805
 20
156.1222952339
  9
$VIEWSIZE
 40
312.2445904677
  9
$CLAYER
  8
0
  9
$LTSCALE
 40
20.3537214527
  9
$CELTYPE
  6
BYLAYER
  9
$DIMSCALE
 40
1.0
  9
$DIMASZ
 40
2.6283214686
  9
$DIMEXO
 40
1.0
  9
$DIMDLI
 40
14.0625711855
  9
$DIMEXE
 40
1.0
  9
$DIMCEN
 40
3.330608965
  9
$DIMLFAC
 40
1.0
  9
$DIMBLK
  1
_FILLED
  9
$DIMALT
 70
0
  9
$DIMALTF
 40
0.0393700787
  9
$DIMTXT
 40
3.679650056
  9
$DIMTOL
 70
1
  9
$DIMLIM
 70
0
  9
$DIMTFAC
 40
1.0
  9
$DIMTP
 40
0.01
  9
$DIMTM
 40
0.01
  9
$DIMGAP
 40
0.625
  9
$DIMDSEP
 70
46
  9
$AUNITS
 70
0
  9
$PDMODE
 70
3
  9
$PDSIZE
 40
0.3125
  9
$HANDSEED
  5
376
  9
$TILEMODE
 70
1
  9
$MEASUREMENT
 70
1
  9
$INSUNITS
 70
4
  0
ENDSEC
  0
SECTION
  2
CLASSES
  0
CLASS
  1
ACDBDICTIONARYWDFLT
  2
AcDbDictionaryWithDefault
  3
AutoCAD 2000
 90
0
 91
1
280
0
281
0
  0
CLASS
  1
ACDBPLACEHOLDER
  2
AcDbPlaceHolder
  3
AutoCAD 2000
 90
0
 91
1
280
0
281
0
  0
CLASS
  1
LAYOUT
  2
AcDbLayout
  3
AutoCAD 2000
 90
0
 91
0
280
0
281
0
  0
ENDSEC
  0
SECTION
  2
TABLES
  0
TABLE
  2
VPORT
  5
8
100
AcDbSymbolTable
 70
2
  0
VPORT
  5
1F4
100
AcDbSymbolTableRecord
100
AcDbViewportTableRecord
  2
*ACTIVE
 70
0
 10
0.0
 20
0.0
 11
1.0
 21
1.0
 12
110.3895016805
 22
156.1222952339
 13
0.0
 23
0.0
 14
1.0
 24
1.0
 15
0.0
 25
0.0
 16
0.0
 26
0.0
 36
1.0
 17
0.0
 27
0.0
 37
0.0
 40
312.2445904677
 41
0.7070707071
 42
50.0
 43
0.0
 44
0.0
 50
0.0
 51
0.0
 71
0
 72
100
 73
1
 74
1
 75
0
 76
0
 77
0
 78
0
  0
ENDTAB
  0
TABLE
  2
LTYPE
  5
5
100
AcDbSymbolTable
 70
6
  0
LTYPE
  5
14
100
AcDbSymbolTableRecord
100
AcDbLinetypeTableRecord
  2
BYBLOCK
 70
0
  3

 72
65
 73
0
 40
0.0
  0
LTYPE
  5
15
100
AcDbSymbolTableRecord
100
AcDbLinetypeTableRecord
  2
BYLAYER
 70
0
  3

 72
65
 73
0
 40
0.0
  0
LTYPE
  5
16
100
AcDbSymbolTableRecord
100
AcDbLinetypeTableRecord
  2
CONTINUOUS
 70
64
  3
Solid line
 72
65
 73
0
 40
0.0
  0
LTYPE
  5
1F5
100
AcDbSymbolTableRecord
100
AcDbLinetypeTableRecord
  2
CENTER
 70
64
  3
____ _ ____ _ ____ _ ____ _ ____ _ ____ _ ____
 72
65
 73
4
 40
0.6
 49
0.375
 74
0
 49
-0.075
 74
0
 49
0.075
 74
0
 49
-0.075
 74
0
  0
LTYPE
  5
1F6
100
AcDbSymbolTableRecord
100
AcDbLinetypeTableRecord
  2
HIDDEN
 70
64
  3
- - - - - - - - - - - - - - - - - - - -
 72
65
 73
2
 40
0.2
 49
0.1
 74
0
 49
-0.1
 74
0
  0
LTYPE
  5
1F7
100
AcDbSymbolTableRecord
100
AcDbLinetypeTableRecord
  2
PHANTOM
 70
64
  3
_____ _ _ _____ _ _ _____ _ _ _____
 72
65
 73
6
 40
0.8
 49
0.45
 74
0
 49
-0.05
 74
0
 49
0.1
 74
0
 49
-0.05
 74
0
 49
0.1
 74
0
 49
-0.05
 74
0
  0
LTYPE
  5
1F8
100
AcDbSymbolTableRecord
100
AcDbLinetypeTableRecord
  2
DOT
 70
64
  3
. . . . . . . . . . . . . . . . . . . .
 72
65
 73
2
 40
0.2
 49
0.1
 74
0
 49
-0.1
 74
0
  0
LTYPE
  5
1F9
100
AcDbSymbolTableRecord
100
AcDbLinetypeTableRecord
  2
DASHED
 70
64
  3
- - - - - - - - - - - - - - - - - - - -
 72
65
 73
2
 40
0.2
 49
0.1
 74
0
 49
-0.1
 74
0
  0
ENDTAB
  0
TABLE
  2
LAYER
  5
2
100
AcDbSymbolTable
 70
36
  0
LAYER
  5
10
100
AcDbSymbolTableRecord
100
AcDbLayerTableRecord
  2
0
 70
0
 62
7
  6
CONTINUOUS
370
-3
390
F
  0
LAYER
  5
1FA
100
AcDbSymbolTableRecord
100
AcDbLayerTableRecord
  2
DEFAULT_1
 70
0
 62
7
  6
CENTER
370
-3
390
F
  0
LAYER
  5
1FB
100
AcDbSymbolTableRecord
100
AcDbLayerTableRecord
  2
DEFAULT_2
 70
0
 62
7
  6
HIDDEN
370
-3
390
F
  0
LAYER
  5
1FC
100
AcDbSymbolTableRecord
100
AcDbLayerTableRecord
  2
DEFAULT_3
 70
0
 62
7
  6
PHANTOM
370
-3
390
F
  0
LAYER
  5
1FD
100
AcDbSymbolTableRecord
100
AcDbLayerTableRecord
  2
00_COMPONENTS
 70
0
 62
7
  6
CONTINUOUS
370
-3
390
F
  0
LAYER
  5
1FE
100
AcDbSymbolTableRecord
100
AcDbLayerTableRecord
  2
01_1_DEFAULT_DATUMS
 70
0
 62
7
  6
CONTINUOUS
370
-3
390
F
  0
LAYER
  5
1FF
100
AcDbSymbolTableRecord
100
AcDbLayerTableRecord
  2
01_PLANES
 70
0
 62
7
  6
CONTINUOUS
370
-3
390
F
  0
LAYER
  5
200
100
AcDbSymbolTableRecord
100
AcDbLayerTableRecord
  2
02_COORD_SYS
 70
0
 62
7
  6
CONTINUOUS
370
-3
390
F
  0
LAYER
  5
201
100
AcDbSymbolTableRecord
100
AcDbLayerTableRecord
  2
03_AXES
 70
0
 62
7
  6
CONTINUOUS
370
-3
390
F
  0
LAYER
  5
202
100
AcDbSymbolTableRecord
100
AcDbLayerTableRecord
  2
04_POINTS
 70
0
 62
7
  6
CONTINUOUS
370
-3
390
F
  0
LAYER
  5
203
100
AcDbSymbolTableRecord
100
AcDbLayerTableRecord
  2
05_CURVES
 70
0
 62
7
  6
CONTINUOUS
370
-3
390
F
  0
LAYER
  5
204
100
AcDbSymbolTableRecord
100
AcDbLayerTableRecord
  2
06_SURFS
 70
0
 62
7
  6
CONTINUOUS
370
-3
390
F
  0
LAYER
  5
205
100
AcDbSymbolTableRecord
100
AcDbLayerTableRecord
  2
07_COSMETICS
 70
0
 62
7
  6
CONTINUOUS
370
-3
390
F
  0
LAYER
  5
206
100
AcDbSymbolTableRecord
100
AcDbLayerTableRecord
  2
10_NOTES
 70
0
 62
7
  6
CONTINUOUS
370
-3
390
F
  0
LAYER
  5
207
100
AcDbSymbolTableRecord
100
AcDbLayerTableRecord
  2
11_NOTES_PUB
 70
0
 62
7
  6
CONTINUOUS
370
-3
390
F
  0
LAYER
  5
208
100
AcDbSymbolTableRecord
100
AcDbLayerTableRecord
  2
13452
 70
0
 62
7
  6
CONTINUOUS
370
-3
390
F
  0
LAYER
  5
209
100
AcDbSymbolTableRecord
100
AcDbLayerTableRecord
  2
13_REF_GTOL
 70
0
 62
7
  6
CONTINUOUS
370
-3
390
F
  0
LAYER
  5
20A
100
AcDbSymbolTableRecord
100
AcDbLayerTableRecord
  2
16_MISC
 70
0
 62
7
  6
CONTINUOUS
370
-3
390
F
  0
LAYER
  5
20B
100
AcDbSymbolTableRecord
100
AcDbLayerTableRecord
  2
17_NO_PRINT
 70
0
 62
7
  6
CONTINUOUS
370
-3
390
F
  0
LAYER
  5
20C
100
AcDbSymbolTableRecord
100
AcDbLayerTableRecord
  2
18_DATUM_CAMS_JOINTS
 70
0
 62
7
  6
CONTINUOUS
370
-3
390
F
  0
LAYER
  5
20D
100
AcDbSymbolTableRecord
100
AcDbLayerTableRecord
  2
19_DATUM_FUNCTIONAL
 70
0
 62
7
  6
CONTINUOUS
370
-3
390
F
  0
LAYER
  5
20E
100
AcDbSymbolTableRecord
100
AcDbLayerTableRecord
  2
20_DATUM_KINEMATIC_SCHEME
 70
0
 62
7
  6
CONTINUOUS
370
-3
390
F
  0
LAYER
  5
20F
100
AcDbSymbolTableRecord
100
AcDbLayerTableRecord
  2
INTF_YELLOW
 70
0
 62
7
  6
CONTINUOUS
370
-3
390
F
  0
ENDTAB
  0
TABLE
  2
STYLE
  5
3
100
AcDbSymbolTable
 70
1
  0
STYLE
  5
11
100
AcDbSymbolTableRecord
100
AcDbTextStyleTableRecord
  2
STANDARD
 70
0
 40
0.0
 41
1.0
 50
0.0
 71
0
 42
0.2
  3
ARIAL.TTF
  4

  0
STYLE
  5
210
100
AcDbSymbolTableRecord
100
AcDbTextStyleTableRecord
  2
TEXTSTYLE_1
 70
0
 40
0.0
 41
0.8
 50
0.0
 71
0
 42
0.2
  3
gdt
  4

  0
ENDTAB
  0
TABLE
  2
VIEW
  5
6
100
AcDbSymbolTable
 70
0
  0
ENDTAB
  0
TABLE
  2
UCS
  5
7
100
AcDbSymbolTable
 70
0
  0
ENDTAB
  0
TABLE
  2
APPID
  5
9
100
AcDbSymbolTable
 70
1
  0
APPID
  5
211
100
AcDbSymbolTableRecord
100
AcDbRegAppTableRecord
  2
ACAD
 70
0
  0
ENDTAB
  0
TABLE
  2
BLOCK_RECORD
  5
1
100
AcDbSymbolTable
 70
0
  0
BLOCK_RECORD
  5
212
100
AcDbSymbolTableRecord
100
AcDbBlockTableRecord
  2
*Model_Space
  0
BLOCK_RECORD
  5
213
100
AcDbSymbolTableRecord
100
AcDbBlockTableRecord
  2
*Paper_Space
  0
BLOCK_RECORD
  5
214
100
AcDbSymbolTableRecord
100
AcDbBlockTableRecord
  2
_FILLED
  0
ENDTAB
  0
TABLE
  2
DIMSTYLE
  5
A
100
AcDbSymbolTable
 70
1
100
AcDbDimStyleTable
 71
0
  0
DIMSTYLE
105
215
100
AcDbSymbolTableRecord
100
AcDbDimStyleTableRecord
  2
STANDARD
 70
0
  3

  4

 40
1.0
 41
2.6283214686
 42
1.0
 43
0.38
 44
1.0
 45
0.0
 46
0.0
 47
0.01
 48
0.01
140
3.679650056
141
0.09
142
0.0
143
25.4
144
1.0
145
0.0
146
1.0
147
0.625
 71
1
 72
0
 73
0
 74
0
 75
0
 76
0
 77
1
 78
8
 79
2
170
0
171
1
172
0
173
0
174
0
175
0
176
0
177
0
178
0
270
2
179
2
271
2
272
2
273
2
274
2
275
0
280
0
281
0
282
0
283
1
284
8
285
0
286
0
287
3
288
0
340
11
278
46
341
214
342
214
343
214
344
214
  0
ENDTAB
  0
ENDSEC
  0
SECTION
  2
BLOCKS
  0
BLOCK
  5
20
100
AcDbEntity
  8
0
100
AcDbBlockBegin
  2
*Model_Space
 70
0
 10
0.0
 20
0.0
 30
0.0
  3
*Model_Space
  1

  0
ENDBLK
  5
21
100
AcDbEntity
  8
0
100
AcDbBlockEnd
  0
BLOCK
  5
1C
100
AcDbEntity
  8
0
100
AcDbBlockBegin
  2
*Paper_Space
 70
0
 10
0.0
 20
0.0
 30
0.0
  3
*Paper_Space
  1

  0
ENDBLK
  5
1D
100
AcDbEntity
  8
0
100
AcDbBlockEnd
  0
BLOCK
  5
216
100
AcDbEntity
  8
0
100
AcDbBlockBegin
  2
_FILLED
 70
64
 10
0.0
 20
0.0
  3
_FILLED
  1

  0
SOLID
  5
217
100
AcDbEntity
  8
0
  6
BYBLOCK
 62
0
100
AcDbTrace
 10
0.0
 20
0.0
 11
-1.0
 21
0.25
 12
-1.0
 22
-0.25
 13
-1.0
 23
-0.25
  0
ENDBLK
  5
218
100
AcDbEntity
  8
0
  6
BYBLOCK
 62
0
100
AcDbBlockEnd
  0
ENDSEC
  0
SECTION
  2
ENTITIES
  0
LINE
  5
219
100
AcDbEntity
  8
0
100
AcDbLine
 62
7
  6
BYLAYER
 10
137.3647748433
 20
26.7467930675
 11
112.0771959774
 21
25.7974416849
  0
LINE
  5
21A
100
AcDbEntity
  8
0
100
AcDbLine
 62
7
  6
BYLAYER
 10
112.0771959761
 20
30.7992129048
 11
135.0058103673
 21
31.566881436
  0
LINE
  5
21B
100
AcDbEntity
  8
0
100
AcDbLine
 62
7
  6
BYLAYER
 10
135.0058103668
 20
31.5668816269
 11
142.1771959774
 21
31.7432734364
  0
LINE
  5
21C
100
AcDbEntity
  8
0
100
AcDbLine
 62
7
  6
BYLAYER
 10
110.6771959774
 20
30.7974416849
 11
112.0771959713
 21
30.7992129048
  0
LINE
  5
21D
100
AcDbEntity
  8
0
100
AcDbLine
 62
7
  6
BYLAYER
 10
110.6771959774
 20
25.7974416849
 11
112.0771959774
 21
25.7974416849
  0
LINE
  5
21E
100
AcDbEntity
  8
0
100
AcDbLine
 62
7
  6
BYLAYER
 10
109.4171959774
 20
25.8457527366
 11
110.6771959774
 21
25.8457527366
  0
LINE
  5
21F
100
AcDbEntity
  8
0
100
AcDbLine
 62
7
  6
BYLAYER
 10
110.6771959774
 20
30.8457527366
 11
109.4171959774
 21
30.8457527366
  0
LINE
  5
220
100
AcDbEntity
  8
0
100
AcDbLine
 62
7
  6
BYLAYER
 10
103.0561481321
 20
27.4849105658
 11
109.4171959774
 21
25.8457527366
  0
LINE
  5
221
100
AcDbEntity
  8
0
100
AcDbLine
 62
7
  6
BYLAYER
 10
103.056148132
 20
32.3267394131
 11
109.4077805285
 21
30.6900078205
  0
LINE
  5
222
100
AcDbEntity
  8
0
100
AcDbLine
 62
7
  6
BYLAYER
 10
141.6025147324
 20
45.8857527366
 11
141.581983303
 21
45.8857527366
  0
LINE
  5
223
100
AcDbEntity
  8
0
100
AcDbLine
 62
7
  6
BYLAYER
 10
141.6025147324
 20
93.8857527366
 11
141.581983303
 21
93.8857527366
  0
LINE
  5
224
100
AcDbEntity
  8
0
100
AcDbLine
 62
7
  6
BYLAYER
 10
133.9972475859
 20
100.6980064625
 11
109.4171959774
 21
100.6957527366
  0
LWPOLYLINE
  5
225
100
AcDbEntity
  8
0
100
AcDbPolyline
 62
7
  6
BYLAYER
 90
3
 70
0
 10
112.0771959774
 20
100.6974416849
 10
111.61560349
 20
100.7013984331
 10
110.6771959774
 20
100.6965972108
  0
LINE
  5
226
100
AcDbEntity
  8
0
100
AcDbLine
 62
7
  6
BYLAYER
 10
105.5970689584
 20
247.9167146309
 11
107.0970689584
 21
250.5147908423
  0
LINE
  5
227
100
AcDbEntity
  8
0
100
AcDbLine
 62
7
  6
BYLAYER
 10
109.1771959774
 20
249.313828948
 11
107.6771959774
 21
246.7157527366
  0
LINE
  5
228
100
AcDbEntity
  8
0
100
AcDbLine
 62
7
  6
BYLAYER
 10
85.9960998326
 20
227.1387217503
 11
85.6927572503
 21
225.7709623333
  0
LINE
  5
229
100
AcDbEntity
  8
0
100
AcDbLine
 62
7
  6
BYLAYER
 10
77.104616918
 20
195.7281518028
 11
83.6239167242
 21
224.8460034113
  0
LINE
  5
22A
100
AcDbEntity
  8
0
100
AcDbLine
 62
7
  6
BYLAYER
 10
83.2136232702
 20
219.3282668785
 11
77.8527361181
 21
195.5096683143
  0
LINE
  5
22B
100
AcDbEntity
  8
0
100
AcDbLine
 62
7
  6
BYLAYER
 10
133.205579892
 20
121.6330073002
 11
135.4119618422
 21
121.8482060851
  0
LINE
  5
22C
100
AcDbEntity
  8
0
100
AcDbLine
 62
7
  6
BYLAYER
 10
90.6771959774
 20
119.9607527366
 11
91.7785188286
 21
119.9607527366
  0
LINE
  5
22D
100
AcDbEntity
  8
0
100
AcDbLine
 62
7
  6
BYLAYER
 10
109.4171959774
 20
120.1749082624
 11
112.0022191278
 21
120.1766012053
  0
LINE
  5
22E
100
AcDbEntity
  8
0
100
AcDbLine
 62
7
  6
BYLAYER
 10
91.7528137782
 20
119.9607527366
 11
92.1447063536
 21
119.6238156696
  0
LWPOLYLINE
  5
22F
100
AcDbEntity
  8
0
100
AcDbPolyline
 62
7
  6
BYLAYER
 90
4
 70
0
 10
87.9596661744
 20
123.6675597461
 10
88.945365943
 20
122.6349423733
 10
90.735558491
 20
120.8417720716
 10
92.1444477036
 20
119.6516418313
  0
LWPOLYLINE
  5
230
100
AcDbEntity
  8
0
100
AcDbPolyline
 62
7
  6
BYLAYER
 90
4
 70
0
 10
92.1447028905
 20
119.6238234616
 10
93.0995517606
 20
118.6151940191
 10
94.1056489022
 20
116.655594434
 10
94.9785159737
 20
113.8247788774
  0
LWPOLYLINE
  5
231
100
AcDbEntity
  8
0
100
AcDbPolyline
 62
7
  6
BYLAYER
 90
6
 70
0
 10
92.1444414325
 20
119.6516497112
 10
93.1162906284
 20
118.6232893332
 10
94.1121031964
 20
116.6692891335
 10
94.9755430249
 20
113.853570601
 10
95.9031668877
 20
109.542785229
 10
96.6361474706
 20
104.5168241268
  0
LINE
  5
232
100
AcDbEntity
  8
0
100
AcDbLine
 62
7
  6
BYLAYER
 10
87.4246449036
 20
124.461758879
 11
87.9596546471
 21
123.6674899538
  0
LINE
  5
233
100
AcDbEntity
  8
0
100
AcDbLine
 62
7
  6
BYLAYER
 10
81.9571959774
 20
156.3857527366
 11
81.9571959774
 21
160.0145988898
  0
LINE
  5
234
100
AcDbEntity
  8
0
100
AcDbLine
 62
7
  6
BYLAYER
 10
82.2771959774
 20
154.3857527366
 11
82.2771959774
 21
156.885752488
  0
LINE
  5
235
100
AcDbEntity
  8
0
100
AcDbLine
 62
7
  6
BYLAYER
 10
87.0200727532
 20
126.5378862729
 11
77.0012903186
 21
192.7839979568
  0
LINE
  5
236
100
AcDbEntity
  8
0
100
AcDbLine
 62
7
  6
BYLAYER
 10
96.6361666433
 20
104.5156730563
 11
96.6360754547
 21
104.5168647217
  0
LWPOLYLINE
  5
237
100
AcDbEntity
  8
0
100
AcDbPolyline
 62
7
  6
BYLAYER
 90
4
 70
0
 10
96.6361666433
 20
104.5156730563
 10
96.6555873336
 20
104.2215177101
 10
96.6761594206
 20
103.6352303735
 10
96.6771958782
 20
103.4877971933
  0
LINE
  5
238
100
AcDbEntity
  8
0
100
AcDbLine
 62
7
  6
BYLAYER
 10
87.2771959774
 20
124.3466903586
 11
87.2771959774
 21
125.1064233655
  0
LINE
  5
239
100
AcDbEntity
  8
0
100
AcDbLine
 62
7
  6
BYLAYER
 10
87.7771959774
 20
123.8466982046
 11
87.7771959774
 21
123.9383658646
  0
LINE
  5
23A
100
AcDbEntity
  8
0
100
AcDbLine
 62
7
  6
BYLAYER
 10
88.6771959774
 20
121.9607527366
 11
88.6771959774
 21
122.9158767655
  0
LINE
  5
23B
100
AcDbEntity
  8
0
100
AcDbLine
 62
7
  6
BYLAYER
 10
90.6771959774
 20
119.9607527366
 11
90.6771959774
 21
120.9002316637
  0
LINE
  5
23C
100
AcDbEntity
  8
0
100
AcDbLine
 62
7
  6
BYLAYER
 10
98.9154851784
 20
240.9047603305
 11
98.8771959774
 21
240.2871634167
  0
LINE
  5
23D
100
AcDbEntity
  8
0
100
AcDbLine
 62
7
  6
BYLAYER
 10
100.1777374988
 20
251.045567108
 11
98.9154851796
 21
240.9047603399
  0
LINE
  5
23E
100
AcDbEntity
  8
0
100
AcDbLine
 62
7
  6
BYLAYER
 10
96.6771959774
 20
35.7160196063
 11
96.6771959774
 21
103.4862594163
  0
LINE
  5
23F
100
AcDbEntity
  8
0
100
AcDbLine
 62
7
  6
BYLAYER
 10
98.8771959774
 20
229.1123598592
 11
98.8771959774
 21
240.2871634167
  0
LINE
  5
240
100
AcDbEntity
  8
0
100
AcDbLine
 62
7
  6
BYLAYER
 10
102.0271959774
 20
253.4418833727
 11
102.0271959774
 21
257.9471487828
  0
LINE
  5
241
100
AcDbEntity
  8
0
100
AcDbLine
 62
7
  6
BYLAYER
 10
103.0271959774
 20
260.9471487828
 11
103.0271959774
 21
266.4471487828
  0
LINE
  5
242
100
AcDbEntity
  8
0
100
AcDbLine
 62
7
  6
BYLAYER
 10
103.056148132
 20
32.3267394131
 11
103.056148132
 21
99.877700607
  0
LINE
  5
243
100
AcDbEntity
  8
0
100
AcDbLine
 62
7
  6
BYLAYER
 10
103.9271959774
 20
269.4471487828
 11
103.9271959774
 21
274.9471487828
  0
LINE
  5
244
100
AcDbEntity
  8
0
100
AcDbLine
 62
7
  6
BYLAYER
 10
135.8172831312
 20
139.8075379303
 11
131.8462647248
 21
139.7954667839
  0
LINE
  5
245
100
AcDbEntity
  8
0
100
AcDbLine
 62
7
  6
BYLAYER
 10
135.8147188716
 20
139.5066636126
 11
131.8499653084
 21
139.5039078157
  0
LINE
  5
246
100
AcDbEntity
  8
0
100
AcDbLine
 62
7
  6
BYLAYER
 10
110.6771959774
 20
139.6549082625
 11
85.8585279105
 21
139.6532539828
  0
LINE
  5
247
100
AcDbEntity
  8
0
100
AcDbLine
 62
7
  6
BYLAYER
 10
133.1675822387
 20
139.5032500737
 11
131.8501027486
 21
139.5114447717
  0
LINE
  5
248
100
AcDbEntity
  8
0
100
AcDbLine
 62
7
  6
BYLAYER
 10
135.8145766336
 20
139.4990934227
 11
134.4892068632
 21
139.5072801498
  0
LINE
  5
249
100
AcDbEntity
  8
0
100
AcDbLine
 62
7
  6
BYLAYER
 10
111.9272179077
 20
139.6557303603
 11
112.077220464
 21
100.6972274801
  0
LINE
  5
24A
100
AcDbEntity
  8
0
100
AcDbLine
 62
7
  6
BYLAYER
 10
105.0271959774
 20
277.9471487828
 11
105.0271959774
 21
283.4471487828
  0
LINE
  5
24B
100
AcDbEntity
  8
0
100
AcDbLine
 62
7
  6
BYLAYER
 10
109.1771959774
 20
228.9709291158
 11
109.1771959774
 21
244.1176765253
  0
LINE
  5
24C
100
AcDbEntity
  8
0
100
AcDbLine
 62
7
  6
BYLAYER
 10
109.4171959774
 20
30.8457527366
 11
109.4171959774
 21
228.8453095962
  0
LINE
  5
24D
100
AcDbEntity
  8
0
100
AcDbLine
 62
7
  6
BYLAYER
 10
110.6771959774
 20
228.6956868663
 11
110.6771959774
 21
219.3082668785
  0
LINE
  5
24E
100
AcDbEntity
  8
0
100
AcDbLine
 62
7
  6
BYLAYER
 10
110.6771959774
 20
139.6540637883
 11
110.6771959774
 21
100.6957527366
  0
LINE
  5
24F
100
AcDbEntity
  8
0
100
AcDbLine
 62
7
  6
BYLAYER
 10
110.6771959774
 20
25.7974416849
 11
110.6771959774
 21
30.8457527366
  0
LINE
  5
250
100
AcDbEntity
  8
0
100
AcDbLine
 62
7
  6
BYLAYER
 10
111.9271959774
 20
228.7019921031
 11
111.92719602
 21
139.6557304519
  0
LINE
  5
251
100
AcDbEntity
  8
0
100
AcDbLine
 62
7
  6
BYLAYER
 10
112.0771959774
 20
100.6974416849
 11
112.0771959713
 21
30.7992129048
  0
LINE
  5
252
100
AcDbEntity
  8
0
100
AcDbLine
 62
7
  6
BYLAYER
 10
112.1771959774
 20
228.9658566615
 11
112.1771959774
 21
244.1176765253
  0
LINE
  5
253
100
AcDbEntity
  8
0
100
AcDbLine
 62
7
  6
BYLAYER
 10
112.1748318825
 20
228.9515195958
 11
112.1755378899
 21
228.9658541245
  0
LINE
  5
254
100
AcDbEntity
  8
0
100
AcDbLine
 62
7
  6
BYLAYER
 10
82.2771959774
 20
156.3857527366
 11
81.9571959774
 21
156.3857527366
  0
LINE
  5
255
100
AcDbEntity
  8
0
100
AcDbLine
 62
7
  6
BYLAYER
 10
116.3271959774
 20
277.9471487828
 11
116.3271959774
 21
283.4471487828
  0
LINE
  5
256
100
AcDbEntity
  8
0
100
AcDbLine
 62
7
  6
BYLAYER
 10
117.4271959774
 20
269.4471487828
 11
117.4271959774
 21
274.9471487828
  0
LINE
  5
257
100
AcDbEntity
  8
0
100
AcDbLine
 62
7
  6
BYLAYER
 10
118.3271959774
 20
260.9471487828
 11
118.3271959774
 21
266.4471487828
  0
LINE
  5
258
100
AcDbEntity
  8
0
100
AcDbLine
 62
7
  6
BYLAYER
 10
119.3271959774
 20
252.4471487828
 11
119.3271959774
 21
257.9471487828
  0
LINE
  5
259
100
AcDbEntity
  8
0
100
AcDbLine
 62
7
  6
BYLAYER
 10
122.4771959774
 20
230.0457527366
 11
122.4771959774
 21
240.2871634167
  0
LWPOLYLINE
  5
25A
100
AcDbEntity
  8
0
100
AcDbPolyline
 62
7
  6
BYLAYER
 90
7
 70
0
 10
141.9734658662
 20
42.4565123988
 10
141.9272847686
 20
42.6911758083
 10
141.829780942
 20
43.2341102619
 10
141.7347312709
 20
43.8757515853
 10
141.6561047956
 20
44.6119964386
 10
141.609413628
 20
45.4320015152
 10
141.6025147324
 20
45.8857527366
  0
LWPOLYLINE
  5
25B
100
AcDbEntity
  8
0
100
AcDbPolyline
 62
7
  6
BYLAYER
 90
3
 70
0
 10
142.1593746963
 20
41.523327845
 10
142.11859312
 20
41.7502102374
 10
141.9734658662
 20
42.4565123988
  0
LINE
  5
25C
100
AcDbEntity
  8
0
100
AcDbLine
 62
7
  6
BYLAYER
 10
122.4389067763
 20
240.9047603305
 11
122.4771959774
 21
240.2871634167
  0
LINE
  5
25D
100
AcDbEntity
  8
0
100
AcDbLine
 62
7
  6
BYLAYER
 10
129.1771959774
 20
216.9739954291
 11
129.1771959774
 21
208.1171470139
  0
LINE
  5
25E
100
AcDbEntity
  8
0
100
AcDbLine
 62
7
  6
BYLAYER
 10
143.8362970128
 20
159.4050337363
 11
138.4267695433
 21
156.2818415956
  0
LWPOLYLINE
  5
25F
100
AcDbEntity
  8
0
100
AcDbPolyline
 62
7
  6
BYLAYER
 90
7
 70
0
 10
141.9734658662
 20
90.4565123988
 10
141.9272847686
 20
90.6911758083
 10
141.829780942
 20
91.2341102619
 10
141.7347312709
 20
91.8757515853
 10
141.6561047956
 20
92.6119964386
 10
141.609413628
 20
93.4320015152
 10
141.6025147324
 20
93.8857527366
  0
LINE
  5
260
100
AcDbEntity
  8
0
100
AcDbLine
 62
7
  6
BYLAYER
 10
109.1771959832
 20
228.9707090079
 11
109.180057424
 21
228.9555055019
  0
LWPOLYLINE
  5
261
100
AcDbEntity
  8
0
100
AcDbPolyline
 62
7
  6
BYLAYER
 90
3
 70
0
 10
142.1593746963
 20
89.523327845
 10
142.11859312
 20
89.7502102374
 10
141.9734658662
 20
90.4565123988
  0
LINE
  5
262
100
AcDbEntity
  8
0
100
AcDbLine
 62
7
  6
BYLAYER
 10
142.1771956049
 20
41.3284936618
 11
142.1593746963
 21
41.523327845
  0
LINE
  5
263
100
AcDbEntity
  8
0
100
AcDbLine
 62
7
  6
BYLAYER
 10
142.1771956049
 20
89.3284936618
 11
142.1593746963
 21
89.523327845
  0
LINE
  5
264
100
AcDbEntity
  8
0
100
AcDbLine
 62
7
  6
BYLAYER
 10
131.8429695188
 20
147.7845436064
 11
131.8462647248
 21
139.7954667839
  0
LINE
  5
265
100
AcDbEntity
  8
0
100
AcDbLine
 62
7
  6
BYLAYER
 10
131.8429695188
 20
151.0919971934
 11
131.8429695188
 21
208.1157527366
  0
LINE
  5
266
100
AcDbEntity
  8
0
100
AcDbLine
 62
7
  6
BYLAYER
 10
134.5684608293
 20
31.5504623715
 11
134.5684608293
 21
100.586502863
  0
LINE
  5
267
100
AcDbEntity
  8
0
100
AcDbLine
 62
7
  6
BYLAYER
 10
135.0058103673
 20
100.5076440771
 11
135.0058103673
 21
31.566881436
  0
LINE
  5
268
100
AcDbEntity
  8
0
100
AcDbLine
 62
7
  6
BYLAYER
 10
135.8183006989
 20
207.887370544
 11
135.818300699
 21
163.7589054375
  0
LINE
  5
269
100
AcDbEntity
  8
0
100
AcDbLine
 62
7
  6
BYLAYER
 10
135.818300699
 20
141.7067915695
 11
135.8172831312
 21
139.8075379303
  0
LINE
  5
26A
100
AcDbEntity
  8
0
100
AcDbLine
 62
7
  6
BYLAYER
 10
145.9707106255
 20
177.8857527366
 11
147.6771959774
 21
177.8857527366
  0
LINE
  5
26B
100
AcDbEntity
  8
0
100
AcDbLine
 62
7
  6
BYLAYER
 10
145.0950835108
 20
150.1857527366
 11
146.5881210087
 21
148.1259204777
  0
LINE
  5
26C
100
AcDbEntity
  8
0
100
AcDbLine
 62
7
  6
BYLAYER
 10
121.0021959774
 20
252.4471487828
 11
122.4389067751
 21
240.9047603399
  0
LWPOLYLINE
  5
26D
100
AcDbEntity
  8
0
100
AcDbPolyline
 62
7
  6
BYLAYER
 90
3
 70
0
 10
147.5636481239
 20
144.8523227269
 10
147.3528317168
 20
146.8656388216
 10
146.5880205606
 20
148.12583044
  0
LINE
  5
26E
100
AcDbEntity
  8
0
100
AcDbLine
 62
7
  6
BYLAYER
 10
144.3558686028
 20
123.8400386173
 11
144.7105775663
 21
117.4413727277
  0
LINE
  5
26F
100
AcDbEntity
  8
0
100
AcDbLine
 62
7
  6
BYLAYER
 10
147.424247509
 20
173.328723309
 11
147.3940455316
 21
173.9212773
  0
LINE
  5
270
100
AcDbEntity
  8
0
100
AcDbLine
 62
7
  6
BYLAYER
 10
147.424247509
 20
173.328723309
 11
147.340473899
 21
175.0262639469
  0
LINE
  5
271
100
AcDbEntity
  8
0
100
AcDbLine
 62
7
  6
BYLAYER
 10
142.1771959774
 20
31.7432732455
 11
142.1771959774
 21
41.3290982621
  0
LINE
  5
272
100
AcDbEntity
  8
0
100
AcDbLine
 62
7
  6
BYLAYER
 10
142.1771959774
 20
50.4424072111
 11
142.1771959774
 21
89.3290982621
  0
LINE
  5
273
100
AcDbEntity
  8
0
100
AcDbLine
 62
7
  6
BYLAYER
 10
142.1771959774
 20
98.4424072111
 11
142.1771959774
 21
100.4435901531
  0
LINE
  5
274
100
AcDbEntity
  8
0
100
AcDbLine
 62
7
  6
BYLAYER
 10
145.5393880455
 20
178.6857527366
 11
145.5393880455
 21
203.0857527366
  0
LINE
  5
275
100
AcDbEntity
  8
0
100
AcDbLine
 62
7
  6
BYLAYER
 10
147.2771959774
 20
177.8857527366
 11
147.2771959774
 21
203.8857527366
  0
LINE
  5
276
100
AcDbEntity
  8
0
100
AcDbLine
 62
7
  6
BYLAYER
 10
147.6771959774
 20
175.3242844514
 11
147.6771959774
 21
177.8857527366
  0
LINE
  5
277
100
AcDbEntity
  8
0
100
AcDbLine
 62
7
  6
BYLAYER
 10
147.6771959774
 20
203.8857527366
 11
147.6771959774
 21
204.9226467244
  0
LWPOLYLINE
  5
278
100
AcDbEntity
  8
0
100
AcDbPolyline
 62
7
  6
BYLAYER
 90
9
 70
0
 10
141.6025147322
 20
93.8857527366
 10
141.6147725976
 20
94.4919837762
 10
141.6853417774
 20
95.471751893
 10
141.7948820189
 20
96.3194450184
 10
141.9152290415
 20
97.0171627257
 10
142.0241616145
 20
97.5629647682
 10
142.107280788
 20
97.9646477756
 10
142.1580638498
 20
98.2396498184
 10
142.1771959092
 20
98.442148635
  0
LWPOLYLINE
  5
279
100
AcDbEntity
  8
0
100
AcDbPolyline
 62
7
  6
BYLAYER
 90
9
 70
0
 10
141.6025147322
 20
45.8857527366
 10
141.6147725976
 20
46.4919837763
 10
141.6853417774
 20
47.4717518931
 10
141.7948820189
 20
48.3194450186
 10
141.9152290415
 20
49.0171627258
 10
142.0241616145
 20
49.5629647683
 10
142.107280788
 20
49.9646477757
 10
142.1580638498
 20
50.2396498185
 10
142.1771959092
 20
50.442148635
  0
LINE
  5
27A
100
AcDbEntity
  8
0
100
AcDbLine
 62
7
  6
BYLAYER
 10
142.2262927504
 20
101.3645390906
 11
142.1957430197
 21
100.9528580713
  0
LINE
  5
27B
100
AcDbEntity
  8
0
100
AcDbLine
 62
7
  6
BYLAYER
 10
142.2239933698
 20
101.3361009775
 11
142.2264509292
 21
101.3664419462
  0
LINE
  5
27C
100
AcDbEntity
  8
0
100
AcDbLine
 62
7
  6
BYLAYER
 10
142.2255236141
 20
101.3546961965
 11
142.2282708856
 21
101.385136451
  0
LINE
  5
27D
100
AcDbEntity
  8
0
100
AcDbLine
 62
7
  6
BYLAYER
 10
142.2247490628
 20
101.346144161
 11
142.2432115454
 21
101.5296929073
  0
LINE
  5
27E
100
AcDbEntity
  8
0
100
AcDbLine
 62
7
  6
BYLAYER
 10
142.2282708856
 20
101.385136451
 11
142.2545580707
 21
101.6250231993
  0
LINE
  5
27F
100
AcDbEntity
  8
0
100
AcDbLine
 62
7
  6
BYLAYER
 10
142.2432115454
 20
101.5296929073
 11
142.2933967624
 21
101.8971154317
  0
LINE
  5
280
100
AcDbEntity
  8
0
100
AcDbLine
 62
7
  6
BYLAYER
 10
144.3558686028
 20
123.8400386173
 11
147.5636928404
 21
144.8523159002
  0
LWPOLYLINE
  5
281
100
AcDbEntity
  8
0
100
AcDbPolyline
 62
7
  6
BYLAYER
 90
4
 70
0
 10
147.4241601489
 20
173.3287458203
 10
147.47047074
 20
173.5179689942
 10
147.625346691
 20
174.4154524133
 10
147.6771959774
 20
175.3247212965
  0
LINE
  5
282
100
AcDbEntity
  8
0
100
AcDbLine
 62
7
  6
BYLAYER
 10
143.8362970128
 20
159.4050337363
 11
147.424247509
 21
173.328723309
  0
LWPOLYLINE
  5
283
100
AcDbEntity
  8
0
100
AcDbPolyline
 62
7
  6
BYLAYER
 90
4
 70
0
 10
144.8069350834
 20
113.6930618072
 10
144.9635201957
 20
114.7940276557
 10
144.9246523322
 20
116.3406590257
 10
144.7105542493
 20
117.441366863
  0
LWPOLYLINE
  5
284
100
AcDbEntity
  8
0
100
AcDbPolyline
 62
7
  6
BYLAYER
 90
3
 70
0
 10
142.2777383829
 20
101.795273095
 10
142.3416412229
 20
102.1680360491
 10
142.3695621194
 20
102.3042764153
  0
LINE
  5
285
100
AcDbEntity
  8
0
100
AcDbLine
 62
7
  6
BYLAYER
 10
142.2933967624
 20
101.8971154317
 11
142.3695621569
 21
102.3042765648
  0
LINE
  5
286
100
AcDbEntity
  8
0
100
AcDbLine
 62
7
  6
BYLAYER
 10
144.8069564885
 20
113.6930999057
 11
142.3695622611
 21
102.3042770011
  0
LINE
  5
287
100
AcDbEntity
  8
0
100
AcDbLine
 62
7
  6
BYLAYER
 10
144.3558686028
 20
123.8400386173
 11
140.6722717504
 21
121.7133129829
  0
LINE
  5
288
100
AcDbEntity
  8
0
100
AcDbLine
 62
7
  6
BYLAYER
 10
147.6771959774
 20
203.8857527366
 11
145.9707106255
 21
203.8857527366
  0
LINE
  5
289
100
AcDbEntity
  8
0
100
AcDbLine
 62
7
  6
BYLAYER
 10
129.1771920438
 20
208.1157527366
 11
135.5899185063
 21
208.1157527366
  0
LINE
  5
28A
100
AcDbEntity
  8
0
100
AcDbLine
 62
7
  6
BYLAYER
 10
129.177182699
 20
208.5157527366
 11
142.1365127922
 21
208.5157527366
  0
LINE
  5
28B
100
AcDbEntity
  8
0
100
AcDbLine
 62
7
  6
BYLAYER
 10
135.8183006989
 20
207.887370544
 11
135.5899185063
 21
208.1157527366
  0
LINE
  5
28C
100
AcDbEntity
  8
0
100
AcDbLine
 62
7
  6
BYLAYER
 10
137.0040451294
 20
216.5157527366
 11
129.1771959774
 21
216.5157527366
  0
LINE
  5
28D
100
AcDbEntity
  8
0
100
AcDbLine
 62
7
  6
BYLAYER
 10
83.2136232702
 20
219.3282668785
 11
109.4171959774
 21
219.3282668785
  0
LINE
  5
28E
100
AcDbEntity
  8
0
100
AcDbLine
 62
7
  6
BYLAYER
 10
109.4171959774
 20
219.3282668785
 11
111.9271959774
 21
219.3082668785
  0
LINE
  5
28F
100
AcDbEntity
  8
0
100
AcDbLine
 62
7
  6
BYLAYER
 10
131.0401272226
 20
226.5302782276
 11
144.1624773516
 21
213.4079280986
  0
LINE
  5
290
100
AcDbEntity
  8
0
100
AcDbLine
 62
7
  6
BYLAYER
 10
123.4955877382
 20
229.0002773181
 11
122.5543596496
 21
230.0457527366
  0
LINE
  5
291
100
AcDbEntity
  8
0
100
AcDbLine
 62
7
  6
BYLAYER
 10
110.9876200703
 20
228.7019921031
 11
111.9271959774
 21
228.7019921031
  0
LINE
  5
292
100
AcDbEntity
  8
0
100
AcDbLine
 62
7
  6
BYLAYER
 10
109.4171959774
 20
228.7219921031
 11
110.4183032736
 21
228.7219921031
  0
LINE
  5
293
100
AcDbEntity
  8
0
100
AcDbLine
 62
7
  6
BYLAYER
 10
98.8771959774
 20
229.1123598592
 11
85.9961656951
 21
227.1387341547
  0
LINE
  5
294
100
AcDbEntity
  8
0
100
AcDbLine
 62
7
  6
BYLAYER
 10
122.5543596496
 20
230.0457527366
 11
122.4771961027
 21
230.0457527366
  0
LINE
  5
295
100
AcDbEntity
  8
0
100
AcDbLine
 62
7
  6
BYLAYER
 10
112.1771959774
 20
231.159201744
 11
109.1771959774
 21
231.159201744
  0
LINE
  5
296
100
AcDbEntity
  8
0
100
AcDbLine
 62
7
  6
BYLAYER
 10
92.1736751998
 20
255.6667146309
 11
107.6771959774
 21
246.7157527366
  0
LINE
  5
297
100
AcDbEntity
  8
0
100
AcDbLine
 62
7
  6
BYLAYER
 10
109.1771959774
 20
249.313828948
 11
93.6736751998
 21
258.2647908423
  0
LINE
  5
298
100
AcDbEntity
  8
0
100
AcDbLine
 62
7
  6
BYLAYER
 10
98.8771959774
 20
240.2871634438
 11
109.1771959774
 21
240.2871634438
  0
LINE
  5
299
100
AcDbEntity
  8
0
100
AcDbLine
 62
7
  6
BYLAYER
 10
112.1771959774
 20
240.2871634438
 11
122.4771959774
 21
240.2871634438
  0
LINE
  5
29A
100
AcDbEntity
  8
0
100
AcDbLine
 62
7
  6
BYLAYER
 10
122.4389067751
 20
240.9047603399
 11
112.1771959774
 21
240.9047603399
  0
LINE
  5
29B
100
AcDbEntity
  8
0
100
AcDbLine
 62
7
  6
BYLAYER
 10
109.1771959774
 20
240.9047603399
 11
98.9154851796
 21
240.9047603399
  0
LINE
  5
29C
100
AcDbEntity
  8
0
100
AcDbLine
 62
7
  6
BYLAYER
 10
109.1771959774
 20
244.1176765253
 11
112.1771959774
 21
244.1176765253
  0
LINE
  5
29D
100
AcDbEntity
  8
0
100
AcDbLine
 62
7
  6
BYLAYER
 10
103.750126827
 20
252.4471487828
 11
121.001228168
 21
252.4471487828
  0
LINE
  5
29E
100
AcDbEntity
  8
0
100
AcDbLine
 62
7
  6
BYLAYER
 10
119.3271959774
 20
257.9471487828
 11
102.0271959774
 21
257.9471487828
  0
LINE
  5
29F
100
AcDbEntity
  8
0
100
AcDbLine
 62
7
  6
BYLAYER
 10
119.3271959774
 20
260.9471487828
 11
102.0271959774
 21
260.9471487828
  0
LINE
  5
2A0
100
AcDbEntity
  8
0
100
AcDbLine
 62
7
  6
BYLAYER
 10
118.3271959774
 20
266.4471487828
 11
103.0271959774
 21
266.4471487828
  0
LINE
  5
2A1
100
AcDbEntity
  8
0
100
AcDbLine
 62
7
  6
BYLAYER
 10
118.3271959774
 20
269.4471487828
 11
103.0271959774
 21
269.4471487828
  0
LINE
  5
2A2
100
AcDbEntity
  8
0
100
AcDbLine
 62
7
  6
BYLAYER
 10
117.4271959774
 20
274.9471487828
 11
103.9271959774
 21
274.9471487828
  0
LINE
  5
2A3
100
AcDbEntity
  8
0
100
AcDbLine
 62
7
  6
BYLAYER
 10
117.4271959774
 20
277.9471487828
 11
103.9272346595
 21
277.9471487828
  0
LINE
  5
2A4
100
AcDbEntity
  8
0
100
AcDbLine
 62
7
  6
BYLAYER
 10
116.3271959774
 20
283.4471487828
 11
105.0271959774
 21
283.4471487828
  0
LINE
  5
2A5
100
AcDbEntity
  8
0
100
AcDbLine
 62
7
  6
BYLAYER
 10
116.3271959774
 20
286.4471487828
 11
105.0272283558
 21
286.4471487828
  0
ARC
  5
2A6
100
AcDbEntity
  8
0
100
AcDbCircle
 62
7
  6
BYLAYER
 10
-5278.34753607
 20
-278.382439572
 40
5426.3178291396
100
AcDbArc
 50
4.2275466032
 51
4.4168635062
  0
ARC
  5
2A7
100
AcDbEntity
  8
0
100
AcDbCircle
 62
7
  6
BYLAYER
 10
-978.1359200899
 20
-456.9912998572
 40
1216.9016981941
100
AcDbArc
 50
28.3591056549
 51
28.8103624608
  0
ARC
  5
2A8
100
AcDbEntity
  8
0
100
AcDbCircle
 62
7
  6
BYLAYER
 10
4014.5223518647
 20
36.7970788803
 40
3880.0427031317
100
AcDbArc
 50
178.7439777115
 51
179.0533736667
  0
ARC
  5
2A9
100
AcDbEntity
  8
0
100
AcDbCircle
 62
7
  6
BYLAYER
 10
134.6443074593
 20
-163.7484357748
 40
303.2497751839
100
AcDbArc
 50
88.8896917526
 51
89.7789117933
  0
ARC
  5
2AA
100
AcDbEntity
  8
0
100
AcDbCircle
 62
7
  6
BYLAYER
 10
121.3416297491
 20
36.0166222674
 40
193.0739539252
100
AcDbArc
 50
93.5408961645
 51
100.640053048
  0
ARC
  5
2AB
100
AcDbEntity
  8
0
100
AcDbCircle
 62
7
  6
BYLAYER
 10
157.3724792407
 20
45.8494139559
 40
15.7909728322
100
AcDbArc
 50
172.1281881106
 51
178.5927127999
  0
ARC
  5
2AC
100
AcDbEntity
  8
0
100
AcDbCircle
 62
7
  6
BYLAYER
 10
156.1647594933
 20
45.8839303687
 40
14.5827704692
100
AcDbArc
 50
178.6117496915
 51
179.9928399073
  0
ARC
  5
2AD
100
AcDbEntity
  8
0
100
AcDbCircle
 62
7
  6
BYLAYER
 10
105.1771959774
 20
35.7160196063
 40
8.5
100
AcDbArc
 50
180.0
 51
255.5500000001
  0
ARC
  5
2AE
100
AcDbEntity
  8
0
100
AcDbCircle
 62
7
  6
BYLAYER
 10
137.1771959774
 20
31.7432732455
 40
5.0
100
AcDbArc
 50
272.15
 51
360.0
  0
ARC
  5
2AF
100
AcDbEntity
  8
0
100
AcDbCircle
 62
7
  6
BYLAYER
 10
23.1592788552
 20
98.5035329448
 40
79.908685742
100
AcDbArc
 50
0.9853483111
 51
2.2638913189
  0
ARC
  5
2B0
100
AcDbEntity
  8
0
100
AcDbCircle
 62
7
  6
BYLAYER
 10
27.1029676617
 20
86.7815263021
 40
76.9476677419
100
AcDbArc
 50
9.7680766024
 51
11.1205422988
  0
ARC
  5
2B1
100
AcDbEntity
  8
0
100
AcDbCircle
 62
7
  6
BYLAYER
 10
74.0026544878
 20
124.2649560655
 40
66.7184288511
100
AcDbArc
 50
357.8081911459
 51
359.1741921829
  0
ARC
  5
2B2
100
AcDbEntity
  8
0
100
AcDbCircle
 62
7
  6
BYLAYER
 10
77.4009614056
 20
103.8258355949
 40
19.3580691833
100
AcDbArc
 50
358.6147282958
 51
358.9898279895
  0
ARC
  5
2B3
100
AcDbEntity
  8
0
100
AcDbCircle
 62
7
  6
BYLAYER
 10
86.8714445925
 20
103.8915638415
 40
9.8881151479
100
AcDbArc
 50
0.8918872617
 51
2.8621999893
  0
ARC
  5
2B4
100
AcDbEntity
  8
0
100
AcDbCircle
 62
7
  6
BYLAYER
 10
84.911341367
 20
193.9802807043
 40
8.0
100
AcDbArc
 50
167.38
 51
188.6
  0
ARC
  5
2B5
100
AcDbEntity
  8
0
100
AcDbCircle
 62
7
  6
BYLAYER
 10
84.6503120976
 20
193.9797181066
 40
6.9676241888
100
AcDbArc
 50
167.3156404186
 51
188.6358124643
  0
ARC
  5
2B6
100
AcDbEntity
  8
0
100
AcDbCircle
 62
7
  6
BYLAYER
 10
86.5514282319
 20
224.1905089117
 40
2.9999994445
100
AcDbArc
 50
100.6660256312
 51
167.3792755502
  0
ARC
  5
2B7
100
AcDbEntity
  8
0
100
AcDbCircle
 62
7
  6
BYLAYER
 10
86.1815631559
 20
222.872287464
 40
2.9270960047
100
AcDbArc
 50
141.2471328676
 51
167.3738392925
  0
ARC
  5
2B8
100
AcDbEntity
  8
0
100
AcDbCircle
 62
7
  6
BYLAYER
 10
82.7771959774
 20
154.3857527366
 40
0.5
100
AcDbArc
 50
180.0
 51
270.0
  0
ARC
  5
2B9
100
AcDbEntity
  8
0
100
AcDbCircle
 62
7
  6
BYLAYER
 10
87.7771841569
 20
124.3466910107
 40
0.4999881795
100
AcDbArc
 50
180.0000745733
 51
270.0000745698
  0
ARC
  5
2BA
100
AcDbEntity
  8
0
100
AcDbCircle
 62
7
  6
BYLAYER
 10
90.6771959774
 20
121.9607527366
 40
2.0
100
AcDbArc
 50
180.0
 51
269.9999999999
  0
ARC
  5
2BB
100
AcDbEntity
  8
0
100
AcDbCircle
 62
7
  6
BYLAYER
 10
102.9584590527
 20
100.0094597605
 40
1.6513425029
100
AcDbArc
 50
89.5114805687
 51
102.3367093537
  0
ARC
  5
2BC
100
AcDbEntity
  8
0
100
AcDbCircle
 62
7
  6
BYLAYER
 10
102.9569877136
 20
100.0305229776
 40
1.6302947595
100
AcDbArc
 50
88.2914749839
 51
89.45477941
  0
ARC
  5
2BD
100
AcDbEntity
  8
0
100
AcDbCircle
 62
7
  6
BYLAYER
 10
91.2983380232
 20
249.4257355866
 40
60.8891489527
100
AcDbArc
 50
316.9842915877
 51
317.2877877092
  0
ARC
  5
2BE
100
AcDbEntity
  8
0
100
AcDbCircle
 62
7
  6
BYLAYER
 10
122.5548989676
 20
218.0456031497
 40
11.9999912276
100
AcDbArc
 50
45.0
 51
90.0
  0
ARC
  5
2BF
100
AcDbEntity
  8
0
100
AcDbCircle
 62
7
  6
BYLAYER
 10
106.1771959774
 20
244.1176765253
 40
6.0
100
AcDbArc
 50
0.0
 51
60.0
  0
ARC
  5
2C0
100
AcDbEntity
  8
0
100
AcDbCircle
 62
7
  6
BYLAYER
 10
106.1771959774
 20
244.1176765253
 40
3.0
100
AcDbArc
 50
0.0
 51
60.0
  0
ARC
  5
2C1
100
AcDbEntity
  8
0
100
AcDbCircle
 62
7
  6
BYLAYER
 10
116.3271959774
 20
284.9471487828
 40
1.5
100
AcDbArc
 50
270.0
 51
90.0
  0
ARC
  5
2C2
100
AcDbEntity
  8
0
100
AcDbCircle
 62
7
  6
BYLAYER
 10
105.0271959774
 20
284.9471487828
 40
1.5
100
AcDbArc
 50
90.0
 51
270.0
  0
ARC
  5
2C3
100
AcDbEntity
  8
0
100
AcDbCircle
 62
7
  6
BYLAYER
 10
117.4271959774
 20
276.4471487828
 40
1.5
100
AcDbArc
 50
270.0
 51
90.0
  0
ARC
  5
2C4
100
AcDbEntity
  8
0
100
AcDbCircle
 62
7
  6
BYLAYER
 10
103.9271959774
 20
276.4471487828
 40
1.5
100
AcDbArc
 50
90.0
 51
270.0
  0
ARC
  5
2C5
100
AcDbEntity
  8
0
100
AcDbCircle
 62
7
  6
BYLAYER
 10
118.3271959774
 20
267.9471487828
 40
1.5
100
AcDbArc
 50
270.0
 51
90.0
  0
ARC
  5
2C6
100
AcDbEntity
  8
0
100
AcDbCircle
 62
7
  6
BYLAYER
 10
103.0271959774
 20
267.9471487828
 40
1.5
100
AcDbArc
 50
90.0
 51
270.0
  0
ARC
  5
2C7
100
AcDbEntity
  8
0
100
AcDbCircle
 62
7
  6
BYLAYER
 10
119.3271959774
 20
259.4471487828
 40
1.5
100
AcDbArc
 50
270.0
 51
90.0
  0
ARC
  5
2C8
100
AcDbEntity
  8
0
100
AcDbCircle
 62
7
  6
BYLAYER
 10
102.0271959774
 20
259.4471487828
 40
1.5
100
AcDbArc
 50
90.0
 51
270.0
  0
ARC
  5
2C9
100
AcDbEntity
  8
0
100
AcDbCircle
 62
7
  6
BYLAYER
 10
92.9236751998
 20
256.9657527366
 40
1.5
100
AcDbArc
 50
60.0
 51
240.0
  0
ARC
  5
2CA
100
AcDbEntity
  8
0
100
AcDbCircle
 62
7
  6
BYLAYER
 10
157.3724792404
 20
93.8494139559
 40
15.7909728319
100
AcDbArc
 50
172.1281881105
 51
178.5927127999
  0
ARC
  5
2CB
100
AcDbEntity
  8
0
100
AcDbCircle
 62
7
  6
BYLAYER
 10
156.1647594931
 20
93.8839303687
 40
14.582770469
100
AcDbArc
 50
178.6117496916
 51
179.9928399073
  0
ARC
  5
2CC
100
AcDbEntity
  8
0
100
AcDbCircle
 62
7
  6
BYLAYER
 10
148.7825847143
 20
98.6853110082
 40
13.9501553571
100
AcDbArc
 50
170.8683350468
 51
172.4627731863
  0
ARC
  5
2CD
100
AcDbEntity
  8
0
100
AcDbCircle
 62
7
  6
BYLAYER
 10
148.3806421198
 20
98.7997439976
 40
13.9272703443
100
AcDbArc
 50
171.6476906001
 51
172.6290890711
  0
ARC
  5
2CE
100
AcDbEntity
  8
0
100
AcDbCircle
 62
7
  6
BYLAYER
 10
148.3869212952
 20
99.1849197929
 40
13.9209867912
100
AcDbArc
 50
173.2761467367
 51
174.1983427312
  0
ARC
  5
2CF
100
AcDbEntity
  8
0
100
AcDbCircle
 62
7
  6
BYLAYER
 10
148.8570163919
 20
99.3982661944
 40
13.895561436
100
AcDbArc
 50
173.7856697463
 51
175.4208119475
  0
ARC
  5
2D0
100
AcDbEntity
  8
0
100
AcDbCircle
 62
7
  6
BYLAYER
 10
155.7471959774
 20
156.3357527366
 40
12.3
100
AcDbArc
 50
165.55
 51
210.0
  0
ARC
  5
2D1
100
AcDbEntity
  8
0
100
AcDbCircle
 62
7
  6
BYLAYER
 10
134.0338790459
 20
101.0136479147
 40
8.2213518535
100
AcDbArc
 50
8.0872682102
 51
8.6594204076
  0
ARC
  5
2D2
100
AcDbEntity
  8
0
100
AcDbCircle
 62
7
  6
BYLAYER
 10
150.1918924318
 20
100.6300330327
 40
7.9994920847
100
AcDbArc
 50
167.9202193994
 51
174.7316629266
  0
ARC
  5
2D3
100
AcDbEntity
  8
0
100
AcDbCircle
 62
7
  6
BYLAYER
 10
149.8194989306
 20
100.7333478425
 40
7.6194006388
100
AcDbArc
 50
168.0932955364
 51
173.0475832498
  0
ARC
  5
2D4
100
AcDbEntity
  8
0
100
AcDbCircle
 62
7
  6
BYLAYER
 10
149.8043103896
 20
100.735070979
 40
7.6041152029
100
AcDbArc
 50
173.0466185593
 51
174.9914747289
  0
ARC
  5
2D5
100
AcDbEntity
  8
0
100
AcDbCircle
 62
7
  6
BYLAYER
 10
149.7836835045
 20
100.7369737184
 40
7.583400961
100
AcDbArc
 50
174.9921899646
 51
175.2386257902
  0
ARC
  5
2D6
100
AcDbEntity
  8
0
100
AcDbCircle
 62
7
  6
BYLAYER
 10
149.7836537616
 20
100.7405520087
 40
7.5828403378
100
AcDbArc
 50
167.5375491358
 51
168.0906784429
  0
ARC
  5
2D7
100
AcDbEntity
  8
0
100
AcDbCircle
 62
7
  6
BYLAYER
 10
133.3296987885
 20
139.7255060479
 40
7.1962364234
100
AcDbArc
 50
357.7569684659
 51
1.081428945
  0
ARC
  5
2D8
100
AcDbEntity
  8
0
100
AcDbCircle
 62
7
  6
BYLAYER
 10
149.1778044687
 20
100.4436012786
 40
7.0006078426
100
AcDbArc
 50
175.8292375526
 51
179.9999629225
  0
ARC
  5
2D9
100
AcDbEntity
  8
0
100
AcDbCircle
 62
7
  6
BYLAYER
 10
139.92753343
 20
101.4693743728
 40
2.2999778447
100
AcDbArc
 50
356.7106349712
 51
357.1017374457
  0
ARC
  5
2DA
100
AcDbEntity
  8
0
100
AcDbCircle
 62
7
  6
BYLAYER
 10
140.1036167187
 20
101.4589895419
 40
2.1235888042
100
AcDbArc
 50
355.7986352952
 51
356.7177656361
  0
ARC
  5
2DB
100
AcDbEntity
  8
0
100
AcDbCircle
 62
7
  6
BYLAYER
 10
134.8722145162
 20
99.3800593206
 40
1.468007699
100
AcDbArc
 50
100.6429786741
 51
102.2121760313
  0
ARC
  5
2DC
100
AcDbEntity
  8
0
100
AcDbCircle
 62
7
  6
BYLAYER
 10
135.0887261172
 20
101.2804949504
 40
0.7772859795
100
AcDbArc
 50
259.9407910427
 51
263.8764122641
  0
ARC
  5
2DD
100
AcDbEntity
  8
0
100
AcDbCircle
 62
7
  6
BYLAYER
 10
134.4187932805
 20
99.8445102872
 40
0.7569437379
100
AcDbArc
 50
78.5932806406
 51
80.9946690507
  0
ARC
  5
2DE
100
AcDbEntity
  8
0
100
AcDbCircle
 62
7
  6
BYLAYER
 10
135.6771959774
 20
204.9226467243
 40
12.0
100
AcDbArc
 50
0.0000000004
 51
45.0
  0
ARC
  5
2DF
100
AcDbEntity
  8
0
100
AcDbCircle
 62
7
  6
BYLAYER
 10
124.0533372722
 20
218.0672386347
 40
10.9245216737
100
AcDbArc
 50
48.5768797181
 51
50.3308795311
  0
ARC
  5
2E0
100
AcDbEntity
  8
0
100
AcDbCircle
 62
7
  6
BYLAYER
 10
124.0794952626
 20
218.0964879245
 40
10.8852827622
100
AcDbArc
 50
45.0138837707
 51
48.5782622654
  0
ARC
  5
2E1
100
AcDbEntity
  8
0
100
AcDbCircle
 62
7
  6
BYLAYER
 10
92.5534970376
 20
551.3867362509
 40
322.3367435785
100
AcDbArc
 50
271.663654624
 51
272.9508074106
  0
ARC
  5
2E2
100
AcDbEntity
  8
0
100
AcDbCircle
 62
7
  6
BYLAYER
 10
134.5305669894
 20
457.7863500388
 40
317.981277199
100
AcDbArc
 50
270.2318487845
 51
271.0801731695
  0
ARC
  5
2E3
100
AcDbEntity
  8
0
100
AcDbCircle
 62
7
  6
BYLAYER
 10
110.4878622409
 20
352.1233412452
 40
122.6649165004
100
AcDbArc
 50
274.105862002
 51
275.6090748279
  0
ARC
  5
2E4
100
AcDbEntity
  8
0
100
AcDbCircle
 62
7
  6
BYLAYER
 10
110.6630951037
 20
349.6988367897
 40
120.2340880476
100
AcDbArc
 50
270.7261325519
 51
274.1052950059
  0
SPLINE
  5
2E5
100
AcDbEntity
  8
0
100
AcDbSpline
 62
7
  6
BYLAYER
 70
0
 71
3
 72
11
 73
7
 74
0
 42
0.0000001
 43
0.0000001
 44
0.0000000001
 40
0.0
 40
0.0
 40
0.0
 40
0.0
 40
0.3328097684
 40
0.6170907202
 40
0.835679713
 40
1.0
 40
1.0
 40
1.0
 40
1.0
 10
145.5393913461
 20
203.0857527366
 30
0.0
 10
145.5393913461
 20
203.1942908786
 30
0.0
 10
145.5621975485
 20
203.396759635
 30
0.0
 10
145.6603633197
 20
203.6538842281
 30
0.0
 10
145.7935846173
 20
203.8315207073
 30
0.0
 10
145.9171182711
 20
203.8857527366
 30
0.0
 10
145.9707074993
 20
203.8857527366
 30
0.0
  0
SPLINE
  5
2E6
100
AcDbEntity
  8
0
100
AcDbSpline
 62
7
  6
BYLAYER
 70
0
 71
3
 72
12
 73
8
 74
0
 42
0.0000001
 43
0.0000001
 44
0.0000000001
 40
0.0
 40
0.0
 40
0.0
 40
0.0
 40
0.3327303395
 40
0.4831190348
 40
0.617733039
 40
0.8358049464
 40
1.0
 40
1.0
 40
1.0
 40
1.0
 10
145.5393880455
 20
178.6857527366
 30
0.0
 10
145.5393880455
 20
178.5771640392
 30
0.0
 10
145.5575058295
 20
178.4184391307
 30
0.0
 10
145.6188096779
 20
178.2257580142
 30
0.0
 10
145.6901860209
 20
178.0776815915
 30
0.0
 10
145.7938025041
 20
177.940028447
 30
0.0
 10
145.9171245082
 20
177.8857527366
 30
0.0
 10
145.9707106255
 20
177.8857527366
 30
0.0
  0
SPLINE
  5
2E7
100
AcDbEntity
  8
0
100
AcDbSpline
 62
7
  6
BYLAYER
 70
0
 71
3
 72
9
 73
5
 74
0
 42
0.0000001
 43
0.0000001
 44
0.0000000001
 40
0.0
 40
0.0
 40
0.0
 40
0.0
 40
0.2505325329
 40
1.0
 40
1.0
 40
1.0
 40
1.0
 10
87.0200727532
 20
126.5378862729
 30
0.0
 10
87.0464916453
 20
126.363199618
 30
0.0
 10
87.1578989178
 20
125.6668952077
 30
0.0
 10
87.2975449382
 20
124.9747656731
 30
0.0
 10
87.4246449195
 20
124.4617588668
 30
0.0
  0
SPLINE
  5
2E8
100
AcDbEntity
  8
0
100
AcDbSpline
 62
7
  6
BYLAYER
 70
0
 71
3
 72
27
 73
23
 74
0
 42
0.0000001
 43
0.0000001
 44
0.0000000001
 40
0.0
 40
0.0
 40
0.0
 40
0.0
 40
0.0002817658
 40
0.0011386405
 40
0.0025798512
 40
0.0046037041
 40
0.01038798
 40
0.0184674083
 40
0.0288173703
 40
0.041411467
 40
0.0562225383
 40
0.0732233368
 40
0.1136729519
 40
0.1624261078
 40
0.2190899574
 40
0.2832159524
 40
0.3543221612
 40
0.4318862162
 40
0.5153512779
 40
0.6041421649
 40
0.7952678593
 40
1.0
 40
1.0
 40
1.0
 40
1.0
 10
147.6771868694
 20
204.9226467244
 30
0.0
 10
147.6771882584
 20
204.9214986165
 30
0.0
 10
147.6697399718
 20
204.9234401094
 30
0.0
 10
147.6622030163
 20
204.924209884
 30
0.0
 10
147.6435143618
 20
204.9291594592
 30
0.0
 10
147.6079737166
 20
204.9380516687
 30
0.0
 10
147.5446707856
 20
204.9549594004
 30
0.0
 10
147.4495359777
 20
204.9796496129
 30
0.0
 10
147.3268576446
 20
205.0107457874
 30
0.0
 10
147.1776561561
 20
205.0480239801
 30
0.0
 10
147.0020454523
 20
205.0916915912
 30
0.0
 10
146.7163056272
 20
205.162720898
 30
0.0
 10
146.2964975672
 20
205.2677692891
 30
0.0
 10
145.7200003872
 20
205.4123875425
 30
0.0
 10
145.0497786093
 20
205.5798913043
 30
0.0
 10
144.2910976277
 20
205.769093784
 30
0.0
 10
143.4497837624
 20
205.9788972857
 30
0.0
 10
142.5320780918
 20
206.2080377252
 30
0.0
 10
141.5446090017
 20
206.455233591
 30
0.0
 10
140.1084959213
 20
206.8157332924
 30
0.0
 10
138.1922787268
 20
207.2931335742
 30
0.0
 10
136.6267344787
 20
207.6815661069
 30
0.0
 10
135.8182987701
 20
207.887370544
 30
0.0
  0
SPLINE
  5
2E9
100
AcDbEntity
  8
0
100
AcDbSpline
 62
7
  6
BYLAYER
 70
0
 71
3
 72
10
 73
6
 74
0
 42
0.0000001
 43
0.0000001
 44
0.0000000001
 40
0.0
 40
0.0
 40
0.0
 40
0.0
 40
0.1168304142
 40
0.3340650328
 40
1.0
 40
1.0
 40
1.0
 40
1.0
 10
135.4863908883
 20
208.5157527366
 30
0.0
 10
135.5030347538
 20
208.5157527366
 30
0.0
 10
135.540057036
 20
208.472291743
 30
0.0
 10
135.5777962537
 20
208.3403229979
 30
0.0
 10
135.5899185063
 20
208.2106229991
 30
0.0
 10
135.5899185063
 20
208.1157527366
 30
0.0
  0
LINE
  5
2EA
100
AcDbEntity
  8
0
100
AcDbLine
 62
7
  6
BYLAYER
 10
136.0378459601
 20
208.1236327028
 11
135.5899185063
 21
208.1157527366
  0
SPLINE
  5
2EB
100
AcDbEntity
  8
0
100
AcDbSpline
 62
7
  6
BYLAYER
 70
0
 71
3
 72
16
 73
12
 74
0
 42
0.0000001
 43
0.0000001
 44
0.0000000001
 40
0.0
 40
0.0
 40
0.0
 40
0.0
 40
0.1153266743
 40
0.2220747353
 40
0.3233046391
 40
0.3743170799
 40
0.4277407938
 40
0.5470440782
 40
0.6869834086
 40
0.8408623536
 40
1.0
 40
1.0
 40
1.0
 40
1.0
 10
142.1371789414
 20
208.5157527366
 30
0.0
 10
142.3536003561
 20
208.5157527366
 30
0.0
 10
142.7714845312
 20
208.5416256012
 30
0.0
 10
143.3636834553
 20
208.6958918112
 30
0.0
 10
143.7857363694
 20
208.9610509289
 30
0.0
 10
144.0323681663
 20
209.2620028219
 30
0.0
 10
144.2198560212
 20
209.6417447393
 30
0.0
 10
144.2878704095
 20
210.2419659898
 30
0.0
 10
144.1167250448
 20
211.0068461202
 30
0.0
 10
143.7584957064
 20
211.7824983913
 30
0.0
 10
143.434025066
 20
212.2740387246
 30
0.0
 10
143.2586446119
 20
212.5157527366
 30
0.0
  0
SPLINE
  5
2EC
100
AcDbEntity
  8
0
100
AcDbSpline
 62
7
  6
BYLAYER
 70
0
 71
3
 72
12
 73
8
 74
0
 42
0.0000001
 43
0.0000001
 44
0.0000000001
 40
0.0
 40
0.0
 40
0.0
 40
0.0
 40
0.4043753786
 40
0.7072256558
 40
0.90141552
 40
0.9609630461
 40
1.0
 40
1.0
 40
1.0
 40
1.0
 10
110.9919652279
 20
228.7024285844
 30
0.0
 10
111.1576554926
 20
228.7092136688
 30
0.0
 10
111.4476194794
 20
228.7299611364
 30
0.0
 10
111.8122069972
 20
228.7873917578
 30
0.0
 10
112.0350161227
 20
228.8480598034
 30
0.0
 10
112.1404422051
 20
228.9050289064
 30
0.0
 10
112.1697551756
 20
228.9363680912
 30
0.0
 10
112.1748017263
 20
228.9515603938
 30
0.0
  0
SPLINE
  5
2ED
100
AcDbEntity
  8
0
100
AcDbSpline
 62
7
  6
BYLAYER
 70
0
 71
3
 72
11
 73
7
 74
0
 42
0.0000001
 43
0.0000001
 44
0.0000000001
 40
0.0
 40
0.0
 40
0.0
 40
0.0
 40
0.2804169586
 40
0.539549743
 40
0.7773657384
 40
1.0
 40
1.0
 40
1.0
 40
1.0
 10
140.9376726306
 20
214.8270448408
 30
0.0
 10
140.6124665528
 20
215.0710833214
 30
0.0
 10
139.9703686176
 20
215.5198069201
 30
0.0
 10
138.9814988378
 20
216.0669295463
 30
0.0
 10
137.9963711418
 20
216.427145026
 30
0.0
 10
137.3268516092
 20
216.515755707
 30
0.0
 10
137.0040451294
 20
216.5157527366
 30
0.0
  0
SPLINE
  5
2EE
100
AcDbEntity
  8
0
100
AcDbSpline
 62
7
  6
BYLAYER
 70
0
 71
3
 72
11
 73
7
 74
0
 42
0.0000001
 43
0.0000001
 44
0.0000000001
 40
0.0
 40
0.0
 40
0.0
 40
0.0
 40
0.257202438
 40
0.5109170924
 40
0.7589641833
 40
1.0
 40
1.0
 40
1.0
 40
1.0
 10
143.2586446097
 20
212.5157527366
 30
0.0
 10
143.0901529931
 20
212.7415221426
 30
0.0
 10
142.7386945225
 20
213.1778960748
 30
0.0
 10
142.1654612742
 20
213.7810238589
 30
0.0
 10
141.5660541603
 20
214.3318046258
 30
0.0
 10
141.1495438447
 20
214.6695368145
 30
0.0
 10
140.9376726306
 20
214.8270448408
 30
0.0
  0
SPLINE
  5
2EF
100
AcDbEntity
  8
0
100
AcDbSpline
 62
7
  6
BYLAYER
 70
0
 71
3
 72
9
 73
5
 74
0
 42
0.0000001
 43
0.0000001
 44
0.0000000001
 40
0.0
 40
0.0
 40
0.0
 40
0.0
 40
0.2706259151
 40
1.0
 40
1.0
 40
1.0
 40
1.0
 10
129.1771916113
 20
216.9739873582
 30
0.0
 10
129.7967084372
 20
216.9843730635
 30
0.0
 10
132.0859008734
 20
217.023176355
 30
0.0
 10
134.3750721289
 20
217.0633689675
 30
0.0
 10
136.044790878
 20
217.089146025
 30
0.0
  0
SPLINE
  5
2F0
100
AcDbEntity
  8
0
100
AcDbSpline
 62
7
  6
BYLAYER
 70
0
 71
3
 72
9
 73
5
 74
0
 42
0.0000001
 43
0.0000001
 44
0.0000000001
 40
0.0
 40
0.0
 40
0.0
 40
0.0
 40
0.5006023306
 40
1.0
 40
1.0
 40
1.0
 40
1.0
 10
122.9299867702
 20
219.4664608613
 30
0.0
 10
123.9591596548
 20
218.5006385312
 30
0.0
 10
126.0247827251
 20
216.5817417782
 30
0.0
 10
128.1173885314
 20
214.6918818337
 30
0.0
 10
129.1771959569
 20
213.7649286963
 30
0.0
  0
SPLINE
  5
2F1
100
AcDbEntity
  8
0
100
AcDbSpline
 62
7
  6
BYLAYER
 70
0
 71
3
 72
11
 73
7
 74
0
 42
0.0000001
 43
0.0000001
 44
0.0000000001
 40
0.0
 40
0.0
 40
0.0
 40
0.0
 40
0.2162661976
 40
0.4596373847
 40
0.7233424853
 40
1.0
 40
1.0
 40
1.0
 40
1.0
 10
128.7351381348
 20
223.7610042407
 30
0.0
 10
128.3358159483
 20
223.4267086873
 30
0.0
 10
127.4767549905
 20
222.7284439098
 30
0.0
 10
126.0881434616
 20
221.6764212297
 30
0.0
 10
124.5562409714
 20
220.5739603038
 30
0.0
 10
123.4848648346
 20
219.8351609876
 30
0.0
 10
122.9299867702
 20
219.4664608613
 30
0.0
  0
SPLINE
  5
2F2
100
AcDbEntity
  8
0
100
AcDbSpline
 62
7
  6
BYLAYER
 70
0
 71
3
 72
9
 73
5
 74
0
 42
0.0000001
 43
0.0000001
 44
0.0000000001
 40
0.0
 40
0.0
 40
0.0
 40
0.0
 40
0.4822180889
 40
1.0
 40
1.0
 40
1.0
 40
1.0
 10
87.9596638243
 20
123.6675449191
 30
0.0
 10
88.1463735166
 20
123.4714792772
 30
0.0
 10
88.5828899429
 20
123.1139294817
 30
0.0
 10
89.0452385909
 20
122.7944186497
 30
0.0
 10
89.2643836734
 20
122.6033989326
 30
0.0
  0
SPLINE
  5
2F3
100
AcDbEntity
  8
0
100
AcDbSpline
 62
7
  6
BYLAYER
 70
0
 71
3
 72
15
 73
11
 74
0
 42
0.0000001
 43
0.0000001
 44
0.0000000001
 40
0.0
 40
0.0
 40
0.0
 40
0.0
 40
0.0304627923
 40
0.0539088712
 40
0.0842162877
 40
0.1665800337
 40
0.2781409215
 40
0.4184003418
 40
0.5864309436
 40
1.0
 40
1.0
 40
1.0
 40
1.0
 10
131.7748411597
 20
225.7955641308
 30
0.0
 10
131.7481315644
 20
225.8221864975
 30
0.0
 10
131.6703513705
 20
225.8287759495
 30
0.0
 10
131.5717436192
 20
225.8031331703
 30
0.0
 10
131.4129179607
 20
225.7427275774
 30
0.0
 10
131.168419826
 20
225.6113004314
 30
0.0
 10
130.8182874317
 20
225.3902041069
 30
0.0
 10
130.3938034922
 20
225.0900924345
 30
0.0
 10
129.6823891298
 20
224.5490541064
 30
0.0
 10
129.1274094292
 20
224.0900101847
 30
0.0
 10
128.7351381348
 20
223.7610042407
 30
0.0
  0
SPLINE
  5
2F4
100
AcDbEntity
  8
0
100
AcDbSpline
 62
7
  6
BYLAYER
 70
0
 71
3
 72
10
 73
6
 74
0
 42
0.0000001
 43
0.0000001
 44
0.0000000001
 40
0.0
 40
0.0
 40
0.0
 40
0.0
 40
0.2196513076
 40
0.5818872602
 40
1.0
 40
1.0
 40
1.0
 40
1.0
 10
137.2644310383
 20
217.1146657006
 30
0.0
 10
137.5888412845
 20
217.1216183783
 30
0.0
 10
138.4539825019
 20
217.0137365733
 30
0.0
 10
139.8143026979
 20
216.3846930092
 30
0.0
 10
140.7437112394
 20
215.6972240804
 30
0.0
 10
141.2212498452
 20
215.3054735169
 30
0.0
  0
SPLINE
  5
2F5
100
AcDbEntity
  8
0
100
AcDbSpline
 62
7
  6
BYLAYER
 70
0
 71
3
 72
9
 73
5
 74
0
 42
0.0000001
 43
0.0000001
 44
0.0000000001
 40
0.0
 40
0.0
 40
0.0
 40
0.0
 40
0.2598698346
 40
1.0
 40
1.0
 40
1.0
 40
1.0
 10
136.044944016
 20
217.0891312251
 30
0.0
 10
136.1505817062
 20
217.0912937643
 30
0.0
 10
136.5570830164
 20
217.0996644468
 30
0.0
 10
136.9635809913
 20
217.1081979723
 30
0.0
 10
137.2644395636
 20
217.1146460919
 30
0.0
  0
SPLINE
  5
2F6
100
AcDbEntity
  8
0
100
AcDbSpline
 62
7
  6
BYLAYER
 70
0
 71
3
 72
14
 73
10
 74
0
 42
0.0000001
 43
0.0000001
 44
0.0000000001
 40
0.0
 40
0.0
 40
0.0
 40
0.0
 40
0.0575993304
 40
0.1274064285
 40
0.2164043783
 40
0.3275505038
 40
0.4618448622
 40
0.6192478157
 40
1.0
 40
1.0
 40
1.0
 40
1.0
 10
137.2224652829
 20
220.3479401673
 30
0.0
 10
137.2714822741
 20
220.2989231761
 30
0.0
 10
137.3492064062
 20
220.158804817
 30
0.0
 10
137.3726187361
 20
219.895248331
 30
0.0
 10
137.323859507
 20
219.5723295367
 30
0.0
 10
137.2040844472
 20
219.1870024528
 30
0.0
 10
137.0140680793
 20
218.7403717717
 30
0.0
 10
136.6438407621
 20
218.0201928726
 30
0.0
 10
136.2994145385
 20
217.4702869072
 30
0.0
 10
136.0449183467
 20
217.0892233734
 30
0.0
  0
SPLINE
  5
2F7
100
AcDbEntity
  8
0
100
AcDbSpline
 62
7
  6
BYLAYER
 70
0
 71
3
 72
29
 73
25
 74
0
 42
0.0000001
 43
0.0000001
 44
0.0000000001
 40
0.0
 40
0.0
 40
0.0
 40
0.0
 40
0.0129376958
 40
0.0204242251
 40
0.0234346533
 40
0.0272335194
 40
0.0323536548
 40
0.0389033138
 40
0.0468221965
 40
0.0560017635
 40
0.0776207376
 40
0.1027037727
 40
0.1304137831
 40
0.1601211641
 40
0.1913464331
 40
0.2571260757
 40
0.3260677673
 40
0.3971600956
 40
0.4698008292
 40
0.5435951239
 40
0.618275587
 40
0.6936637157
 40
0.84606854
 40
1.0
 40
1.0
 40
1.0
 40
1.0
 10
147.340473899
 20
175.0262639469
 30
0.0
 10
147.3378338878
 20
175.0943763089
 30
0.0
 10
147.3309109488
 20
175.1969228844
 30
0.0
 10
147.2738032322
 20
175.3273141163
 30
0.0
 10
147.1935947281
 20
175.3393669323
 30
0.0
 10
147.1350843782
 20
175.3116341552
 30
0.0
 10
147.0713090469
 20
175.2608653332
 30
0.0
 10
147.0004266874
 20
175.1853600954
 30
0.0
 10
146.9230024886
 20
175.0877058293
 30
0.0
 10
146.8056563449
 20
174.9207237694
 30
0.0
 10
146.6514942491
 20
174.6696608667
 30
0.0
 10
146.4604189469
 20
174.3272778994
 30
0.0
 10
146.2592864395
 20
173.9418999128
 30
0.0
 10
146.0510592151
 20
173.5238489987
 30
0.0
 10
145.7614640131
 20
172.92231867
 30
0.0
 10
145.3939638451
 20
172.1289535742
 30
0.0
 10
144.9503852531
 20
171.1394686416
 30
0.0
 10
144.5000297302
 20
170.1134504592
 30
0.0
 10
144.0451349717
 20
169.0615276593
 30
0.0
 10
143.5866355808
 20
167.9905777877
 30
0.0
 10
143.1250448891
 20
166.9052105146
 30
0.0
 10
142.503674672
 20
165.4377310369
 30
0.0
 10
141.7237834842
 20
163.5839490725
 30
0.0
 10
141.0951968245
 20
162.0974245518
 30
0.0
 10
140.7801711371
 20
161.350106407
 30
0.0
  0
SPLINE
  5
2F8
100
AcDbEntity
  8
0
100
AcDbSpline
 62
7
  6
BYLAYER
 70
0
 71
3
 72
9
 73
5
 74
0
 42
0.0000001
 43
0.0000001
 44
0.0000000001
 40
0.0
 40
0.0
 40
0.0
 40
0.0
 40
0.4956931369
 40
1.0
 40
1.0
 40
1.0
 40
1.0
 10
85.6927572507
 20
225.7709623356
 30
0.0
 10
85.3480482438
 20
225.7080532712
 30
0.0
 10
84.6696083689
 20
225.4571764423
 30
0.0
 10
84.1216945278
 20
224.9828023261
 30
0.0
 10
83.8988580861
 20
224.7045397895
 30
0.0
  0
SPLINE
  5
2F9
100
AcDbEntity
  8
0
100
AcDbSpline
 62
7
  6
BYLAYER
 70
0
 71
3
 72
17
 73
13
 74
0
 42
0.0000001
 43
0.0000001
 44
0.0000000001
 40
0.0
 40
0.0
 40
0.0
 40
0.0
 40
0.1690049119
 40
0.335129536
 40
0.4943129448
 40
0.6420503566
 40
0.7724274139
 40
0.8790740789
 40
0.9216655244
 40
0.9563215836
 40
0.9825484379
 40
1.0
 40
1.0
 40
1.0
 40
1.0
 10
83.2136232702
 20
219.3282668785
 30
0.0
 10
83.2858092214
 20
219.7112118774
 30
0.0
 10
83.4879994376
 20
220.4597158184
 30
0.0
 10
83.8934857869
 20
221.5257983777
 30
0.0
 10
84.3378393188
 20
222.5221820902
 30
0.0
 10
84.7623009367
 20
223.4367707486
 30
0.0
 10
85.1267074575
 20
224.2456784082
 30
0.0
 10
85.3771601457
 20
224.8399622152
 30
0.0
 10
85.5289913921
 20
225.2358630761
 30
0.0
 10
85.6090205293
 20
225.4607485415
 30
0.0
 10
85.6630901063
 20
225.6329546165
 30
0.0
 10
85.6876935159
 20
225.7310426409
 30
0.0
 10
85.6927572503
 20
225.7709623333
 30
0.0
  0
SPLINE
  5
2FA
100
AcDbEntity
  8
0
100
AcDbSpline
 62
7
  6
BYLAYER
 70
0
 71
3
 72
14
 73
10
 74
0
 42
0.0000001
 43
0.0000001
 44
0.0000000001
 40
0.0
 40
0.0
 40
0.0
 40
0.0
 40
0.3836355973
 40
0.5606274575
 40
0.7153687576
 40
0.8395687505
 40
0.928903987
 40
0.981277112
 40
1.0
 40
1.0
 40
1.0
 40
1.0
 10
83.2136232771
 20
219.3282668769
 30
0.0
 10
83.1129409571
 20
219.3517447989
 30
0.0
 10
82.9659107675
 20
219.3870690838
 30
0.0
 10
82.7794864824
 20
219.4349715113
 30
0.0
 10
82.6601397941
 20
219.4670745798
 30
0.0
 10
82.5667961689
 20
219.4946248571
 30
0.0
 10
82.4940803331
 20
219.5169241309
 30
0.0
 10
82.461495913
 20
219.5318407426
 30
0.0
 10
82.4363325646
 20
219.5418271527
 30
0.0
 10
82.4374349272
 20
219.5467507658
 30
0.0
  0
SPLINE
  5
2FB
100
AcDbEntity
  8
0
100
AcDbSpline
 62
7
  6
BYLAYER
 70
0
 71
3
 72
14
 73
10
 74
0
 42
0.0000001
 43
0.0000001
 44
0.0000000001
 40
0.0
 40
0.0
 40
0.0
 40
0.0
 40
0.3861203642
 40
0.562853683
 40
0.7160015941
 40
0.8375570932
 40
0.9254942656
 40
0.9794056134
 40
1.0
 40
1.0
 40
1.0
 40
1.0
 10
77.8527344375
 20
195.509668709
 30
0.0
 10
77.7547914675
 20
195.5327968115
 30
0.0
 10
77.6121963384
 20
195.5677825316
 30
0.0
 10
77.4319740796
 20
195.6151652771
 30
0.0
 10
77.3179718174
 20
195.6467652534
 30
0.0
 10
77.2292100579
 20
195.6739934621
 30
0.0
 10
77.160306238
 20
195.6966811026
 30
0.0
 10
77.1282499415
 20
195.7119629443
 30
0.0
 10
77.1034446121
 20
195.7229135098
 30
0.0
 10
77.1046168651
 20
195.7281515667
 30
0.0
  0
SPLINE
  5
2FC
100
AcDbEntity
  8
0
100
AcDbSpline
 62
7
  6
BYLAYER
 70
0
 71
3
 72
16
 73
12
 74
0
 42
0.0000001
 43
0.0000001
 44
0.0000000001
 40
0.0
 40
0.0
 40
0.0
 40
0.0
 40
0.3874107682
 40
0.5645017446
 40
0.7178265912
 40
0.839370947
 40
0.9270894038
 40
0.9581073455
 40
0.980502871
 40
0.9943003367
 40
1.0
 40
1.0
 40
1.0
 40
1.0
 10
77.7618511768
 20
192.9335333002
 30
0.0
 10
77.6628120575
 20
192.9177322373
 30
0.0
 10
77.518626292
 20
192.8938358429
 30
0.0
 10
77.3356711221
 20
192.8614137841
 30
0.0
 10
77.2206114779
 20
192.8398539124
 30
0.0
 10
77.1287845906
 20
192.8211147557
 30
0.0
 10
77.0678300974
 20
192.807160859
 30
0.0
 10
77.0329499515
 20
192.7977940489
 30
0.0
 10
77.015668893
 20
192.7923364664
 30
0.0
 10
77.0068311131
 20
192.7887562221
 30
0.0
 10
77.0010696994
 20
192.7854568876
 30
0.0
 10
77.0012903177
 20
192.7839979633
 30
0.0
  0
SPLINE
  5
2FD
100
AcDbEntity
  8
0
100
AcDbSpline
 62
7
  6
BYLAYER
 70
0
 71
3
 72
17
 73
13
 74
0
 42
0.0000001
 43
0.0000001
 44
0.0000000001
 40
0.0
 40
0.0
 40
0.0
 40
0.0
 40
0.2039038554
 40
0.3954339945
 40
0.5681555241
 40
0.7170504003
 40
0.8377108322
 40
0.9266941799
 40
0.9583410503
 40
0.9811507731
 40
0.9950157502
 40
1.0
 40
1.0
 40
1.0
 40
1.0
 10
85.8585239674
 20
139.6532540097
 30
0.0
 10
85.8038540533
 20
139.645060347
 30
0.0
 10
85.6977163539
 20
139.6299676202
 30
0.0
 10
85.5451480597
 20
139.6086948571
 30
0.0
 10
85.4075683972
 20
139.5882744336
 30
0.0
 10
85.2888156441
 20
139.5709770325
 30
0.0
 10
85.1926244278
 20
139.5588870113
 30
0.0
 10
85.1270607093
 20
139.5514868719
 30
0.0
 10
85.0890779606
 20
139.5481934935
 30
0.0
 10
85.0693790283
 20
139.5461672692
 30
0.0
 10
85.0603044549
 20
139.546835923
 30
0.0
 10
85.0527890944
 20
139.545959826
 30
0.0
 10
85.0525854622
 20
139.5472956782
 30
0.0
  0
SPLINE
  5
2FE
100
AcDbEntity
  8
0
100
AcDbSpline
 62
7
  6
BYLAYER
 70
0
 71
3
 72
11
 73
7
 74
0
 42
0.0000001
 43
0.0000001
 44
0.0000000001
 40
0.0
 40
0.0
 40
0.0
 40
0.0
 40
0.252984252
 40
0.5042687985
 40
0.7540204344
 40
1.0
 40
1.0
 40
1.0
 40
1.0
 10
110.6771959811
 20
228.7066764911
 30
0.0
 10
110.7037871485
 20
228.7066764911
 30
0.0
 10
110.7562724402
 20
228.6971255626
 30
0.0
 10
110.8356779858
 20
228.6945340014
 30
0.0
 10
110.9140142043
 20
228.7006756975
 30
0.0
 10
110.9661319741
 20
228.701370702
 30
0.0
 10
110.9919652279
 20
228.7024285844
 30
0.0
  0
SPLINE
  5
2FF
100
AcDbEntity
  8
0
100
AcDbSpline
 62
7
  6
BYLAYER
 70
0
 71
3
 72
13
 73
9
 74
0
 42
0.0000001
 43
0.0000001
 44
0.0000000001
 40
0.0
 40
0.0
 40
0.0
 40
0.0
 40
0.3660715982
 40
0.5341316216
 40
0.6819982226
 40
0.8032839585
 40
0.8954203068
 40
1.0
 40
1.0
 40
1.0
 40
1.0
 10
88.1370930775
 20
129.4481654213
 30
0.0
 10
87.9372688708
 20
129.4289781303
 30
0.0
 10
87.6446630233
 20
129.4101679766
 30
0.0
 10
87.2701906444
 20
129.4136960131
 30
0.0
 10
87.0316414568
 20
129.4295569623
 30
0.0
 10
86.8331990089
 20
129.4619128399
 30
0.0
 10
86.6718466854
 20
129.5060976006
 30
0.0
 10
86.5604919678
 20
129.5767240251
 30
0.0
 10
86.5519161241
 20
129.6334277262
 30
0.0
  0
SPLINE
  5
300
100
AcDbEntity
  8
0
100
AcDbSpline
 62
7
  6
BYLAYER
 70
0
 71
3
 72
9
 73
5
 74
0
 42
0.0000001
 43
0.0000001
 44
0.0000000001
 40
0.0
 40
0.0
 40
0.0
 40
0.0
 40
0.2506520041
 40
1.0
 40
1.0
 40
1.0
 40
1.0
 10
140.7801711371
 20
161.350106407
 30
0.0
 10
140.5984757996
 20
160.9199767574
 30
0.0
 10
139.8561013663
 20
159.2113097054
 30
0.0
 10
139.0515549515
 20
157.5301516566
 30
0.0
 10
138.4267695433
 20
156.2818415956
 30
0.0
  0
SPLINE
  5
301
100
AcDbEntity
  8
0
100
AcDbSpline
 62
7
  6
BYLAYER
 70
0
 71
3
 72
11
 73
7
 74
0
 42
0.0000001
 43
0.0000001
 44
0.0000000001
 40
0.0
 40
0.0
 40
0.0
 40
0.0
 40
0.2477530547
 40
0.4985070208
 40
0.7490320255
 40
1.0
 40
1.0
 40
1.0
 40
1.0
 10
110.4181869743
 20
228.7220137591
 30
0.0
 10
110.4396288559
 20
228.721296569
 30
0.0
 10
110.4827565666
 20
228.7187608303
 30
0.0
 10
110.5476460886
 20
228.7213387296
 30
0.0
 10
110.6127299364
 20
228.7166855724
 30
0.0
 10
110.6554637164
 20
228.7066764911
 30
0.0
 10
110.6771959811
 20
228.7066764911
 30
0.0
  0
SPLINE
  5
302
100
AcDbEntity
  8
0
100
AcDbSpline
 62
7
  6
BYLAYER
 70
0
 71
3
 72
9
 73
5
 74
0
 42
0.0000001
 43
0.0000001
 44
0.0000000001
 40
0.0
 40
0.0
 40
0.0
 40
0.0
 40
0.4108189035
 40
1.0
 40
1.0
 40
1.0
 40
1.0
 10
109.4190153401
 20
228.844994814
 30
0.0
 10
109.5520097801
 20
228.8079366576
 30
0.0
 10
109.8849126719
 20
228.7528162104
 30
0.0
 10
110.2202957843
 20
228.728632892
 30
0.0
 10
110.4181869743
 20
228.7220137591
 30
0.0
  0
SPLINE
  5
303
100
AcDbEntity
  8
0
100
AcDbSpline
 62
7
  6
BYLAYER
 70
0
 71
3
 72
9
 73
5
 74
0
 42
0.0000001
 43
0.0000001
 44
0.0000000001
 40
0.0
 40
0.0
 40
0.0
 40
0.0
 40
0.3438146043
 40
1.0
 40
1.0
 40
1.0
 40
1.0
 10
109.1800682015
 20
228.9555925374
 30
0.0
 10
109.1908200962
 20
228.926793697
 30
0.0
 10
109.2786136354
 20
228.8772718569
 30
0.0
 10
109.3615944903
 20
228.8570348193
 30
0.0
 10
109.4190153401
 20
228.844994814
 30
0.0
  0
SPLINE
  5
304
100
AcDbEntity
  8
0
100
AcDbSpline
 62
7
  6
BYLAYER
 70
0
 71
3
 72
8
 73
4
 74
0
 42
0.0000001
 43
0.0000001
 44
0.0000000001
 40
0.0
 40
0.0
 40
0.0
 40
0.0
 40
1.0
 40
1.0
 40
1.0
 40
1.0
 10
90.9985780469
 20
121.1961665562
 30
0.0
 10
90.399712469
 20
121.6383766534
 30
0.0
 10
89.8256527242
 20
122.1143498225
 30
0.0
 10
89.2644629496
 20
122.6034876224
 30
0.0
  0
SPLINE
  5
305
100
AcDbEntity
  8
0
100
AcDbSpline
 62
7
  6
BYLAYER
 70
0
 71
3
 72
16
 73
12
 74
0
 42
0.0000001
 43
0.0000001
 44
0.0000000001
 40
0.0
 40
0.0
 40
0.0
 40
0.0
 40
0.4185648095
 40
0.5949200107
 40
0.7423703993
 40
0.8575124724
 40
0.9380012831
 40
0.9655322784
 40
0.9848771969
 40
0.9962583015
 40
1.0
 40
1.0
 40
1.0
 40
1.0
 10
92.4504999333
 20
120.0570901094
 30
0.0
 10
92.408246431
 20
120.000174624
 30
0.0
 10
92.348105868
 20
119.9193216316
 30
0.0
 10
92.2727817308
 20
119.8187059559
 30
0.0
 10
92.2280846099
 20
119.7592099315
 30
0.0
 10
92.1930193007
 20
119.7131338696
 30
0.0
 10
92.1699706552
 20
119.6826690929
 30
0.0
 10
92.1567396471
 20
119.6663066702
 30
0.0
 10
92.1504525749
 20
119.6576263695
 30
0.0
 10
92.1468995364
 20
119.6548522645
 30
0.0
 10
92.1449426237
 20
119.6512490859
 30
0.0
 10
92.1444472509
 20
119.6516442343
 30
0.0
  0
SPLINE
  5
306
100
AcDbEntity
  8
0
100
AcDbSpline
 62
7
  6
BYLAYER
 70
0
 71
3
 72
9
 73
5
 74
0
 42
0.0000001
 43
0.0000001
 44
0.0000000001
 40
0.0
 40
0.0
 40
0.0
 40
0.0
 40
0.2962127427
 40
1.0
 40
1.0
 40
1.0
 40
1.0
 10
96.747186456
 20
104.3853062275
 30
0.0
 10
96.7317710956
 20
104.3930835979
 30
0.0
 10
96.6820057585
 20
104.421803018
 30
0.0
 10
96.639570257
 20
104.4747689437
 30
0.0
 10
96.6362363358
 20
104.515656853
 30
0.0
  0
SPLINE
  5
307
100
AcDbEntity
  8
0
100
AcDbSpline
 62
7
  6
BYLAYER
 70
0
 71
3
 72
9
 73
5
 74
0
 42
0.0000001
 43
0.0000001
 44
0.0000000001
 40
0.0
 40
0.0
 40
0.0
 40
0.0
 40
0.2222294667
 40
1.0
 40
1.0
 40
1.0
 40
1.0
 10
96.6771959774
 20
103.4862594163
 30
0.0
 10
96.6771959774
 20
103.4749632693
 30
0.0
 10
96.6852602599
 20
103.4240058985
 30
0.0
 10
96.7217634009
 20
103.3816617285
 30
0.0
 10
96.753302399
 20
103.357822757
 30
0.0
  0
SPLINE
  5
308
100
AcDbEntity
  8
0
100
AcDbSpline
 62
7
  6
BYLAYER
 70
0
 71
3
 72
11
 73
7
 74
0
 42
0.0000001
 43
0.0000001
 44
0.0000000001
 40
0.0
 40
0.0
 40
0.0
 40
0.0
 40
0.2513018503
 40
0.5020283468
 40
0.7514305684
 40
1.0
 40
1.0
 40
1.0
 40
1.0
 10
96.7533729458
 20
103.3578504622
 30
0.0
 10
96.7381046604
 20
102.8205304925
 30
0.0
 10
96.7157606675
 20
101.7468954804
 30
0.0
 10
96.6918989418
 20
100.1397558787
 30
0.0
 10
96.6775254672
 20
98.538329597
 30
0.0
 10
96.6771959774
 20
97.4731566801
 30
0.0
 10
96.6771959774
 20
96.9414644928
 30
0.0
  0
SPLINE
  5
309
100
AcDbEntity
  8
0
100
AcDbSpline
 62
7
  6
BYLAYER
 70
0
 71
3
 72
9
 73
5
 74
0
 42
0.0000001
 43
0.0000001
 44
0.0000000001
 40
0.0
 40
0.0
 40
0.0
 40
0.0
 40
0.251916614
 40
1.0
 40
1.0
 40
1.0
 40
1.0
 10
96.7583617609
 20
104.0454796772
 30
0.0
 10
96.7590893863
 20
103.9983814382
 30
0.0
 10
96.7605409613
 20
103.8114001133
 30
0.0
 10
96.7584997333
 20
103.6244106383
 30
0.0
 10
96.7560219769
 20
103.4845544962
 30
0.0
  0
SPLINE
  5
30A
100
AcDbEntity
  8
0
100
AcDbSpline
 62
7
  6
BYLAYER
 70
0
 71
3
 72
12
 73
8
 74
0
 42
0.0000001
 43
0.0000001
 44
0.0000000001
 40
0.0
 40
0.0
 40
0.0
 40
0.0
 40
0.2495017121
 40
0.3744145988
 40
0.4994833472
 40
0.749895279
 40
1.0
 40
1.0
 40
1.0
 40
1.0
 10
103.0054963407
 20
101.6602379661
 30
0.0
 10
103.5464793351
 20
101.6449498673
 30
0.0
 10
104.3581244034
 20
101.6092191567
 30
0.0
 10
105.4381919247
 20
101.5217662762
 30
0.0
 10
106.516137779
 20
101.3917297347
 30
0.0
 10
107.8529736181
 20
101.1563435116
 30
0.0
 10
108.9073684725
 20
100.881537128
 30
0.0
 10
109.4170845029
 20
100.6957862728
 30
0.0
  0
SPLINE
  5
30B
100
AcDbEntity
  8
0
100
AcDbSpline
 62
7
  6
BYLAYER
 70
0
 71
3
 72
9
 73
5
 74
0
 42
0.0000001
 43
0.0000001
 44
0.0000000001
 40
0.0
 40
0.0
 40
0.0
 40
0.0
 40
0.247590403
 40
1.0
 40
1.0
 40
1.0
 40
1.0
 10
92.7220551332
 20
121.032280509
 30
0.0
 10
93.5778625305
 20
119.4513676779
 30
0.0
 10
96.9821444872
 20
113.0378266901
 30
0.0
 10
100.2157085974
 20
106.535236793
 30
0.0
 10
102.6056150933
 20
101.622670856
 30
0.0
  0
SPLINE
  5
30C
100
AcDbEntity
  8
0
100
AcDbSpline
 62
7
  6
BYLAYER
 70
0
 71
3
 72
11
 73
7
 74
0
 42
0.0000001
 43
0.0000001
 44
0.0000000001
 40
0.0
 40
0.0
 40
0.0
 40
0.0
 40
0.2406244721
 40
0.4931717309
 40
0.7476148708
 40
1.0
 40
1.0
 40
1.0
 40
1.0
 10
109.4172494773
 20
100.6955055086
 30
0.0
 10
108.9142578607
 20
100.5794299523
 30
0.0
 10
107.8964350909
 20
100.2879099692
 30
0.0
 10
106.3120475947
 20
100.0130091933
 30
0.0
 10
104.6843106881
 20
99.9153771039
 30
0.0
 10
103.5975026632
 20
99.8873870176
 30
0.0
 10
103.0561524926
 20
99.877447321
 30
0.0
  0
SPLINE
  5
30D
100
AcDbEntity
  8
0
100
AcDbSpline
 62
7
  6
BYLAYER
 70
0
 71
3
 72
20
 73
16
 74
0
 42
0.0000001
 43
0.0000001
 44
0.0000000001
 40
0.0
 40
0.0
 40
0.0
 40
0.0
 40
0.1974594529
 40
0.3850572471
 40
0.5575642131
 40
0.6363057192
 40
0.70870266
 40
0.7738782588
 40
0.8311380116
 40
0.8798494172
 40
0.919603283
 40
0.950318021
 40
0.9724577773
 40
0.9876018568
 40
1.0
 40
1.0
 40
1.0
 40
1.0
 10
102.9350928139
 20
99.8365010554
 30
0.0
 10
102.5379403195
 20
99.5894718459
 30
0.0
 10
101.7636952468
 20
99.1074471779
 30
0.0
 10
100.6429861645
 20
98.4085022486
 30
0.0
 10
99.7402896914
 20
97.8925553727
 30
0.0
 10
99.0650604533
 20
97.5294584972
 30
0.0
 10
98.6049711374
 20
97.3035776871
 30
0.0
 10
98.1814819705
 20
97.1198123549
 30
0.0
 10
97.802826212
 20
96.9746280872
 30
0.0
 10
97.473325093
 20
96.8707085312
 30
0.0
 10
97.1981022764
 20
96.8069747552
 30
0.0
 10
96.9787899086
 20
96.7829585759
 30
0.0
 10
96.8180766373
 20
96.7943357093
 30
0.0
 10
96.7034837553
 20
96.8441185986
 30
0.0
 10
96.6771959774
 20
96.9120977177
 30
0.0
 10
96.6771959774
 20
96.9414644928
 30
0.0
  0
SPLINE
  5
30E
100
AcDbEntity
  8
0
100
AcDbSpline
 62
7
  6
BYLAYER
 70
0
 71
3
 72
8
 73
4
 74
0
 42
0.0000001
 43
0.0000001
 44
0.0000000001
 40
0.0
 40
0.0
 40
0.0
 40
0.0
 40
1.0
 40
1.0
 40
1.0
 40
1.0
 10
103.056148132
 20
99.877700607
 30
0.0
 10
103.0136011186
 20
99.8751281477
 30
0.0
 10
102.971041378
 20
99.8594044753
 30
0.0
 10
102.9350928139
 20
99.8365010554
 30
0.0
  0
SPLINE
  5
30F
100
AcDbEntity
  8
0
100
AcDbSpline
 62
7
  6
BYLAYER
 70
0
 71
3
 72
14
 73
10
 74
0
 42
0.0000001
 43
0.0000001
 44
0.0000000001
 40
0.0
 40
0.0
 40
0.0
 40
0.0
 40
0.0723562452
 40
0.1531098027
 40
0.2482726196
 40
0.3613286803
 40
0.4939356959
 40
0.6458668438
 40
1.0
 40
1.0
 40
1.0
 40
1.0
 10
96.6771959774
 20
35.7160182489
 30
0.0
 10
96.6771959478
 20
35.5302796914
 30
0.0
 10
96.7575931325
 20
35.1344918224
 30
0.0
 10
97.0961889108
 20
34.5836292035
 30
0.0
 10
97.6373787265
 20
34.0676920376
 30
0.0
 10
98.3756285186
 20
33.5912550059
 30
0.0
 10
99.3052726516
 20
33.1634929434
 30
0.0
 10
100.8642437117
 20
32.648467262
 30
0.0
 10
102.1521623333
 20
32.4226564455
 30
0.0
 10
103.0561479762
 20
32.3267378471
 30
0.0
  0
SPLINE
  5
310
100
AcDbEntity
  8
0
100
AcDbSpline
 62
7
  6
BYLAYER
 70
0
 71
3
 72
15
 73
11
 74
0
 42
0.0000001
 43
0.0000001
 44
0.0000000001
 40
0.0
 40
0.0
 40
0.0
 40
0.0
 40
0.0193395819
 40
0.0448971646
 40
0.1170709649
 40
0.2190619058
 40
0.3480491839
 40
0.4990419881
 40
0.6638003654
 40
1.0
 40
1.0
 40
1.0
 40
1.0
 10
121.5076761412
 20
228.873769811
 30
0.0
 10
121.55341381
 20
228.8320897489
 30
0.0
 10
121.6435795577
 20
228.718267695
 30
0.0
 10
121.8246706668
 20
228.389641543
 30
0.0
 10
122.0358825546
 20
227.7827978537
 30
0.0
 10
122.2623284849
 20
226.8395634827
 30
0.0
 10
122.4715195584
 20
225.6344817456
 30
0.0
 10
122.6482922493
 20
224.2221991124
 30
0.0
 10
122.8353170378
 20
222.1442585727
 30
0.0
 10
122.9075830347
 20
220.5419544304
 30
0.0
 10
122.9299867819
 20
219.4664608689
 30
0.0
  0
SPLINE
  5
311
100
AcDbEntity
  8
0
100
AcDbSpline
 62
7
  6
BYLAYER
 70
0
 71
3
 72
11
 73
7
 74
0
 42
0.0000001
 43
0.0000001
 44
0.0000000001
 40
0.0
 40
0.0
 40
0.0
 40
0.0
 40
0.2951657362
 40
0.5656162234
 40
0.8003118536
 40
1.0
 40
1.0
 40
1.0
 40
1.0
 10
128.7351962889
 20
223.7610572508
 30
0.0
 10
128.4623029584
 20
224.4700967318
 30
0.0
 10
127.8192123135
 20
225.7877679156
 30
0.0
 10
126.5406379992
 20
227.4258685397
 30
0.0
 10
125.0811915054
 20
228.5426560502
 30
0.0
 10
124.003375375
 20
228.9220750235
 30
0.0
 10
123.4953687519
 20
229.000255951
 30
0.0
  0
SPLINE
  5
312
100
AcDbEntity
  8
0
100
AcDbSpline
 62
7
  6
BYLAYER
 70
0
 71
3
 72
11
 73
7
 74
0
 42
0.0000001
 43
0.0000001
 44
0.0000000001
 40
0.0
 40
0.0
 40
0.0
 40
0.0
 40
0.2532910622
 40
0.5038102113
 40
0.7522498229
 40
1.0
 40
1.0
 40
1.0
 40
1.0
 10
123.4953556396
 20
228.9994327217
 30
0.0
 10
124.1797505492
 20
229.0252396856
 30
0.0
 10
125.5488703831
 20
228.9554080517
 30
0.0
 10
127.539044355
 20
228.4854276003
 30
0.0
 10
129.3968413999
 20
227.6669348055
 30
0.0
 10
130.5113895131
 20
226.9039538962
 30
0.0
 10
131.0270390817
 20
226.4763204436
 30
0.0
  0
SPLINE
  5
313
100
AcDbEntity
  8
0
100
AcDbSpline
 62
7
  6
BYLAYER
 70
0
 71
3
 72
15
 73
11
 74
0
 42
0.0000001
 43
0.0000001
 44
0.0000000001
 40
0.0
 40
0.0
 40
0.0
 40
0.0
 40
0.0162448226
 40
0.0405468344
 40
0.1122962149
 40
0.2126256388
 40
0.3378196789
 40
0.4838599522
 40
0.6462847704
 40
1.0
 40
1.0
 40
1.0
 40
1.0
 10
142.1771959773
 20
41.3291042258
 30
0.0
 10
142.1771959876
 20
41.354036541
 30
0.0
 10
142.1701032258
 20
41.4160911246
 30
0.0
 10
142.1415016546
 20
41.5859437998
 30
0.0
 10
142.0784081322
 20
41.8808526793
 30
0.0
 10
141.9814879871
 20
42.3266034777
 30
0.0
 10
141.868909915
 20
42.8857277535
 30
0.0
 10
141.7568236478
 20
43.5419493417
 30
0.0
 10
141.6256322108
 20
44.5499322884
 30
0.0
 10
141.5819850092
 20
45.3428757969
 30
0.0
 10
141.5819850093
 20
45.8857527366
 30
0.0
  0
SPLINE
  5
314
100
AcDbEntity
  8
0
100
AcDbSpline
 62
7
  6
BYLAYER
 70
0
 71
3
 72
12
 73
8
 74
0
 42
0.0000001
 43
0.0000001
 44
0.0000000001
 40
0.0
 40
0.0
 40
0.0
 40
0.0
 40
0.2533364521
 40
0.5077046233
 40
0.7589893443
 40
0.8815256541
 40
1.0
 40
1.0
 40
1.0
 40
1.0
 10
143.9753814224
 20
141.0327169943
 30
0.0
 10
143.5790274221
 20
139.5595421591
 30
0.0
 10
142.807307184
 20
136.600861455
 30
0.0
 10
141.7923080177
 20
132.1435071711
 30
0.0
 10
141.1418512501
 20
128.413646145
 30
0.0
 10
140.8101128371
 20
125.4669974407
 30
0.0
 10
140.7246328186
 20
124.0167339223
 30
0.0
 10
140.714153534
 20
123.3033722808
 30
0.0
  0
SPLINE
  5
315
100
AcDbEntity
  8
0
100
AcDbSpline
 62
7
  6
BYLAYER
 70
0
 71
3
 72
22
 73
18
 74
0
 42
0.0000001
 43
0.0000001
 44
0.0000000001
 40
0.0
 40
0.0
 40
0.0
 40
0.0
 40
0.0315019366
 40
0.0629884737
 40
0.1259099293
 40
0.1887756821
 40
0.2515922318
 40
0.3770825318
 40
0.5023715509
 40
0.5649355057
 40
0.6274392283
 40
0.6898718211
 40
0.7522194752
 40
0.8144635718
 40
0.8765840056
 40
0.9384875836
 40
1.0
 40
1.0
 40
1.0
 40
1.0
 10
116.0484718036
 20
139.6583131862
 30
0.0
 10
116.2140384137
 20
139.6470346265
 30
0.0
 10
116.5456367958
 20
139.6332271468
 30
0.0
 10
117.208511654
 20
139.610691248
 30
0.0
 10
118.0366312318
 20
139.584774692
 30
0.0
 10
119.0298751615
 20
139.5597052397
 30
0.0
 10
120.3528813455
 20
139.5384046627
 30
0.0
 10
122.0048347952
 20
139.5245616856
 30
0.0
 10
123.6554578323
 20
139.5115451731
 30
0.0
 10
124.9743189026
 20
139.5069975474
 30
0.0
 10
125.9620587744
 20
139.5079715373
 30
0.0
 10
126.9486628701
 20
139.5056196993
 30
0.0
 10
127.9338635425
 20
139.4989012643
 30
0.0
 10
128.917503106
 20
139.4983159647
 30
0.0
 10
129.8985748497
 20
139.5161744359
 30
0.0
 10
130.875987886
 20
139.5321103748
 30
0.0
 10
131.5261051016
 20
139.5059122846
 30
0.0
 10
131.8501015961
 20
139.5114450882
 30
0.0
  0
SPLINE
  5
316
100
AcDbEntity
  8
0
100
AcDbSpline
 62
7
  6
BYLAYER
 70
0
 71
3
 72
8
 73
4
 74
0
 42
0.0000001
 43
0.0000001
 44
0.0000000001
 40
0.0
 40
0.0
 40
0.0
 40
0.0
 40
1.0
 40
1.0
 40
1.0
 40
1.0
 10
131.8462621726
 20
139.7954667833
 30
0.0
 10
131.8404600078
 20
139.7009620703
 30
0.0
 10
131.8336943798
 20
139.6046948191
 30
0.0
 10
131.8501027486
 20
139.5114447717
 30
0.0
  0
SPLINE
  5
317
100
AcDbEntity
  8
0
100
AcDbSpline
 62
7
  6
BYLAYER
 70
0
 71
3
 72
16
 73
12
 74
0
 42
0.0000001
 43
0.0000001
 44
0.0000000001
 40
0.0
 40
0.0
 40
0.0
 40
0.0
 40
0.1261800557
 40
0.2390031135
 40
0.3430110376
 40
0.4452686579
 40
0.5532818552
 40
0.6754132438
 40
0.7443126529
 40
0.8200459302
 40
1.0
 40
1.0
 40
1.0
 40
1.0
 10
112.0022191145
 20
120.1766027653
 30
0.0
 10
112.8964894067
 20
120.1766030289
 30
0.0
 10
114.5902950857
 20
120.2059046575
 30
0.0
 10
117.0202464247
 20
120.2808685743
 30
0.0
 10
119.2784203441
 20
120.4084289105
 30
0.0
 10
121.4982346399
 20
120.5940884901
 30
0.0
 10
123.8422747046
 20
120.8294856446
 30
0.0
 10
125.9514900228
 20
121.0372011047
 30
0.0
 10
127.8346749465
 20
121.2050041933
 30
0.0
 10
130.1271642828
 20
121.395768241
 30
0.0
 10
131.9361829472
 20
121.5096109555
 30
0.0
 10
133.2055794622
 20
121.6330120416
 30
0.0
  0
SPLINE
  5
318
100
AcDbEntity
  8
0
100
AcDbSpline
 62
7
  6
BYLAYER
 70
0
 71
3
 72
15
 73
11
 74
0
 42
0.0000001
 43
0.0000001
 44
0.0000000001
 40
0.0
 40
0.0
 40
0.0
 40
0.0
 40
0.0162448226
 40
0.0405468344
 40
0.1122962149
 40
0.2126256388
 40
0.3378196789
 40
0.4838599522
 40
0.6462847704
 40
1.0
 40
1.0
 40
1.0
 40
1.0
 10
142.1771959773
 20
89.3291042258
 30
0.0
 10
142.1771959876
 20
89.354036541
 30
0.0
 10
142.1701032258
 20
89.4160911246
 30
0.0
 10
142.1415016546
 20
89.5859437998
 30
0.0
 10
142.0784081322
 20
89.8808526793
 30
0.0
 10
141.9814879871
 20
90.3266034777
 30
0.0
 10
141.868909915
 20
90.8857277535
 30
0.0
 10
141.7568236478
 20
91.5419493417
 30
0.0
 10
141.6256322108
 20
92.5499322884
 30
0.0
 10
141.5819850092
 20
93.3428757969
 30
0.0
 10
141.5819850093
 20
93.8857527366
 30
0.0
  0
SPLINE
  5
319
100
AcDbEntity
  8
0
100
AcDbSpline
 62
7
  6
BYLAYER
 70
0
 71
3
 72
9
 73
5
 74
0
 42
0.0000001
 43
0.0000001
 44
0.0000000001
 40
0.0
 40
0.0
 40
0.0
 40
0.0
 40
0.5010608648
 40
1.0
 40
1.0
 40
1.0
 40
1.0
 10
133.9972328873
 20
100.6974110221
 30
0.0
 10
134.0909002722
 20
100.7197010941
 30
0.0
 10
134.27722656
 20
100.7669460357
 30
0.0
 10
134.4666166148
 20
100.8005520651
 30
0.0
 10
134.561427171
 20
100.8148012818
 30
0.0
  0
SPLINE
  5
31A
100
AcDbEntity
  8
0
100
AcDbSpline
 62
7
  6
BYLAYER
 70
0
 71
3
 72
9
 73
5
 74
0
 42
0.0000001
 43
0.0000001
 44
0.0000000001
 40
0.0
 40
0.0
 40
0.0
 40
0.0
 40
0.5020846619
 40
1.0
 40
1.0
 40
1.0
 40
1.0
 10
134.5372394186
 20
100.5921121624
 30
0.0
 10
134.4462593923
 20
100.6064664519
 30
0.0
 10
134.2652432341
 20
100.6368967513
 30
0.0
 10
134.087039045
 20
100.6812175897
 30
0.0
 10
133.9971458421
 20
100.6974137306
 30
0.0
  0
SPLINE
  5
31B
100
AcDbEntity
  8
0
100
AcDbSpline
 62
7
  6
BYLAYER
 70
0
 71
3
 72
8
 73
4
 74
0
 42
0.0000001
 43
0.0000001
 44
0.0000000001
 40
0.0
 40
0.0
 40
0.0
 40
0.0
 40
1.0
 40
1.0
 40
1.0
 40
1.0
 10
134.9529608597
 20
100.515157594
 30
0.0
 10
134.8246167479
 20
100.5379623741
 30
0.0
 10
134.6968914041
 20
100.5641901681
 30
0.0
 10
134.5684608309
 20
100.5865028755
 30
0.0
  0
SPLINE
  5
31C
100
AcDbEntity
  8
0
100
AcDbSpline
 62
7
  6
BYLAYER
 70
0
 71
3
 72
13
 73
9
 74
0
 42
0.0000001
 43
0.0000001
 44
0.0000000001
 40
0.0
 40
0.0
 40
0.0
 40
0.0
 40
0.3702011411
 40
0.6714718806
 40
0.7906616752
 40
0.8861003673
 40
0.9562837055
 40
1.0
 40
1.0
 40
1.0
 40
1.0
 10
141.7303053346
 20
96.0121017465
 30
0.0
 10
141.7718278841
 20
96.3142944084
 30
0.0
 10
141.8616936478
 20
96.8604898159
 30
0.0
 10
141.9931741175
 20
97.4986597649
 30
0.0
 10
142.0834447141
 20
97.913980009
 30
0.0
 10
142.1322280773
 20
98.1436589131
 30
0.0
 10
142.1636500936
 20
98.3130029875
 30
0.0
 10
142.1771960279
 20
98.4063662121
 30
0.0
 10
142.1771959769
 20
98.4423868174
 30
0.0
  0
SPLINE
  5
31D
100
AcDbEntity
  8
0
100
AcDbSpline
 62
7
  6
BYLAYER
 70
0
 71
3
 72
13
 73
9
 74
0
 42
0.0000001
 43
0.0000001
 44
0.0000000001
 40
0.0
 40
0.0
 40
0.0
 40
0.0
 40
0.3702011411
 40
0.6714718806
 40
0.7906616752
 40
0.8861003673
 40
0.9562837055
 40
1.0
 40
1.0
 40
1.0
 40
1.0
 10
141.7303053346
 20
48.0121017465
 30
0.0
 10
141.7718278841
 20
48.3142944084
 30
0.0
 10
141.8616936478
 20
48.8604898159
 30
0.0
 10
141.9931741175
 20
49.498659765
 30
0.0
 10
142.0834447141
 20
49.9139800091
 30
0.0
 10
142.1322280773
 20
50.1436589131
 30
0.0
 10
142.1636500936
 20
50.3130029875
 30
0.0
 10
142.1771960279
 20
50.4063662121
 30
0.0
 10
142.1771959769
 20
50.4423868174
 30
0.0
  0
SPLINE
  5
31E
100
AcDbEntity
  8
0
100
AcDbSpline
 62
7
  6
BYLAYER
 70
0
 71
3
 72
11
 73
7
 74
0
 42
0.0000001
 43
0.0000001
 44
0.0000000001
 40
0.0
 40
0.0
 40
0.0
 40
0.0
 40
0.2520029777
 40
0.5022848738
 40
0.7496520397
 40
1.0
 40
1.0
 40
1.0
 40
1.0
 10
143.2062557461
 20
141.0767323516
 30
0.0
 10
143.037236286
 20
140.8607680278
 30
0.0
 10
142.6780214372
 20
140.4473357799
 30
0.0
 10
142.0670137237
 20
139.901078113
 30
0.0
 10
141.3470061892
 20
139.5014219912
 30
0.0
 10
140.791558283
 20
139.4178492492
 30
0.0
 10
140.5203631
 20
139.4438633144
 30
0.0
  0
SPLINE
  5
31F
100
AcDbEntity
  8
0
100
AcDbSpline
 62
7
  6
BYLAYER
 70
0
 71
3
 72
9
 73
5
 74
0
 42
0.0000001
 43
0.0000001
 44
0.0000000001
 40
0.0
 40
0.0
 40
0.0
 40
0.0
 40
0.2098095665
 40
1.0
 40
1.0
 40
1.0
 40
1.0
 10
143.9753814231
 20
141.0327169942
 30
0.0
 10
143.9217894732
 20
141.0383320995
 30
0.0
 10
143.6658877812
 20
141.0606955068
 30
0.0
 10
143.4090650451
 20
141.0693312119
 30
0.0
 10
143.2062557461
 20
141.0767323516
 30
0.0
  0
SPLINE
  5
320
100
AcDbEntity
  8
0
100
AcDbSpline
 62
7
  6
BYLAYER
 70
0
 71
3
 72
17
 73
13
 74
0
 42
0.0000001
 43
0.0000001
 44
0.0000000001
 40
0.0
 40
0.0
 40
0.0
 40
0.0
 40
0.0041420932
 40
0.0165419824
 40
0.0371512543
 40
0.065921486
 40
0.1476445406
 40
0.2607507762
 40
0.4040841445
 40
0.5762244332
 40
0.7755579328
 40
1.0
 40
1.0
 40
1.0
 40
1.0
 10
146.588129115
 20
148.1259102342
 30
0.0
 10
146.5945409143
 20
148.1325157597
 30
0.0
 10
146.5348305179
 20
148.0770494882
 30
0.0
 10
146.5043480538
 20
148.0519110054
 30
0.0
 10
146.3843388794
 20
147.9436490472
 30
0.0
 10
146.1775100564
 20
147.7598999627
 30
0.0
 10
145.7986497014
 20
147.4217796515
 30
0.0
 10
145.2407501265
 20
146.9259518253
 30
0.0
 10
144.5267545413
 20
146.2925167136
 30
0.0
 10
143.6701153343
 20
145.5351311395
 30
0.0
 10
142.6761625386
 20
144.659499525
 30
0.0
 10
141.9682436959
 20
144.0383917336
 30
0.0
 10
141.5929449511
 20
143.7098085082
 30
0.0
  0
SPLINE
  5
321
100
AcDbEntity
  8
0
100
AcDbSpline
 62
7
  6
BYLAYER
 70
0
 71
3
 72
17
 73
13
 74
0
 42
0.0000001
 43
0.0000001
 44
0.0000000001
 40
0.0
 40
0.0
 40
0.0
 40
0.0
 40
0.0049081668
 40
0.0170931168
 40
0.0370732385
 40
0.0649051929
 40
0.1440945437
 40
0.2544995915
 40
0.3958835755
 40
0.5677200876
 40
0.7692918009
 40
1.0
 40
1.0
 40
1.0
 40
1.0
 10
142.1771959775
 20
100.4435766959
 30
0.0
 10
142.1771959917
 20
100.4410032512
 30
0.0
 10
142.1657219356
 20
100.4372948938
 30
0.0
 10
142.1490633731
 20
100.4347178607
 30
0.0
 10
142.1163255826
 20
100.4316043607
 30
0.0
 10
142.050681174
 20
100.427983547
 30
0.0
 10
141.9361030523
 20
100.4242821681
 30
0.0
 10
141.7629199372
 20
100.4200880596
 30
0.0
 10
141.5407634946
 20
100.4142961092
 30
0.0
 10
141.2709328923
 20
100.4089993796
 30
0.0
 10
140.9541457524
 20
100.4092822737
 30
0.0
 10
140.7275256813
 20
100.4129557636
 30
0.0
 10
140.606570509
 20
100.4144717067
 30
0.0
  0
SPLINE
  5
322
100
AcDbEntity
  8
0
100
AcDbSpline
 62
7
  6
BYLAYER
 70
0
 71
3
 72
17
 73
13
 74
0
 42
0.0000001
 43
0.0000001
 44
0.0000000001
 40
0.0
 40
0.0
 40
0.0
 40
0.0
 40
0.0894612408
 40
0.1384860325
 40
0.190230417
 40
0.2446333646
 40
0.3016372594
 40
0.4231765457
 40
0.5542578864
 40
0.6943206152
 40
0.842573807
 40
1.0
 40
1.0
 40
1.0
 40
1.0
 10
140.606570509
 20
100.4144717067
 30
0.0
 10
140.4395146442
 20
100.4165654343
 30
0.0
 10
140.1808933868
 20
100.4176963189
 30
0.0
 10
139.82562297
 20
100.417967831
 30
0.0
 10
139.5359165396
 20
100.4255519984
 30
0.0
 10
139.2314118066
 20
100.435994324
 30
0.0
 10
138.7964623939
 20
100.4448907713
 30
0.0
 10
138.2182283212
 20
100.4489259589
 30
0.0
 10
137.4850345387
 20
100.4588115722
 30
0.0
 10
136.7014912365
 20
100.4631326978
 30
0.0
 10
135.8703452406
 20
100.4569613843
 30
0.0
 10
135.2961325353
 20
100.4613232992
 30
0.0
 10
135.0058087447
 20
100.5076303887
 30
0.0
  0
SPLINE
  5
323
100
AcDbEntity
  8
0
100
AcDbSpline
 62
7
  6
BYLAYER
 70
0
 71
3
 72
9
 73
5
 74
0
 42
0.0000001
 43
0.0000001
 44
0.0000000001
 40
0.0
 40
0.0
 40
0.0
 40
0.0
 40
0.4591622156
 40
1.0
 40
1.0
 40
1.0
 40
1.0
 10
140.7141534607
 20
123.3033651113
 30
0.0
 10
140.3964101069
 20
123.0877343764
 30
0.0
 10
139.644590313
 20
122.7072551905
 30
0.0
 10
138.848271893
 20
122.4449435943
 30
0.0
 10
138.4111746109
 20
122.3286316387
 30
0.0
  0
SPLINE
  5
324
100
AcDbEntity
  8
0
100
AcDbSpline
 62
7
  6
BYLAYER
 70
0
 71
3
 72
11
 73
7
 74
0
 42
0.0000001
 43
0.0000001
 44
0.0000000001
 40
0.0
 40
0.0
 40
0.0
 40
0.0
 40
0.0659330745
 40
0.2599261485
 40
0.5751132554
 40
1.0
 40
1.0
 40
1.0
 40
1.0
 10
147.5636511421
 20
144.8523424975
 30
0.0
 10
147.4866411233
 20
144.7666920484
 30
0.0
 10
147.1753231618
 20
144.4360791841
 30
0.0
 10
146.4933254998
 20
143.6983759551
 30
0.0
 10
145.3763234548
 20
142.5088295353
 30
0.0
 10
144.4875475374
 20
141.5699176845
 30
0.0
 10
143.9753752812
 20
141.032692502
 30
0.0
  0
SPLINE
  5
325
100
AcDbEntity
  8
0
100
AcDbSpline
 62
7
  6
BYLAYER
 70
0
 71
3
 72
9
 73
5
 74
0
 42
0.0000001
 43
0.0000001
 44
0.0000000001
 40
0.0
 40
0.0
 40
0.0
 40
0.0
 40
0.460419194
 40
1.0
 40
1.0
 40
1.0
 40
1.0
 10
140.6722717504
 20
121.7133129829
 30
0.0
 10
140.3979637348
 20
121.5429354038
 30
0.0
 10
139.7612545479
 20
121.2392237243
 30
0.0
 10
139.0919770259
 20
121.0247512169
 30
0.0
 10
138.7261451163
 20
120.927905401
 30
0.0
  0
SPLINE
  5
326
100
AcDbEntity
  8
0
100
AcDbSpline
 62
7
  6
BYLAYER
 70
0
 71
3
 72
9
 73
5
 74
0
 42
0.0000001
 43
0.0000001
 44
0.0000000001
 40
0.0
 40
0.0
 40
0.0
 40
0.0
 40
0.2424791973
 40
1.0
 40
1.0
 40
1.0
 40
1.0
 10
142.1547906585
 20
119.1308135092
 30
0.0
 10
142.1179423119
 20
118.9587888182
 30
0.0
 10
141.9390857245
 20
118.2552644429
 30
0.0
 10
141.6590800777
 20
117.5783824847
 30
0.0
 10
141.4013339791
 20
117.0929598778
 30
0.0
  0
SPLINE
  5
327
100
AcDbEntity
  8
0
100
AcDbSpline
 62
7
  6
BYLAYER
 70
0
 71
3
 72
9
 73
5
 74
0
 42
0.0000001
 43
0.0000001
 44
0.0000000001
 40
0.0
 40
0.0
 40
0.0
 40
0.0
 40
0.2288391253
 40
1.0
 40
1.0
 40
1.0
 40
1.0
 10
143.0904619208
 20
118.4181413874
 30
0.0
 10
143.0343509483
 20
118.195245133
 30
0.0
 10
142.7146274306
 20
117.2398954507
 30
0.0
 10
142.1381506096
 20
116.3848892304
 30
0.0
 10
141.6272806969
 20
115.802679303
 30
0.0
  0
SPLINE
  5
328
100
AcDbEntity
  8
0
100
AcDbSpline
 62
7
  6
BYLAYER
 70
0
 71
3
 72
12
 73
8
 74
0
 42
0.0000001
 43
0.0000001
 44
0.0000000001
 40
0.0
 40
0.0
 40
0.0
 40
0.0
 40
0.3153390267
 40
0.5981641074
 40
0.719856617
 40
0.8265817632
 40
1.0
 40
1.0
 40
1.0
 40
1.0
 10
110.6771959774
 20
229.659201744
 30
0.0
 10
110.8628388445
 20
229.659201744
 30
0.0
 10
111.2156677686
 20
229.6269844228
 30
0.0
 10
111.6261639217
 20
229.5053474953
 30
0.0
 10
111.8903436074
 20
229.3573813597
 30
0.0
 10
112.0732352132
 20
229.2078324335
 30
0.0
 10
112.1633246591
 20
229.0530060745
 30
0.0
 10
112.1748017263
 20
228.9515603938
 30
0.0
  0
SPLINE
  5
329
100
AcDbEntity
  8
0
100
AcDbSpline
 62
7
  6
BYLAYER
 70
0
 71
3
 72
23
 73
19
 74
0
 42
0.0000001
 43
0.0000001
 44
0.0000000001
 40
0.0
 40
0.0
 40
0.0
 40
0.0
 40
0.0010223098
 40
0.0040833148
 40
0.0091789026
 40
0.0163049998
 40
0.0254575827
 40
0.0366326785
 40
0.0650347469
 40
0.1014735751
 40
0.1458868171
 40
0.1982119282
 40
0.2583943914
 40
0.3263465747
 40
0.4018294589
 40
0.5743864344
 40
0.7742842045
 40
1.0
 40
1.0
 40
1.0
 40
1.0
 10
144.8069489105
 20
113.6931264165
 30
0.0
 10
144.8072240583
 20
113.6944028038
 30
0.0
 10
144.7989700758
 20
113.6948873801
 30
0.0
 10
144.7917702138
 20
113.7015482788
 30
0.0
 10
144.7721841815
 20
113.7089424111
 30
0.0
 10
144.7483914124
 20
113.7210954659
 30
0.0
 10
144.7164394917
 20
113.7360873376
 30
0.0
 10
144.6605462516
 20
113.7632181665
 30
0.0
 10
144.5731932475
 20
113.8057558349
 30
0.0
 10
144.4482053602
 20
113.8677362795
 30
0.0
 10
144.2966064925
 20
113.9449079261
 30
0.0
 10
144.1192241084
 20
114.0382108985
 30
0.0
 10
143.9168440258
 20
114.1485301757
 30
0.0
 10
143.6905262767
 20
114.2766741475
 30
0.0
 10
143.3435113188
 20
114.4827975262
 30
0.0
 10
142.8628635371
 20
114.7936445474
 30
0.0
 10
142.2468389807
 20
115.2464726194
 30
0.0
 10
141.8358816837
 20
115.603682693
 30
0.0
 10
141.6272790762
 20
115.8026660844
 30
0.0
  0
SPLINE
  5
32A
100
AcDbEntity
  8
0
100
AcDbSpline
 62
7
  6
BYLAYER
 70
0
 71
3
 72
18
 73
14
 74
0
 42
0.0000001
 43
0.0000001
 44
0.0000000001
 40
0.0
 40
0.0
 40
0.0
 40
0.0
 40
0.0040765373
 40
0.0163094439
 40
0.0366966669
 40
0.065190311
 40
0.1017087039
 40
0.1461693938
 40
0.2585832662
 40
0.4015218397
 40
0.5737110985
 40
0.7737819103
 40
1.0
 40
1.0
 40
1.0
 40
1.0
 10
98.8772759735
 20
229.112347549
 30
0.0
 10
98.8734803703
 20
229.1139613843
 30
0.0
 10
98.9092654662
 20
229.1105568469
 30
0.0
 10
98.9277502351
 20
229.1148916569
 30
0.0
 10
99.000191405
 20
229.1140506723
 30
0.0
 10
99.0818930162
 20
229.1166692762
 30
0.0
 10
99.1944369274
 20
229.1185562651
 30
0.0
 10
99.3892055733
 20
229.1227597482
 30
0.0
 10
99.6930286423
 20
229.1291442638
 30
0.0
 10
100.1252453838
 20
229.138965914
 30
0.0
 10
100.6464323341
 20
229.1515326073
 30
0.0
 10
101.251712901
 20
229.1671992325
 30
0.0
 10
101.6828518764
 20
229.1792301561
 30
0.0
 10
101.9116324585
 20
229.1858648023
 30
0.0
  0
SPLINE
  5
32B
100
AcDbEntity
  8
0
100
AcDbSpline
 62
7
  6
BYLAYER
 70
0
 71
3
 72
9
 73
5
 74
0
 42
0.0000001
 43
0.0000001
 44
0.0000000001
 40
0.0
 40
0.0
 40
0.0
 40
0.0
 40
0.2524239739
 40
1.0
 40
1.0
 40
1.0
 40
1.0
 10
138.7261471508
 20
120.9279064581
 30
0.0
 10
138.708276161
 20
121.047434587
 30
0.0
 10
138.6272102652
 20
121.5194450847
 30
0.0
 10
138.5098389076
 20
121.9845720902
 30
0.0
 10
138.4111777072
 20
122.3286336421
 30
0.0
  0
SPLINE
  5
32C
100
AcDbEntity
  8
0
100
AcDbSpline
 62
7
  6
BYLAYER
 70
0
 71
3
 72
10
 73
6
 74
0
 42
0.0000001
 43
0.0000001
 44
0.0000000001
 40
0.0
 40
0.0
 40
0.0
 40
0.0
 40
0.2195502535
 40
0.4587135966
 40
1.0
 40
1.0
 40
1.0
 40
1.0
 10
141.4013465775
 20
117.0928427783
 30
0.0
 10
141.0720238193
 20
117.2227412122
 30
0.0
 10
140.4403031948
 20
117.6379191492
 30
0.0
 10
139.3553873255
 20
118.8399210104
 30
0.0
 10
138.8551837695
 20
120.0646866985
 30
0.0
 10
138.7261223897
 20
120.9278936058
 30
0.0
  0
SPLINE
  5
32D
100
AcDbEntity
  8
0
100
AcDbSpline
 62
7
  6
BYLAYER
 70
0
 71
3
 72
13
 73
9
 74
0
 42
0.0000001
 43
0.0000001
 44
0.0000000001
 40
0.0
 40
0.0
 40
0.0
 40
0.0
 40
0.1735985232
 40
0.2804199372
 40
0.4021261279
 40
0.5378294219
 40
0.6852003145
 40
1.0
 40
1.0
 40
1.0
 40
1.0
 10
109.1800682015
 20
228.9555925374
 30
0.0
 10
109.1926060315
 20
229.0568433703
 30
0.0
 10
109.2837547823
 20
229.2106492633
 30
0.0
 10
109.4670188497
 20
229.3593019927
 30
0.0
 10
109.6551209008
 20
229.4642578945
 30
0.0
 10
109.8780184668
 20
229.5489803302
 30
0.0
 10
110.2193596766
 20
229.6347377503
 30
0.0
 10
110.4921876516
 20
229.659201744
 30
0.0
 10
110.6771959774
 20
229.659201744
 30
0.0
  0
SPLINE
  5
32E
100
AcDbEntity
  8
0
100
AcDbSpline
 62
7
  6
BYLAYER
 70
0
 71
3
 72
26
 73
22
 74
0
 42
0.0000001
 43
0.0000001
 44
0.0000000001
 40
0.0
 40
0.0
 40
0.0
 40
0.0
 40
0.1115679003
 40
0.2180642009
 40
0.3192472289
 40
0.4148135079
 40
0.5043447066
 40
0.5874177302
 40
0.6636987583
 40
0.732799119
 40
0.7944676152
 40
0.8484565663
 40
0.8944602732
 40
0.9322985802
 40
0.9618533332
 40
0.9734868271
 40
0.9830076863
 40
0.9904103684
 40
0.9956932337
 40
0.9988644926
 40
1.0
 40
1.0
 40
1.0
 40
1.0
 10
135.0431080062
 20
100.9024327377
 30
0.0
 10
135.30910264
 20
100.9104991406
 30
0.0
 10
135.8288152766
 20
100.9314465
 30
0.0
 10
136.5901539176
 20
100.9504955809
 30
0.0
 10
137.3135001408
 20
100.9472188896
 30
0.0
 10
137.9963509266
 20
100.9513562898
 30
0.0
 10
138.6358940985
 20
100.963353129
 30
0.0
 10
139.2294850064
 20
100.9728337829
 30
0.0
 10
139.7744258501
 20
100.972131881
 30
0.0
 10
140.2682397788
 20
100.9794901007
 30
0.0
 10
140.7089054801
 20
100.9855423114
 30
0.0
 10
141.0945067461
 20
100.9838942839
 30
0.0
 10
141.4232857737
 20
100.9837970024
 30
0.0
 10
141.693709013
 20
100.9827794198
 30
0.0
 10
141.8823111131
 20
100.9781885547
 30
0.0
 10
142.0029512567
 20
100.9734420642
 30
0.0
 10
142.0714475042
 20
100.9700019895
 30
0.0
 10
142.1230932222
 20
100.9663503213
 30
0.0
 10
142.1634434344
 20
100.9624798379
 30
0.0
 10
142.1812276927
 20
100.9586827221
 30
0.0
 10
142.1962276056
 20
100.9555228103
 30
0.0
 10
142.1957430238
 20
100.9528580473
 30
0.0
  0
SPLINE
  5
32F
100
AcDbEntity
  8
0
100
AcDbSpline
 62
7
  6
BYLAYER
 70
0
 71
3
 72
8
 73
4
 74
0
 42
0.0000001
 43
0.0000001
 44
0.0000000001
 40
0.0
 40
0.0
 40
0.0
 40
0.0
 40
1.0
 40
1.0
 40
1.0
 40
1.0
 10
135.0090462617
 20
100.8992449325
 30
0.0
 10
135.020438694
 20
100.8997355858
 30
0.0
 10
135.0318159433
 20
100.90083464
 30
0.0
 10
135.0431063706
 20
100.9024329222
 30
0.0
  0
SPLINE
  5
330
100
AcDbEntity
  8
0
100
AcDbSpline
 62
7
  6
BYLAYER
 70
0
 71
3
 72
14
 73
10
 74
0
 42
0.0000001
 43
0.0000001
 44
0.0000000001
 40
0.0
 40
0.0
 40
0.0
 40
0.0
 40
0.1168735059
 40
0.2382231033
 40
0.3626480075
 40
0.489024964
 40
0.6164932499
 40
0.7444838662
 40
1.0
 40
1.0
 40
1.0
 40
1.0
 10
138.4115033989
 20
122.3288278492
 30
0.0
 10
138.2392417925
 20
122.9844467497
 30
0.0
 10
138.0048734651
 20
124.3550826465
 30
0.0
 10
138.008606285
 20
126.4643597321
 30
0.0
 10
138.2063336172
 20
128.6151707482
 30
0.0
 10
138.5396426055
 20
130.7846917281
 30
0.0
 10
138.9628117412
 20
132.9589143332
 30
0.0
 10
139.6109565438
 20
135.8511184656
 30
0.0
 10
140.153451973
 20
138.0085558279
 30
0.0
 10
140.5207758186
 20
139.4443182382
 30
0.0
  0
SPLINE
  5
331
100
AcDbEntity
  8
0
100
AcDbSpline
 62
7
  6
BYLAYER
 70
0
 71
3
 72
9
 73
5
 74
0
 42
0.0000001
 43
0.0000001
 44
0.0000000001
 40
0.0
 40
0.0
 40
0.0
 40
0.0
 40
0.2805422003
 40
1.0
 40
1.0
 40
1.0
 40
1.0
 10
135.4119443131
 20
121.8473265721
 30
0.0
 10
135.6947757473
 20
121.8748212665
 30
0.0
 10
136.7011598313
 20
121.9899581066
 30
0.0
 10
137.7009763564
 20
122.1648105757
 30
0.0
 10
138.4111514886
 20
122.328287304
 30
0.0
  0
SPLINE
  5
332
100
AcDbEntity
  8
0
100
AcDbSpline
 62
7
  6
BYLAYER
 70
0
 71
3
 72
9
 73
5
 74
0
 42
0.0000001
 43
0.0000001
 44
0.0000000001
 40
0.0
 40
0.0
 40
0.0
 40
0.0
 40
0.2583387657
 40
1.0
 40
1.0
 40
1.0
 40
1.0
 10
135.8140183186
 20
139.499083509
 30
0.0
 10
135.7779028723
 20
137.9790867826
 30
0.0
 10
135.639982253
 20
132.0953074936
 30
0.0
 10
135.508182907
 20
126.2113866113
 30
0.0
 10
135.4117457576
 20
121.8474826163
 30
0.0
  0
SPLINE
  5
333
100
AcDbEntity
  8
0
100
AcDbSpline
 62
7
  6
BYLAYER
 70
0
 71
3
 72
8
 73
4
 74
0
 42
0.0000001
 43
0.0000001
 44
0.0000000001
 40
0.0
 40
0.0
 40
0.0
 40
0.0
 40
1.0
 40
1.0
 40
1.0
 40
1.0
 10
135.8172805788
 20
139.8075379298
 30
0.0
 10
135.8165521282
 20
139.704721724
 30
0.0
 10
135.816269426
 20
139.6018982731
 30
0.0
 10
135.8145766336
 20
139.4990934227
 30
0.0
  0
SPLINE
  5
334
100
AcDbEntity
  8
0
100
AcDbSpline
 62
7
  6
BYLAYER
 70
0
 71
3
 72
14
 73
10
 74
0
 42
0.0000001
 43
0.0000001
 44
0.0000000001
 40
0.0
 40
0.0
 40
0.0
 40
0.0
 40
0.3058375335
 40
0.4582923395
 40
0.600441966
 40
0.7260801716
 40
0.8330714674
 40
0.9224322131
 40
1.0
 40
1.0
 40
1.0
 40
1.0
 10
135.0058103673
 20
31.566881436
 30
0.0
 10
135.0228011582
 20
30.959025553
 30
0.0
 10
134.9673029153
 20
30.0415323385
 30
0.0
 10
134.7015362372
 20
28.8755555365
 30
0.0
 10
134.4146700033
 20
28.0874095705
 30
0.0
 10
134.0442681744
 20
27.4362814582
 30
0.0
 10
133.6181097211
 20
26.950099052
 30
0.0
 10
133.1518109555
 20
26.6522258377
 30
0.0
 10
132.820399402
 20
26.5761872498
 30
0.0
 10
132.6662808229
 20
26.5704012581
 30
0.0
  0
SPLINE
  5
335
100
AcDbEntity
  8
0
100
AcDbSpline
 62
7
  6
BYLAYER
 70
0
 71
3
 72
9
 73
5
 74
0
 42
0.0000001
 43
0.0000001
 44
0.0000000001
 40
0.0
 40
0.0
 40
0.0
 40
0.0
 40
0.2202016146
 40
1.0
 40
1.0
 40
1.0
 40
1.0
 10
143.206326194
 20
141.0767188944
 30
0.0
 10
143.1591095868
 20
141.1147355051
 30
0.0
 10
142.9433904478
 20
141.28577491
 30
0.0
 10
142.7240962173
 20
141.4522198988
 30
0.0
 10
142.5540378657
 20
141.5832286766
 30
0.0
  0
SPLINE
  5
336
100
AcDbEntity
  8
0
100
AcDbSpline
 62
7
  6
BYLAYER
 70
0
 71
3
 72
9
 73
5
 74
0
 42
0.0000001
 43
0.0000001
 44
0.0000000001
 40
0.0
 40
0.0
 40
0.0
 40
0.0
 40
0.243114943
 40
1.0
 40
1.0
 40
1.0
 40
1.0
 10
132.2289312849
 20
26.5539821935
 30
0.0
 10
132.2580459165
 20
26.5550752193
 30
0.0
 10
132.3776216828
 20
26.5637593759
 30
0.0
 10
132.4958500546
 20
26.5895156086
 30
0.0
 10
132.582178086
 20
26.6173549073
 30
0.0
  0
SPLINE
  5
337
100
AcDbEntity
  8
0
100
AcDbSpline
 62
7
  6
BYLAYER
 70
0
 71
3
 72
14
 73
10
 74
0
 42
0.0000001
 43
0.0000001
 44
0.0000000001
 40
0.0
 40
0.0
 40
0.0
 40
0.0
 40
0.0823985958
 40
0.1788028437
 40
0.2914878352
 40
0.4196636684
 40
0.5603139045
 40
0.7077471923
 40
1.0
 40
1.0
 40
1.0
 40
1.0
 10
132.582178086
 20
26.6173549073
 30
0.0
 10
132.7287914778
 20
26.6646351933
 30
0.0
 10
133.0310117521
 20
26.8207968687
 30
0.0
 10
133.4309087606
 20
27.1984346954
 30
0.0
 10
133.7924666366
 20
27.719359078
 30
0.0
 10
134.0964927605
 20
28.3675823757
 30
0.0
 10
134.3296722609
 20
29.1120620815
 30
0.0
 10
134.5407568453
 20
30.1777907934
 30
0.0
 10
134.5837277608
 20
31.0042940674
 30
0.0
 10
134.5684608292
 20
31.5504623715
 30
0.0
  0
SPLINE
  5
338
100
AcDbEntity
  8
0
100
AcDbSpline
 62
7
  6
BYLAYER
 70
0
 71
3
 72
23
 73
19
 74
0
 42
0.0000001
 43
0.0000001
 44
0.0000000001
 40
0.0
 40
0.0
 40
0.0
 40
0.0
 40
0.0012309139
 40
0.0048525832
 40
0.0108695579
 40
0.0192711488
 40
0.0300353996
 40
0.043138328
 40
0.076228975
 40
0.1182249653
 40
0.1687202838
 40
0.2272264005
 40
0.2931734337
 40
0.3659197796
 40
0.4447712413
 40
0.617691944
 40
0.8052436875
 40
1.0
 40
1.0
 40
1.0
 40
1.0
 10
112.0771959774
 20
25.7974416849
 30
0.0
 10
112.0751408663
 20
25.7974416849
 30
0.0
 10
112.0772608507
 20
25.8101962504
 30
0.0
 10
112.073335239
 20
25.8238300248
 30
0.0
 10
112.0738314882
 20
25.8564732885
 30
0.0
 10
112.0719738868
 20
25.8973825825
 30
0.0
 10
112.0710198555
 20
25.9516758597
 30
0.0
 10
112.0688750216
 20
26.04654594
 30
0.0
 10
112.0658595615
 20
26.1938854744
 30
0.0
 10
112.0610105815
 20
26.4034429736
 30
0.0
 10
112.0541587412
 20
26.6554728828
 30
0.0
 10
112.0456079385
 20
26.947430938
 30
0.0
 10
112.0370411312
 20
27.2765669201
 30
0.0
 10
112.0319469517
 20
27.6397450147
 30
0.0
 10
112.0257269909
 20
28.1815156618
 30
0.0
 10
112.0032610133
 20
28.9147943277
 30
0.0
 10
111.9509598204
 20
29.8402231207
 30
0.0
 10
112.0077809201
 20
30.481547102
 30
0.0
 10
112.0771959713
 20
30.7992129131
 30
0.0
  0
SPLINE
  5
339
100
AcDbEntity
  8
0
100
AcDbSpline
 62
7
  6
BYLAYER
 70
0
 71
3
 72
9
 73
5
 74
0
 42
0.0000001
 43
0.0000001
 44
0.0000000001
 40
0.0
 40
0.0
 40
0.0
 40
0.0
 40
0.2403440824
 40
1.0
 40
1.0
 40
1.0
 40
1.0
 10
142.5845579235
 20
142.8441634862
 30
0.0
 10
142.5981999312
 20
142.7438193853
 30
0.0
 10
142.6362522585
 20
142.3238949752
 30
0.0
 10
142.6079335197
 20
141.8987341757
 30
0.0
 10
142.5540372792
 20
141.5832291405
 30
0.0
  0
SPLINE
  5
33A
100
AcDbEntity
  8
0
100
AcDbSpline
 62
7
  6
BYLAYER
 70
0
 71
3
 72
9
 73
5
 74
0
 42
0.0000001
 43
0.0000001
 44
0.0000000001
 40
0.0
 40
0.0
 40
0.0
 40
0.0
 40
0.7514346565
 40
1.0
 40
1.0
 40
1.0
 40
1.0
 10
143.1280055081
 20
142.2427760216
 30
0.0
 10
143.1930813295
 20
141.9566874347
 30
0.0
 10
143.2345155062
 20
141.5635122482
 30
0.0
 10
143.2151434803
 20
141.1733796034
 30
0.0
 10
143.206315249
 20
141.0767299885
 30
0.0
  0
SPLINE
  5
33B
100
AcDbEntity
  8
0
100
AcDbSpline
 62
7
  6
BYLAYER
 70
0
 71
3
 72
13
 73
9
 74
0
 42
0.0000001
 43
0.0000001
 44
0.0000000001
 40
0.0
 40
0.0
 40
0.0
 40
0.0
 40
0.3282320104
 40
0.4699067181
 40
0.5964152942
 40
0.814721957
 40
0.9112696392
 40
1.0
 40
1.0
 40
1.0
 40
1.0
 10
140.6722717504
 20
121.7133129829
 30
0.0
 10
140.6617655927
 20
121.3658554454
 30
0.0
 10
140.7046705315
 20
120.8591989816
 30
0.0
 10
140.9280837231
 20
120.2647961085
 30
0.0
 10
141.1959009654
 20
119.8218854666
 30
0.0
 10
141.5319768169
 20
119.485424677
 30
0.0
 10
141.8895447341
 20
119.2503574079
 30
0.0
 10
142.0666435101
 20
119.1634812924
 30
0.0
 10
142.1547627815
 20
119.1308401034
 30
0.0
  0
SPLINE
  5
33C
100
AcDbEntity
  8
0
100
AcDbSpline
 62
7
  6
BYLAYER
 70
0
 71
3
 72
9
 73
5
 74
0
 42
0.0000001
 43
0.0000001
 44
0.0000000001
 40
0.0
 40
0.0
 40
0.0
 40
0.0
 40
0.4963857704
 40
1.0
 40
1.0
 40
1.0
 40
1.0
 10
142.154767108
 20
119.1309388277
 30
0.0
 10
142.3374108325
 20
119.0603667661
 30
0.0
 10
142.6741088694
 20
118.8402910718
 30
0.0
 10
142.955053713
 20
118.5632073338
 30
0.0
 10
143.0905656947
 20
118.4179476283
 30
0.0
  0
SPLINE
  5
33D
100
AcDbEntity
  8
0
100
AcDbSpline
 62
7
  6
BYLAYER
 70
0
 71
3
 72
14
 73
10
 74
0
 42
0.0000001
 43
0.0000001
 44
0.0000000001
 40
0.0
 40
0.0
 40
0.0
 40
0.0
 40
0.4565645405
 40
0.626055963
 40
0.7620811384
 40
0.866637157
 40
0.9408216513
 40
0.9851921803
 40
1.0
 40
1.0
 40
1.0
 40
1.0
 10
143.0905643697
 20
118.4179083415
 30
0.0
 10
143.288377869
 20
118.2049104606
 30
0.0
 10
143.6045178486
 20
117.9516600351
 30
0.0
 10
144.028412302
 20
117.7153454387
 30
0.0
 10
144.2654717069
 20
117.6054378869
 30
0.0
 10
144.451296372
 20
117.5302111812
 30
0.0
 10
144.5855329937
 20
117.4835788631
 30
0.0
 10
144.6651519555
 20
117.4542504151
 30
0.0
 10
144.7019720924
 20
117.445224112
 30
0.0
 10
144.7105774212
 20
117.4413727805
 30
0.0
  0
SPLINE
  5
33E
100
AcDbEntity
  8
0
100
AcDbSpline
 62
7
  6
BYLAYER
 70
0
 71
3
 72
16
 73
12
 74
0
 42
0.0000001
 43
0.0000001
 44
0.0000000001
 40
0.0
 40
0.0
 40
0.0
 40
0.0
 40
0.1719280366
 40
0.3372336407
 40
0.4902762911
 40
0.6283357109
 40
0.7502435437
 40
0.854499274
 40
0.9380812218
 40
0.9717035763
 40
1.0
 40
1.0
 40
1.0
 40
1.0
 10
141.6272010424
 20
115.8026880764
 30
0.0
 10
141.4612197767
 20
115.0428960162
 30
0.0
 10
141.1939058373
 20
113.53798581
 30
0.0
 10
141.0736167591
 20
111.3168211426
 30
0.0
 10
141.2332522973
 20
109.2538761786
 30
0.0
 10
141.5427768836
 20
107.4102397778
 30
0.0
 10
141.8911010345
 20
105.7996792633
 30
0.0
 10
142.1846487305
 20
104.4301191422
 30
0.0
 10
142.3581911439
 20
103.4418489757
 30
0.0
 10
142.4064066131
 20
102.7849242452
 30
0.0
 10
142.3963642981
 20
102.5038100528
 30
0.0
 10
142.3794837229
 20
102.3769301512
 30
0.0
  0
SPLINE
  5
33F
100
AcDbEntity
  8
0
100
AcDbSpline
 62
7
  6
BYLAYER
 70
0
 71
3
 72
9
 73
5
 74
0
 42
0.0000001
 43
0.0000001
 44
0.0000000001
 40
0.0
 40
0.0
 40
0.0
 40
0.0
 40
0.4114476276
 40
1.0
 40
1.0
 40
1.0
 40
1.0
 10
142.3794818767
 20
102.3769219594
 30
0.0
 10
142.3781556261
 20
102.3669533821
 30
0.0
 10
142.374608392
 20
102.3427837604
 30
0.0
 10
142.37256936
 20
102.3183388807
 30
0.0
 10
142.3695611338
 20
102.3042718102
 30
0.0
  0
SPLINE
  5
340
100
AcDbEntity
  8
0
100
AcDbSpline
 62
7
  6
BYLAYER
 70
0
 71
3
 72
9
 73
5
 74
0
 42
0.0000001
 43
0.0000001
 44
0.0000000001
 40
0.0
 40
0.0
 40
0.0
 40
0.0
 40
0.5208804639
 40
1.0
 40
1.0
 40
1.0
 40
1.0
 10
141.6272586835
 20
115.8026806463
 30
0.0
 10
141.600781729
 20
116.0287761537
 30
0.0
 10
141.5465477172
 20
116.4619652844
 30
0.0
 10
141.4647752636
 20
116.8934240847
 30
0.0
 10
141.4013394076
 20
117.092973459
 30
0.0
  0
SPLINE
  5
341
100
AcDbEntity
  8
0
100
AcDbSpline
 62
7
  6
BYLAYER
 70
0
 71
3
 72
9
 73
5
 74
0
 42
0.0000001
 43
0.0000001
 44
0.0000000001
 40
0.0
 40
0.0
 40
0.0
 40
0.0
 40
0.2389064115
 40
1.0
 40
1.0
 40
1.0
 40
1.0
 10
141.5928585159
 20
143.7098287137
 30
0.0
 10
141.6921711327
 20
143.5538690847
 30
0.0
 10
142.0621683317
 20
142.8726168537
 30
0.0
 10
142.2622250074
 20
142.1027969144
 30
0.0
 10
142.3158051191
 20
141.5162095149
 30
0.0
  0
SPLINE
  5
342
100
AcDbEntity
  8
0
100
AcDbSpline
 62
7
  6
BYLAYER
 70
0
 71
3
 72
12
 73
8
 74
0
 42
0.0000001
 43
0.0000001
 44
0.0000000001
 40
0.0
 40
0.0
 40
0.0
 40
0.0
 40
0.2514065665
 40
0.5093791193
 40
0.6350428491
 40
0.7560567524
 40
1.0
 40
1.0
 40
1.0
 40
1.0
 10
142.3159475019
 20
141.5162306086
 30
0.0
 10
142.3359561634
 20
141.5234004888
 30
0.0
 10
142.3773986699
 20
141.5362288943
 30
0.0
 10
142.4230787159
 20
141.5647054143
 30
0.0
 10
142.4612132327
 20
141.5845010519
 30
0.0
 10
142.5027878058
 20
141.5912131425
 30
0.0
 10
142.5336439738
 20
141.586463196
 30
0.0
 10
142.5540122817
 20
141.5832286766
 30
0.0
  0
SPLINE
  5
343
100
AcDbEntity
  8
0
100
AcDbSpline
 62
7
  6
BYLAYER
 70
0
 71
3
 72
9
 73
5
 74
0
 42
0.0000001
 43
0.0000001
 44
0.0000000001
 40
0.0
 40
0.0
 40
0.0
 40
0.0
 40
0.4784255741
 40
1.0
 40
1.0
 40
1.0
 40
1.0
 10
137.0198250645
 20
143.9333814839
 30
0.0
 10
136.854204424
 20
143.5652335732
 30
0.0
 10
136.4734249961
 20
142.8113088868
 30
0.0
 10
136.0497517397
 20
142.0811097453
 30
0.0
 10
135.818300699
 20
141.7067915695
 30
0.0
  0
SPLINE
  5
344
100
AcDbEntity
  8
0
100
AcDbSpline
 62
7
  6
BYLAYER
 70
0
 71
3
 72
10
 73
6
 74
0
 42
0.0000001
 43
0.0000001
 44
0.0000000001
 40
0.0
 40
0.0
 40
0.0
 40
0.0
 40
0.2345748686
 40
0.4827449311
 40
1.0
 40
1.0
 40
1.0
 40
1.0
 10
140.5249862872
 20
139.8610530036
 30
0.0
 10
140.7385972113
 20
139.8654677455
 30
0.0
 10
141.1673499757
 20
140.0430765157
 30
0.0
 10
141.8620673214
 20
140.6319106505
 30
0.0
 10
142.2894476006
 20
141.1933547569
 30
0.0
 10
142.5541423097
 20
141.5830968038
 30
0.0
  0
SPLINE
  5
345
100
AcDbEntity
  8
0
100
AcDbSpline
 62
7
  6
BYLAYER
 70
0
 71
3
 72
11
 73
7
 74
0
 42
0.0000001
 43
0.0000001
 44
0.0000000001
 40
0.0
 40
0.0
 40
0.0
 40
0.0
 40
0.2130735471
 40
0.4463074025
 40
0.7083687537
 40
1.0
 40
1.0
 40
1.0
 40
1.0
 10
142.3159668133
 20
141.5162551472
 30
0.0
 10
141.8512694489
 20
141.4568323778
 30
0.0
 10
140.88637212
 20
141.2774621746
 30
0.0
 10
139.3390748315
 20
141.0744651985
 30
0.0
 10
137.6000210753
 20
141.1336274563
 30
0.0
 10
136.4064973758
 20
141.451511652
 30
0.0
 10
135.8183055837
 20
141.7068036319
 30
0.0
  0
SPLINE
  5
346
100
AcDbEntity
  8
0
100
AcDbSpline
 62
7
  6
BYLAYER
 70
0
 71
3
 72
15
 73
11
 74
0
 42
0.0000001
 43
0.0000001
 44
0.0000000001
 40
0.0
 40
0.0
 40
0.0
 40
0.0
 40
0.3742467624
 40
0.5430440151
 40
0.691444763
 40
0.8141451451
 40
0.9071397386
 40
0.9417597212
 40
0.9683780343
 40
1.0
 40
1.0
 40
1.0
 40
1.0
 10
109.4077805282
 20
30.6900078183
 30
0.0
 10
109.3343512895
 20
30.0828431888
 30
0.0
 10
109.2465303129
 20
29.1993094454
 30
0.0
 10
109.1812284068
 20
28.0710260935
 30
0.0
 10
109.1633210463
 20
27.3524197143
 30
0.0
 10
109.1759315913
 20
26.7566245519
 30
0.0
 10
109.2103124367
 20
26.3500809589
 30
0.0
 10
109.2595547044
 20
26.0997358323
 30
0.0
 10
109.3027099561
 20
25.9602332446
 30
0.0
 10
109.357739103
 20
25.861073986
 30
0.0
 10
109.4077805311
 20
25.8481789724
 30
0.0
  0
SPLINE
  5
347
100
AcDbEntity
  8
0
100
AcDbSpline
 62
7
  6
BYLAYER
 70
0
 71
3
 72
9
 73
5
 74
0
 42
0.0000001
 43
0.0000001
 44
0.0000000001
 40
0.0
 40
0.0
 40
0.0
 40
0.0
 40
0.2389793616
 40
1.0
 40
1.0
 40
1.0
 40
1.0
 10
133.2084180252
 20
121.6340115238
 30
0.0
 10
133.3320300427
 20
119.9766497969
 30
0.0
 10
133.8285474416
 20
113.0399355574
 30
0.0
 10
134.2575151824
 20
106.0985285759
 30
0.0
 10
134.5622400907
 20
100.8148443055
 30
0.0
  0
SPLINE
  5
348
100
AcDbEntity
  8
0
100
AcDbSpline
 62
7
  6
BYLAYER
 70
0
 71
3
 72
8
 73
4
 74
0
 42
0.0000001
 43
0.0000001
 44
0.0000000001
 40
0.0
 40
0.0
 40
0.0
 40
0.0
 40
1.0
 40
1.0
 40
1.0
 40
1.0
 10
134.6010971104
 20
100.8228125446
 30
0.0
 10
134.736926219
 20
100.8491055668
 30
0.0
 10
134.8726724637
 20
100.875968328
 30
0.0
 10
135.0090552555
 20
100.8992192173
 30
0.0
  0
SPLINE
  5
349
100
AcDbEntity
  8
0
100
AcDbSpline
 62
7
  6
BYLAYER
 70
0
 71
3
 72
9
 73
5
 74
0
 42
0.0000001
 43
0.0000001
 44
0.0000000001
 40
0.0
 40
0.0
 40
0.0
 40
0.0
 40
0.5421700695
 40
1.0
 40
1.0
 40
1.0
 40
1.0
 10
143.1270391002
 20
142.2438041689
 30
0.0
 10
143.3251852746
 20
142.0618979793
 30
0.0
 10
143.6549242251
 20
141.6853744832
 30
0.0
 10
143.8960940585
 20
141.2455592245
 30
0.0
 10
143.9753861053
 20
141.0327089136
 30
0.0
  0
SPLINE
  5
34A
100
AcDbEntity
  8
0
100
AcDbSpline
 62
7
  6
BYLAYER
 70
0
 71
3
 72
9
 73
5
 74
0
 42
0.0000001
 43
0.0000001
 44
0.0000000001
 40
0.0
 40
0.0
 40
0.0
 40
0.0
 40
0.5193562843
 40
1.0
 40
1.0
 40
1.0
 40
1.0
 10
142.5845863582
 20
142.8441334709
 30
0.0
 10
142.6818472434
 20
142.7433177515
 30
0.0
 10
142.8615383247
 20
142.542250382
 30
0.0
 10
143.033459418
 20
142.3334300449
 30
0.0
 10
143.1270159976
 20
142.2436846529
 30
0.0
  0
SPLINE
  5
34B
100
AcDbEntity
  8
0
100
AcDbSpline
 62
7
  6
BYLAYER
 70
0
 71
3
 72
11
 73
7
 74
0
 42
0.0000001
 43
0.0000001
 44
0.0000000001
 40
0.0
 40
0.0
 40
0.0
 40
0.0
 40
0.2524835444
 40
0.5049539353
 40
0.7553293937
 40
1.0
 40
1.0
 40
1.0
 40
1.0
 10
141.5929280428
 20
143.7097853881
 30
0.0
 10
141.6872462608
 20
143.6511441516
 30
0.0
 10
141.8713293989
 20
143.5257817538
 30
0.0
 10
142.1203334772
 20
143.3049914066
 30
0.0
 10
142.3546717252
 20
143.0744114918
 30
0.0
 10
142.509859579
 20
142.9215870746
 30
0.0
 10
142.5845863582
 20
142.8441334709
 30
0.0
  0
SPLINE
  5
34C
100
AcDbEntity
  8
0
100
AcDbSpline
 62
7
  6
BYLAYER
 70
0
 71
3
 72
11
 73
7
 74
0
 42
0.0000001
 43
0.0000001
 44
0.0000000001
 40
0.0
 40
0.0
 40
0.0
 40
0.0
 40
0.2696381055
 40
0.5285028799
 40
0.7740498428
 40
1.0
 40
1.0
 40
1.0
 40
1.0
 10
137.0198250645
 20
143.9333814839
 30
0.0
 10
137.4117064242
 20
143.7926501978
 30
0.0
 10
138.2101062751
 20
143.5993573917
 30
0.0
 10
139.4024869791
 20
143.4862501151
 30
0.0
 10
140.5323285873
 20
143.5059360348
 30
0.0
 10
141.2560580536
 20
143.6189647116
 30
0.0
 10
141.5929449511
 20
143.7098085082
 30
0.0
  0
SPLINE
  5
34D
100
AcDbEntity
  8
0
100
AcDbSpline
 62
7
  6
BYLAYER
 70
0
 71
3
 72
8
 73
4
 74
0
 42
0.0000001
 43
0.0000001
 44
0.0000000001
 40
0.0
 40
0.0
 40
0.0
 40
0.0
 40
1.0
 40
1.0
 40
1.0
 40
1.0
 10
90.9985802973
 20
121.196168289
 30
0.0
 10
91.4589539501
 20
120.7881810111
 30
0.0
 10
91.9401720664
 20
120.4005498516
 30
0.0
 10
92.450472335
 20
120.0570514456
 30
0.0
  0
SPLINE
  5
34E
100
AcDbEntity
  8
0
100
AcDbSpline
 62
7
  6
BYLAYER
 70
0
 71
3
 72
17
 73
13
 74
0
 42
0.0000001
 43
0.0000001
 44
0.0000000001
 40
0.0
 40
0.0
 40
0.0
 40
0.0
 40
0.0653300365
 40
0.1300130327
 40
0.1941672113
 40
0.2579075069
 40
0.3846636086
 40
0.510730398
 40
0.635926869
 40
0.7599877088
 40
0.8821154862
 40
1.0
 40
1.0
 40
1.0
 40
1.0
 10
92.450472335
 20
120.0570514456
 30
0.0
 10
92.7527931935
 20
119.8635176505
 30
0.0
 10
93.2863618442
 20
119.372975797
 30
0.0
 10
93.9199931775
 20
118.5100678786
 30
0.0
 10
94.4035081375
 20
117.5647972407
 30
0.0
 10
94.9055870817
 20
116.2570818646
 30
0.0
 10
95.338797716
 20
114.5679160009
 30
0.0
 10
95.7087423969
 20
112.5239929989
 30
0.0
 10
96.0202383849
 20
110.4851750699
 30
0.0
 10
96.3059900514
 20
108.4647974445
 30
0.0
 10
96.5699362677
 20
106.4814116082
 30
0.0
 10
96.6809737263
 20
105.1670056324
 30
0.0
 10
96.7354133662
 20
104.5215711663
 30
0.0
  0
LINE
  5
34F
100
AcDbEntity
  8
0
100
AcDbLine
 62
7
  6
BYLAYER
 10
96.7354133662
 20
104.5215711663
 11
96.7469250166
 21
104.3851730259
  0
SPLINE
  5
350
100
AcDbEntity
  8
0
100
AcDbSpline
 62
7
  6
BYLAYER
 70
0
 71
3
 72
9
 73
5
 74
0
 42
0.0000001
 43
0.0000001
 44
0.0000000001
 40
0.0
 40
0.0
 40
0.0
 40
0.0
 40
0.2432228333
 40
1.0
 40
1.0
 40
1.0
 40
1.0
 10
96.7469250166
 20
104.3851730259
 30
0.0
 10
96.7647456723
 20
104.3802270198
 30
0.0
 10
96.8378602455
 20
104.3593362833
 30
0.0
 10
96.9103860984
 20
104.3364147953
 30
0.0
 10
96.9649856352
 20
104.3182427814
 30
0.0
  0
SPLINE
  5
351
100
AcDbEntity
  8
0
100
AcDbSpline
 62
7
  6
BYLAYER
 70
0
 71
3
 72
14
 73
10
 74
0
 42
0.0000001
 43
0.0000001
 44
0.0000000001
 40
0.0
 40
0.0
 40
0.0
 40
0.0
 40
0.1047059769
 40
0.219371661
 40
0.3406720199
 40
0.4670123809
 40
0.5971146861
 40
0.7298053145
 40
1.0
 40
1.0
 40
1.0
 40
1.0
 10
96.9649856352
 20
104.3182427814
 30
0.0
 10
97.1721795317
 20
104.2492837646
 30
0.0
 10
97.5981001799
 20
104.0810979144
 30
0.0
 10
98.2525865746
 20
103.8049202898
 30
0.0
 10
98.9424716205
 20
103.4963573958
 30
0.0
 10
99.6513996233
 20
103.152588747
 30
0.0
 10
100.3745877703
 20
102.7842426696
 30
0.0
 10
101.3662898431
 20
102.28250244
 30
0.0
 10
102.1176651809
 20
101.9047584189
 30
0.0
 10
102.6055847294
 20
101.6228580006
 30
0.0
  0
SPLINE
  5
352
100
AcDbEntity
  8
0
100
AcDbSpline
 62
7
  6
BYLAYER
 70
0
 71
3
 72
9
 73
5
 74
0
 42
0.0000001
 43
0.0000001
 44
0.0000000001
 40
0.0
 40
0.0
 40
0.0
 40
0.0
 40
0.2462618802
 40
1.0
 40
1.0
 40
1.0
 40
1.0
 10
90.998581523
 20
121.1961698026
 30
0.0
 10
91.139607349
 20
121.1783477332
 30
0.0
 10
91.7129699044
 20
121.1114805484
 30
0.0
 10
92.2883294648
 20
121.0627527241
 30
0.0
 10
92.7223330731
 20
121.0322617741
 30
0.0
  0
SPLINE
  5
353
100
AcDbEntity
  8
0
100
AcDbSpline
 62
7
  6
BYLAYER
 70
0
 71
3
 72
13
 73
9
 74
0
 42
0.0000001
 43
0.0000001
 44
0.0000000001
 40
0.0
 40
0.0
 40
0.0
 40
0.0
 40
0.2568096072
 40
0.3842867438
 40
0.5109261928
 40
0.636312375
 40
0.7599781142
 40
1.0
 40
1.0
 40
1.0
 40
1.0
 10
88.1370931185
 20
129.448165467
 30
0.0
 10
88.2112502218
 20
128.8589069605
 30
0.0
 10
88.3391570631
 20
127.9791802056
 30
0.0
 10
88.5398216313
 20
126.8147208998
 30
0.0
 10
88.7024615485
 20
125.9522542488
 30
0.0
 10
88.8652993093
 20
125.0988122647
 30
0.0
 10
89.0619413802
 20
123.9849315587
 30
0.0
 10
89.1865511029
 20
123.1530049554
 30
0.0
 10
89.2643921125
 20
122.6034074022
 30
0.0
  0
SPLINE
  5
354
100
AcDbEntity
  8
0
100
AcDbSpline
 62
7
  6
BYLAYER
 70
0
 71
3
 72
9
 73
5
 74
0
 42
0.0000001
 43
0.0000001
 44
0.0000000001
 40
0.0
 40
0.0
 40
0.0
 40
0.0
 40
0.2499791426
 40
1.0
 40
1.0
 40
1.0
 40
1.0
 10
77.7616818046
 20
192.9335061197
 30
0.0
 10
78.4369231742
 20
188.4939407408
 30
0.0
 10
81.1377376349
 20
170.7341403076
 30
0.0
 10
83.8363459568
 20
152.974004285
 30
0.0
 10
85.8585279105
 20
139.6532539828
 30
0.0
  0
SPLINE
  5
355
100
AcDbEntity
  8
0
100
AcDbSpline
 62
7
  6
BYLAYER
 70
0
 71
3
 72
9
 73
5
 74
0
 42
0.0000001
 43
0.0000001
 44
0.0000000001
 40
0.0
 40
0.0
 40
0.0
 40
0.0
 40
0.2529988583
 40
1.0
 40
1.0
 40
1.0
 40
1.0
 10
135.5353061699
 20
144.6664127154
 30
0.0
 10
135.6504428269
 20
144.5869887734
 30
0.0
 10
136.1196847959
 20
144.2934769647
 30
0.0
 10
136.6307497331
 20
144.0718740023
 30
0.0
 10
137.0198250645
 20
143.9333814839
 30
0.0
  0
SPLINE
  5
356
100
AcDbEntity
  8
0
100
AcDbSpline
 62
7
  6
BYLAYER
 70
0
 71
3
 72
11
 73
7
 74
0
 42
0.0000001
 43
0.0000001
 44
0.0000000001
 40
0.0
 40
0.0
 40
0.0
 40
0.0
 40
0.2517249995
 40
0.5029180406
 40
0.7525945324
 40
1.0
 40
1.0
 40
1.0
 40
1.0
 10
85.8585150355
 20
139.6532542003
 30
0.0
 10
86.1278068629
 20
138.8171874038
 30
0.0
 10
86.6170124797
 20
137.1309857372
 30
0.0
 10
87.2427674445
 20
134.5798871551
 30
0.0
 10
87.7526445475
 20
132.018076199
 30
0.0
 10
88.0128385907
 20
130.3028502867
 30
0.0
 10
88.1374870828
 20
129.448603619
 30
0.0
  0
SPLINE
  5
357
100
AcDbEntity
  8
0
100
AcDbSpline
 62
7
  6
BYLAYER
 70
0
 71
3
 72
18
 73
14
 74
0
 42
0.0000001
 43
0.0000001
 44
0.0000000001
 40
0.0
 40
0.0
 40
0.0
 40
0.0
 40
0.1203198189
 40
0.2408605414
 40
0.3625222879
 40
0.4860023762
 40
0.6118187487
 40
0.6758202922
 40
0.7406144453
 40
0.8061166905
 40
0.8717447355
 40
0.9365237403
 40
1.0
 40
1.0
 40
1.0
 40
1.0
 10
138.4267695433
 20
156.2818415956
 30
0.0
 10
138.1376287466
 20
155.8412554617
 30
0.0
 10
137.5637940215
 20
154.9559699438
 30
0.0
 10
136.7246345585
 20
153.607911894
 30
0.0
 10
135.9158717637
 20
152.22495723
 30
0.0
 10
135.1624914874
 20
150.7847831488
 30
0.0
 10
134.6227504974
 20
149.5194452374
 30
0.0
 10
134.3045048335
 20
148.4490222042
 30
0.0
 10
134.156128361
 20
147.6083688007
 30
0.0
 10
134.1559267741
 20
146.7436003769
 30
0.0
 10
134.3857701981
 20
145.9021667485
 30
0.0
 10
134.8711601693
 20
145.1880741679
 30
0.0
 10
135.3064542349
 20
144.8242800992
 30
0.0
 10
135.5353061699
 20
144.6664127154
 30
0.0
  0
SPLINE
  5
358
100
AcDbEntity
  8
0
100
AcDbSpline
 62
7
  6
BYLAYER
 70
0
 71
3
 72
10
 73
6
 74
0
 42
0.0000001
 43
0.0000001
 44
0.0000000001
 40
0.0
 40
0.0
 40
0.0
 40
0.0
 40
0.4739246626
 40
0.7398724314
 40
1.0
 40
1.0
 40
1.0
 40
1.0
 10
92.7223317247
 20
121.0324032792
 30
0.0
 10
95.3561472082
 20
120.8372086448
 30
0.0
 10
99.4714086744
 20
120.5761800449
 30
0.0
 10
105.0384748841
 20
120.3233354744
 30
0.0
 10
107.9684164333
 20
120.2218669537
 30
0.0
 10
109.4172726712
 20
120.1750587434
 30
0.0
  0
SPLINE
  5
359
100
AcDbEntity
  8
0
100
AcDbSpline
 62
7
  6
BYLAYER
 70
0
 71
3
 72
10
 73
6
 74
0
 42
0.0000001
 43
0.0000001
 44
0.0000000001
 40
0.0
 40
0.0
 40
0.0
 40
0.0
 40
0.2499972013
 40
0.6250015104
 40
1.0
 40
1.0
 40
1.0
 40
1.0
 10
111.92719602
 20
139.6557304519
 30
0.0
 10
111.8230542301
 20
139.6534280546
 30
0.0
 10
111.5626140262
 20
139.6525485567
 30
0.0
 10
111.1459475315
 20
139.6513281388
 30
0.0
 10
110.8334479539
 20
139.6549082625
 30
0.0
 10
110.6771959774
 20
139.6549082625
 30
0.0
  0
SPLINE
  5
35A
100
AcDbEntity
  8
0
100
AcDbSpline
 62
7
  6
BYLAYER
 70
0
 71
3
 72
15
 73
11
 74
0
 42
0.0000001
 43
0.0000001
 44
0.0000000001
 40
0.0
 40
0.0
 40
0.0
 40
0.0
 40
0.1077821354
 40
0.1517712522
 40
0.2034855013
 40
0.3289811334
 40
0.4804978402
 40
0.6493218713
 40
0.8255370906
 40
1.0
 40
1.0
 40
1.0
 40
1.0
 10
103.0561481321
 20
27.4849105658
 30
0.0
 10
102.8819011329
 20
27.5298117109
 30
0.0
 10
102.7381905415
 20
27.8111205673
 30
0.0
 10
102.6605529337
 20
28.13185164
 30
0.0
 10
102.6035950071
 20
28.5000440646
 30
0.0
 10
102.5814475098
 20
29.048136252
 30
0.0
 10
102.6191578545
 20
29.7927293328
 30
0.0
 10
102.7149864128
 20
30.6164740018
 30
0.0
 10
102.8624056484
 20
31.4715510879
 30
0.0
 10
102.9877364585
 20
32.0436267822
 30
0.0
 10
103.0561481321
 20
32.3267394131
 30
0.0
  0
SPLINE
  5
35B
100
AcDbEntity
  8
0
100
AcDbSpline
 62
7
  6
BYLAYER
 70
0
 71
3
 72
11
 73
7
 74
0
 42
0.0000001
 43
0.0000001
 44
0.0000000001
 40
0.0
 40
0.0
 40
0.0
 40
0.0
 40
0.1756846423
 40
0.4118262254
 40
0.6937489565
 40
1.0
 40
1.0
 40
1.0
 40
1.0
 10
138.4267695434
 20
156.2818415959
 30
0.0
 10
138.1803021955
 20
156.4651789772
 30
0.0
 10
137.5763332524
 20
156.8591023677
 30
0.0
 10
136.5261937394
 20
157.4664533187
 30
0.0
 10
135.2517992435
 20
158.1404072839
 30
0.0
 10
134.3293104969
 20
158.5952134375
 30
0.0
 10
133.8462534824
 20
158.8262625094
 30
0.0
  0
SPLINE
  5
35C
100
AcDbEntity
  8
0
100
AcDbSpline
 62
7
  6
BYLAYER
 70
0
 71
3
 72
11
 73
7
 74
0
 42
0.0000001
 43
0.0000001
 44
0.0000000001
 40
0.0
 40
0.0
 40
0.0
 40
0.0
 40
0.2413420139
 40
0.4916311235
 40
0.7476598315
 40
1.0
 40
1.0
 40
1.0
 40
1.0
 10
135.8182815792
 20
141.7067606478
 30
0.0
 10
135.3139836261
 20
142.0409694403
 30
0.0
 10
134.3211113302
 20
142.7783595174
 30
0.0
 10
133.0428505538
 20
144.1740540453
 30
0.0
 10
132.1795807274
 20
145.8975624873
 30
0.0
 10
131.9182359077
 20
147.1564780204
 30
0.0
 10
131.8429291915
 20
147.7845384238
 30
0.0
  0
SPLINE
  5
35D
100
AcDbEntity
  8
0
100
AcDbSpline
 62
7
  6
BYLAYER
 70
0
 71
3
 72
8
 73
4
 74
0
 42
0.0000001
 43
0.0000001
 44
0.0000000001
 40
0.0
 40
0.0
 40
0.0
 40
0.0
 40
1.0
 40
1.0
 40
1.0
 40
1.0
 10
131.8437933163
 20
147.7845436064
 30
0.0
 10
131.7572386687
 20
148.8836252708
 30
0.0
 10
131.7736716971
 20
149.9916926792
 30
0.0
 10
131.8429695188
 20
151.0919971934
 30
0.0
  0
SPLINE
  5
35E
100
AcDbEntity
  8
0
100
AcDbSpline
 62
7
  6
BYLAYER
 70
0
 71
3
 72
21
 73
17
 74
0
 42
0.0000001
 43
0.0000001
 44
0.0000000001
 40
0.0
 40
0.0
 40
0.0
 40
0.0
 40
0.0628018056
 40
0.1255178491
 40
0.1881330955
 40
0.2506453493
 40
0.3754550191
 40
0.5000778526
 40
0.5622804979
 40
0.6244913076
 40
0.6867771164
 40
0.7490394049
 40
0.8111435087
 40
0.873267052
 40
0.9364484807
 40
1.0
 40
1.0
 40
1.0
 40
1.0
 10
116.0484712221
 20
139.6583684371
 30
0.0
 10
116.3791749019
 20
139.6618870905
 30
0.0
 10
117.0394656828
 20
139.6974790625
 30
0.0
 10
118.0296924694
 20
139.7282268011
 30
0.0
 10
119.0187026962
 20
139.749199324
 30
0.0
 10
120.3347608401
 20
139.7685783575
 30
0.0
 10
121.9774305897
 20
139.7850667147
 30
0.0
 10
123.6185175689
 20
139.7940259035
 30
0.0
 10
124.9299627671
 20
139.8000408703
 30
0.0
 10
125.9131315407
 20
139.8039763899
 30
0.0
 10
126.8966441067
 20
139.8073483519
 30
0.0
 10
127.879522061
 20
139.7982281206
 30
0.0
 10
128.8616770926
 20
139.791439944
 30
0.0
 10
129.8483312399
 20
139.8120148133
 30
0.0
 10
130.8430529881
 20
139.8349961367
 30
0.0
 10
131.5099565864
 20
139.7980941312
 30
0.0
 10
131.8446176362
 20
139.7955808009
 30
0.0
  0
SPLINE
  5
35F
100
AcDbEntity
  8
0
100
AcDbSpline
 62
7
  6
BYLAYER
 70
0
 71
3
 72
14
 73
10
 74
0
 42
0.0000001
 43
0.0000001
 44
0.0000000001
 40
0.0
 40
0.0
 40
0.0
 40
0.0
 40
0.1253500108
 40
0.2506019187
 40
0.3756756287
 40
0.5007352212
 40
0.6256751356
 40
0.7505177838
 40
1.0
 40
1.0
 40
1.0
 40
1.0
 10
111.9271959987
 20
139.655730452
 30
0.0
 10
112.0994151245
 20
139.6571778667
 30
0.0
 10
112.4438351625
 20
139.6600127434
 30
0.0
 10
112.9595631865
 20
139.6372110076
 30
0.0
 10
113.4755019506
 20
139.6310841964
 30
0.0
 10
113.9904584747
 20
139.6530390181
 30
0.0
 10
114.5054199269
 20
139.6639107976
 30
0.0
 10
115.1913714463
 20
139.6583335027
 30
0.0
 10
115.7057944588
 20
139.6500396765
 30
0.0
 10
116.0484718037
 20
139.6583131862
 30
0.0
  0
SPLINE
  5
360
100
AcDbEntity
  8
0
100
AcDbSpline
 62
7
  6
BYLAYER
 70
0
 71
3
 72
9
 73
5
 74
0
 42
0.0000001
 43
0.0000001
 44
0.0000000001
 40
0.0
 40
0.0
 40
0.0
 40
0.0
 40
0.2212377141
 40
1.0
 40
1.0
 40
1.0
 40
1.0
 10
142.4134401588
 20
208.1723731596
 30
0.0
 10
141.9432737447
 20
208.1682890387
 30
0.0
 10
139.8181034708
 20
208.1505585731
 30
0.0
 10
137.6929153734
 20
208.1350193832
 30
0.0
 10
136.0378944497
 20
208.1236503298
 30
0.0
  0
SPLINE
  5
361
100
AcDbEntity
  8
0
100
AcDbSpline
 62
7
  6
BYLAYER
 70
0
 71
3
 72
19
 73
15
 74
0
 42
0.0000001
 43
0.0000001
 44
0.0000000001
 40
0.0
 40
0.0
 40
0.0
 40
0.0
 40
0.1386887386
 40
0.2842900161
 40
0.433646972
 40
0.578889272
 40
0.6454580653
 40
0.7051936287
 40
0.7579367486
 40
0.8057992422
 40
0.8519046454
 40
0.8988325598
 40
0.948016632
 40
1.0
 40
1.0
 40
1.0
 40
1.0
 10
141.2212492355
 20
215.3054785733
 30
0.0
 10
141.5659285202
 20
215.0220160625
 30
0.0
 10
142.2389274673
 20
214.3994879577
 30
0.0
 10
143.1615344958
 20
213.348766518
 30
0.0
 10
143.9589407516
 20
212.1736139858
 30
0.0
 10
144.4338638885
 20
211.0982438112
 30
0.0
 10
144.5934529876
 20
210.2346137527
 30
0.0
 10
144.5807005871
 20
209.6533644262
 30
0.0
 10
144.4331680349
 20
209.1512598079
 30
0.0
 10
144.1626741551
 20
208.7545844075
 30
0.0
 10
143.7998081083
 20
208.4724072496
 30
0.0
 10
143.3751364588
 20
208.2917709371
 30
0.0
 10
142.9065839618
 20
208.1937347521
 30
0.0
 10
142.5806995144
 20
208.1737960659
 30
0.0
 10
142.4134356117
 20
208.1723431513
 30
0.0
  0
SPLINE
  5
362
100
AcDbEntity
  8
0
100
AcDbSpline
 62
7
  6
BYLAYER
 70
0
 71
3
 72
11
 73
7
 74
0
 42
0.0000001
 43
0.0000001
 44
0.0000000001
 40
0.0
 40
0.0
 40
0.0
 40
0.0
 40
0.1746974405
 40
0.3862399351
 40
0.656761171
 40
1.0
 40
1.0
 40
1.0
 40
1.0
 10
141.1977607132
 20
216.372644737
 30
0.0
 10
141.2436098398
 20
216.3267947052
 30
0.0
 10
141.3192336121
 20
216.1986271078
 30
0.0
 10
141.3536220697
 20
215.9534989544
 30
0.0
 10
141.3213559033
 20
215.6470598759
 30
0.0
 10
141.2609082991
 20
215.426592792
 30
0.0
 10
141.2211889727
 20
215.3055454997
 30
0.0
  0
SPLINE
  5
363
100
AcDbEntity
  8
0
100
AcDbSpline
 62
7
  6
BYLAYER
 70
0
 71
3
 72
10
 73
6
 74
0
 42
0.0000001
 43
0.0000001
 44
0.0000000001
 40
0.0
 40
0.0
 40
0.0
 40
0.0
 40
0.1182745071
 40
0.338114336
 40
1.0
 40
1.0
 40
1.0
 40
1.0
 10
135.9270097982
 20
208.5157526921
 30
0.0
 10
135.9436712991
 20
208.5157695229
 30
0.0
 10
135.9820091579
 20
208.4744916635
 30
0.0
 10
136.0255060629
 20
208.3450026832
 30
0.0
 10
136.0373493319
 20
208.2168726043
 30
0.0
 10
136.0378580189
 20
208.1236331536
 30
0.0
  0
SPLINE
  5
364
100
AcDbEntity
  8
0
100
AcDbSpline
 62
7
  6
BYLAYER
 70
0
 71
3
 72
11
 73
7
 74
0
 42
0.0000001
 43
0.0000001
 44
0.0000000001
 40
0.0
 40
0.0
 40
0.0
 40
0.0
 40
0.2157692581
 40
0.4351217203
 40
0.6955939969
 40
1.0
 40
1.0
 40
1.0
 40
1.0
 10
142.1371289305
 20
208.5156397064
 30
0.0
 10
142.1715226532
 20
208.5156460969
 30
0.0
 10
142.2417338904
 20
208.495929886
 30
0.0
 10
142.3263077762
 20
208.4204616908
 30
0.0
 10
142.3881839641
 20
208.3096905324
 30
0.0
 10
142.4085740051
 20
208.2206274069
 30
0.0
 10
142.4134351327
 20
208.1723490593
 30
0.0
  0
SPLINE
  5
365
100
AcDbEntity
  8
0
100
AcDbSpline
 62
7
  6
BYLAYER
 70
0
 71
3
 72
11
 73
7
 74
0
 42
0.0000001
 43
0.0000001
 44
0.0000000001
 40
0.0
 40
0.0
 40
0.0
 40
0.0
 40
0.2868551046
 40
0.5438776808
 40
0.7757596547
 40
1.0
 40
1.0
 40
1.0
 40
1.0
 10
137.2644301166
 20
217.1146677524
 30
0.0
 10
137.2926970165
 20
217.048856581
 30
0.0
 10
137.3173018321
 20
216.9102514808
 30
0.0
 10
137.2774707132
 20
216.7167894606
 30
0.0
 10
137.1751662419
 20
216.5637136693
 30
0.0
 10
137.0600358947
 20
216.5157871097
 30
0.0
 10
137.0040452847
 20
216.5157554565
 30
0.0
  0
SPLINE
  5
366
100
AcDbEntity
  8
0
100
AcDbSpline
 62
7
  6
BYLAYER
 70
0
 71
3
 72
10
 73
6
 74
0
 42
0.0000001
 43
0.0000001
 44
0.0000000001
 40
0.0
 40
0.0
 40
0.0
 40
0.0
 40
0.5397790808
 40
0.795779561
 40
1.0
 40
1.0
 40
1.0
 40
1.0
 10
140.9376725868
 20
214.8270584866
 30
0.0
 10
141.0175470272
 20
214.8914409665
 30
0.0
 10
141.1191019989
 20
215.0092216106
 30
0.0
 10
141.2050746819
 20
215.1782570189
 30
0.0
 10
141.2254241848
 20
215.2668430216
 30
0.0
 10
141.2212952773
 20
215.3054373643
 30
0.0
  0
SPLINE
  5
367
100
AcDbEntity
  8
0
100
AcDbSpline
 62
7
  6
BYLAYER
 70
0
 71
3
 72
11
 73
7
 74
0
 42
0.0000001
 43
0.0000001
 44
0.0000000001
 40
0.0
 40
0.0
 40
0.0
 40
0.0
 40
0.2110266883
 40
0.4405670477
 40
0.7033348184
 40
1.0
 40
1.0
 40
1.0
 40
1.0
 10
135.800468536
 20
216.5157581824
 30
0.0
 10
135.8498085548
 20
216.5158148585
 30
0.0
 10
135.9529555392
 20
216.5631085539
 30
0.0
 10
136.0425439299
 20
216.706706992
 30
0.0
 10
136.08203368
 20
216.8897167917
 30
0.0
 10
136.066280666
 20
217.0231908715
 30
0.0
 10
136.0448066873
 20
217.089146269
 30
0.0
  0
SPLINE
  5
368
100
AcDbEntity
  8
0
100
AcDbSpline
 62
7
  6
BYLAYER
 70
0
 71
3
 72
9
 73
5
 74
0
 42
0.0000001
 43
0.0000001
 44
0.0000000001
 40
0.0
 40
0.0
 40
0.0
 40
0.0
 40
0.2216792418
 40
1.0
 40
1.0
 40
1.0
 40
1.0
 10
142.2245693521
 20
101.3530813871
 30
0.0
 10
142.2276327995
 20
101.4135587645
 30
0.0
 10
142.2313026715
 20
101.686890637
 30
0.0
 10
142.2033597842
 20
101.9597398213
 30
0.0
 10
142.1734690879
 20
102.1702378358
 30
0.0
  0
SPLINE
  5
369
100
AcDbEntity
  8
0
100
AcDbSpline
 62
7
  6
BYLAYER
 70
0
 71
3
 72
15
 73
11
 74
0
 42
0.0000001
 43
0.0000001
 44
0.0000000001
 40
0.0
 40
0.0
 40
0.0
 40
0.0
 40
0.0848037201
 40
0.1878058759
 40
0.3044440817
 40
0.4314680177
 40
0.566764309
 40
0.7080034026
 40
0.853009127
 40
1.0
 40
1.0
 40
1.0
 40
1.0
 10
142.1615138102
 20
102.2514602735
 30
0.0
 10
142.0975565587
 20
102.6716730527
 30
0.0
 10
141.8977164937
 20
103.5925926602
 30
0.0
 10
141.5450151955
 20
105.0767339124
 30
0.0
 10
141.1656742236
 20
106.7727016238
 30
0.0
 10
140.8404020594
 20
108.6454273874
 30
0.0
 10
140.6615218405
 20
110.6633012099
 30
0.0
 10
140.6897137039
 20
112.7799738397
 30
0.0
 10
140.9425214329
 20
114.9397811183
 30
0.0
 10
141.2309502026
 20
116.3761973769
 30
0.0
 10
141.4014359041
 20
117.0929462681
 30
0.0
  0
SPLINE
  5
36A
100
AcDbEntity
  8
0
100
AcDbSpline
 62
7
  6
BYLAYER
 70
0
 71
3
 72
10
 73
6
 74
0
 42
0.0000001
 43
0.0000001
 44
0.0000000001
 40
0.0
 40
0.0
 40
0.0
 40
0.0
 40
0.4736479951
 40
0.7162648186
 40
1.0
 40
1.0
 40
1.0
 40
1.0
 10
122.9299867832
 20
219.4664612826
 30
0.0
 10
121.1929913125
 20
219.4314373351
 30
0.0
 10
118.566172621
 20
219.3818721147
 30
0.0
 10
114.8985854424
 20
219.3266476914
 30
0.0
 10
112.9679412518
 20
219.3082673131
 30
0.0
 10
111.9271959987
 20
219.308267313
 30
0.0
  0
SPLINE
  5
36B
100
AcDbEntity
  8
0
100
AcDbSpline
 62
7
  6
BYLAYER
 70
0
 71
3
 72
9
 73
5
 74
0
 42
0.0000001
 43
0.0000001
 44
0.0000000001
 40
0.0
 40
0.0
 40
0.0
 40
0.0
 40
0.2492239755
 40
1.0
 40
1.0
 40
1.0
 40
1.0
 10
133.8462981805
 20
158.8262411299
 30
0.0
 10
134.0261630444
 20
159.2292850482
 30
0.0
 10
134.7207667418
 20
160.8586628483
 30
0.0
 10
135.3395150545
 20
162.5185367009
 30
0.0
 10
135.8183152867
 20
163.7588994021
 30
0.0
  0
SPLINE
  5
36C
100
AcDbEntity
  8
0
100
AcDbSpline
 62
7
  6
BYLAYER
 70
0
 71
3
 72
9
 73
5
 74
0
 42
0.0000001
 43
0.0000001
 44
0.0000000001
 40
0.0
 40
0.0
 40
0.0
 40
0.0
 40
0.4992664493
 40
1.0
 40
1.0
 40
1.0
 40
1.0
 10
131.8429401957
 20
151.0920001761
 30
0.0
 10
131.9689470469
 20
152.41972084
 30
0.0
 10
132.4484880441
 20
155.0588251553
 30
0.0
 10
133.3011428381
 20
157.6047702997
 30
0.0
 10
133.8462534824
 20
158.8262625093
 30
0.0
  0
SPLINE
  5
36D
100
AcDbEntity
  8
0
100
AcDbSpline
 62
7
  6
BYLAYER
 70
0
 71
3
 72
11
 73
7
 74
0
 42
0.0000001
 43
0.0000001
 44
0.0000000001
 40
0.0
 40
0.0
 40
0.0
 40
0.0
 40
0.1632831157
 40
0.3968493942
 40
0.6842862913
 40
1.0
 40
1.0
 40
1.0
 40
1.0
 10
140.7801711371
 20
161.350106407
 30
0.0
 10
140.532815796
 20
161.5208248882
 30
0.0
 10
139.8993602339
 20
161.8875857947
 30
0.0
 10
138.7761347257
 20
162.457291604
 30
0.0
 10
137.3763568298
 20
163.100694187
 30
0.0
 10
136.3552929835
 20
163.5367349344
 30
0.0
 10
135.8183152867
 20
163.7588994021
 30
0.0
  0
SPLINE
  5
36E
100
AcDbEntity
  8
0
100
AcDbSpline
 62
7
  6
BYLAYER
 70
0
 71
3
 72
27
 73
23
 74
0
 42
0.0000001
 43
0.0000001
 44
0.0000000001
 40
0.0
 40
0.0
 40
0.0
 40
0.0
 40
0.0094874509
 40
0.0162686033
 40
0.0192583532
 40
0.0224277386
 40
0.0303680122
 40
0.041398297
 40
0.055851202
 40
0.0736492964
 40
0.0945527811
 40
0.1182769023
 40
0.1445170827
 40
0.2034124913
 40
0.2691733062
 40
0.3402056768
 40
0.4152492519
 40
0.4934452309
 40
0.5741288784
 40
0.6567638116
 40
0.8263823585
 40
1.0
 40
1.0
 40
1.0
 40
1.0
 10
147.6771868694
 20
177.0708386024
 30
0.0
 10
147.6771880447
 20
177.1291965836
 30
0.0
 10
147.6712346361
 20
177.2295608525
 30
0.0
 10
147.618241027
 20
177.3431254158
 30
0.0
 10
147.5498628132
 20
177.3876470193
 30
0.0
 10
147.4635588878
 20
177.4061039227
 30
0.0
 10
147.3263629679
 20
177.3759780042
 30
0.0
 10
147.1424422291
 20
177.2837447066
 30
0.0
 10
146.922134293
 20
177.1328783384
 30
0.0
 10
146.668342146
 20
176.9265865395
 30
0.0
 10
146.3835220618
 20
176.6688163724
 30
0.0
 10
146.0713701656
 20
176.3644616964
 30
0.0
 10
145.6047358359
 20
175.8841416294
 30
0.0
 10
144.9789214466
 20
175.1984220163
 30
0.0
 10
144.1892557205
 20
174.2898822122
 30
0.0
 10
143.3507417825
 20
173.2924469254
 30
0.0
 10
142.4746887914
 20
172.2267840919
 30
0.0
 10
141.5706640693
 20
171.1073410576
 30
0.0
 10
140.6449281611
 20
169.9454634584
 30
0.0
 10
139.3753310756
 20
168.3385674175
 30
0.0
 10
137.7627676324
 20
166.2741366261
 30
0.0
 10
136.4726638383
 20
164.6028783152
 30
0.0
 10
135.8182987701
 20
163.7589054375
 30
0.0
  0
SPLINE
  5
36F
100
AcDbEntity
  8
0
100
AcDbSpline
 62
7
  6
BYLAYER
 70
0
 71
3
 72
9
 73
5
 74
0
 42
0.0000001
 43
0.0000001
 44
0.0000000001
 40
0.0
 40
0.0
 40
0.0
 40
0.0
 40
0.2512471479
 40
1.0
 40
1.0
 40
1.0
 40
1.0
 10
147.3404986398
 20
175.0263374467
 30
0.0
 10
147.3959944696
 20
175.1912072145
 30
0.0
 10
147.5901714923
 20
175.8560757737
 30
0.0
 10
147.6771978965
 20
176.5524377974
 30
0.0
 10
147.6771959773
 20
177.0708615897
 30
0.0
  0
SPLINE
  5
370
100
AcDbEntity
  8
0
100
AcDbSpline
 62
7
  6
BYLAYER
 70
0
 71
3
 72
9
 73
5
 74
0
 42
0.0000001
 43
0.0000001
 44
0.0000000001
 40
0.0
 40
0.0
 40
0.0
 40
0.0
 40
0.5420783967
 40
1.0
 40
1.0
 40
1.0
 40
1.0
 10
121.5076708057
 20
228.8737736722
 30
0.0
 10
121.8675855412
 20
228.8821016187
 30
0.0
 10
122.5312830043
 20
228.9090239676
 30
0.0
 10
123.1936344207
 20
228.9633630953
 30
0.0
 10
123.4955042636
 20
229.0002891451
 30
0.0
  0
SPLINE
  5
371
100
AcDbEntity
  8
0
100
AcDbSpline
 62
7
  6
BYLAYER
 70
0
 71
3
 72
10
 73
6
 74
0
 42
0.0000001
 43
0.0000001
 44
0.0000000001
 40
0.0
 40
0.0
 40
0.0
 40
0.0
 40
0.6661260217
 40
0.8861292562
 40
1.0
 40
1.0
 40
1.0
 40
1.0
 10
131.8429695188
 20
208.1157527366
 30
0.0
 10
131.8429695188
 20
208.2105738877
 30
0.0
 10
131.8319863294
 20
208.3412707209
 30
0.0
 10
131.7920130992
 20
208.4718382578
 30
0.0
 10
131.7556510784
 20
208.5157527366
 30
0.0
 10
131.7394419008
 20
208.5157527366
 30
0.0
  0
SPLINE
  5
372
100
AcDbEntity
  8
0
100
AcDbSpline
 62
7
  6
BYLAYER
 70
0
 71
3
 72
12
 73
8
 74
0
 42
0.0000001
 43
0.0000001
 44
0.0000000001
 40
0.0
 40
0.0
 40
0.0
 40
0.0
 40
0.1257824633
 40
0.2512196622
 40
0.5014532118
 40
0.7510234383
 40
1.0
 40
1.0
 40
1.0
 40
1.0
 10
111.9271959774
 20
228.7019921031
 30
0.0
 10
112.3289496427
 20
228.7020586185
 30
0.0
 10
113.1313177391
 20
228.7126280841
 30
0.0
 10
114.7328141926
 20
228.7344293613
 30
0.0
 10
116.729534715
 20
228.7711273462
 30
0.0
 10
119.1206670403
 20
228.8198138122
 30
0.0
 10
120.7126482147
 20
228.8553738875
 30
0.0
 10
121.5076754265
 20
228.8737697944
 30
0.0
  0
ELLIPSE
  5
373
100
AcDbEntity
  8
0
100
AcDbEllipse
 62
7
  6
BYLAYER
 10
90.0137934121
 20
30.8457527366
 30
0.0
 11
19.4034025653
 21
0.0
 31
0.0
 40
0.2576867631
 41
-0.0311540225
 42
0.0
  0
ENDSEC
  0
SECTION
  2
OBJECTS
  0
DICTIONARY
  5
C
100
AcDbDictionary
280
0
281
1
  3
ACAD_GROUP
350
D
  3
ACAD_MLINESTYLE
350
17
  3
ACAD_LAYOUT
350
1A
  3
ACAD_PLOTSETTINGS
350
19
  3
ACAD_PLOTSTYLENAME
350
E
  0
DICTIONARY
  5
D
102
{ACAD_REACTORS
330
C
102
}
100
AcDbDictionary
280
0
281
1
  0
ACDBDICTIONARYWDFLT
  5
E
102
{ACAD_REACTORS
330
C
102
}
100
AcDbDictionary
281
1
  3
Normal
350
F
100
AcDbDictionaryWithDefault
340
F
  0
DICTIONARY
  5
17
102
{ACAD_REACTORS
330
C
102
}
100
AcDbDictionary
280
0
281
1
  3
Standard
350
18
  0
DICTIONARY
  5
19
102
{ACAD_REACTORS
330
C
102
}
100
AcDbDictionary
281
1
  0
DICTIONARY
  5
1A
102
{ACAD_REACTORS
330
C
102
}
100
AcDbDictionary
281
1
  3
Model
350
374
  3
Layout1
350
375
  0
ACDBPLACEHOLDER
  5
F
102
{ACAD_REACTORS
330
E
102
}
  0
MLINESTYLE
  5
18
102
{ACAD_REACTORS
330
17
102
}
100
AcDbMlineStyle
  2
STANDARD
 70
0
  3

 62
256
 51
90.0
 52
90.0
 71
2
 49
0.5
 62
256
  6
BYLAYER
 49
-0.5
 62
256
  6
BYLAYER
  0
LAYOUT
  5
374
102
{ACAD_REACTORS
330
1A
102
}
100
AcDbPlotSettings
  1

  2
none_device
  4

  6

 40
0.0
 41
0.0
 42
0.0
 43
0.0
 44
210.0
 45
297.0
 46
0.0
 47
0.0
 48
0.0
 49
0.0
140
0.0
141
0.0
142
1.0
143
1.0
 70
1024
 72
1
 73
0
 74
0
  7

 75
0
147
1.0
148
0.0
149
0.0
100
AcDbLayout
  1
Model
 70
0
 71
0
 10
0.0
 20
0.0
 11
210.0
 21
297.0
 12
0.0
 22
0.0
 32
0.0
 14
0.0
 24
0.0
 34
0.0
 15
0.0
 25
0.0
 35
0.0
146
0.0
 13
0.0
 23
0.0
 33
0.0
 16
1.0
 26
0.0
 36
0.0
 17
0.0
 27
1.0
 37
0.0
 76
0
330
212
345
0
346
0
  0
LAYOUT
  5
375
102
{ACAD_REACTORS
330
1A
102
}
100
AcDbPlotSettings
  1

  2
none_device
  4

  6

 40
0.0
 41
0.0
 42
0.0
 43
0.0
 44
210.0
 45
297.0
 46
0.0
 47
0.0
 48
0.0
 49
0.0
140
0.0
141
0.0
142
1.0
143
1.0
 70
0
 72
1
 73
0
 74
0
  7

 75
0
147
1.0
148
0.0
149
0.0
100
AcDbLayout
  1
Layout1
 70
0
 71
1
 10
0.0
 20
0.0
 11
210.0
 21
297.0
 12
0.0
 22
0.0
 32
0.0
 14
0.0
 24
0.0
 34
0.0
 15
0.0
 25
0.0
 35
0.0
146
0.0
 13
0.0
 23
0.0
 33
0.0
 16
1.0
 26
0.0
 36
0.0
 17
0.0
 27
1.0
 37
0.0
 76
0
330
213
345
0
346
0
  0
ENDSEC
  0
EOF
