ISO-10303-21;
HEADER;
FILE_DESCRIPTION(('STEP AP242'),'1');
FILE_NAME('nsytlcu.stp','2021-09-26T20:29:12',('TraceParts'),('TraceParts S.A.'),'Spatial InterOp 3D',' ',' ');
FILE_SCHEMA(('AP242_MANAGED_MODEL_BASED_3D_ENGINEERING_MIM_LF  {1 0 10303 442 1 1 4}'));
ENDSEC;
DATA;
#1=PRODUCT_DEFINITION_CONTEXT('',#9,'design');
#2=APPLICATION_PROTOCOL_DEFINITION('INTERNATIONAL STANDARD','ap242_managed_model_based_3d_engineering',2014,#9);
#3=PRODUCT_CATEGORY_RELATIONSHIP('NONE','NONE',#10,#11);
#4=SHAPE_DEFINITION_REPRESENTATION(#12,#13);
#5= (GEOMETRIC_REPRESENTATION_CONTEXT(3)GLOBAL_UNCERTAINTY_ASSIGNED_CONTEXT((#16))GLOBAL_UNIT_ASSIGNED_CONTEXT((#18,#19,#20))REPRESENTATION_CONTEXT('NONE','WORKSPACE'));
#9=APPLICATION_CONTEXT('managed model based 3d engineering');
#10=PRODUCT_CATEGORY('part','NONE');
#11=PRODUCT_RELATED_PRODUCT_CATEGORY('detail',' ',(#22));
#12=PRODUCT_DEFINITION_SHAPE('NONE','NONE',#23);
#13=ADVANCED_BREP_SHAPE_REPRESENTATION('nsytlcu',(#24,#25),#5);
#16=UNCERTAINTY_MEASURE_WITH_UNIT(LENGTH_MEASURE(1.0E-06),#18,'','');
#18= (CONVERSION_BASED_UNIT('MILLIMETRE',#28)LENGTH_UNIT()NAMED_UNIT(#31));
#19= (NAMED_UNIT(#33)PLANE_ANGLE_UNIT()SI_UNIT($,.RADIAN.));
#20= (NAMED_UNIT(#33)SOLID_ANGLE_UNIT()SI_UNIT($,.STERADIAN.));
#22=PRODUCT('nsytlcu','nsytlcu','PART-nsytlcu-DESC',(#39));
#23=PRODUCT_DEFINITION('','NONE',#40,#1);
#24=MANIFOLD_SOLID_BREP('nsytlcu',#41);
#25=AXIS2_PLACEMENT_3D('',#42,#43,#44);
#28=LENGTH_MEASURE_WITH_UNIT(LENGTH_MEASURE(1.0),#45);
#31=DIMENSIONAL_EXPONENTS(1.0,0.0,0.0,0.0,0.0,0.0,0.0);
#33=DIMENSIONAL_EXPONENTS(0.0,0.0,0.0,0.0,0.0,0.0,0.0);
#39=PRODUCT_CONTEXT('',#9,'mechanical');
#40=PRODUCT_DEFINITION_FORMATION_WITH_SPECIFIED_SOURCE(' ','NONE',#22,.NOT_KNOWN.);
#41=CLOSED_SHELL('',(#46,#47,#48,#49,#50,#51,#52,#53,#54,#55,#56,#57,#58,#59,#60,#61,#62,#63,#64,#65,#66,#67));
#42=CARTESIAN_POINT('',(0.0,0.0,0.0));
#43=DIRECTION('',(0.0,0.0,1.0));
#44=DIRECTION('',(1.0,0.0,0.0));
#45= (NAMED_UNIT(#31)LENGTH_UNIT()SI_UNIT(.MILLI.,.METRE.));
#46=ADVANCED_FACE('',(#69,#70,#71,#72,#73,#74,#75),#76,.T.);
#47=ADVANCED_FACE('',(#77),#78,.F.);
#48=ADVANCED_FACE('',(#79,#80,#81,#82,#83,#84,#85),#86,.F.);
#49=ADVANCED_FACE('',(#87),#88,.T.);
#50=ADVANCED_FACE('',(#89),#90,.F.);
#51=ADVANCED_FACE('',(#91),#92,.T.);
#52=ADVANCED_FACE('',(#93),#94,.F.);
#53=ADVANCED_FACE('',(#95),#96,.T.);
#54=ADVANCED_FACE('',(#97),#98,.F.);
#55=ADVANCED_FACE('',(#99),#100,.T.);
#56=ADVANCED_FACE('',(#101),#102,.F.);
#57=ADVANCED_FACE('',(#103),#104,.F.);
#58=ADVANCED_FACE('',(#105),#106,.F.);
#59=ADVANCED_FACE('',(#107),#108,.F.);
#60=ADVANCED_FACE('',(#109),#110,.F.);
#61=ADVANCED_FACE('',(#111),#112,.F.);
#62=ADVANCED_FACE('',(#113),#114,.F.);
#63=ADVANCED_FACE('',(#115),#116,.F.);
#64=ADVANCED_FACE('',(#117),#118,.F.);
#65=ADVANCED_FACE('',(#119),#120,.F.);
#66=ADVANCED_FACE('',(#121),#122,.F.);
#67=ADVANCED_FACE('',(#123),#124,.F.);
#69=FACE_OUTER_BOUND('',#125,.T.);
#70=FACE_BOUND('',#126,.T.);
#71=FACE_BOUND('',#127,.T.);
#72=FACE_BOUND('',#128,.T.);
#73=FACE_BOUND('',#129,.T.);
#74=FACE_BOUND('',#130,.T.);
#75=FACE_BOUND('',#131,.T.);
#76=PLANE('',#132);
#77=FACE_OUTER_BOUND('',#133,.T.);
#78=PLANE('',#134);
#79=FACE_OUTER_BOUND('',#135,.T.);
#80=FACE_BOUND('',#136,.T.);
#81=FACE_BOUND('',#137,.T.);
#82=FACE_BOUND('',#138,.T.);
#83=FACE_BOUND('',#139,.T.);
#84=FACE_BOUND('',#140,.T.);
#85=FACE_BOUND('',#141,.T.);
#86=PLANE('',#142);
#87=FACE_OUTER_BOUND('',#143,.T.);
#88=CYLINDRICAL_SURFACE('',#144,25.0);
#89=FACE_OUTER_BOUND('',#145,.T.);
#90=PLANE('',#146);
#91=FACE_OUTER_BOUND('',#147,.T.);
#92=CYLINDRICAL_SURFACE('',#148,25.0);
#93=FACE_OUTER_BOUND('',#149,.T.);
#94=PLANE('',#150);
#95=FACE_OUTER_BOUND('',#151,.T.);
#96=CYLINDRICAL_SURFACE('',#152,25.0);
#97=FACE_OUTER_BOUND('',#153,.T.);
#98=PLANE('',#154);
#99=FACE_OUTER_BOUND('',#155,.T.);
#100=CYLINDRICAL_SURFACE('',#156,25.0);
#101=FACE_OUTER_BOUND('',#157,.T.);
#102=CYLINDRICAL_SURFACE('',#158,3.0);
#103=FACE_OUTER_BOUND('',#159,.T.);
#104=CYLINDRICAL_SURFACE('',#160,3.0);
#105=FACE_OUTER_BOUND('',#161,.T.);
#106=CYLINDRICAL_SURFACE('',#162,3.0);
#107=FACE_OUTER_BOUND('',#163,.T.);
#108=CYLINDRICAL_SURFACE('',#164,3.0);
#109=FACE_OUTER_BOUND('',#165,.T.);
#110=CYLINDRICAL_SURFACE('',#166,3.0);
#111=FACE_OUTER_BOUND('',#167,.T.);
#112=CYLINDRICAL_SURFACE('',#168,3.0);
#113=FACE_OUTER_BOUND('',#169,.T.);
#114=CYLINDRICAL_SURFACE('',#170,3.0);
#115=FACE_OUTER_BOUND('',#171,.T.);
#116=CYLINDRICAL_SURFACE('',#172,3.0);
#117=FACE_OUTER_BOUND('',#173,.T.);
#118=CYLINDRICAL_SURFACE('',#174,3.0);
#119=FACE_OUTER_BOUND('',#175,.T.);
#120=CYLINDRICAL_SURFACE('',#176,3.0);
#121=FACE_OUTER_BOUND('',#177,.T.);
#122=CYLINDRICAL_SURFACE('',#178,3.0);
#123=FACE_OUTER_BOUND('',#179,.T.);
#124=CYLINDRICAL_SURFACE('',#180,3.0);
#125=EDGE_LOOP('',(#181,#182,#183,#184,#185,#186,#187,#188));
#126=EDGE_LOOP('',(#189,#190));
#127=EDGE_LOOP('',(#191,#192));
#128=EDGE_LOOP('',(#193,#194));
#129=EDGE_LOOP('',(#195,#196));
#130=EDGE_LOOP('',(#197,#198));
#131=EDGE_LOOP('',(#199,#200));
#132=AXIS2_PLACEMENT_3D('',#201,#202,#203);
#133=EDGE_LOOP('',(#204,#205,#206,#207));
#134=AXIS2_PLACEMENT_3D('',#208,#209,#210);
#135=EDGE_LOOP('',(#211,#212,#213,#214,#215,#216,#217,#218));
#136=EDGE_LOOP('',(#219,#220));
#137=EDGE_LOOP('',(#221,#222));
#138=EDGE_LOOP('',(#223,#224));
#139=EDGE_LOOP('',(#225,#226));
#140=EDGE_LOOP('',(#227,#228));
#141=EDGE_LOOP('',(#229,#230));
#142=AXIS2_PLACEMENT_3D('',#231,#232,#233);
#143=EDGE_LOOP('',(#234,#235,#236,#237));
#144=AXIS2_PLACEMENT_3D('',#238,#239,#240);
#145=EDGE_LOOP('',(#241,#242,#243,#244));
#146=AXIS2_PLACEMENT_3D('',#245,#246,#247);
#147=EDGE_LOOP('',(#248,#249,#250,#251));
#148=AXIS2_PLACEMENT_3D('',#252,#253,#254);
#149=EDGE_LOOP('',(#255,#256,#257,#258));
#150=AXIS2_PLACEMENT_3D('',#259,#260,#261);
#151=EDGE_LOOP('',(#262,#263,#264,#265));
#152=AXIS2_PLACEMENT_3D('',#266,#267,#268);
#153=EDGE_LOOP('',(#269,#270,#271,#272));
#154=AXIS2_PLACEMENT_3D('',#273,#274,#275);
#155=EDGE_LOOP('',(#276,#277,#278,#279));
#156=AXIS2_PLACEMENT_3D('',#280,#281,#282);
#157=EDGE_LOOP('',(#283,#284,#285,#286));
#158=AXIS2_PLACEMENT_3D('',#287,#288,#289);
#159=EDGE_LOOP('',(#290,#291,#292,#293));
#160=AXIS2_PLACEMENT_3D('',#294,#295,#296);
#161=EDGE_LOOP('',(#297,#298,#299,#300));
#162=AXIS2_PLACEMENT_3D('',#301,#302,#303);
#163=EDGE_LOOP('',(#304,#305,#306,#307));
#164=AXIS2_PLACEMENT_3D('',#308,#309,#310);
#165=EDGE_LOOP('',(#311,#312,#313,#314));
#166=AXIS2_PLACEMENT_3D('',#315,#316,#317);
#167=EDGE_LOOP('',(#318,#319,#320,#321));
#168=AXIS2_PLACEMENT_3D('',#322,#323,#324);
#169=EDGE_LOOP('',(#325,#326,#327,#328));
#170=AXIS2_PLACEMENT_3D('',#329,#330,#331);
#171=EDGE_LOOP('',(#332,#333,#334,#335));
#172=AXIS2_PLACEMENT_3D('',#336,#337,#338);
#173=EDGE_LOOP('',(#339,#340,#341,#342));
#174=AXIS2_PLACEMENT_3D('',#343,#344,#345);
#175=EDGE_LOOP('',(#346,#347,#348,#349));
#176=AXIS2_PLACEMENT_3D('',#350,#351,#352);
#177=EDGE_LOOP('',(#353,#354,#355,#356));
#178=AXIS2_PLACEMENT_3D('',#357,#358,#359);
#179=EDGE_LOOP('',(#360,#361,#362,#363));
#180=AXIS2_PLACEMENT_3D('',#364,#365,#366);
#181=ORIENTED_EDGE('',*,*,#367,.T.);
#182=ORIENTED_EDGE('',*,*,#368,.T.);
#183=ORIENTED_EDGE('',*,*,#369,.T.);
#184=ORIENTED_EDGE('',*,*,#370,.T.);
#185=ORIENTED_EDGE('',*,*,#371,.T.);
#186=ORIENTED_EDGE('',*,*,#372,.T.);
#187=ORIENTED_EDGE('',*,*,#373,.T.);
#188=ORIENTED_EDGE('',*,*,#374,.T.);
#189=ORIENTED_EDGE('',*,*,#375,.F.);
#190=ORIENTED_EDGE('',*,*,#376,.F.);
#191=ORIENTED_EDGE('',*,*,#377,.F.);
#192=ORIENTED_EDGE('',*,*,#378,.F.);
#193=ORIENTED_EDGE('',*,*,#379,.F.);
#194=ORIENTED_EDGE('',*,*,#380,.F.);
#195=ORIENTED_EDGE('',*,*,#381,.T.);
#196=ORIENTED_EDGE('',*,*,#382,.T.);
#197=ORIENTED_EDGE('',*,*,#383,.T.);
#198=ORIENTED_EDGE('',*,*,#384,.T.);
#199=ORIENTED_EDGE('',*,*,#385,.T.);
#200=ORIENTED_EDGE('',*,*,#386,.T.);
#201=CARTESIAN_POINT('',(0.0,3.0,0.0));
#202=DIRECTION('',(-0.0,1.0,0.0));
#203=DIRECTION('',(1.0,0.0,0.0));
#204=ORIENTED_EDGE('',*,*,#387,.T.);
#205=ORIENTED_EDGE('',*,*,#374,.F.);
#206=ORIENTED_EDGE('',*,*,#388,.F.);
#207=ORIENTED_EDGE('',*,*,#389,.T.);
#208=CARTESIAN_POINT('',(-122.5,1.5,6.394884621841E-14));
#209=DIRECTION('',(1.0,0.0,0.0));
#210=DIRECTION('',(0.0,1.0,0.0));
#211=ORIENTED_EDGE('',*,*,#390,.F.);
#212=ORIENTED_EDGE('',*,*,#391,.F.);
#213=ORIENTED_EDGE('',*,*,#392,.F.);
#214=ORIENTED_EDGE('',*,*,#393,.F.);
#215=ORIENTED_EDGE('',*,*,#394,.F.);
#216=ORIENTED_EDGE('',*,*,#395,.F.);
#217=ORIENTED_EDGE('',*,*,#396,.F.);
#218=ORIENTED_EDGE('',*,*,#389,.F.);
#219=ORIENTED_EDGE('',*,*,#397,.T.);
#220=ORIENTED_EDGE('',*,*,#398,.T.);
#221=ORIENTED_EDGE('',*,*,#399,.T.);
#222=ORIENTED_EDGE('',*,*,#400,.T.);
#223=ORIENTED_EDGE('',*,*,#401,.T.);
#224=ORIENTED_EDGE('',*,*,#402,.T.);
#225=ORIENTED_EDGE('',*,*,#403,.F.);
#226=ORIENTED_EDGE('',*,*,#404,.F.);
#227=ORIENTED_EDGE('',*,*,#405,.F.);
#228=ORIENTED_EDGE('',*,*,#406,.F.);
#229=ORIENTED_EDGE('',*,*,#407,.F.);
#230=ORIENTED_EDGE('',*,*,#408,.F.);
#231=CARTESIAN_POINT('',(0.0,0.0,0.0));
#232=DIRECTION('',(-0.0,1.0,0.0));
#233=DIRECTION('',(1.0,0.0,0.0));
#234=ORIENTED_EDGE('',*,*,#409,.T.);
#235=ORIENTED_EDGE('',*,*,#367,.F.);
#236=ORIENTED_EDGE('',*,*,#387,.F.);
#237=ORIENTED_EDGE('',*,*,#396,.T.);
#238=CARTESIAN_POINT('',(-97.5,1.5,40.0));
#239=DIRECTION('',(-0.0,-1.0,0.0));
#240=DIRECTION('',(-1.0,0.0,0.0));
#241=ORIENTED_EDGE('',*,*,#410,.T.);
#242=ORIENTED_EDGE('',*,*,#368,.F.);
#243=ORIENTED_EDGE('',*,*,#409,.F.);
#244=ORIENTED_EDGE('',*,*,#395,.T.);
#245=CARTESIAN_POINT('',(0.0,1.5,65.0));
#246=DIRECTION('',(0.0,0.0,-1.0));
#247=DIRECTION('',(0.0,-1.0,0.0));
#248=ORIENTED_EDGE('',*,*,#411,.T.);
#249=ORIENTED_EDGE('',*,*,#369,.F.);
#250=ORIENTED_EDGE('',*,*,#410,.F.);
#251=ORIENTED_EDGE('',*,*,#394,.T.);
#252=CARTESIAN_POINT('',(97.5,1.5,40.0));
#253=DIRECTION('',(0.0,-1.0,0.0));
#254=DIRECTION('',(0.0,0.0,1.0));
#255=ORIENTED_EDGE('',*,*,#412,.T.);
#256=ORIENTED_EDGE('',*,*,#370,.F.);
#257=ORIENTED_EDGE('',*,*,#411,.F.);
#258=ORIENTED_EDGE('',*,*,#393,.T.);
#259=CARTESIAN_POINT('',(122.5,1.5,0.0));
#260=DIRECTION('',(-1.0,0.0,0.0));
#261=DIRECTION('',(0.0,0.0,1.0));
#262=ORIENTED_EDGE('',*,*,#413,.T.);
#263=ORIENTED_EDGE('',*,*,#371,.F.);
#264=ORIENTED_EDGE('',*,*,#412,.F.);
#265=ORIENTED_EDGE('',*,*,#392,.T.);
#266=CARTESIAN_POINT('',(97.5,1.5,-40.0));
#267=DIRECTION('',(0.0,-1.0,0.0));
#268=DIRECTION('',(1.0,0.0,0.0));
#269=ORIENTED_EDGE('',*,*,#414,.T.);
#270=ORIENTED_EDGE('',*,*,#372,.F.);
#271=ORIENTED_EDGE('',*,*,#413,.F.);
#272=ORIENTED_EDGE('',*,*,#391,.T.);
#273=CARTESIAN_POINT('',(-1.42108547152E-13,1.5,-65.0));
#274=DIRECTION('',(0.0,0.0,1.0));
#275=DIRECTION('',(1.0,0.0,0.0));
#276=ORIENTED_EDGE('',*,*,#388,.T.);
#277=ORIENTED_EDGE('',*,*,#373,.F.);
#278=ORIENTED_EDGE('',*,*,#414,.F.);
#279=ORIENTED_EDGE('',*,*,#390,.T.);
#280=CARTESIAN_POINT('',(-97.5,1.5,-40.0));
#281=DIRECTION('',(-0.0,-1.0,0.0));
#282=DIRECTION('',(-1.136868377216E-14,0.0,-1.0));
#283=ORIENTED_EDGE('',*,*,#415,.T.);
#284=ORIENTED_EDGE('',*,*,#398,.F.);
#285=ORIENTED_EDGE('',*,*,#416,.F.);
#286=ORIENTED_EDGE('',*,*,#378,.T.);
#287=CARTESIAN_POINT('',(70.0,1.5,-58.5));
#288=DIRECTION('',(-0.0,-1.0,0.0));
#289=DIRECTION('',(-1.0,0.0,0.0));
#290=ORIENTED_EDGE('',*,*,#416,.T.);
#291=ORIENTED_EDGE('',*,*,#397,.F.);
#292=ORIENTED_EDGE('',*,*,#415,.F.);
#293=ORIENTED_EDGE('',*,*,#377,.T.);
#294=CARTESIAN_POINT('',(70.0,1.5,-58.5));
#295=DIRECTION('',(0.0,-1.0,0.0));
#296=DIRECTION('',(1.0,0.0,0.0));
#297=ORIENTED_EDGE('',*,*,#417,.T.);
#298=ORIENTED_EDGE('',*,*,#400,.F.);
#299=ORIENTED_EDGE('',*,*,#418,.F.);
#300=ORIENTED_EDGE('',*,*,#376,.T.);
#301=CARTESIAN_POINT('',(70.0,1.5,58.5));
#302=DIRECTION('',(-0.0,-1.0,0.0));
#303=DIRECTION('',(-1.0,0.0,0.0));
#304=ORIENTED_EDGE('',*,*,#418,.T.);
#305=ORIENTED_EDGE('',*,*,#399,.F.);
#306=ORIENTED_EDGE('',*,*,#417,.F.);
#307=ORIENTED_EDGE('',*,*,#375,.T.);
#308=CARTESIAN_POINT('',(70.0,1.5,58.5));
#309=DIRECTION('',(0.0,-1.0,0.0));
#310=DIRECTION('',(1.0,0.0,0.0));
#311=ORIENTED_EDGE('',*,*,#419,.T.);
#312=ORIENTED_EDGE('',*,*,#402,.F.);
#313=ORIENTED_EDGE('',*,*,#420,.F.);
#314=ORIENTED_EDGE('',*,*,#380,.T.);
#315=CARTESIAN_POINT('',(116.0,1.5,0.0));
#316=DIRECTION('',(-0.0,-1.0,0.0));
#317=DIRECTION('',(-1.0,0.0,0.0));
#318=ORIENTED_EDGE('',*,*,#420,.T.);
#319=ORIENTED_EDGE('',*,*,#401,.F.);
#320=ORIENTED_EDGE('',*,*,#419,.F.);
#321=ORIENTED_EDGE('',*,*,#379,.T.);
#322=CARTESIAN_POINT('',(116.0,1.5,0.0));
#323=DIRECTION('',(0.0,-1.0,0.0));
#324=DIRECTION('',(1.0,0.0,0.0));
#325=ORIENTED_EDGE('',*,*,#421,.T.);
#326=ORIENTED_EDGE('',*,*,#404,.T.);
#327=ORIENTED_EDGE('',*,*,#422,.F.);
#328=ORIENTED_EDGE('',*,*,#382,.F.);
#329=CARTESIAN_POINT('',(-116.0,1.5,0.0));
#330=DIRECTION('',(0.0,1.0,-0.0));
#331=DIRECTION('',(1.0,0.0,0.0));
#332=ORIENTED_EDGE('',*,*,#422,.T.);
#333=ORIENTED_EDGE('',*,*,#403,.T.);
#334=ORIENTED_EDGE('',*,*,#421,.F.);
#335=ORIENTED_EDGE('',*,*,#381,.F.);
#336=CARTESIAN_POINT('',(-116.0,1.5,0.0));
#337=DIRECTION('',(0.0,1.0,-0.0));
#338=DIRECTION('',(-1.0,0.0,0.0));
#339=ORIENTED_EDGE('',*,*,#423,.T.);
#340=ORIENTED_EDGE('',*,*,#406,.T.);
#341=ORIENTED_EDGE('',*,*,#424,.F.);
#342=ORIENTED_EDGE('',*,*,#386,.F.);
#343=CARTESIAN_POINT('',(-70.0,1.5,-58.5));
#344=DIRECTION('',(0.0,1.0,-0.0));
#345=DIRECTION('',(1.0,0.0,0.0));
#346=ORIENTED_EDGE('',*,*,#424,.T.);
#347=ORIENTED_EDGE('',*,*,#405,.T.);
#348=ORIENTED_EDGE('',*,*,#423,.F.);
#349=ORIENTED_EDGE('',*,*,#385,.F.);
#350=CARTESIAN_POINT('',(-70.0,1.5,-58.5));
#351=DIRECTION('',(0.0,1.0,-0.0));
#352=DIRECTION('',(-1.0,0.0,0.0));
#353=ORIENTED_EDGE('',*,*,#425,.T.);
#354=ORIENTED_EDGE('',*,*,#408,.T.);
#355=ORIENTED_EDGE('',*,*,#426,.F.);
#356=ORIENTED_EDGE('',*,*,#384,.F.);
#357=CARTESIAN_POINT('',(-70.0,1.5,58.5));
#358=DIRECTION('',(0.0,1.0,-0.0));
#359=DIRECTION('',(1.0,0.0,0.0));
#360=ORIENTED_EDGE('',*,*,#426,.T.);
#361=ORIENTED_EDGE('',*,*,#407,.T.);
#362=ORIENTED_EDGE('',*,*,#425,.F.);
#363=ORIENTED_EDGE('',*,*,#383,.F.);
#364=CARTESIAN_POINT('',(-70.0,1.5,58.5));
#365=DIRECTION('',(0.0,1.0,-0.0));
#366=DIRECTION('',(-1.0,0.0,0.0));
#367=EDGE_CURVE('',#427,#428,#429,.T.);
#368=EDGE_CURVE('',#428,#430,#431,.T.);
#369=EDGE_CURVE('',#430,#432,#433,.T.);
#370=EDGE_CURVE('',#432,#434,#435,.T.);
#371=EDGE_CURVE('',#434,#436,#437,.T.);
#372=EDGE_CURVE('',#436,#438,#439,.T.);
#373=EDGE_CURVE('',#438,#440,#441,.T.);
#374=EDGE_CURVE('',#440,#427,#442,.T.);
#375=EDGE_CURVE('',#443,#444,#445,.T.);
#376=EDGE_CURVE('',#444,#443,#446,.T.);
#377=EDGE_CURVE('',#447,#448,#449,.T.);
#378=EDGE_CURVE('',#448,#447,#450,.T.);
#379=EDGE_CURVE('',#451,#452,#453,.T.);
#380=EDGE_CURVE('',#452,#451,#454,.T.);
#381=EDGE_CURVE('',#455,#456,#457,.T.);
#382=EDGE_CURVE('',#456,#455,#458,.T.);
#383=EDGE_CURVE('',#459,#460,#461,.T.);
#384=EDGE_CURVE('',#460,#459,#462,.T.);
#385=EDGE_CURVE('',#463,#464,#465,.T.);
#386=EDGE_CURVE('',#464,#463,#466,.T.);
#387=EDGE_CURVE('',#467,#427,#468,.T.);
#388=EDGE_CURVE('',#469,#440,#470,.T.);
#389=EDGE_CURVE('',#469,#467,#471,.T.);
#390=EDGE_CURVE('',#472,#469,#473,.T.);
#391=EDGE_CURVE('',#474,#472,#475,.T.);
#392=EDGE_CURVE('',#476,#474,#477,.T.);
#393=EDGE_CURVE('',#478,#476,#479,.T.);
#394=EDGE_CURVE('',#480,#478,#481,.T.);
#395=EDGE_CURVE('',#482,#480,#483,.T.);
#396=EDGE_CURVE('',#467,#482,#484,.T.);
#397=EDGE_CURVE('',#485,#486,#487,.T.);
#398=EDGE_CURVE('',#486,#485,#488,.T.);
#399=EDGE_CURVE('',#489,#490,#491,.T.);
#400=EDGE_CURVE('',#490,#489,#492,.T.);
#401=EDGE_CURVE('',#493,#494,#495,.T.);
#402=EDGE_CURVE('',#494,#493,#496,.T.);
#403=EDGE_CURVE('',#497,#498,#499,.T.);
#404=EDGE_CURVE('',#498,#497,#500,.T.);
#405=EDGE_CURVE('',#501,#502,#503,.T.);
#406=EDGE_CURVE('',#502,#501,#504,.T.);
#407=EDGE_CURVE('',#505,#506,#507,.T.);
#408=EDGE_CURVE('',#506,#505,#508,.T.);
#409=EDGE_CURVE('',#482,#428,#509,.T.);
#410=EDGE_CURVE('',#480,#430,#510,.T.);
#411=EDGE_CURVE('',#478,#432,#511,.T.);
#412=EDGE_CURVE('',#476,#434,#512,.T.);
#413=EDGE_CURVE('',#474,#436,#513,.T.);
#414=EDGE_CURVE('',#472,#438,#514,.T.);
#415=EDGE_CURVE('',#447,#485,#515,.T.);
#416=EDGE_CURVE('',#448,#486,#516,.T.);
#417=EDGE_CURVE('',#443,#489,#517,.T.);
#418=EDGE_CURVE('',#444,#490,#518,.T.);
#419=EDGE_CURVE('',#451,#493,#519,.T.);
#420=EDGE_CURVE('',#452,#494,#520,.T.);
#421=EDGE_CURVE('',#456,#498,#521,.T.);
#422=EDGE_CURVE('',#455,#497,#522,.T.);
#423=EDGE_CURVE('',#464,#502,#523,.T.);
#424=EDGE_CURVE('',#463,#501,#524,.T.);
#425=EDGE_CURVE('',#460,#506,#525,.T.);
#426=EDGE_CURVE('',#459,#505,#526,.T.);
#427=VERTEX_POINT('',#527);
#428=VERTEX_POINT('',#528);
#429=CIRCLE('',#529,25.0);
#430=VERTEX_POINT('',#530);
#431=LINE('',#531,#532);
#432=VERTEX_POINT('',#533);
#433=CIRCLE('',#534,25.0);
#434=VERTEX_POINT('',#535);
#435=LINE('',#536,#537);
#436=VERTEX_POINT('',#538);
#437=CIRCLE('',#539,25.0);
#438=VERTEX_POINT('',#540);
#439=LINE('',#541,#542);
#440=VERTEX_POINT('',#543);
#441=CIRCLE('',#544,25.0);
#442=LINE('',#545,#546);
#443=VERTEX_POINT('',#547);
#444=VERTEX_POINT('',#548);
#445=CIRCLE('',#549,3.0);
#446=CIRCLE('',#550,3.0);
#447=VERTEX_POINT('',#551);
#448=VERTEX_POINT('',#552);
#449=CIRCLE('',#553,3.0);
#450=CIRCLE('',#554,3.0);
#451=VERTEX_POINT('',#555);
#452=VERTEX_POINT('',#556);
#453=CIRCLE('',#557,3.0);
#454=CIRCLE('',#558,3.0);
#455=VERTEX_POINT('',#559);
#456=VERTEX_POINT('',#560);
#457=CIRCLE('',#561,3.0);
#458=CIRCLE('',#562,3.0);
#459=VERTEX_POINT('',#563);
#460=VERTEX_POINT('',#564);
#461=CIRCLE('',#565,3.0);
#462=CIRCLE('',#566,3.0);
#463=VERTEX_POINT('',#567);
#464=VERTEX_POINT('',#568);
#465=CIRCLE('',#569,3.0);
#466=CIRCLE('',#570,3.0);
#467=VERTEX_POINT('',#571);
#468=LINE('',#572,#573);
#469=VERTEX_POINT('',#574);
#470=LINE('',#575,#576);
#471=LINE('',#577,#578);
#472=VERTEX_POINT('',#579);
#473=CIRCLE('',#580,25.0);
#474=VERTEX_POINT('',#581);
#475=LINE('',#582,#583);
#476=VERTEX_POINT('',#584);
#477=CIRCLE('',#585,25.0);
#478=VERTEX_POINT('',#586);
#479=LINE('',#587,#588);
#480=VERTEX_POINT('',#589);
#481=CIRCLE('',#590,25.0);
#482=VERTEX_POINT('',#591);
#483=LINE('',#592,#593);
#484=CIRCLE('',#594,25.0);
#485=VERTEX_POINT('',#595);
#486=VERTEX_POINT('',#596);
#487=CIRCLE('',#597,3.0);
#488=CIRCLE('',#598,3.0);
#489=VERTEX_POINT('',#599);
#490=VERTEX_POINT('',#600);
#491=CIRCLE('',#601,3.0);
#492=CIRCLE('',#602,3.0);
#493=VERTEX_POINT('',#603);
#494=VERTEX_POINT('',#604);
#495=CIRCLE('',#605,3.0);
#496=CIRCLE('',#606,3.0);
#497=VERTEX_POINT('',#607);
#498=VERTEX_POINT('',#608);
#499=CIRCLE('',#609,3.0);
#500=CIRCLE('',#610,3.0);
#501=VERTEX_POINT('',#611);
#502=VERTEX_POINT('',#612);
#503=CIRCLE('',#613,3.0);
#504=CIRCLE('',#614,3.0);
#505=VERTEX_POINT('',#615);
#506=VERTEX_POINT('',#616);
#507=CIRCLE('',#617,3.0);
#508=CIRCLE('',#618,3.0);
#509=LINE('',#619,#620);
#510=LINE('',#621,#622);
#511=LINE('',#623,#624);
#512=LINE('',#625,#626);
#513=LINE('',#627,#628);
#514=LINE('',#629,#630);
#515=LINE('',#631,#632);
#516=LINE('',#633,#634);
#517=LINE('',#635,#636);
#518=LINE('',#637,#638);
#519=LINE('',#639,#640);
#520=LINE('',#641,#642);
#521=LINE('',#643,#644);
#522=LINE('',#645,#646);
#523=LINE('',#647,#648);
#524=LINE('',#649,#650);
#525=LINE('',#651,#652);
#526=LINE('',#653,#654);
#527=CARTESIAN_POINT('',(-122.5,3.0,40.0));
#528=CARTESIAN_POINT('',(-97.5,3.0,65.0));
#529=AXIS2_PLACEMENT_3D('',#655,#656,#657);
#530=CARTESIAN_POINT('',(97.5,3.0,65.0));
#531=CARTESIAN_POINT('',(-97.5,3.0,65.0));
#532=VECTOR('',#658,195.0);
#533=CARTESIAN_POINT('',(122.5,3.0,40.0));
#534=AXIS2_PLACEMENT_3D('',#659,#660,#661);
#535=CARTESIAN_POINT('',(122.5,3.0,-40.0));
#536=CARTESIAN_POINT('',(122.5,3.0,40.0));
#537=VECTOR('',#662,80.0);
#538=CARTESIAN_POINT('',(97.5,3.0,-65.0));
#539=AXIS2_PLACEMENT_3D('',#663,#664,#665);
#540=CARTESIAN_POINT('',(-97.5,3.0,-65.0));
#541=CARTESIAN_POINT('',(97.5,3.0,-65.0));
#542=VECTOR('',#666,195.0);
#543=CARTESIAN_POINT('',(-122.5,3.0,-40.0));
#544=AXIS2_PLACEMENT_3D('',#667,#668,#669);
#545=CARTESIAN_POINT('',(-122.5,3.0,-40.0));
#546=VECTOR('',#670,80.0);
#547=CARTESIAN_POINT('',(73.0,3.0,58.5));
#548=CARTESIAN_POINT('',(67.0,3.0,58.5));
#549=AXIS2_PLACEMENT_3D('',#671,#672,#673);
#550=AXIS2_PLACEMENT_3D('',#674,#675,#676);
#551=CARTESIAN_POINT('',(73.0,3.0,-58.5));
#552=CARTESIAN_POINT('',(67.0,3.0,-58.5));
#553=AXIS2_PLACEMENT_3D('',#677,#678,#679);
#554=AXIS2_PLACEMENT_3D('',#680,#681,#682);
#555=CARTESIAN_POINT('',(119.0,3.0,0.0));
#556=CARTESIAN_POINT('',(113.0,3.0,0.0));
#557=AXIS2_PLACEMENT_3D('',#683,#684,#685);
#558=AXIS2_PLACEMENT_3D('',#686,#687,#688);
#559=CARTESIAN_POINT('',(-119.0,3.0,0.0));
#560=CARTESIAN_POINT('',(-113.0,3.0,0.0));
#561=AXIS2_PLACEMENT_3D('',#689,#690,#691);
#562=AXIS2_PLACEMENT_3D('',#692,#693,#694);
#563=CARTESIAN_POINT('',(-73.0,3.0,58.5));
#564=CARTESIAN_POINT('',(-67.0,3.0,58.5));
#565=AXIS2_PLACEMENT_3D('',#695,#696,#697);
#566=AXIS2_PLACEMENT_3D('',#698,#699,#700);
#567=CARTESIAN_POINT('',(-73.0,3.0,-58.5));
#568=CARTESIAN_POINT('',(-67.0,3.0,-58.5));
#569=AXIS2_PLACEMENT_3D('',#701,#702,#703);
#570=AXIS2_PLACEMENT_3D('',#704,#705,#706);
#571=CARTESIAN_POINT('',(-122.5,0.0,40.0));
#572=CARTESIAN_POINT('',(-122.5,0.0,40.0));
#573=VECTOR('',#707,3.0);
#574=CARTESIAN_POINT('',(-122.5,0.0,-40.0));
#575=CARTESIAN_POINT('',(-122.5,0.0,-40.0));
#576=VECTOR('',#708,3.0);
#577=CARTESIAN_POINT('',(-122.5,0.0,-40.0));
#578=VECTOR('',#709,80.0);
#579=CARTESIAN_POINT('',(-97.5,0.0,-65.0));
#580=AXIS2_PLACEMENT_3D('',#710,#711,#712);
#581=CARTESIAN_POINT('',(97.5,0.0,-65.0));
#582=CARTESIAN_POINT('',(97.5,0.0,-65.0));
#583=VECTOR('',#713,195.0);
#584=CARTESIAN_POINT('',(122.5,0.0,-40.0));
#585=AXIS2_PLACEMENT_3D('',#714,#715,#716);
#586=CARTESIAN_POINT('',(122.5,0.0,40.0));
#587=CARTESIAN_POINT('',(122.5,0.0,40.0));
#588=VECTOR('',#717,80.0);
#589=CARTESIAN_POINT('',(97.5,0.0,65.0));
#590=AXIS2_PLACEMENT_3D('',#718,#719,#720);
#591=CARTESIAN_POINT('',(-97.5,0.0,65.0));
#592=CARTESIAN_POINT('',(-97.5,0.0,65.0));
#593=VECTOR('',#721,195.0);
#594=AXIS2_PLACEMENT_3D('',#722,#723,#724);
#595=CARTESIAN_POINT('',(73.0,0.0,-58.5));
#596=CARTESIAN_POINT('',(67.0,0.0,-58.5));
#597=AXIS2_PLACEMENT_3D('',#725,#726,#727);
#598=AXIS2_PLACEMENT_3D('',#728,#729,#730);
#599=CARTESIAN_POINT('',(73.0,0.0,58.5));
#600=CARTESIAN_POINT('',(67.0,0.0,58.5));
#601=AXIS2_PLACEMENT_3D('',#731,#732,#733);
#602=AXIS2_PLACEMENT_3D('',#734,#735,#736);
#603=CARTESIAN_POINT('',(119.0,0.0,0.0));
#604=CARTESIAN_POINT('',(113.0,0.0,0.0));
#605=AXIS2_PLACEMENT_3D('',#737,#738,#739);
#606=AXIS2_PLACEMENT_3D('',#740,#741,#742);
#607=CARTESIAN_POINT('',(-119.0,0.0,0.0));
#608=CARTESIAN_POINT('',(-113.0,0.0,0.0));
#609=AXIS2_PLACEMENT_3D('',#743,#744,#745);
#610=AXIS2_PLACEMENT_3D('',#746,#747,#748);
#611=CARTESIAN_POINT('',(-73.0,0.0,-58.5));
#612=CARTESIAN_POINT('',(-67.0,0.0,-58.5));
#613=AXIS2_PLACEMENT_3D('',#749,#750,#751);
#614=AXIS2_PLACEMENT_3D('',#752,#753,#754);
#615=CARTESIAN_POINT('',(-73.0,0.0,58.5));
#616=CARTESIAN_POINT('',(-67.0,0.0,58.5));
#617=AXIS2_PLACEMENT_3D('',#755,#756,#757);
#618=AXIS2_PLACEMENT_3D('',#758,#759,#760);
#619=CARTESIAN_POINT('',(-97.5,0.0,65.0));
#620=VECTOR('',#761,3.0);
#621=CARTESIAN_POINT('',(97.5,0.0,65.0));
#622=VECTOR('',#762,3.0);
#623=CARTESIAN_POINT('',(122.5,0.0,40.0));
#624=VECTOR('',#763,3.0);
#625=CARTESIAN_POINT('',(122.5,0.0,-40.0));
#626=VECTOR('',#764,3.0);
#627=CARTESIAN_POINT('',(97.5,0.0,-65.0));
#628=VECTOR('',#765,3.0);
#629=CARTESIAN_POINT('',(-97.5,0.0,-65.0));
#630=VECTOR('',#766,3.0);
#631=CARTESIAN_POINT('',(73.0,3.0,-58.5));
#632=VECTOR('',#767,3.0);
#633=CARTESIAN_POINT('',(67.0,3.0,-58.5));
#634=VECTOR('',#768,3.0);
#635=CARTESIAN_POINT('',(73.0,3.0,58.5));
#636=VECTOR('',#769,3.0);
#637=CARTESIAN_POINT('',(67.0,3.0,58.5));
#638=VECTOR('',#770,3.0);
#639=CARTESIAN_POINT('',(119.0,3.0,0.0));
#640=VECTOR('',#771,3.0);
#641=CARTESIAN_POINT('',(113.0,3.0,0.0));
#642=VECTOR('',#772,3.0);
#643=CARTESIAN_POINT('',(-113.0,3.0,0.0));
#644=VECTOR('',#773,3.0);
#645=CARTESIAN_POINT('',(-119.0,3.0,0.0));
#646=VECTOR('',#774,3.0);
#647=CARTESIAN_POINT('',(-67.0,3.0,-58.5));
#648=VECTOR('',#775,3.0);
#649=CARTESIAN_POINT('',(-73.0,3.0,-58.5));
#650=VECTOR('',#776,3.0);
#651=CARTESIAN_POINT('',(-67.0,3.0,58.5));
#652=VECTOR('',#777,3.0);
#653=CARTESIAN_POINT('',(-73.0,3.0,58.5));
#654=VECTOR('',#778,3.0);
#655=CARTESIAN_POINT('',(-97.5,3.0,40.0));
#656=DIRECTION('',(0.0,1.0,0.0));
#657=DIRECTION('',(-1.0,0.0,0.0));
#658=DIRECTION('',(1.0,0.0,0.0));
#659=CARTESIAN_POINT('',(97.5,3.0,40.0));
#660=DIRECTION('',(0.0,1.0,0.0));
#661=DIRECTION('',(0.0,0.0,1.0));
#662=DIRECTION('',(0.0,0.0,-1.0));
#663=CARTESIAN_POINT('',(97.5,3.0,-40.0));
#664=DIRECTION('',(-0.0,1.0,0.0));
#665=DIRECTION('',(1.0,0.0,0.0));
#666=DIRECTION('',(-1.0,0.0,0.0));
#667=CARTESIAN_POINT('',(-97.5,3.0,-40.0));
#668=DIRECTION('',(0.0,1.0,0.0));
#669=DIRECTION('',(-1.136868377216E-14,0.0,-1.0));
#670=DIRECTION('',(0.0,0.0,1.0));
#671=CARTESIAN_POINT('',(70.0,3.0,58.5));
#672=DIRECTION('',(-0.0,1.0,0.0));
#673=DIRECTION('',(1.0,0.0,0.0));
#674=CARTESIAN_POINT('',(70.0,3.0,58.5));
#675=DIRECTION('',(0.0,1.0,0.0));
#676=DIRECTION('',(-1.0,0.0,0.0));
#677=CARTESIAN_POINT('',(70.0,3.0,-58.5));
#678=DIRECTION('',(-0.0,1.0,0.0));
#679=DIRECTION('',(1.0,0.0,0.0));
#680=CARTESIAN_POINT('',(70.0,3.0,-58.5));
#681=DIRECTION('',(0.0,1.0,0.0));
#682=DIRECTION('',(-1.0,0.0,0.0));
#683=CARTESIAN_POINT('',(116.0,3.0,0.0));
#684=DIRECTION('',(-0.0,1.0,0.0));
#685=DIRECTION('',(1.0,0.0,0.0));
#686=CARTESIAN_POINT('',(116.0,3.0,0.0));
#687=DIRECTION('',(0.0,1.0,0.0));
#688=DIRECTION('',(-1.0,0.0,0.0));
#689=CARTESIAN_POINT('',(-116.0,3.0,0.0));
#690=DIRECTION('',(0.0,-1.0,0.0));
#691=DIRECTION('',(-1.0,0.0,0.0));
#692=CARTESIAN_POINT('',(-116.0,3.0,0.0));
#693=DIRECTION('',(0.0,-1.0,0.0));
#694=DIRECTION('',(1.0,0.0,0.0));
#695=CARTESIAN_POINT('',(-70.0,3.0,58.5));
#696=DIRECTION('',(0.0,-1.0,0.0));
#697=DIRECTION('',(-1.0,0.0,0.0));
#698=CARTESIAN_POINT('',(-70.0,3.0,58.5));
#699=DIRECTION('',(0.0,-1.0,0.0));
#700=DIRECTION('',(1.0,0.0,0.0));
#701=CARTESIAN_POINT('',(-70.0,3.0,-58.5));
#702=DIRECTION('',(0.0,-1.0,0.0));
#703=DIRECTION('',(-1.0,0.0,0.0));
#704=CARTESIAN_POINT('',(-70.0,3.0,-58.5));
#705=DIRECTION('',(0.0,-1.0,0.0));
#706=DIRECTION('',(1.0,0.0,0.0));
#707=DIRECTION('',(0.0,1.0,0.0));
#708=DIRECTION('',(0.0,1.0,0.0));
#709=DIRECTION('',(0.0,0.0,1.0));
#710=CARTESIAN_POINT('',(-97.5,0.0,-40.0));
#711=DIRECTION('',(0.0,1.0,0.0));
#712=DIRECTION('',(-1.136868377216E-14,0.0,-1.0));
#713=DIRECTION('',(-1.0,0.0,0.0));
#714=CARTESIAN_POINT('',(97.5,0.0,-40.0));
#715=DIRECTION('',(-0.0,1.0,0.0));
#716=DIRECTION('',(1.0,0.0,0.0));
#717=DIRECTION('',(0.0,0.0,-1.0));
#718=CARTESIAN_POINT('',(97.5,0.0,40.0));
#719=DIRECTION('',(0.0,1.0,0.0));
#720=DIRECTION('',(0.0,0.0,1.0));
#721=DIRECTION('',(1.0,0.0,0.0));
#722=CARTESIAN_POINT('',(-97.5,0.0,40.0));
#723=DIRECTION('',(0.0,1.0,0.0));
#724=DIRECTION('',(-1.0,0.0,0.0));
#725=CARTESIAN_POINT('',(70.0,0.0,-58.5));
#726=DIRECTION('',(-0.0,1.0,0.0));
#727=DIRECTION('',(1.0,0.0,0.0));
#728=CARTESIAN_POINT('',(70.0,0.0,-58.5));
#729=DIRECTION('',(0.0,1.0,0.0));
#730=DIRECTION('',(-1.0,0.0,0.0));
#731=CARTESIAN_POINT('',(70.0,0.0,58.5));
#732=DIRECTION('',(-0.0,1.0,0.0));
#733=DIRECTION('',(1.0,0.0,0.0));
#734=CARTESIAN_POINT('',(70.0,0.0,58.5));
#735=DIRECTION('',(0.0,1.0,0.0));
#736=DIRECTION('',(-1.0,0.0,0.0));
#737=CARTESIAN_POINT('',(116.0,0.0,0.0));
#738=DIRECTION('',(-0.0,1.0,0.0));
#739=DIRECTION('',(1.0,0.0,0.0));
#740=CARTESIAN_POINT('',(116.0,0.0,0.0));
#741=DIRECTION('',(0.0,1.0,0.0));
#742=DIRECTION('',(-1.0,0.0,0.0));
#743=CARTESIAN_POINT('',(-116.0,0.0,0.0));
#744=DIRECTION('',(0.0,-1.0,0.0));
#745=DIRECTION('',(-1.0,0.0,0.0));
#746=CARTESIAN_POINT('',(-116.0,0.0,0.0));
#747=DIRECTION('',(0.0,-1.0,0.0));
#748=DIRECTION('',(1.0,0.0,0.0));
#749=CARTESIAN_POINT('',(-70.0,0.0,-58.5));
#750=DIRECTION('',(0.0,-1.0,0.0));
#751=DIRECTION('',(-1.0,0.0,0.0));
#752=CARTESIAN_POINT('',(-70.0,0.0,-58.5));
#753=DIRECTION('',(0.0,-1.0,0.0));
#754=DIRECTION('',(1.0,0.0,0.0));
#755=CARTESIAN_POINT('',(-70.0,0.0,58.5));
#756=DIRECTION('',(0.0,-1.0,0.0));
#757=DIRECTION('',(-1.0,0.0,0.0));
#758=CARTESIAN_POINT('',(-70.0,0.0,58.5));
#759=DIRECTION('',(0.0,-1.0,0.0));
#760=DIRECTION('',(1.0,0.0,0.0));
#761=DIRECTION('',(0.0,1.0,0.0));
#762=DIRECTION('',(0.0,1.0,0.0));
#763=DIRECTION('',(0.0,1.0,0.0));
#764=DIRECTION('',(0.0,1.0,0.0));
#765=DIRECTION('',(0.0,1.0,0.0));
#766=DIRECTION('',(0.0,1.0,0.0));
#767=DIRECTION('',(0.0,-1.0,0.0));
#768=DIRECTION('',(0.0,-1.0,0.0));
#769=DIRECTION('',(0.0,-1.0,0.0));
#770=DIRECTION('',(0.0,-1.0,0.0));
#771=DIRECTION('',(0.0,-1.0,0.0));
#772=DIRECTION('',(0.0,-1.0,0.0));
#773=DIRECTION('',(0.0,-1.0,0.0));
#774=DIRECTION('',(0.0,-1.0,0.0));
#775=DIRECTION('',(0.0,-1.0,0.0));
#776=DIRECTION('',(0.0,-1.0,0.0));
#777=DIRECTION('',(0.0,-1.0,0.0));
#778=DIRECTION('',(0.0,-1.0,0.0));
ENDSEC;
END-ISO-10303-21;
