999
DXF file: C:\Users\sesa63760\Dev\_Creo\CAD\MCADUE0002789_3D-CAD\drw0001_3.dxf
999
Pro/ENGINEER 2019471 by Parametric Technology Corporation
  0
SECTION
  2
HEADER
  9
$ACADVER
  1
AC1024
  9
$DWGCODEPAGE
  3
ANSI_1252
  9
$EXTMAX
 10
44.553609033
 20
63.0115327753
 30
0.0
  9
$EXTMIN
 10
0.0
 20
0.0
 30
0.0
  9
$LIMMIN
 10
0.0
 20
0.0
  9
$LIMMAX
 10
44.553609033
 20
63.0115327753
  9
$VIEWCTR
 10
22.2768045165
 20
31.5057663876
  9
$VIEWSIZE
 40
63.0115327753
  9
$CLAYER
  8
0
  9
$LTSCALE
 40
4.1074184328
  9
$CELTYPE
  6
BYLAYER
  9
$DIMSCALE
 40
1.0
  9
$DIMASZ
 40
0.5304001075
  9
$DIMEXO
 40
1.0
  9
$DIMDLI
 40
2.8378527354
  9
$DIMEXE
 40
1.0
  9
$DIMCEN
 40
0.6721230163
  9
$DIMLFAC
 40
1.0
  9
$DIMBLK
  1
_FILLED
  9
$DIMALT
 70
0
  9
$DIMALTF
 40
0.0393700787
  9
$DIMTXT
 40
0.7425601506
  9
$DIMTOL
 70
1
  9
$DIMLIM
 70
0
  9
$DIMTFAC
 40
1.0
  9
$DIMTP
 40
0.01
  9
$DIMTM
 40
0.01
  9
$DIMGAP
 40
0.625
  9
$DIMDSEP
 70
46
  9
$AUNITS
 70
0
  9
$PDMODE
 70
3
  9
$PDSIZE
 40
0.3125
  9
$HANDSEED
  5
2B5
  9
$TILEMODE
 70
1
  9
$MEASUREMENT
 70
1
  9
$INSUNITS
 70
4
  0
ENDSEC
  0
SECTION
  2
CLASSES
  0
CLASS
  1
ACDBDICTIONARYWDFLT
  2
AcDbDictionaryWithDefault
  3
AutoCAD 2000
 90
0
 91
1
280
0
281
0
  0
CLASS
  1
ACDBPLACEHOLDER
  2
AcDbPlaceHolder
  3
AutoCAD 2000
 90
0
 91
1
280
0
281
0
  0
CLASS
  1
LAYOUT
  2
AcDbLayout
  3
AutoCAD 2000
 90
0
 91
0
280
0
281
0
  0
ENDSEC
  0
SECTION
  2
TABLES
  0
TABLE
  2
VPORT
  5
8
100
AcDbSymbolTable
 70
2
  0
VPORT
  5
1F4
100
AcDbSymbolTableRecord
100
AcDbViewportTableRecord
  2
*ACTIVE
 70
0
 10
0.0
 20
0.0
 11
1.0
 21
1.0
 12
22.2768045165
 22
31.5057663876
 13
0.0
 23
0.0
 14
1.0
 24
1.0
 15
0.0
 25
0.0
 16
0.0
 26
0.0
 36
1.0
 17
0.0
 27
0.0
 37
0.0
 40
63.0115327753
 41
0.7070707071
 42
50.0
 43
0.0
 44
0.0
 50
0.0
 51
0.0
 71
0
 72
100
 73
1
 74
1
 75
0
 76
0
 77
0
 78
0
  0
ENDTAB
  0
TABLE
  2
LTYPE
  5
5
100
AcDbSymbolTable
 70
6
  0
LTYPE
  5
14
100
AcDbSymbolTableRecord
100
AcDbLinetypeTableRecord
  2
BYBLOCK
 70
0
  3

 72
65
 73
0
 40
0.0
  0
LTYPE
  5
15
100
AcDbSymbolTableRecord
100
AcDbLinetypeTableRecord
  2
BYLAYER
 70
0
  3

 72
65
 73
0
 40
0.0
  0
LTYPE
  5
16
100
AcDbSymbolTableRecord
100
AcDbLinetypeTableRecord
  2
CONTINUOUS
 70
64
  3
Solid line
 72
65
 73
0
 40
0.0
  0
LTYPE
  5
1F5
100
AcDbSymbolTableRecord
100
AcDbLinetypeTableRecord
  2
CENTER
 70
64
  3
____ _ ____ _ ____ _ ____ _ ____ _ ____ _ ____
 72
65
 73
4
 40
0.6
 49
0.375
 74
0
 49
-0.075
 74
0
 49
0.075
 74
0
 49
-0.075
 74
0
  0
LTYPE
  5
1F6
100
AcDbSymbolTableRecord
100
AcDbLinetypeTableRecord
  2
HIDDEN
 70
64
  3
- - - - - - - - - - - - - - - - - - - -
 72
65
 73
2
 40
0.2
 49
0.1
 74
0
 49
-0.1
 74
0
  0
LTYPE
  5
1F7
100
AcDbSymbolTableRecord
100
AcDbLinetypeTableRecord
  2
PHANTOM
 70
64
  3
_____ _ _ _____ _ _ _____ _ _ _____
 72
65
 73
6
 40
0.8
 49
0.45
 74
0
 49
-0.05
 74
0
 49
0.1
 74
0
 49
-0.05
 74
0
 49
0.1
 74
0
 49
-0.05
 74
0
  0
LTYPE
  5
1F8
100
AcDbSymbolTableRecord
100
AcDbLinetypeTableRecord
  2
DOT
 70
64
  3
. . . . . . . . . . . . . . . . . . . .
 72
65
 73
2
 40
0.2
 49
0.1
 74
0
 49
-0.1
 74
0
  0
LTYPE
  5
1F9
100
AcDbSymbolTableRecord
100
AcDbLinetypeTableRecord
  2
DASHED
 70
64
  3
- - - - - - - - - - - - - - - - - - - -
 72
65
 73
2
 40
0.2
 49
0.1
 74
0
 49
-0.1
 74
0
  0
ENDTAB
  0
TABLE
  2
LAYER
  5
2
100
AcDbSymbolTable
 70
36
  0
LAYER
  5
10
100
AcDbSymbolTableRecord
100
AcDbLayerTableRecord
  2
0
 70
0
 62
7
  6
CONTINUOUS
370
-3
390
F
  0
LAYER
  5
1FA
100
AcDbSymbolTableRecord
100
AcDbLayerTableRecord
  2
DEFAULT_1
 70
0
 62
7
  6
CENTER
370
-3
390
F
  0
LAYER
  5
1FB
100
AcDbSymbolTableRecord
100
AcDbLayerTableRecord
  2
DEFAULT_2
 70
0
 62
8
  6
HIDDEN
370
-3
390
F
  0
LAYER
  5
1FC
100
AcDbSymbolTableRecord
100
AcDbLayerTableRecord
  2
DEFAULT_3
 70
0
 62
7
  6
PHANTOM
370
-3
390
F
  0
LAYER
  5
1FD
100
AcDbSymbolTableRecord
100
AcDbLayerTableRecord
  2
00_COMPONENTS
 70
0
 62
7
  6
CONTINUOUS
370
-3
390
F
  0
LAYER
  5
1FE
100
AcDbSymbolTableRecord
100
AcDbLayerTableRecord
  2
01_1_DEFAULT_DATUMS
 70
0
 62
7
  6
CONTINUOUS
370
-3
390
F
  0
LAYER
  5
1FF
100
AcDbSymbolTableRecord
100
AcDbLayerTableRecord
  2
01_PLANES
 70
0
 62
7
  6
CONTINUOUS
370
-3
390
F
  0
LAYER
  5
200
100
AcDbSymbolTableRecord
100
AcDbLayerTableRecord
  2
02_COORD_SYS
 70
0
 62
7
  6
CONTINUOUS
370
-3
390
F
  0
LAYER
  5
201
100
AcDbSymbolTableRecord
100
AcDbLayerTableRecord
  2
03_AXES
 70
0
 62
7
  6
CONTINUOUS
370
-3
390
F
  0
LAYER
  5
202
100
AcDbSymbolTableRecord
100
AcDbLayerTableRecord
  2
04_POINTS
 70
0
 62
7
  6
CONTINUOUS
370
-3
390
F
  0
LAYER
  5
203
100
AcDbSymbolTableRecord
100
AcDbLayerTableRecord
  2
05_CURVES
 70
0
 62
7
  6
CONTINUOUS
370
-3
390
F
  0
LAYER
  5
204
100
AcDbSymbolTableRecord
100
AcDbLayerTableRecord
  2
06_SURFS
 70
0
 62
7
  6
CONTINUOUS
370
-3
390
F
  0
LAYER
  5
205
100
AcDbSymbolTableRecord
100
AcDbLayerTableRecord
  2
07_COSMETICS
 70
0
 62
7
  6
CONTINUOUS
370
-3
390
F
  0
LAYER
  5
206
100
AcDbSymbolTableRecord
100
AcDbLayerTableRecord
  2
10_NOTES
 70
0
 62
7
  6
CONTINUOUS
370
-3
390
F
  0
LAYER
  5
207
100
AcDbSymbolTableRecord
100
AcDbLayerTableRecord
  2
11_NOTES_PUB
 70
0
 62
7
  6
CONTINUOUS
370
-3
390
F
  0
LAYER
  5
208
100
AcDbSymbolTableRecord
100
AcDbLayerTableRecord
  2
13_REF_GTOL
 70
0
 62
7
  6
CONTINUOUS
370
-3
390
F
  0
LAYER
  5
209
100
AcDbSymbolTableRecord
100
AcDbLayerTableRecord
  2
16_MISC
 70
0
 62
7
  6
CONTINUOUS
370
-3
390
F
  0
LAYER
  5
20A
100
AcDbSymbolTableRecord
100
AcDbLayerTableRecord
  2
17_NO_PRINT
 70
0
 62
7
  6
CONTINUOUS
370
-3
390
F
  0
LAYER
  5
20B
100
AcDbSymbolTableRecord
100
AcDbLayerTableRecord
  2
18_DATUM_CAMS_JOINTS
 70
0
 62
7
  6
CONTINUOUS
370
-3
390
F
  0
LAYER
  5
20C
100
AcDbSymbolTableRecord
100
AcDbLayerTableRecord
  2
19_DATUM_FUNCTIONAL
 70
0
 62
7
  6
CONTINUOUS
370
-3
390
F
  0
LAYER
  5
20D
100
AcDbSymbolTableRecord
100
AcDbLayerTableRecord
  2
20_DATUM_KINEMATIC_SCHEME
 70
0
 62
7
  6
CONTINUOUS
370
-3
390
F
  0
ENDTAB
  0
TABLE
  2
STYLE
  5
3
100
AcDbSymbolTable
 70
1
  0
STYLE
  5
11
100
AcDbSymbolTableRecord
100
AcDbTextStyleTableRecord
  2
STANDARD
 70
0
 40
0.0
 41
0.8
 50
0.0
 71
0
 42
0.2
  3
txt
  4

  0
STYLE
  5
20E
100
AcDbSymbolTableRecord
100
AcDbTextStyleTableRecord
  2
TEXTSTYLE_1
 70
0
 40
0.0
 41
0.8
 50
0.0
 71
0
 42
0.2
  3
gdt
  4

  0
ENDTAB
  0
TABLE
  2
VIEW
  5
6
100
AcDbSymbolTable
 70
0
  0
ENDTAB
  0
TABLE
  2
UCS
  5
7
100
AcDbSymbolTable
 70
0
  0
ENDTAB
  0
TABLE
  2
APPID
  5
9
100
AcDbSymbolTable
 70
1
  0
APPID
  5
20F
100
AcDbSymbolTableRecord
100
AcDbRegAppTableRecord
  2
ACAD
 70
0
  0
ENDTAB
  0
TABLE
  2
BLOCK_RECORD
  5
1
100
AcDbSymbolTable
 70
0
  0
BLOCK_RECORD
  5
210
100
AcDbSymbolTableRecord
100
AcDbBlockTableRecord
  2
*Model_Space
  0
BLOCK_RECORD
  5
211
100
AcDbSymbolTableRecord
100
AcDbBlockTableRecord
  2
*Paper_Space
  0
BLOCK_RECORD
  5
212
100
AcDbSymbolTableRecord
100
AcDbBlockTableRecord
  2
_FILLED
  0
ENDTAB
  0
TABLE
  2
DIMSTYLE
  5
A
100
AcDbSymbolTable
 70
1
100
AcDbDimStyleTable
 71
0
  0
DIMSTYLE
105
213
100
AcDbSymbolTableRecord
100
AcDbDimStyleTableRecord
  2
STANDARD
 70
0
  3

  4

 40
1.0
 41
0.5304001075
 42
1.0
 43
0.38
 44
1.0
 45
0.0
 46
0.0
 47
0.01
 48
0.01
140
0.7425601506
141
0.09
142
0.0
143
25.4
144
1.0
145
0.0
146
1.0
147
0.625
 71
1
 72
0
 73
0
 74
0
 75
0
 76
0
 77
1
 78
8
 79
2
170
0
171
1
172
0
173
0
174
0
175
0
176
0
177
0
178
0
270
2
179
2
271
2
272
2
273
2
274
2
275
0
280
0
281
0
282
0
283
1
284
8
285
0
286
0
287
3
288
0
340
11
278
46
341
212
342
212
343
212
344
212
  0
ENDTAB
  0
ENDSEC
  0
SECTION
  2
BLOCKS
  0
BLOCK
  5
20
100
AcDbEntity
  8
0
100
AcDbBlockBegin
  2
*Model_Space
 70
0
 10
0.0
 20
0.0
 30
0.0
  3
*Model_Space
  1

  0
ENDBLK
  5
21
100
AcDbEntity
  8
0
100
AcDbBlockEnd
  0
BLOCK
  5
1C
100
AcDbEntity
  8
0
100
AcDbBlockBegin
  2
*Paper_Space
 70
0
 10
0.0
 20
0.0
 30
0.0
  3
*Paper_Space
  1

  0
ENDBLK
  5
1D
100
AcDbEntity
  8
0
100
AcDbBlockEnd
  0
BLOCK
  5
214
100
AcDbEntity
  8
0
100
AcDbBlockBegin
  2
_FILLED
 70
64
 10
0.0
 20
0.0
  3
_FILLED
  1

  0
SOLID
  5
215
100
AcDbEntity
  8
0
  6
BYBLOCK
 62
0
100
AcDbTrace
 10
0.0
 20
0.0
 11
-1.0
 21
0.25
 12
-1.0
 22
-0.25
 13
-1.0
 23
-0.25
  0
ENDBLK
  5
216
100
AcDbEntity
  8
0
  6
BYBLOCK
 62
0
100
AcDbBlockEnd
  0
ENDSEC
  0
SECTION
  2
ENTITIES
  0
LINE
  5
217
100
AcDbEntity
  8
0
100
AcDbLine
 62
7
  6
CONTINUOUS
 10
14.6437799053
 20
5.0517201919
 11
28.6437799053
 21
5.0517201919
  0
LINE
  5
218
100
AcDbEntity
  8
0
100
AcDbLine
 62
7
  6
CONTINUOUS
 10
28.3932437881
 20
7.2699779616
 11
13.3761903448
 21
7.2648236732
  0
LINE
  5
219
100
AcDbEntity
  8
0
100
AcDbLine
 62
7
  6
CONTINUOUS
 10
23.6437799053
 20
5.7517201919
 11
19.6437799053
 21
5.7517201919
  0
LINE
  5
21A
100
AcDbEntity
  8
0
100
AcDbLine
 62
7
  6
CONTINUOUS
 10
13.6437799053
 20
6.0517201919
 11
19.6437799053
 21
6.0517201919
  0
LINE
  5
21B
100
AcDbEntity
  8
0
100
AcDbLine
 62
7
  6
CONTINUOUS
 10
23.6437799053
 20
6.0517201919
 11
29.6437799053
 21
6.0517201919
  0
LINE
  5
21C
100
AcDbEntity
  8
0
100
AcDbLine
 62
7
  6
CONTINUOUS
 10
13.6437799053
 20
6.5517201919
 11
35.4507698651
 21
6.5517201919
  0
LINE
  5
21D
100
AcDbEntity
  8
0
100
AcDbLine
 62
7
  6
CONTINUOUS
 10
28.3766190737
 20
7.2005967503
 11
34.9117743882
 21
7.200596647
  0
LINE
  5
21E
100
AcDbEntity
  8
0
100
AcDbLine
 62
7
  6
CONTINUOUS
 10
35.8124464832
 20
7.2039427799
 11
36.387110438
 21
7.2005927311
  0
LINE
  5
21F
100
AcDbEntity
  8
0
100
AcDbLine
 62
7
  6
CONTINUOUS
 10
12.1437799053
 20
10.5517201919
 11
35.7010495001
 21
10.5517206395
  0
LINE
  5
220
100
AcDbEntity
  8
0
100
AcDbLine
 62
7
  6
CONTINUOUS
 10
36.8399761427
 20
10.5517201919
 11
37.6437799053
 21
10.5517201919
  0
LINE
  5
221
100
AcDbEntity
  8
0
100
AcDbLine
 62
7
  6
CONTINUOUS
 10
36.2993392936
 20
12.9807930148
 11
31.090360278
 21
12.9807930193
  0
LINE
  5
222
100
AcDbEntity
  8
0
100
AcDbLine
 62
7
  6
CONTINUOUS
 10
36.299380804
 20
13.3291006501
 11
31.8269679086
 21
13.3291006501
  0
LINE
  5
223
100
AcDbEntity
  8
0
100
AcDbLine
 62
7
  6
CONTINUOUS
 10
36.6437646312
 20
13.5517201919
 11
32.6437799053
 21
13.5517201919
  0
LINE
  5
224
100
AcDbEntity
  8
0
100
AcDbLine
 62
7
  6
CONTINUOUS
 10
8.1437799053
 20
49.7517201919
 11
8.888885366
 21
58.2683145798
  0
LINE
  5
225
100
AcDbEntity
  8
0
100
AcDbLine
 62
7
  6
CONTINUOUS
 10
12.1437930939
 20
10.5517251363
 11
13.3760386382
 21
7.2647669516
  0
LINE
  5
226
100
AcDbEntity
  8
0
100
AcDbLine
 62
7
  6
CONTINUOUS
 10
8.7437799053
 20
29.8517201919
 11
8.7437799053
 21
38.3517201919
  0
LINE
  5
227
100
AcDbEntity
  8
0
100
AcDbLine
 62
7
  6
CONTINUOUS
 10
8.7437799053
 20
41.3517201919
 11
8.7437799053
 21
44.3517201919
  0
LINE
  5
228
100
AcDbEntity
  8
0
100
AcDbLine
 62
7
  6
CONTINUOUS
 10
8.8206640461
 20
52.2517201917
 11
8.751610257
 21
51.0677639982
  0
LINE
  5
229
100
AcDbEntity
  8
0
100
AcDbLine
 62
7
  6
CONTINUOUS
 10
8.6364724534
 20
49.7517201919
 11
8.7516117014
 21
51.0677639975
  0
LINE
  5
22A
100
AcDbEntity
  8
0
100
AcDbLine
 62
7
  6
CONTINUOUS
 10
11.5737799053
 20
47.7517201919
 11
11.5737799053
 21
49.7517201919
  0
LINE
  5
22B
100
AcDbEntity
  8
0
100
AcDbLine
 62
7
  6
CONTINUOUS
 10
11.8437799053
 20
34.2517201919
 11
11.8437799053
 21
34.7254079289
  0
LINE
  5
22C
100
AcDbEntity
  8
0
100
AcDbLine
 62
7
  6
CONTINUOUS
 10
11.8437799053
 20
38.3517201919
 11
11.8437799053
 21
41.3517201919
  0
LINE
  5
22D
100
AcDbEntity
  8
0
100
AcDbLine
 62
7
  6
CONTINUOUS
 10
11.8437799053
 20
45.8517201919
 11
11.8437799053
 21
47.7517272691
  0
LINE
  5
22E
100
AcDbEntity
  8
0
100
AcDbLine
 62
7
  6
CONTINUOUS
 10
12.1437799053
 20
27.8517201919
 11
12.1437799053
 21
10.5517201919
  0
LINE
  5
22F
100
AcDbEntity
  8
0
100
AcDbLine
 62
7
  6
CONTINUOUS
 10
12.1680103386
 20
32.25172565
 11
12.1680213604
 21
34.2517201919
  0
LINE
  5
230
100
AcDbEntity
  8
0
100
AcDbLine
 62
7
  6
CONTINUOUS
 10
13.6437799053
 20
6.0517201919
 11
13.6437799053
 21
6.5517201919
  0
LINE
  5
231
100
AcDbEntity
  8
0
100
AcDbLine
 62
7
  6
CONTINUOUS
 10
18.6437799053
 20
35.9517201919
 11
18.6437799053
 21
27.1517201919
  0
LINE
  5
232
100
AcDbEntity
  8
0
100
AcDbLine
 62
7
  6
CONTINUOUS
 10
24.6437799053
 20
27.1517201919
 11
18.6437799053
 21
27.1517201919
  0
LINE
  5
233
100
AcDbEntity
  8
0
100
AcDbLine
 62
7
  6
CONTINUOUS
 10
31.1437799053
 20
27.8517201919
 11
12.1437799053
 21
27.8517201919
  0
LINE
  5
234
100
AcDbEntity
  8
0
100
AcDbLine
 62
7
  6
CONTINUOUS
 10
19.6437799053
 20
6.5517201919
 11
19.6437799053
 21
5.7517201919
  0
LINE
  5
235
100
AcDbEntity
  8
0
100
AcDbLine
 62
7
  6
CONTINUOUS
 10
9.7437800345
 20
28.8517201919
 11
33.543779776
 21
28.8517201919
  0
LINE
  5
236
100
AcDbEntity
  8
0
100
AcDbLine
 62
7
  6
CONTINUOUS
 10
8.7437799053
 20
29.8517201919
 11
34.5437799053
 21
29.8517201919
  0
LINE
  5
237
100
AcDbEntity
  8
0
100
AcDbLine
 62
7
  6
CONTINUOUS
 10
33.0634996917
 20
31.8517201919
 11
10.2240601188
 21
31.8517201919
  0
LINE
  5
238
100
AcDbEntity
  8
0
100
AcDbLine
 62
7
  6
CONTINUOUS
 10
23.6437799053
 20
5.7517201919
 11
23.6437799053
 21
6.5517201919
  0
LINE
  5
239
100
AcDbEntity
  8
0
100
AcDbLine
 62
7
  6
CONTINUOUS
 10
24.6437799053
 20
35.9517201919
 11
24.6437799053
 21
27.1517201919
  0
LINE
  5
23A
100
AcDbEntity
  8
0
100
AcDbLine
 62
7
  6
CONTINUOUS
 10
12.1680213604
 20
32.2517529404
 11
31.4437799053
 21
32.2517529404
  0
LINE
  5
23B
100
AcDbEntity
  8
0
100
AcDbLine
 62
7
  6
CONTINUOUS
 10
11.8437799053
 20
34.2517201919
 11
12.1680213604
 21
34.2517201919
  0
LINE
  5
23C
100
AcDbEntity
  8
0
100
AcDbLine
 62
7
  6
CONTINUOUS
 10
10.2240601727
 20
34.8517201919
 11
33.0634996917
 21
34.8517201919
  0
LINE
  5
23D
100
AcDbEntity
  8
0
100
AcDbLine
 62
7
  6
CONTINUOUS
 10
24.1437799053
 20
35.9517201919
 11
19.1437799053
 21
35.9517201919
  0
LINE
  5
23E
100
AcDbEntity
  8
0
100
AcDbLine
 62
7
  6
CONTINUOUS
 10
24.6437799053
 20
35.9517201919
 11
24.1437799053
 21
35.9517201919
  0
LINE
  5
23F
100
AcDbEntity
  8
0
100
AcDbLine
 62
7
  6
CONTINUOUS
 10
19.1437799053
 20
35.9517201919
 11
18.6437799053
 21
35.9517201919
  0
LINE
  5
240
100
AcDbEntity
  8
0
100
AcDbLine
 62
7
  6
CONTINUOUS
 10
31.1437799053
 20
31.9517029148
 11
31.4437799053
 21
32.2517023692
  0
LINE
  5
241
100
AcDbEntity
  8
0
100
AcDbLine
 62
7
  6
CONTINUOUS
 10
29.6437799053
 20
6.0517201919
 11
29.6437799053
 21
6.5517201919
  0
LINE
  5
242
100
AcDbEntity
  8
0
100
AcDbLine
 62
7
  6
CONTINUOUS
 10
31.1437799053
 20
27.8517201919
 11
31.1437799053
 21
15.0517201919
  0
LINE
  5
243
100
AcDbEntity
  8
0
100
AcDbLine
 62
7
  6
CONTINUOUS
 10
31.1437799053
 20
31.8517201919
 11
31.1437799053
 21
31.9517029148
  0
LINE
  5
244
100
AcDbEntity
  8
0
100
AcDbLine
 62
7
  6
CONTINUOUS
 10
34.5437799053
 20
38.3517201919
 11
27.6437798707
 21
38.3517201919
  0
LINE
  5
245
100
AcDbEntity
  8
0
100
AcDbLine
 62
7
  6
CONTINUOUS
 10
15.6437799053
 20
38.3517201919
 11
8.7437799053
 21
38.3517201919
  0
LINE
  5
246
100
AcDbEntity
  8
0
100
AcDbLine
 62
7
  6
CONTINUOUS
 10
16.2087086086
 20
38.8717201919
 11
11.8437799053
 21
38.8717201919
  0
LINE
  5
247
100
AcDbEntity
  8
0
100
AcDbLine
 62
7
  6
CONTINUOUS
 10
27.0788512019
 20
38.8717201919
 11
31.4437799053
 21
38.8717201919
  0
LINE
  5
248
100
AcDbEntity
  8
0
100
AcDbLine
 62
7
  6
CONTINUOUS
 10
11.8437799053
 20
39.5717201919
 11
17.0929331194
 21
39.5717201919
  0
LINE
  5
249
100
AcDbEntity
  8
0
100
AcDbLine
 62
7
  6
CONTINUOUS
 10
26.1903733605
 20
39.5717201919
 11
31.4437799053
 21
39.5717201919
  0
LINE
  5
24A
100
AcDbEntity
  8
0
100
AcDbLine
 62
7
  6
CONTINUOUS
 10
31.4437799053
 20
32.2517023692
 11
31.4437799053
 21
34.7237824716
  0
LINE
  5
24B
100
AcDbEntity
  8
0
100
AcDbLine
 62
7
  6
CONTINUOUS
 10
31.4437799053
 20
38.3517201919
 11
31.4437799053
 21
41.3517201919
  0
LINE
  5
24C
100
AcDbEntity
  8
0
100
AcDbLine
 62
7
  6
CONTINUOUS
 10
31.4437799053
 20
45.8517201919
 11
31.4437799053
 21
47.7517272691
  0
LINE
  5
24D
100
AcDbEntity
  8
0
100
AcDbLine
 62
7
  6
CONTINUOUS
 10
31.7137799053
 20
49.7517201919
 11
31.7137799053
 21
47.7517201919
  0
LINE
  5
24E
100
AcDbEntity
  8
0
100
AcDbLine
 62
7
  6
CONTINUOUS
 10
28.3930877017
 20
7.2703112373
 11
29.009239837
 21
10.5517201929
  0
LINE
  5
24F
100
AcDbEntity
  8
0
100
AcDbLine
 62
7
  6
CONTINUOUS
 10
16.2087086086
 20
40.2817201919
 11
11.8437799053
 21
40.2817201919
  0
LINE
  5
250
100
AcDbEntity
  8
0
100
AcDbLine
 62
7
  6
CONTINUOUS
 10
27.0788512019
 20
40.2817201919
 11
31.4437799053
 21
40.2817201919
  0
LINE
  5
251
100
AcDbEntity
  8
0
100
AcDbLine
 62
7
  6
CONTINUOUS
 10
11.8437799053
 20
40.9817201919
 11
16.5682676063
 21
40.9817201919
  0
LINE
  5
252
100
AcDbEntity
  8
0
100
AcDbLine
 62
7
  6
CONTINUOUS
 10
26.7207847434
 20
40.9817201919
 11
31.4437799053
 21
40.9817201919
  0
LINE
  5
253
100
AcDbEntity
  8
0
100
AcDbLine
 62
7
  6
CONTINUOUS
 10
8.7437799053
 20
41.3517201919
 11
15.6437799053
 21
41.3517201919
  0
LINE
  5
254
100
AcDbEntity
  8
0
100
AcDbLine
 62
7
  6
CONTINUOUS
 10
27.6437799053
 20
41.3517201919
 11
34.5437799053
 21
41.3517201919
  0
LWPOLYLINE
  5
255
100
AcDbEntity
  8
0
100
AcDbPolyline
 62
7
  6
CONTINUOUS
 90
4
 70
0
 10
37.6437649633
 20
12.5517029694
 10
37.5200262751
 20
13.0335399763
 10
37.1202423943
 20
13.4308917789
 10
36.6437646312
 20
13.5517057478
  0
LINE
  5
256
100
AcDbEntity
  8
0
100
AcDbLine
 62
7
  6
CONTINUOUS
 10
34.5437799053
 20
29.8517201919
 11
34.5437799053
 21
38.3517201919
  0
LINE
  5
257
100
AcDbEntity
  8
0
100
AcDbLine
 62
7
  6
CONTINUOUS
 10
34.5437799053
 20
41.3517201919
 11
34.5437799053
 21
44.3517201919
  0
LINE
  5
258
100
AcDbEntity
  8
0
100
AcDbLine
 62
7
  6
CONTINUOUS
 10
34.9117122733
 20
7.2005966986
 11
34.9117122733
 21
6.5517201919
  0
LINE
  5
259
100
AcDbEntity
  8
0
100
AcDbLine
 62
7
  6
CONTINUOUS
 10
34.535948109
 20
51.067763999
 11
34.6510873571
 21
49.7517201919
  0
LINE
  5
25A
100
AcDbEntity
  8
0
100
AcDbLine
 62
7
  6
CONTINUOUS
 10
35.1437799053
 20
49.7517201919
 11
34.398674449
 21
58.2683145279
  0
LINE
  5
25B
100
AcDbEntity
  8
0
100
AcDbLine
 62
7
  6
CONTINUOUS
 10
34.5359497399
 20
51.0677639982
 11
34.4668958671
 21
52.2517201962
  0
LINE
  5
25C
100
AcDbEntity
  8
0
100
AcDbLine
 62
7
  6
CONTINUOUS
 10
36.2994055984
 20
12.980793017
 11
36.2994055984
 21
13.329100627
  0
LINE
  5
25D
100
AcDbEntity
  8
0
100
AcDbLine
 62
7
  6
CONTINUOUS
 10
34.5437799053
 20
44.3517201919
 11
8.7437799053
 21
44.3517201919
  0
LINE
  5
25E
100
AcDbEntity
  8
0
100
AcDbLine
 62
7
  6
CONTINUOUS
 10
32.3810384714
 20
45.8517201919
 11
27.2115442655
 21
45.8517201919
  0
LINE
  5
25F
100
AcDbEntity
  8
0
100
AcDbLine
 62
7
  6
CONTINUOUS
 10
16.076015566
 20
45.8517201919
 11
10.9065213694
 21
45.8517201919
  0
LINE
  5
260
100
AcDbEntity
  8
0
100
AcDbLine
 62
7
  6
CONTINUOUS
 10
16.2087086086
 20
45.9017201919
 11
11.8437799053
 21
45.9017201919
  0
LINE
  5
261
100
AcDbEntity
  8
0
100
AcDbLine
 62
7
  6
CONTINUOUS
 10
27.0788512019
 20
45.9017201919
 11
31.4437799053
 21
45.9017201919
  0
LINE
  5
262
100
AcDbEntity
  8
0
100
AcDbLine
 62
7
  6
CONTINUOUS
 10
37.6437799053
 20
12.5517029694
 11
37.6437799053
 21
10.5517201919
  0
LINE
  5
263
100
AcDbEntity
  8
0
100
AcDbLine
 62
7
  6
CONTINUOUS
 10
17.7274678646
 20
46.6117201919
 11
11.8437799053
 21
46.6117201919
  0
LINE
  5
264
100
AcDbEntity
  8
0
100
AcDbLine
 62
7
  6
CONTINUOUS
 10
25.5600919459
 20
46.6117201919
 11
31.4437799053
 21
46.6117201919
  0
LINE
  5
265
100
AcDbEntity
  8
0
100
AcDbLine
 62
7
  6
CONTINUOUS
 10
16.1795061735
 20
47.3167201919
 11
11.8437484525
 21
47.3167201919
  0
LINE
  5
266
100
AcDbEntity
  8
0
100
AcDbLine
 62
7
  6
CONTINUOUS
 10
27.1080396403
 20
47.3167201919
 11
31.4437799053
 21
47.3167201919
  0
LINE
  5
267
100
AcDbEntity
  8
0
100
AcDbLine
 62
7
  6
CONTINUOUS
 10
11.5737799053
 20
47.7517201919
 11
31.7137799053
 21
47.7517201919
  0
LINE
  5
268
100
AcDbEntity
  8
0
100
AcDbLine
 62
7
  6
CONTINUOUS
 10
8.1437799053
 20
49.7517201919
 11
35.1437799053
 21
49.7517201919
  0
LINE
  5
269
100
AcDbEntity
  8
0
100
AcDbLine
 62
7
  6
CONTINUOUS
 10
34.535948109
 20
51.067763999
 11
8.7516117014
 21
51.0677639975
  0
LWPOLYLINE
  5
26A
100
AcDbEntity
  8
0
100
AcDbPolyline
 62
7
  6
CONTINUOUS
 90
4
 70
0
 10
34.9649905871
 20
51.7952914493
 10
34.8284747802
 20
52.0970502052
 10
34.6936974847
 20
52.1973112112
 10
34.4668938603
 20
52.2517100157
  0
LINE
  5
26B
100
AcDbEntity
  8
0
100
AcDbLine
 62
7
  6
CONTINUOUS
 10
36.3873452371
 20
7.2012277434
 11
37.6437799053
 21
10.5517201919
  0
LINE
  5
26C
100
AcDbEntity
  8
0
100
AcDbLine
 62
7
  6
CONTINUOUS
 10
34.4668938634
 20
52.2517201919
 11
8.8206659471
 21
52.2517201919
  0
LINE
  5
26D
100
AcDbEntity
  8
0
100
AcDbLine
 62
7
  6
CONTINUOUS
 10
34.7929503645
 20
53.7617201919
 11
8.494609446
 21
53.7617201919
  0
LINE
  5
26E
100
AcDbEntity
  8
0
100
AcDbLine
 62
7
  6
CONTINUOUS
 10
36.6438139813
 20
13.5517201919
 11
36.299380804
 21
13.3291006501
  0
LINE
  5
26F
100
AcDbEntity
  8
0
100
AcDbLine
 62
7
  6
CONTINUOUS
 10
37.6437799053
 20
12.5517296845
 11
37.2764447711
 21
12.3379981214
  0
LWPOLYLINE
  5
270
100
AcDbEntity
  8
0
100
AcDbPolyline
 62
7
  6
CONTINUOUS
 90
4
 70
0
 10
8.8206659502
 20
52.2517100157
 10
8.593862419
 20
52.1973112587
 10
8.4590850784
 20
52.0970502556
 10
8.3225692234
 20
51.7952914493
  0
LINE
  5
271
100
AcDbEntity
  8
0
100
AcDbLine
 62
7
  6
CONTINUOUS
 10
34.6617173692
 20
55.2617201919
 11
8.6258424413
 21
55.2617201919
  0
LINE
  5
272
100
AcDbEntity
  8
0
100
AcDbLine
 62
7
  6
CONTINUOUS
 10
34.5296094873
 20
56.7717201919
 11
8.7579503232
 21
56.7717201919
  0
LINE
  5
273
100
AcDbEntity
  8
0
100
AcDbLine
 62
7
  6
CONTINUOUS
 10
34.3987071081
 20
58.2679412326
 11
8.8888527024
 21
58.2679412326
  0
ARC
  5
274
100
AcDbEntity
  8
0
100
AcDbCircle
 62
7
  6
CONTINUOUS
 10
-584.6009342333
 20
178.9191990374
 40
642.8710252132
100
AcDbArc
 50
344.5075125667
 51
344.816431036
  0
ARC
  5
275
100
AcDbEntity
  8
0
100
AcDbCircle
 62
7
  6
CONTINUOUS
 10
16.0602099306
 20
16.6766605319
 40
20.573813309
100
AcDbArc
 50
342.6801492254
 51
349.6512433048
  0
ARC
  5
276
100
AcDbEntity
  8
0
100
AcDbCircle
 62
7
  6
CONTINUOUS
 10
18.0734956935
 20
16.0836851074
 40
19.564851757
100
AcDbArc
 50
343.5755885022
 51
348.9625949428
  0
ARC
  5
277
100
AcDbEntity
  8
0
100
AcDbCircle
 62
7
  6
CONTINUOUS
 10
18.2553150588
 20
63.1057689047
 40
19.3347894269
100
AcDbArc
 50
296.6795686887
 51
297.1521789445
  0
ARC
  5
278
100
AcDbEntity
  8
0
100
AcDbCircle
 62
7
  6
CONTINUOUS
 10
25.0261506321
 20
63.0938079946
 40
19.3213655535
100
AcDbArc
 50
242.8477146167
 51
243.3403487259
  0
ARC
  5
279
100
AcDbEntity
  8
0
100
AcDbCircle
 62
7
  6
CONTINUOUS
 10
24.9466281429
 20
55.4247546673
 40
18.7177506163
100
AcDbArc
 50
242.1715836115
 51
243.3247115781
  0
ARC
  5
27A
100
AcDbEntity
  8
0
100
AcDbCircle
 62
7
  6
CONTINUOUS
 10
18.3415651008
 20
55.4235281888
 40
18.7163702779
100
AcDbArc
 50
296.6725702797
 51
297.8284542712
  0
ARC
  5
27B
100
AcDbEntity
  8
0
100
AcDbCircle
 62
7
  6
CONTINUOUS
 10
24.5625970183
 20
24.2464573346
 40
18.0808491633
100
AcDbArc
 50
115.036268452
 51
117.5181548473
  0
ARC
  5
27C
100
AcDbEntity
  8
0
100
AcDbCircle
 62
7
  6
CONTINUOUS
 10
18.7273225284
 20
24.2511570009
 40
18.0755909283
100
AcDbArc
 50
62.4815959473
 51
64.9734028298
  0
ARC
  5
27D
100
AcDbEntity
  8
0
100
AcDbCircle
 62
7
  6
CONTINUOUS
 10
18.7806924884
 20
22.9475334466
 40
17.9565910332
100
AcDbArc
 50
62.4757961441
 51
65.1969020224
  0
ARC
  5
27E
100
AcDbEntity
  8
0
100
AcDbCircle
 62
7
  6
CONTINUOUS
 10
24.5062873549
 20
22.9486880863
 40
17.9552990643
100
AcDbArc
 50
114.8005320367
 51
117.5242653211
  0
ARC
  5
27F
100
AcDbEntity
  8
0
100
AcDbCircle
 62
7
  6
CONTINUOUS
 10
18.8763417271
 20
55.7886415774
 40
17.5426843027
100
AcDbArc
 50
294.5131246467
 51
297.8769581789
  0
ARC
  5
280
100
AcDbEntity
  8
0
100
AcDbCircle
 62
7
  6
CONTINUOUS
 10
24.410947029
 20
55.788105686
 40
17.5420838613
100
AcDbArc
 50
242.1230059926
 51
245.4882412979
  0
ARC
  5
281
100
AcDbEntity
  8
0
100
AcDbCircle
 62
7
  6
CONTINUOUS
 10
21.6437799053
 20
53.4350535252
 40
9.0833333333
100
AcDbArc
 50
239.844093009
 51
300.155906991
  0
ARC
  5
282
100
AcDbEntity
  8
0
100
AcDbCircle
 62
7
  6
CONTINUOUS
 10
27.2115442681
 20
43.8517201919
 40
2.0
100
AcDbArc
 50
90.0
 51
120.155906991
  0
ARC
  5
283
100
AcDbEntity
  8
0
100
AcDbCircle
 62
7
  6
CONTINUOUS
 10
16.0760155424
 20
43.8517201919
 40
2.0
100
AcDbArc
 50
59.844093009
 51
90.0
  0
ARC
  5
284
100
AcDbEntity
  8
0
100
AcDbCircle
 62
7
  6
CONTINUOUS
 10
27.6437799053
 20
39.8517201919
 40
1.5
100
AcDbArc
 50
90.0
 51
269.9999986819
  0
ARC
  5
285
100
AcDbEntity
  8
0
100
AcDbCircle
 62
7
  6
CONTINUOUS
 10
15.6437799053
 20
39.8517201919
 40
1.5
100
AcDbArc
 50
270.0
 51
90.0
  0
ARC
  5
286
100
AcDbEntity
  8
0
100
AcDbCircle
 62
7
  6
CONTINUOUS
 10
14.4059047849
 20
7.6517168007
 40
1.0999991998
100
AcDbArc
 50
200.5926325786
 51
270.0119765542
  0
ARC
  5
287
100
AcDbEntity
  8
0
100
AcDbCircle
 62
7
  6
CONTINUOUS
 10
14.6437799053
 20
6.0517201919
 40
1.0
100
AcDbArc
 50
180.0
 51
270.0
  0
ARC
  5
288
100
AcDbEntity
  8
0
100
AcDbCircle
 62
7
  6
CONTINUOUS
 10
28.6437799053
 20
6.0517201919
 40
1.0
100
AcDbArc
 50
270.0
 51
360.0
  0
ARC
  5
289
100
AcDbEntity
  8
0
100
AcDbCircle
 62
7
  6
CONTINUOUS
 10
32.1437799053
 20
27.8517201919
 40
1.0
100
AcDbArc
 50
90.0000035667
 51
180.0
  0
ARC
  5
28A
100
AcDbEntity
  8
0
100
AcDbCircle
 62
7
  6
CONTINUOUS
 10
11.1437799053
 20
27.8517201919
 40
1.0
100
AcDbArc
 50
0.0
 51
89.9998915345
  0
ARC
  5
28B
100
AcDbEntity
  8
0
100
AcDbCircle
 62
7
  6
CONTINUOUS
 10
9.7437799053
 20
29.8517201919
 40
1.0
100
AcDbArc
 50
180.0
 51
270.0000074072
  0
ARC
  5
28C
100
AcDbEntity
  8
0
100
AcDbCircle
 62
7
  6
CONTINUOUS
 10
33.5437799053
 20
29.8517201919
 40
1.0
100
AcDbArc
 50
269.9999925928
 51
360.0
  0
ARC
  5
28D
100
AcDbEntity
  8
0
100
AcDbCircle
 62
7
  6
CONTINUOUS
 10
35.4507811789
 20
7.5517140879
 40
0.9999993443
100
AcDbArc
 50
270.0
 51
339.4440682664
  0
ARC
  5
28E
100
AcDbEntity
  8
0
100
AcDbCircle
 62
7
  6
CONTINUOUS
 10
35.701426995
 20
9.5901603721
 40
0.9615603415
100
AcDbArc
 50
82.4014973089
 51
90.0224935037
  0
ARC
  5
28F
100
AcDbEntity
  8
0
100
AcDbCircle
 62
7
  6
CONTINUOUS
 10
34.910903536
 20
7.4823409744
 40
0.9306211241
100
AcDbArc
 50
270.0490907589
 51
298.8971561572
  0
ARC
  5
290
100
AcDbEntity
  8
0
100
AcDbCircle
 62
7
  6
CONTINUOUS
 10
27.6325550227
 20
7.4131691637
 40
0.773833537
100
AcDbArc
 50
344.0558368346
 51
349.3615656351
  0
SPLINE
  5
291
100
AcDbEntity
  8
0
100
AcDbSpline
 62
7
  6
CONTINUOUS
 70
0
 71
3
 72
8
 73
4
 74
0
 42
0.0000001
 43
0.0000001
 44
0.0000000001
 40
0.0
 40
0.0
 40
0.0
 40
0.0
 40
1.0
 40
1.0
 40
1.0
 40
1.0
 10
12.5823304982
 20
31.8517063591
 30
0.0
 10
12.4441184409
 20
31.9849369331
 30
0.0
 10
12.3060184814
 20
32.1182838606
 30
0.0
 10
12.1680103386
 20
32.25172565
 30
0.0
  0
SPLINE
  5
292
100
AcDbEntity
  8
0
100
AcDbSpline
 62
7
  6
CONTINUOUS
 70
0
 71
3
 72
18
 73
14
 74
0
 42
0.0000001
 43
0.0000001
 44
0.0000000001
 40
0.0
 40
0.0
 40
0.0
 40
0.0
 40
0.1738311653
 40
0.3509001465
 40
0.5215507302
 40
0.6749635114
 40
0.8014437995
 40
0.8530741178
 40
0.8964725933
 40
0.9316342459
 40
0.9594821892
 40
0.9815312808
 40
1.0
 40
1.0
 40
1.0
 40
1.0
 10
8.7516133987
 20
51.0677851918
 30
0.0
 10
8.7217105625
 20
51.0702851996
 30
0.0
 10
8.6612460221
 20
51.0741824565
 30
0.0
 10
8.57121609
 20
51.0764384034
 30
0.0
 10
8.4846911004
 20
51.074450883
 30
0.0
 10
8.4071155855
 20
51.0683194255
 30
0.0
 10
8.3504958696
 20
51.0592141317
 30
0.0
 10
8.3134786493
 20
51.0495127696
 30
0.0
 10
8.2922461445
 20
51.0420405066
 30
0.0
 10
8.2757059077
 20
51.0339147433
 30
0.0
 10
8.2637334128
 20
51.0252469645
 30
0.0
 10
8.2560603822
 20
51.0160476128
 30
0.0
 10
8.2537937539
 20
51.0091841071
 30
0.0
 10
8.2535158801
 20
51.0060081244
 30
0.0
  0
SPLINE
  5
293
100
AcDbEntity
  8
0
100
AcDbSpline
 62
7
  6
CONTINUOUS
 70
0
 71
3
 72
18
 73
14
 74
0
 42
0.0000001
 43
0.0000001
 44
0.0000000001
 40
0.0
 40
0.0
 40
0.0
 40
0.0
 40
0.0184687175
 40
0.0405178074
 40
0.0683657496
 40
0.1035274016
 40
0.1469258767
 40
0.1985561945
 40
0.3250364829
 40
0.4784492655
 40
0.64909985
 40
0.8261688334
 40
1.0
 40
1.0
 40
1.0
 40
1.0
 10
35.0340439324
 20
51.0060081012
 30
0.0
 10
35.0337660587
 20
51.0091840835
 30
0.0
 10
35.0314994304
 20
51.0160475887
 30
0.0
 10
35.0238263998
 20
51.0252469392
 30
0.0
 10
35.011853905
 20
51.0339147169
 30
0.0
 10
34.9953136682
 20
51.0420404791
 30
0.0
 10
34.9740811636
 20
51.0495127411
 30
0.0
 10
34.9370639435
 20
51.0592141019
 30
0.0
 10
34.8804442277
 20
51.0683193939
 30
0.0
 10
34.8028687129
 20
51.0744508501
 30
0.0
 10
34.7163437234
 20
51.0764383696
 30
0.0
 10
34.6263137914
 20
51.0741824218
 30
0.0
 10
34.565849251
 20
51.070285165
 30
0.0
 10
34.5359464148
 20
51.0677851571
 30
0.0
  0
SPLINE
  5
294
100
AcDbEntity
  8
0
100
AcDbSpline
 62
7
  6
CONTINUOUS
 70
0
 71
3
 72
9
 73
5
 74
0
 42
0.0000001
 43
0.0000001
 44
0.0000000001
 40
0.0
 40
0.0
 40
0.0
 40
0.0
 40
0.2500426578
 40
1.0
 40
1.0
 40
1.0
 40
1.0
 10
16.1795018376
 20
47.3167292735
 30
0.0
 10
16.305570901
 20
47.2518093613
 30
0.0
 10
16.8125182073
 20
46.9976206506
 30
0.0
 10
17.3315201855
 20
46.7670107169
 30
0.0
 10
17.7274678646
 20
46.6117201919
 30
0.0
  0
SPLINE
  5
295
100
AcDbEntity
  8
0
100
AcDbSpline
 62
7
  6
CONTINUOUS
 70
0
 71
3
 72
9
 73
5
 74
0
 42
0.0000001
 43
0.0000001
 44
0.0000000001
 40
0.0
 40
0.0
 40
0.0
 40
0.0
 40
0.2500358669
 40
1.0
 40
1.0
 40
1.0
 40
1.0
 10
25.5600919459
 20
46.6117201919
 30
0.0
 10
25.6920960368
 20
46.6634921447
 30
0.0
 10
26.2169560064
 20
46.8783887851
 30
0.0
 10
26.7298512978
 20
47.1219716827
 30
0.0
 10
27.1079618103
 20
47.3166816348
 30
0.0
  0
SPLINE
  5
296
100
AcDbEntity
  8
0
100
AcDbSpline
 62
7
  6
CONTINUOUS
 70
0
 71
3
 72
9
 73
5
 74
0
 42
0.0000001
 43
0.0000001
 44
0.0000000001
 40
0.0
 40
0.0
 40
0.0
 40
0.0
 40
0.2500368405
 40
1.0
 40
1.0
 40
1.0
 40
1.0
 10
25.5600919459
 20
46.6117201919
 30
0.0
 10
25.689701989
 20
46.5594137631
 30
0.0
 10
26.2049475637
 20
46.3425077665
 30
0.0
 10
26.7080915523
 20
46.0973748438
 30
0.0
 10
27.0788512019
 20
45.9017201919
 30
0.0
  0
SPLINE
  5
297
100
AcDbEntity
  8
0
100
AcDbSpline
 62
7
  6
CONTINUOUS
 70
0
 71
3
 72
11
 73
7
 74
0
 42
0.0000001
 43
0.0000001
 44
0.0000000001
 40
0.0
 40
0.0
 40
0.0
 40
0.0
 40
0.2499992426
 40
0.5000012532
 40
0.7499999933
 40
1.0
 40
1.0
 40
1.0
 40
1.0
 10
26.0786370163
 20
47.7517222887
 30
0.0
 10
26.1655033813
 20
47.7181268172
 30
0.0
 10
26.3386605235
 20
47.6494386062
 30
0.0
 10
26.5968599509
 20
47.5426279987
 30
0.0
 10
26.8533941917
 20
47.4318706923
 30
0.0
 10
27.0232508664
 20
47.3553924872
 30
0.0
 10
27.1079618103
 20
47.3166816348
 30
0.0
  0
SPLINE
  5
298
100
AcDbEntity
  8
0
100
AcDbSpline
 62
7
  6
CONTINUOUS
 70
0
 71
3
 72
11
 73
7
 74
0
 42
0.0000001
 43
0.0000001
 44
0.0000000001
 40
0.0
 40
0.0
 40
0.0
 40
0.0
 40
0.2499999176
 40
0.4999987621
 40
0.7500008648
 40
1.0
 40
1.0
 40
1.0
 40
1.0
 10
16.1795018376
 20
47.3167292735
 30
0.0
 10
16.2642025671
 20
47.3554359776
 30
0.0
 10
16.4340929469
 20
47.4317870682
 30
0.0
 10
16.6906413583
 20
47.542425705
 30
0.0
 10
16.94876432
 20
47.6493320401
 30
0.0
 10
17.1218540846
 20
47.7181323316
 30
0.0
 10
17.2087099545
 20
47.7517243855
 30
0.0
  0
SPLINE
  5
299
100
AcDbEntity
  8
0
100
AcDbSpline
 62
7
  6
CONTINUOUS
 70
0
 71
3
 72
9
 73
5
 74
0
 42
0.0000001
 43
0.0000001
 44
0.0000000001
 40
0.0
 40
0.0
 40
0.0
 40
0.0
 40
0.7499631307
 40
1.0
 40
1.0
 40
1.0
 40
1.0
 10
16.2087086086
 20
45.9017201919
 30
0.0
 10
16.5794682441
 20
46.0973748364
 30
0.0
 10
17.0826122222
 20
46.3425077825
 30
0.0
 10
17.5978578065
 20
46.5594137571
 30
0.0
 10
17.7274678646
 20
46.6117201919
 30
0.0
  0
SPLINE
  5
29A
100
AcDbEntity
  8
0
100
AcDbSpline
 62
7
  6
CONTINUOUS
 70
0
 71
3
 72
11
 73
7
 74
0
 42
0.0000001
 43
0.0000001
 44
0.0000000001
 40
0.0
 40
0.0
 40
0.0
 40
0.0
 40
0.059047213
 40
0.2399303867
 40
0.5514618107
 40
1.0
 40
1.0
 40
1.0
 40
1.0
 10
34.5437799053
 20
44.3517201919
 30
0.0
 10
34.5229201641
 20
44.3813384137
 30
0.0
 10
34.4363321952
 20
44.5004036816
 30
0.0
 10
34.2211725584
 20
44.762081908
 30
0.0
 10
33.807398434
 20
45.1667313133
 30
0.0
 10
33.4262902319
 20
45.4406347656
 30
0.0
 10
33.1896191282
 20
45.5810435002
 30
0.0
  0
SPLINE
  5
29B
100
AcDbEntity
  8
0
100
AcDbSpline
 62
7
  6
CONTINUOUS
 70
0
 71
3
 72
15
 73
11
 74
0
 42
0.0000001
 43
0.0000001
 44
0.0000000001
 40
0.0
 40
0.0
 40
0.0
 40
0.0
 40
0.1166421219
 40
0.2400259229
 40
0.3687276033
 40
0.4999997541
 40
0.6312719421
 40
0.7599737233
 40
0.8833576815
 40
1.0
 40
1.0
 40
1.0
 40
1.0
 10
31.1437799053
 20
15.0517201247
 30
0.0
 10
31.1437799093
 20
14.9602658377
 30
0.0
 10
31.1612885986
 20
14.7716792124
 30
0.0
 10
31.2412726934
 20
14.4919830743
 30
0.0
 10
31.3814236154
 20
14.2237980544
 30
0.0
 10
31.5752821903
 20
13.9832232174
 30
0.0
 10
31.8158569561
 20
13.7893644266
 30
0.0
 10
32.0840420995
 20
13.6492132302
 30
0.0
 10
32.3637385574
 20
13.5692289331
 30
0.0
 10
32.5523254623
 20
13.551720192
 30
0.0
 10
32.6437799036
 20
13.5517201919
 30
0.0
  0
SPLINE
  5
29C
100
AcDbEntity
  8
0
100
AcDbSpline
 62
7
  6
CONTINUOUS
 70
0
 71
3
 72
13
 73
9
 74
0
 42
0.0000001
 43
0.0000001
 44
0.0000000001
 40
0.0
 40
0.0
 40
0.0
 40
0.0
 40
0.0958884216
 40
0.2043214962
 40
0.3224660286
 40
0.4481869636
 40
0.7162798976
 40
1.0
 40
1.0
 40
1.0
 40
1.0
 10
10.9065213681
 20
45.8517201919
 30
0.0
 10
10.8790188292
 20
45.8517201919
 30
0.0
 10
10.8204148762
 20
45.8474268018
 30
0.0
 10
10.7291057592
 20
45.8322609733
 30
0.0
 10
10.6307184054
 20
45.8089196935
 30
0.0
 10
10.4900243288
 20
45.7666554346
 30
0.0
 10
10.3087425733
 20
45.6956237978
 30
0.0
 10
10.1679271739
 20
45.6225640516
 30
0.0
 10
10.0979406823
 20
45.5810435002
 30
0.0
  0
SPLINE
  5
29D
100
AcDbEntity
  8
0
100
AcDbSpline
 62
7
  6
CONTINUOUS
 70
0
 71
3
 72
11
 73
7
 74
0
 42
0.0000001
 43
0.0000001
 44
0.0000000001
 40
0.0
 40
0.0
 40
0.0
 40
0.0
 40
0.4485381719
 40
0.7600696022
 40
0.9409527838
 40
1.0
 40
1.0
 40
1.0
 40
1.0
 10
10.0979406823
 20
45.5810435002
 30
0.0
 10
9.8612695878
 20
45.440634771
 30
0.0
 10
9.4801613895
 20
45.1667313254
 30
0.0
 10
9.0663872651
 20
44.7620819225
 30
0.0
 10
8.8512276212
 20
44.5004036881
 30
0.0
 10
8.7646396477
 20
44.3813384152
 30
0.0
 10
8.7437799053
 20
44.3517201919
 30
0.0
  0
SPLINE
  5
29E
100
AcDbEntity
  8
0
100
AcDbSpline
 62
7
  6
CONTINUOUS
 70
0
 71
3
 72
33
 73
29
 74
0
 42
0.0000001
 43
0.0000001
 44
0.0000000001
 40
0.0
 40
0.0
 40
0.0
 40
0.0
 40
0.0222445124
 40
0.0443377931
 40
0.0666586861
 40
0.0896306646
 40
0.1136897809
 40
0.1392461306
 40
0.1666273506
 40
0.1960555604
 40
0.2276757027
 40
0.26148859
 40
0.3352354379
 40
0.4155142144
 40
0.4993243965
 40
0.5830653132
 40
0.6631899755
 40
0.7368286578
 40
0.7706490021
 40
0.8023355039
 40
0.8318949456
 40
0.8594652883
 40
0.8852572075
 40
0.909577551
 40
0.932809709
 40
0.955363625
 40
0.9776390453
 40
1.0
 40
1.0
 40
1.0
 40
1.0
 10
31.161810531
 20
34.8517201919
 30
0.0
 10
31.1895152346
 20
34.8517201926
 30
0.0
 10
31.2448311377
 20
34.8478284232
 30
0.0
 10
31.3261367124
 20
34.8295444849
 30
0.0
 10
31.4044831355
 20
34.798491371
 30
0.0
 10
31.4791398447
 20
34.7543868215
 30
0.0
 10
31.5495715697
 20
34.6972184862
 30
0.0
 10
31.6152477843
 20
34.6269705129
 30
0.0
 10
31.675748056
 20
34.54384872
 30
0.0
 10
31.7307244981
 20
34.4482006106
 30
0.0
 10
31.779697673
 20
34.3405126951
 30
0.0
 10
31.8383840144
 20
34.1772381447
 30
0.0
 10
31.8930729561
 20
33.9490342692
 30
0.0
 10
31.9297157011
 20
33.6546223326
 30
0.0
 10
31.9385248052
 20
33.3456459647
 30
0.0
 10
31.9195398682
 20
33.0373207018
 30
0.0
 10
31.8732864203
 20
32.7446841342
 30
0.0
 10
31.8113148976
 20
32.5186929674
 30
0.0
 10
31.7475910455
 20
32.3573686376
 30
0.0
 10
31.6953185308
 20
32.2509646244
 30
0.0
 10
31.6374653335
 20
32.1564727859
 30
0.0
 10
31.5744949599
 20
32.0743459087
 30
0.0
 10
31.506758715
 20
32.0049050305
 30
0.0
 10
31.4346625067
 20
31.9483391572
 30
0.0
 10
31.3587009897
 20
31.9046433568
 30
0.0
 10
31.279378824
 20
31.8738187964
 30
0.0
 10
31.1973871931
 20
31.8556196102
 30
0.0
 10
31.1417024439
 20
31.8517201919
 30
0.0
 10
31.1138527157
 20
31.8517201919
 30
0.0
  0
SPLINE
  5
29F
100
AcDbEntity
  8
0
100
AcDbSpline
 62
7
  6
CONTINUOUS
 70
0
 71
3
 72
33
 73
29
 74
0
 42
0.0000001
 43
0.0000001
 44
0.0000000001
 40
0.0
 40
0.0
 40
0.0
 40
0.0
 40
0.022360795
 40
0.0446361402
 40
0.067190767
 40
0.0904248522
 40
0.1147478683
 40
0.1405429476
 40
0.1681186889
 40
0.1976831275
 40
0.229376246
 40
0.2632055158
 40
0.3368569865
 40
0.4169898591
 40
0.500733884
 40
0.5845421299
 40
0.6648135167
 40
0.7385473749
 40
0.77235151
 40
0.8039643322
 40
0.8333877015
 40
0.8607632117
 40
0.8863162957
 40
0.9103725609
 40
0.9333423206
 40
0.955662219
 40
0.9777553913
 40
1.0
 40
1.0
 40
1.0
 40
1.0
 10
12.1737070948
 20
31.8517201919
 30
0.0
 10
12.1458575634
 20
31.8517201919
 30
0.0
 10
12.0901730887
 20
31.8556191505
 30
0.0
 10
12.0081807806
 20
31.8738182656
 30
0.0
 10
11.9288558316
 20
31.9046446062
 30
0.0
 10
11.8528890816
 20
31.9483447
 30
0.0
 10
11.7807860252
 20
32.0049174234
 30
0.0
 10
11.7130405724
 20
32.0743693963
 30
0.0
 10
11.650070287
 20
32.1565176891
 30
0.0
 10
11.5922069657
 20
32.2510278718
 30
0.0
 10
11.5399292948
 20
32.3574582801
 30
0.0
 10
11.4762090564
 20
32.5188219061
 30
0.0
 10
11.4142371868
 20
32.744851448
 30
0.0
 10
11.368000765
 20
33.0375214224
 30
0.0
 10
11.3490301826
 20
33.3458590596
 30
0.0
 10
11.3578573458
 20
33.6548274664
 30
0.0
 10
11.3945182048
 20
33.9492089498
 30
0.0
 10
11.4492107197
 20
34.1773746564
 30
0.0
 10
11.5078995493
 20
34.3406100821
 30
0.0
 10
11.5568716818
 20
34.4482693769
 30
0.0
 10
11.611835878
 20
34.5438991574
 30
0.0
 10
11.672338638
 20
34.6269979191
 30
0.0
 10
11.7380058733
 20
34.6972334883
 30
0.0
 10
11.8084306212
 20
34.7543940646
 30
0.0
 10
11.8830815297
 20
34.7984934269
 30
0.0
 10
11.9614242767
 20
34.8295444717
 30
0.0
 10
12.0427286093
 20
34.8478280809
 30
0.0
 10
12.0980444832
 20
34.851720194
 30
0.0
 10
12.1257493088
 20
34.8517201919
 30
0.0
  0
SPLINE
  5
2A0
100
AcDbEntity
  8
0
100
AcDbSpline
 62
7
  6
CONTINUOUS
 70
0
 71
3
 72
13
 73
9
 74
0
 42
0.0000001
 43
0.0000001
 44
0.0000000001
 40
0.0
 40
0.0
 40
0.0
 40
0.0
 40
0.2838391827
 40
0.551877094
 40
0.6776555332
 40
0.7958002802
 40
0.9040980957
 40
1.0
 40
1.0
 40
1.0
 40
1.0
 10
33.1896191282
 20
45.5810435002
 30
0.0
 10
33.1196036373
 20
45.6225812559
 30
0.0
 10
32.9787697146
 20
45.6956454108
 30
0.0
 10
32.7974456684
 20
45.7666626038
 30
0.0
 10
32.6567508648
 20
45.8089200832
 30
0.0
 10
32.558391139
 20
45.8322841208
 30
0.0
 10
32.4671114633
 20
45.8474064376
 30
0.0
 10
32.4085447094
 20
45.8517201919
 30
0.0
 10
32.3810384506
 20
45.8517201919
 30
0.0
  0
SPLINE
  5
2A1
100
AcDbEntity
  8
0
100
AcDbSpline
 62
7
  6
CONTINUOUS
 70
0
 71
3
 72
14
 73
10
 74
0
 42
0.0000001
 43
0.0000001
 44
0.0000000001
 40
0.0
 40
0.0
 40
0.0
 40
0.0
 40
0.1149148433
 40
0.2370972675
 40
0.3652751725
 40
0.4967374371
 40
0.6288049586
 40
0.7586307123
 40
1.0
 40
1.0
 40
1.0
 40
1.0
 10
36.2994062671
 20
13.3291081235
 30
0.0
 10
36.3579343779
 20
13.3274253223
 30
0.0
 10
36.4786118889
 20
13.3127753391
 30
0.0
 10
36.6572754313
 20
13.2568388469
 30
0.0
 10
36.8290961065
 20
13.1630069484
 30
0.0
 10
36.9841849617
 20
13.035355155
 30
0.0
 10
37.1108064818
 20
12.8781979712
 30
0.0
 10
37.2323774805
 20
12.6511931794
 30
0.0
 10
37.2730507068
 20
12.4608150393
 30
0.0
 10
37.2764716814
 20
12.3378782859
 30
0.0
  0
SPLINE
  5
2A2
100
AcDbEntity
  8
0
100
AcDbSpline
 62
7
  6
CONTINUOUS
 70
0
 71
3
 72
11
 73
7
 74
0
 42
0.0000001
 43
0.0000001
 44
0.0000000001
 40
0.0
 40
0.0
 40
0.0
 40
0.0
 40
0.269971445
 40
0.5268817452
 40
0.7693640631
 40
1.0
 40
1.0
 40
1.0
 40
1.0
 10
31.090360322
 20
12.9807929839
 30
0.0
 10
31.1474623251
 20
13.0281896056
 30
0.0
 10
31.2644431345
 20
13.1142760214
 30
0.0
 10
31.4493591241
 20
13.2180322017
 30
0.0
 10
31.6364901295
 20
13.2922758472
 30
0.0
 10
31.764105126
 20
13.3208865371
 30
0.0
 10
31.8269678997
 20
13.3291006216
 30
0.0
  0
SPLINE
  5
2A3
100
AcDbEntity
  8
0
100
AcDbSpline
 62
7
  6
CONTINUOUS
 70
0
 71
3
 72
14
 73
10
 74
0
 42
0.0000001
 43
0.0000001
 44
0.0000000001
 40
0.0
 40
0.0
 40
0.0
 40
0.0
 40
0.2438901831
 40
0.3758898818
 40
0.5098314205
 40
0.642088669
 40
0.7694657773
 40
0.8891011984
 40
1.0
 40
1.0
 40
1.0
 40
1.0
 10
30.6285815052
 20
14.5849201513
 30
0.0
 10
30.6397154309
 20
14.4321606213
 30
0.0
 10
30.6980573115
 20
14.1974350388
 30
0.0
 10
30.8512991115
 20
13.9151019208
 30
0.0
 10
31.006958702
 20
13.7175045589
 30
0.0
 10
31.1946029732
 20
13.5545171227
 30
0.0
 10
31.40058595
 20
13.4321535959
 30
0.0
 10
31.6134900187
 20
13.356084544
 30
0.0
 10
31.7574470782
 20
13.3332616113
 30
0.0
 10
31.8269678905
 20
13.3291006204
 30
0.0
  0
SPLINE
  5
2A4
100
AcDbEntity
  8
0
100
AcDbSpline
 62
7
  6
CONTINUOUS
 70
0
 71
3
 72
31
 73
27
 74
0
 42
0.0000001
 43
0.0000001
 44
0.0000000001
 40
0.0
 40
0.0
 40
0.0
 40
0.0
 40
0.0002856356
 40
0.0006419878
 40
0.0011400707
 40
0.0025595532
 40
0.0045403316
 40
0.0070786547
 40
0.0101707717
 40
0.0138129322
 40
0.0180013861
 40
0.0280021756
 40
0.0401431484
 40
0.0543943186
 40
0.0707257073
 40
0.0891073426
 40
0.1095092595
 40
0.1562510051
 40
0.210682073
 40
0.2725204928
 40
0.3414842281
 40
0.4172912805
 40
0.4996596382
 40
0.5883063202
 40
0.7832993379
 40
1.0
 40
1.0
 40
1.0
 40
1.0
 10
32.6437799053
 20
13.5517201919
 30
0.0
 10
32.6438196237
 20
13.5516500479
 30
0.0
 10
32.6434581603
 20
13.5516850769
 30
0.0
 10
32.6432422019
 20
13.551565141
 30
0.0
 10
32.6425655679
 20
13.5514309256
 30
0.0
 10
32.6415396629
 20
13.5511431629
 30
0.0
 10
32.6398959137
 20
13.5507387478
 30
0.0
 10
32.6378219199
 20
13.5502055863
 30
0.0
 10
32.6352835955
 20
13.5495599614
 30
0.0
 10
32.632298042
 20
13.5487962726
 30
0.0
 10
32.6274228038
 20
13.5475480396
 30
0.0
 10
32.6202261487
 20
13.5456990618
 30
0.0
 10
32.6102811681
 20
13.5431340176
 30
0.0
 10
32.5986093655
 20
13.5401112158
 30
0.0
 10
32.5852360756
 20
13.5366335131
 30
0.0
 10
32.5701868719
 20
13.5327036474
 30
0.0
 10
32.5468403611
 20
13.5265814122
 30
0.0
 10
32.5136675813
 20
13.5178237155
 30
0.0
 10
32.4692106716
 20
13.5059973914
 30
0.0
 10
32.4187165914
 20
13.4924716904
 30
0.0
 10
32.3624204408
 20
13.4772922317
 30
0.0
 10
32.3005572557
 20
13.4605050414
 30
0.0
 10
32.2333625279
 20
13.442155627
 30
0.0
 10
32.1337632696
 20
13.4147901206
 30
0.0
 10
31.997696125
 20
13.3770649295
 30
0.0
 10
31.8858277425
 20
13.3456958734
 30
0.0
 10
31.8269679086
 20
13.3291006501
 30
0.0
  0
SPLINE
  5
2A5
100
AcDbEntity
  8
0
100
AcDbSpline
 62
7
  6
CONTINUOUS
 70
0
 71
3
 72
15
 73
11
 74
0
 42
0.0000001
 43
0.0000001
 44
0.0000000001
 40
0.0
 40
0.0
 40
0.0
 40
0.0
 40
0.142157971
 40
0.283625796
 40
0.4215147471
 40
0.5537082693
 40
0.67835949
 40
0.7942615301
 40
0.9012554552
 40
1.0
 40
1.0
 40
1.0
 40
1.0
 10
36.2993403397
 20
12.9808009504
 30
0.0
 10
36.3575011283
 20
12.9745587043
 30
0.0
 10
36.4729311037
 20
12.955507459
 30
0.0
 10
36.6402288378
 20
12.908446157
 30
0.0
 10
36.797269088
 20
12.844009129
 30
0.0
 10
36.939232902
 20
12.7641809161
 30
0.0
 10
37.0620002666
 20
12.671370739
 30
0.0
 10
37.161859787
 20
12.5680415154
 30
0.0
 10
37.2355285606
 20
12.4571435888
 30
0.0
 10
37.266669007
 20
12.3774418612
 30
0.0
 10
37.2764481091
 20
12.3380050703
 30
0.0
  0
SPLINE
  5
2A6
100
AcDbEntity
  8
0
100
AcDbSpline
 62
7
  6
CONTINUOUS
 70
0
 71
3
 72
11
 73
7
 74
0
 42
0.0000001
 43
0.0000001
 44
0.0000000001
 40
0.0
 40
0.0
 40
0.0
 40
0.0
 40
0.2020522165
 40
0.4393189929
 40
0.7070946361
 40
1.0
 40
1.0
 40
1.0
 40
1.0
 10
36.8398194158
 20
10.5517166935
 30
0.0
 10
36.8289393515
 20
10.5517209794
 30
0.0
 10
36.8053865916
 20
10.5467232424
 30
0.0
 10
36.7702879557
 20
10.5318710707
 30
0.0
 10
36.7327029471
 20
10.5108928864
 30
0.0
 10
36.7074111994
 20
10.4943847049
 30
0.0
 10
36.6943961302
 20
10.4854755174
 30
0.0
  0
SPLINE
  5
2A7
100
AcDbEntity
  8
0
100
AcDbSpline
 62
7
  6
CONTINUOUS
 70
0
 71
3
 72
9
 73
5
 74
0
 42
0.0000001
 43
0.0000001
 44
0.0000000001
 40
0.0
 40
0.0
 40
0.0
 40
0.0
 40
0.2502095239
 40
1.0
 40
1.0
 40
1.0
 40
1.0
 10
36.6944959843
 20
10.4854903553
 30
0.0
 10
36.6214322028
 20
10.211664379
 30
0.0
 10
36.3290948479
 20
9.1173653093
 30
0.0
 10
36.0350673329
 20
8.0235148324
 30
0.0
 10
35.8124380352
 20
7.2039456022
 30
0.0
  0
SPLINE
  5
2A8
100
AcDbEntity
  8
0
100
AcDbSpline
 62
7
  6
CONTINUOUS
 70
0
 71
3
 72
33
 73
29
 74
0
 42
0.0000001
 43
0.0000001
 44
0.0000000001
 40
0.0
 40
0.0
 40
0.0
 40
0.0
 40
0.019960929
 40
0.0400047532
 40
0.0606495468
 40
0.0824119278
 40
0.1309777708
 40
0.1585373802
 40
0.1884759934
 40
0.2208481525
 40
0.2555777356
 40
0.331428295
 40
0.3720302895
 40
0.4139477628
 40
0.5000175194
 40
0.5860849112
 40
0.627999068
 40
0.668598748
 40
0.744441406
 40
0.7791664761
 40
0.8115341662
 40
0.8414696968
 40
0.869025833
 40
0.9175882861
 40
0.9393499991
 40
0.9599947827
 40
0.9800389039
 40
1.0
 40
1.0
 40
1.0
 40
1.0
 10
10.2240601713
 20
34.8517201919
 30
0.0
 10
10.2003085367
 20
34.8517201941
 30
0.0
 10
10.1525876447
 20
34.8475493139
 30
0.0
 10
10.082662676
 20
34.8282041403
 30
0.0
 10
10.0154219486
 20
34.7956474761
 30
0.0
 10
9.9270603691
 20
34.7323449029
 30
0.0
 10
9.8497647649
 20
34.6429972834
 30
0.0
 10
9.7836991425
 20
34.5353933286
 30
0.0
 10
9.7366270405
 20
34.4391754422
 30
0.0
 10
9.6945504301
 20
34.331537622
 30
0.0
 10
9.6437771687
 20
34.1690754897
 30
0.0
 10
9.6061443513
 20
33.9927359295
 30
0.0
 10
9.5795090201
 20
33.8061536009
 30
0.0
 10
9.5598467519
 20
33.606452213
 30
0.0
 10
9.5502720423
 20
33.3516603999
 30
0.0
 10
9.5598506044
 20
33.0968723056
 30
0.0
 10
9.5795243073
 20
32.8971816476
 30
0.0
 10
9.6061599154
 20
32.7106156971
 30
0.0
 10
9.6437933027
 20
32.5342941714
 30
0.0
 10
9.6945649888
 20
32.3718524915
 30
0.0
 10
9.7366419093
 20
32.2642303543
 30
0.0
 10
9.7837077679
 20
32.1680239624
 30
0.0
 10
9.8497744126
 20
32.0604344294
 30
0.0
 10
9.9270638855
 20
31.9710943948
 30
0.0
 10
10.0154212821
 20
31.9077941618
 30
0.0
 10
10.0826616379
 20
31.8752378383
 30
0.0
 10
10.1525868436
 20
31.8558916719
 30
0.0
 10
10.2003082855
 20
31.8517201919
 30
0.0
 10
10.2240601188
 20
31.8517201919
 30
0.0
  0
SPLINE
  5
2A9
100
AcDbEntity
  8
0
100
AcDbSpline
 62
7
  6
CONTINUOUS
 70
0
 71
3
 72
33
 73
29
 74
0
 42
0.0000001
 43
0.0000001
 44
0.0000000001
 40
0.0
 40
0.0
 40
0.0
 40
0.0
 40
0.0199609395
 40
0.0400047998
 40
0.0606496609
 40
0.0824121283
 40
0.1309780236
 40
0.15853764
 40
0.188476299
 40
0.2208486293
 40
0.2555783966
 40
0.3314290398
 40
0.3720309225
 40
0.4139482102
 40
0.5000175208
 40
0.5860845662
 40
0.6279985833
 40
0.6685981305
 40
0.7444407093
 40
0.7791658463
 40
0.8115336671
 40
0.8414693707
 40
0.8690257663
 40
0.9175883843
 40
0.9393500808
 40
0.9599948363
 40
0.9800389239
 40
1.0
 40
1.0
 40
1.0
 40
1.0
 10
33.0634996917
 20
31.8517201919
 30
0.0
 10
33.0872513374
 20
31.8517201919
 30
0.0
 10
33.134972284
 20
31.855891104
 30
0.0
 10
33.2048973518
 20
31.8752364131
 30
0.0
 10
33.2721382461
 20
31.9077932637
 30
0.0
 10
33.3604997838
 20
31.9710963008
 30
0.0
 10
33.4377955528
 20
32.0604439549
 30
0.0
 10
33.5038611417
 20
32.1680480804
 30
0.0
 10
33.5509333827
 20
32.2642661875
 30
0.0
 10
33.5930099857
 20
32.3719045212
 30
0.0
 10
33.6437832265
 20
32.5343671989
 30
0.0
 10
33.6814156761
 20
32.7107070136
 30
0.0
 10
33.7080510987
 20
32.8972890521
 30
0.0
 10
33.72771384
 20
33.0969894964
 30
0.0
 10
33.7372878993
 20
33.351780197
 30
0.0
 10
33.7277086026
 20
33.6065670968
 30
0.0
 10
33.7080356792
 20
33.806257075
 30
0.0
 10
33.6814003537
 20
33.9928226448
 30
0.0
 10
33.6437667817
 20
34.1691439376
 30
0.0
 10
33.592995376
 20
34.3315858295
 30
0.0
 10
33.5509186446
 20
34.4392085168
 30
0.0
 10
33.5038525294
 20
34.5354155165
 30
0.0
 10
33.4377860921
 20
34.6430059946
 30
0.0
 10
33.3604960576
 20
34.732346331
 30
0.0
 10
33.2721381882
 20
34.7956461083
 30
0.0
 10
33.2048979493
 20
34.8282024
 30
0.0
 10
33.1349728759
 20
34.8475486651
 30
0.0
 10
33.0872515
 20
34.8517201926
 30
0.0
 10
33.0634996917
 20
34.8517201919
 30
0.0
  0
SPLINE
  5
2AA
100
AcDbEntity
  8
0
100
AcDbSpline
 62
7
  6
CONTINUOUS
 70
0
 71
3
 72
17
 73
13
 74
0
 42
0.0000001
 43
0.0000001
 44
0.0000000001
 40
0.0
 40
0.0
 40
0.0
 40
0.0
 40
0.1607613065
 40
0.3164325424
 40
0.4631043546
 40
0.597934627
 40
0.7188555231
 40
0.824712503
 40
0.872222521
 40
0.9166205534
 40
0.9587477699
 40
1.0
 40
1.0
 40
1.0
 40
1.0
 10
35.8285569207
 20
10.5432818589
 30
0.0
 10
35.8752942539
 20
10.5370195994
 30
0.0
 10
35.9671442226
 20
10.5236073166
 30
0.0
 10
36.101253061
 20
10.5019794555
 30
0.0
 10
36.2277476769
 20
10.4809614281
 30
0.0
 10
36.3443714965
 20
10.462624781
 30
0.0
 10
36.4496229182
 20
10.4494975577
 30
0.0
 10
36.5301484042
 20
10.444915884
 30
0.0
 10
36.5881236735
 20
10.4485500149
 30
0.0
 10
36.6269759763
 20
10.4552096523
 30
0.0
 10
36.6627647496
 20
10.4668638225
 30
0.0
 10
36.6844099845
 20
10.478642327
 30
0.0
 10
36.6943961302
 20
10.4854755174
 30
0.0
  0
SPLINE
  5
2AB
100
AcDbEntity
  8
0
100
AcDbSpline
 62
7
  6
CONTINUOUS
 70
0
 71
3
 72
15
 73
11
 74
0
 42
0.0000001
 43
0.0000001
 44
0.0000000001
 40
0.0
 40
0.0
 40
0.0
 40
0.0
 40
0.0972951276
 40
0.207972912
 40
0.3307058725
 40
0.4624424872
 40
0.5994924179
 40
0.7375217623
 40
0.8721866402
 40
1.0
 40
1.0
 40
1.0
 40
1.0
 10
30.1123477782
 20
13.6860142523
 30
0.0
 10
30.1325336971
 20
13.6516976979
 30
0.0
 10
30.1810849794
 20
13.5814779074
 30
0.0
 10
30.2702920499
 20
13.47940885
 30
0.0
 10
30.3796223174
 20
13.3772321891
 30
0.0
 10
30.5058239082
 20
13.2782362978
 30
0.0
 10
30.6449614707
 20
13.1865316411
 30
0.0
 10
30.791528543
 20
13.1047873641
 30
0.0
 10
30.9403066774
 20
13.0357248181
 30
0.0
 10
31.0407993114
 20
12.9975008033
 30
0.0
 10
31.0903601431
 20
12.9807927854
 30
0.0
  0
SPLINE
  5
2AC
100
AcDbEntity
  8
0
100
AcDbSpline
 62
7
  6
CONTINUOUS
 70
0
 71
3
 72
11
 73
7
 74
0
 42
0.0000001
 43
0.0000001
 44
0.0000000001
 40
0.0
 40
0.0
 40
0.0
 40
0.0
 40
0.2424539388
 40
0.4904218048
 40
0.743187212
 40
1.0
 40
1.0
 40
1.0
 40
1.0
 10
31.090360278
 20
12.9807930193
 30
0.0
 10
30.961086935
 20
12.7557664398
 30
0.0
 10
30.6707979521
 20
12.3168547775
 30
0.0
 10
30.1697044926
 20
11.697934214
 30
0.0
 10
29.6123767095
 20
11.108096098
 30
0.0
 10
29.2141843793
 20
10.7349131954
 30
0.0
 10
29.009239837
 20
10.5517201927
 30
0.0
  0
SPLINE
  5
2AD
100
AcDbEntity
  8
0
100
AcDbSpline
 62
7
  6
CONTINUOUS
 70
0
 71
3
 72
18
 73
14
 74
0
 42
0.0000001
 43
0.0000001
 44
0.0000000001
 40
0.0
 40
0.0
 40
0.0
 40
0.0
 40
0.0044826076
 40
0.0177726247
 40
0.0396355695
 40
0.0698393179
 40
0.1081542336
 40
0.1543533063
 40
0.2695082571
 40
0.4135112897
 40
0.5844805229
 40
0.7805669388
 40
1.0
 40
1.0
 40
1.0
 40
1.0
 10
31.1437799053
 20
15.0517201247
 30
0.0
 10
31.1430604269
 20
15.0509693589
 30
0.0
 10
31.1403794876
 20
15.0478339146
 30
0.0
 10
31.1341203254
 20
15.0410988099
 30
0.0
 10
31.1238514972
 20
15.029944584
 30
0.0
 10
31.1094379085
 20
15.0147176264
 30
0.0
 10
31.0909839814
 20
14.9955434463
 30
0.0
 10
31.0585170639
 20
14.9625076776
 30
0.0
 10
31.0080407789
 20
14.912802496
 30
0.0
 10
30.9354350834
 20
14.8443485984
 30
0.0
 10
30.8472466161
 20
14.7650982262
 30
0.0
 10
30.7437237535
 20
14.6767971691
 30
0.0
 10
30.6686635499
 20
14.6162979143
 30
0.0
 10
30.6285815929
 20
14.5849201987
 30
0.0
  0
SPLINE
  5
2AE
100
AcDbEntity
  8
0
100
AcDbSpline
 62
7
  6
CONTINUOUS
 70
0
 71
3
 72
14
 73
10
 74
0
 42
0.0000001
 43
0.0000001
 44
0.0000000001
 40
0.0
 40
0.0
 40
0.0
 40
0.0
 40
0.0836262658
 40
0.179300193
 40
0.2872579077
 40
0.407392721
 40
0.5394091063
 40
0.6827463853
 40
1.0
 40
1.0
 40
1.0
 40
1.0
 10
30.6285815879
 20
14.5849202586
 30
0.0
 10
30.6055466971
 20
14.5668878195
 30
0.0
 10
30.558884135
 20
14.5247071862
 30
0.0
 10
30.4917592762
 20
14.4497466438
 30
0.0
 10
30.4238309017
 20
14.3589590822
 30
0.0
 10
30.3560973265
 20
14.2526281148
 30
0.0
 10
30.2896450889
 20
14.1311738344
 30
0.0
 10
30.2013099001
 20
13.9435352275
 30
0.0
 10
30.1454937243
 20
13.7919290638
 30
0.0
 10
30.1123479118
 20
13.6860146794
 30
0.0
  0
SPLINE
  5
2AF
100
AcDbEntity
  8
0
100
AcDbSpline
 62
7
  6
CONTINUOUS
 70
0
 71
3
 72
15
 73
11
 74
0
 42
0.0000001
 43
0.0000001
 44
0.0000000001
 40
0.0
 40
0.0
 40
0.0
 40
0.0
 40
0.122197042
 40
0.2454566438
 40
0.3698539486
 40
0.4952274222
 40
0.6211473131
 40
0.747229031
 40
0.8734554943
 40
1.0
 40
1.0
 40
1.0
 40
1.0
 10
30.1123479118
 20
13.6860146794
 30
0.0
 10
30.0728162382
 20
13.5565122982
 30
0.0
 10
29.9919113679
 20
13.2968371916
 30
0.0
 10
29.8665184601
 20
12.9066682629
 30
0.0
 10
29.7379294724
 20
12.5138371627
 30
0.0
 10
29.6059453414
 20
12.1190207646
 30
0.0
 10
29.468376469
 20
11.7241241907
 30
0.0
 10
29.3230460689
 20
11.3309998394
 30
0.0
 10
29.1699781568
 20
10.9400860967
 30
0.0
 10
29.0635061343
 20
10.6810125854
 30
0.0
 10
29.0092398363
 20
10.5517201919
 30
0.0
  0
SPLINE
  5
2B0
100
AcDbEntity
  8
0
100
AcDbSpline
 62
7
  6
CONTINUOUS
 70
0
 71
3
 72
15
 73
11
 74
0
 42
0.0000001
 43
0.0000001
 44
0.0000000001
 40
0.0
 40
0.0
 40
0.0
 40
0.0
 40
0.1543702494
 40
0.3090096383
 40
0.4590762902
 40
0.599588545
 40
0.7260446804
 40
0.8355725626
 40
0.9265552541
 40
1.0
 40
1.0
 40
1.0
 40
1.0
 10
34.9117122751
 20
7.2005973044
 30
0.0
 10
34.9576493937
 20
7.189411679
 30
0.0
 10
35.0501699151
 20
7.1692781921
 30
0.0
 10
35.1889712705
 20
7.1464183949
 30
0.0
 10
35.3246695094
 20
7.1321873124
 30
0.0
 10
35.4524143927
 20
7.1271704036
 30
0.0
 10
35.5677621116
 20
7.1320828775
 30
0.0
 10
35.6671443086
 20
7.146189598
 30
0.0
 10
35.7481609577
 20
7.1690050701
 30
0.0
 10
35.7938613726
 20
7.1913189983
 30
0.0
 10
35.8124649152
 20
7.2039638698
 30
0.0
  0
SPLINE
  5
2B1
100
AcDbEntity
  8
0
100
AcDbSpline
 62
7
  6
CONTINUOUS
 70
0
 71
3
 72
11
 73
7
 74
0
 42
0.0000001
 43
0.0000001
 44
0.0000000001
 40
0.0
 40
0.0
 40
0.0
 40
0.0
 40
0.2524569566
 40
0.5034992727
 40
0.7526154191
 40
1.0
 40
1.0
 40
1.0
 40
1.0
 10
35.81246213
 20
7.2039597805
 30
0.0
 10
35.7922388479
 20
7.1472067691
 30
0.0
 10
35.7417776966
 20
7.0373381692
 30
0.0
 10
35.6384945108
 20
6.8892458135
 30
0.0
 10
35.5110304696
 20
6.7630620795
 30
0.0
 10
35.4123400928
 20
6.6960550238
 30
0.0
 10
35.3606158918
 20
6.66759287
 30
0.0
  0
SPLINE
  5
2B2
100
AcDbEntity
  8
0
100
AcDbSpline
 62
7
  6
CONTINUOUS
 70
0
 71
3
 72
15
 73
11
 74
0
 42
0.0000001
 43
0.0000001
 44
0.0000000001
 40
0.0
 40
0.0
 40
0.0
 40
0.0
 40
0.0948463645
 40
0.1930867212
 40
0.2982784388
 40
0.4135039685
 40
0.5408240497
 40
0.6812847238
 40
0.8348647293
 40
1.0
 40
1.0
 40
1.0
 40
1.0
 10
27.7931378133
 20
6.5517201919
 30
0.0
 10
27.8226072873
 20
6.5517261369
 30
0.0
 10
27.882831063
 20
6.5589024986
 30
0.0
 10
27.9705140407
 20
6.5911574305
 30
0.0
 10
28.0545985201
 20
6.6446968774
 30
0.0
 10
28.1338211177
 20
6.7189251288
 30
0.0
 10
28.2071735937
 20
6.8131491158
 30
0.0
 10
28.2734375043
 20
6.926437376
 30
0.0
 10
28.3312913205
 20
7.0571213937
 30
0.0
 10
28.3625070823
 20
7.1512667749
 30
0.0
 10
28.3766190562
 20
7.2005966986
 30
0.0
  0
ENDSEC
  0
SECTION
  2
OBJECTS
  0
DICTIONARY
  5
C
100
AcDbDictionary
280
0
281
1
  3
ACAD_GROUP
350
D
  3
ACAD_MLINESTYLE
350
17
  3
ACAD_LAYOUT
350
1A
  3
ACAD_PLOTSETTINGS
350
19
  3
ACAD_PLOTSTYLENAME
350
E
  0
DICTIONARY
  5
D
102
{ACAD_REACTORS
330
C
102
}
100
AcDbDictionary
280
0
281
1
  0
ACDBDICTIONARYWDFLT
  5
E
102
{ACAD_REACTORS
330
C
102
}
100
AcDbDictionary
281
1
  3
Normal
350
F
100
AcDbDictionaryWithDefault
340
F
  0
DICTIONARY
  5
17
102
{ACAD_REACTORS
330
C
102
}
100
AcDbDictionary
280
0
281
1
  3
Standard
350
18
  0
DICTIONARY
  5
19
102
{ACAD_REACTORS
330
C
102
}
100
AcDbDictionary
281
1
  0
DICTIONARY
  5
1A
102
{ACAD_REACTORS
330
C
102
}
100
AcDbDictionary
281
1
  3
Model
350
2B3
  3
Layout1
350
2B4
  0
ACDBPLACEHOLDER
  5
F
102
{ACAD_REACTORS
330
E
102
}
  0
MLINESTYLE
  5
18
102
{ACAD_REACTORS
330
17
102
}
100
AcDbMlineStyle
  2
STANDARD
 70
0
  3

 62
256
 51
90.0
 52
90.0
 71
2
 49
0.5
 62
256
  6
BYLAYER
 49
-0.5
 62
256
  6
BYLAYER
  0
LAYOUT
  5
2B3
102
{ACAD_REACTORS
330
1A
102
}
100
AcDbPlotSettings
  1

  2
none_device
  4

  6

 40
0.0
 41
0.0
 42
0.0
 43
0.0
 44
210.0
 45
297.0
 46
0.0
 47
0.0
 48
0.0
 49
0.0
140
0.0
141
0.0
142
1.0
143
1.0
 70
1024
 72
1
 73
0
 74
0
  7

 75
0
147
1.0
148
0.0
149
0.0
100
AcDbLayout
  1
Model
 70
0
 71
0
 10
0.0
 20
0.0
 11
210.0
 21
297.0
 12
0.0
 22
0.0
 32
0.0
 14
0.0
 24
0.0
 34
0.0
 15
0.0
 25
0.0
 35
0.0
146
0.0
 13
0.0
 23
0.0
 33
0.0
 16
1.0
 26
0.0
 36
0.0
 17
0.0
 27
1.0
 37
0.0
 76
0
330
210
345
0
346
0
  0
LAYOUT
  5
2B4
102
{ACAD_REACTORS
330
1A
102
}
100
AcDbPlotSettings
  1

  2
none_device
  4

  6

 40
0.0
 41
0.0
 42
0.0
 43
0.0
 44
210.0
 45
297.0
 46
0.0
 47
0.0
 48
0.0
 49
0.0
140
0.0
141
0.0
142
1.0
143
1.0
 70
0
 72
1
 73
0
 74
0
  7

 75
0
147
1.0
148
0.0
149
0.0
100
AcDbLayout
  1
Layout1
 70
0
 71
1
 10
0.0
 20
0.0
 11
210.0
 21
297.0
 12
0.0
 22
0.0
 32
0.0
 14
0.0
 24
0.0
 34
0.0
 15
0.0
 25
0.0
 35
0.0
146
0.0
 13
0.0
 23
0.0
 33
0.0
 16
1.0
 26
0.0
 36
0.0
 17
0.0
 27
1.0
 37
0.0
 76
0
330
211
345
0
346
0
  0
ENDSEC
  0
EOF
