ISO-10303-21;
HEADER;
FILE_DESCRIPTION(('STEP AP242'),'1');
FILE_NAME('nsybce16.stp','2019-09-17T11:25:47',('TraceParts'),('TraceParts S.A.'),'Spatial InterOp 3D',' ',' ');
FILE_SCHEMA(('AP242_MANAGED_MODEL_BASED_3D_ENGINEERING_MIM_LF  {1 0 10303 442 1 1 4}'));
ENDSEC;
DATA;
#1=PRODUCT_DEFINITION_CONTEXT('',#9,'design');
#2=APPLICATION_PROTOCOL_DEFINITION('INTERNATIONAL STANDARD','ap242_managed_model_based_3d_engineering',2014,#9);
#3=PRODUCT_CATEGORY_RELATIONSHIP('NONE','NONE',#10,#11);
#4=SHAPE_DEFINITION_REPRESENTATION(#12,#13);
#5= (GEOMETRIC_REPRESENTATION_CONTEXT(3)GLOBAL_UNCERTAINTY_ASSIGNED_CONTEXT((#16))GLOBAL_UNIT_ASSIGNED_CONTEXT((#18,#19,#20))REPRESENTATION_CONTEXT('NONE','WORKSPACE'));
#9=APPLICATION_CONTEXT('managed model based 3d engineering');
#10=PRODUCT_CATEGORY('part','NONE');
#11=PRODUCT_RELATED_PRODUCT_CATEGORY('detail',' ',(#22));
#12=PRODUCT_DEFINITION_SHAPE('NONE','NONE',#23);
#13=ADVANCED_BREP_SHAPE_REPRESENTATION('nsybce16',(#24,#25),#5);
#16=UNCERTAINTY_MEASURE_WITH_UNIT(LENGTH_MEASURE(1.0E-06),#18,'','');
#18= (CONVERSION_BASED_UNIT('MILLIMETRE',#28)LENGTH_UNIT()NAMED_UNIT(#31));
#19= (NAMED_UNIT(#33)PLANE_ANGLE_UNIT()SI_UNIT($,.RADIAN.));
#20= (NAMED_UNIT(#33)SOLID_ANGLE_UNIT()SI_UNIT($,.STERADIAN.));
#22=PRODUCT('nsybce16','nsybce16','PART-nsybce16-DESC',(#39));
#23=PRODUCT_DEFINITION('','NONE',#40,#1);
#24=MANIFOLD_SOLID_BREP('nsybce16',#41);
#25=AXIS2_PLACEMENT_3D('',#42,#43,#44);
#28=LENGTH_MEASURE_WITH_UNIT(LENGTH_MEASURE(1.0),#45);
#31=DIMENSIONAL_EXPONENTS(1.0,0.0,0.0,0.0,0.0,0.0,0.0);
#33=DIMENSIONAL_EXPONENTS(0.0,0.0,0.0,0.0,0.0,0.0,0.0);
#39=PRODUCT_CONTEXT('',#9,'mechanical');
#40=PRODUCT_DEFINITION_FORMATION_WITH_SPECIFIED_SOURCE(' ','NONE',#22,.NOT_KNOWN.);
#41=CLOSED_SHELL('',(#46,#47,#48,#49,#50,#51,#52,#53,#54,#55,#56,#57,#58,#59,#60,#61));
#42=CARTESIAN_POINT('',(0.0,0.0,0.0));
#43=DIRECTION('',(0.0,0.0,1.0));
#44=DIRECTION('',(1.0,0.0,0.0));
#45= (NAMED_UNIT(#31)LENGTH_UNIT()SI_UNIT(.MILLI.,.METRE.));
#46=ADVANCED_FACE('',(#63),#64,.F.);
#47=ADVANCED_FACE('',(#65),#66,.T.);
#48=ADVANCED_FACE('',(#67),#68,.T.);
#49=ADVANCED_FACE('',(#69),#70,.T.);
#50=ADVANCED_FACE('',(#71),#72,.T.);
#51=ADVANCED_FACE('',(#73),#74,.T.);
#52=ADVANCED_FACE('',(#75),#76,.T.);
#53=ADVANCED_FACE('',(#77),#78,.F.);
#54=ADVANCED_FACE('',(#79),#80,.F.);
#55=ADVANCED_FACE('',(#81),#82,.T.);
#56=ADVANCED_FACE('',(#83),#84,.T.);
#57=ADVANCED_FACE('',(#85),#86,.T.);
#58=ADVANCED_FACE('',(#87),#88,.T.);
#59=ADVANCED_FACE('',(#89),#90,.T.);
#60=ADVANCED_FACE('',(#91),#92,.F.);
#61=ADVANCED_FACE('',(#93),#94,.F.);
#63=FACE_OUTER_BOUND('',#95,.T.);
#64=PLANE('',#96);
#65=FACE_OUTER_BOUND('',#97,.T.);
#66=PLANE('',#98);
#67=FACE_OUTER_BOUND('',#99,.T.);
#68=PLANE('',#100);
#69=FACE_OUTER_BOUND('',#101,.T.);
#70=PLANE('',#102);
#71=FACE_OUTER_BOUND('',#103,.T.);
#72=PLANE('',#104);
#73=FACE_OUTER_BOUND('',#105,.T.);
#74=PLANE('',#106);
#75=FACE_OUTER_BOUND('',#107,.T.);
#76=PLANE('',#108);
#77=FACE_OUTER_BOUND('',#109,.T.);
#78=PLANE('',#110);
#79=FACE_OUTER_BOUND('',#111,.T.);
#80=PLANE('',#112);
#81=FACE_OUTER_BOUND('',#113,.T.);
#82=PLANE('',#114);
#83=FACE_OUTER_BOUND('',#115,.T.);
#84=PLANE('',#116);
#85=FACE_OUTER_BOUND('',#117,.T.);
#86=PLANE('',#118);
#87=FACE_OUTER_BOUND('',#119,.T.);
#88=PLANE('',#120);
#89=FACE_OUTER_BOUND('',#121,.T.);
#90=PLANE('',#122);
#91=FACE_OUTER_BOUND('',#123,.T.);
#92=PLANE('',#124);
#93=FACE_OUTER_BOUND('',#125,.T.);
#94=PLANE('',#126);
#95=EDGE_LOOP('',(#127,#128,#129,#130,#131,#132,#133,#134,#135,#136,#137,#138,#139,#140));
#96=AXIS2_PLACEMENT_3D('',#141,#142,#143);
#97=EDGE_LOOP('',(#144,#145,#146,#147));
#98=AXIS2_PLACEMENT_3D('',#148,#149,#150);
#99=EDGE_LOOP('',(#151,#152,#153,#154,#155,#156,#157,#158,#159,#160,#161,#162,#163,#164));
#100=AXIS2_PLACEMENT_3D('',#165,#166,#167);
#101=EDGE_LOOP('',(#168,#169,#170,#171));
#102=AXIS2_PLACEMENT_3D('',#172,#173,#174);
#103=EDGE_LOOP('',(#175,#176,#177,#178));
#104=AXIS2_PLACEMENT_3D('',#179,#180,#181);
#105=EDGE_LOOP('',(#182,#183,#184,#185));
#106=AXIS2_PLACEMENT_3D('',#186,#187,#188);
#107=EDGE_LOOP('',(#189,#190,#191,#192));
#108=AXIS2_PLACEMENT_3D('',#193,#194,#195);
#109=EDGE_LOOP('',(#196,#197,#198,#199));
#110=AXIS2_PLACEMENT_3D('',#200,#201,#202);
#111=EDGE_LOOP('',(#203,#204,#205,#206));
#112=AXIS2_PLACEMENT_3D('',#207,#208,#209);
#113=EDGE_LOOP('',(#210,#211,#212,#213));
#114=AXIS2_PLACEMENT_3D('',#214,#215,#216);
#115=EDGE_LOOP('',(#217,#218,#219,#220));
#116=AXIS2_PLACEMENT_3D('',#221,#222,#223);
#117=EDGE_LOOP('',(#224,#225,#226,#227));
#118=AXIS2_PLACEMENT_3D('',#228,#229,#230);
#119=EDGE_LOOP('',(#231,#232,#233,#234));
#120=AXIS2_PLACEMENT_3D('',#235,#236,#237);
#121=EDGE_LOOP('',(#238,#239,#240,#241));
#122=AXIS2_PLACEMENT_3D('',#242,#243,#244);
#123=EDGE_LOOP('',(#245,#246,#247,#248));
#124=AXIS2_PLACEMENT_3D('',#249,#250,#251);
#125=EDGE_LOOP('',(#252,#253,#254,#255));
#126=AXIS2_PLACEMENT_3D('',#256,#257,#258);
#127=ORIENTED_EDGE('',*,*,#259,.T.);
#128=ORIENTED_EDGE('',*,*,#260,.T.);
#129=ORIENTED_EDGE('',*,*,#261,.T.);
#130=ORIENTED_EDGE('',*,*,#262,.T.);
#131=ORIENTED_EDGE('',*,*,#263,.T.);
#132=ORIENTED_EDGE('',*,*,#264,.T.);
#133=ORIENTED_EDGE('',*,*,#265,.T.);
#134=ORIENTED_EDGE('',*,*,#266,.T.);
#135=ORIENTED_EDGE('',*,*,#267,.T.);
#136=ORIENTED_EDGE('',*,*,#268,.T.);
#137=ORIENTED_EDGE('',*,*,#269,.F.);
#138=ORIENTED_EDGE('',*,*,#270,.T.);
#139=ORIENTED_EDGE('',*,*,#271,.F.);
#140=ORIENTED_EDGE('',*,*,#272,.T.);
#141=CARTESIAN_POINT('',(3.5,8.0,-677.0));
#142=DIRECTION('',(0.0,0.0,1.0));
#143=DIRECTION('',(1.0,-0.0,0.0));
#144=ORIENTED_EDGE('',*,*,#273,.T.);
#145=ORIENTED_EDGE('',*,*,#272,.F.);
#146=ORIENTED_EDGE('',*,*,#274,.T.);
#147=ORIENTED_EDGE('',*,*,#275,.F.);
#148=CARTESIAN_POINT('',(7.0,0.6,-338.5));
#149=DIRECTION('',(1.0,0.0,0.0));
#150=DIRECTION('',(0.0,1.0,-0.0));
#151=ORIENTED_EDGE('',*,*,#276,.F.);
#152=ORIENTED_EDGE('',*,*,#277,.F.);
#153=ORIENTED_EDGE('',*,*,#278,.F.);
#154=ORIENTED_EDGE('',*,*,#279,.F.);
#155=ORIENTED_EDGE('',*,*,#280,.F.);
#156=ORIENTED_EDGE('',*,*,#281,.F.);
#157=ORIENTED_EDGE('',*,*,#282,.F.);
#158=ORIENTED_EDGE('',*,*,#283,.F.);
#159=ORIENTED_EDGE('',*,*,#275,.T.);
#160=ORIENTED_EDGE('',*,*,#284,.F.);
#161=ORIENTED_EDGE('',*,*,#285,.F.);
#162=ORIENTED_EDGE('',*,*,#286,.F.);
#163=ORIENTED_EDGE('',*,*,#287,.F.);
#164=ORIENTED_EDGE('',*,*,#288,.F.);
#165=CARTESIAN_POINT('',(3.5,8.0,0.0));
#166=DIRECTION('',(0.0,0.0,1.0));
#167=DIRECTION('',(1.0,-0.0,0.0));
#168=ORIENTED_EDGE('',*,*,#267,.F.);
#169=ORIENTED_EDGE('',*,*,#289,.F.);
#170=ORIENTED_EDGE('',*,*,#288,.T.);
#171=ORIENTED_EDGE('',*,*,#290,.F.);
#172=CARTESIAN_POINT('',(2.4,3.5,-338.5));
#173=DIRECTION('',(1.0,0.0,0.0));
#174=DIRECTION('',(0.0,1.0,-0.0));
#175=ORIENTED_EDGE('',*,*,#287,.T.);
#176=ORIENTED_EDGE('',*,*,#291,.T.);
#177=ORIENTED_EDGE('',*,*,#268,.F.);
#178=ORIENTED_EDGE('',*,*,#290,.T.);
#179=CARTESIAN_POINT('',(4.7,4.5,-338.5));
#180=DIRECTION('',(0.0,1.0,0.0));
#181=DIRECTION('',(1.0,0.0,-0.0));
#182=ORIENTED_EDGE('',*,*,#291,.F.);
#183=ORIENTED_EDGE('',*,*,#286,.T.);
#184=ORIENTED_EDGE('',*,*,#292,.T.);
#185=ORIENTED_EDGE('',*,*,#269,.T.);
#186=CARTESIAN_POINT('',(24.0,4.975,-338.5));
#187=DIRECTION('',(-0.0279302758840493,0.999609873745273,0.0));
#188=DIRECTION('',(0.0,0.0,1.0));
#189=ORIENTED_EDGE('',*,*,#292,.F.);
#190=ORIENTED_EDGE('',*,*,#285,.T.);
#191=ORIENTED_EDGE('',*,*,#293,.T.);
#192=ORIENTED_EDGE('',*,*,#270,.F.);
#193=CARTESIAN_POINT('',(41.0,3.45,-338.5));
#194=DIRECTION('',(1.0,0.0,0.0));
#195=DIRECTION('',(0.0,1.0,-0.0));
#196=ORIENTED_EDGE('',*,*,#271,.T.);
#197=ORIENTED_EDGE('',*,*,#293,.F.);
#198=ORIENTED_EDGE('',*,*,#284,.T.);
#199=ORIENTED_EDGE('',*,*,#274,.F.);
#200=CARTESIAN_POINT('',(24.0,1.925,-338.5));
#201=DIRECTION('',(0.0279302758840493,0.999609873745273,0.0));
#202=DIRECTION('',(0.0,0.0,-1.0));
#203=ORIENTED_EDGE('',*,*,#294,.F.);
#204=ORIENTED_EDGE('',*,*,#276,.T.);
#205=ORIENTED_EDGE('',*,*,#289,.T.);
#206=ORIENTED_EDGE('',*,*,#266,.F.);
#207=CARTESIAN_POINT('',(6.4,4.6,-338.5));
#208=DIRECTION('',(0.0,1.0,0.0));
#209=DIRECTION('',(1.0,0.0,-0.0));
#210=ORIENTED_EDGE('',*,*,#295,.F.);
#211=ORIENTED_EDGE('',*,*,#277,.T.);
#212=ORIENTED_EDGE('',*,*,#294,.T.);
#213=ORIENTED_EDGE('',*,*,#265,.F.);
#214=CARTESIAN_POINT('',(7.0,5.2,-338.5));
#215=DIRECTION('',(1.0,0.0,0.0));
#216=DIRECTION('',(0.0,1.0,-0.0));
#217=ORIENTED_EDGE('',*,*,#296,.F.);
#218=ORIENTED_EDGE('',*,*,#278,.T.);
#219=ORIENTED_EDGE('',*,*,#295,.T.);
#220=ORIENTED_EDGE('',*,*,#264,.F.);
#221=CARTESIAN_POINT('',(7.0,6.4,-338.5));
#222=DIRECTION('',(1.0,0.0,0.0));
#223=DIRECTION('',(0.0,1.0,-0.0));
#224=ORIENTED_EDGE('',*,*,#297,.F.);
#225=ORIENTED_EDGE('',*,*,#279,.T.);
#226=ORIENTED_EDGE('',*,*,#296,.T.);
#227=ORIENTED_EDGE('',*,*,#263,.F.);
#228=CARTESIAN_POINT('',(4.1,7.0,-338.5));
#229=DIRECTION('',(0.0,1.0,0.0));
#230=DIRECTION('',(1.0,0.0,-0.0));
#231=ORIENTED_EDGE('',*,*,#298,.F.);
#232=ORIENTED_EDGE('',*,*,#280,.T.);
#233=ORIENTED_EDGE('',*,*,#297,.T.);
#234=ORIENTED_EDGE('',*,*,#262,.F.);
#235=CARTESIAN_POINT('',(1.2,11.5,-338.5));
#236=DIRECTION('',(1.0,0.0,0.0));
#237=DIRECTION('',(0.0,1.0,-0.0));
#238=ORIENTED_EDGE('',*,*,#299,.F.);
#239=ORIENTED_EDGE('',*,*,#281,.T.);
#240=ORIENTED_EDGE('',*,*,#298,.T.);
#241=ORIENTED_EDGE('',*,*,#261,.F.);
#242=CARTESIAN_POINT('',(0.6,16.0,-338.5));
#243=DIRECTION('',(0.0,1.0,0.0));
#244=DIRECTION('',(1.0,0.0,-0.0));
#245=ORIENTED_EDGE('',*,*,#300,.F.);
#246=ORIENTED_EDGE('',*,*,#282,.T.);
#247=ORIENTED_EDGE('',*,*,#299,.T.);
#248=ORIENTED_EDGE('',*,*,#260,.F.);
#249=CARTESIAN_POINT('',(0.0,8.0,-338.5));
#250=DIRECTION('',(1.0,0.0,0.0));
#251=DIRECTION('',(0.0,1.0,-0.0));
#252=ORIENTED_EDGE('',*,*,#273,.F.);
#253=ORIENTED_EDGE('',*,*,#283,.T.);
#254=ORIENTED_EDGE('',*,*,#300,.T.);
#255=ORIENTED_EDGE('',*,*,#259,.F.);
#256=CARTESIAN_POINT('',(3.5,0.0,-338.5));
#257=DIRECTION('',(0.0,1.0,0.0));
#258=DIRECTION('',(1.0,0.0,-0.0));
#259=EDGE_CURVE('',#301,#302,#303,.T.);
#260=EDGE_CURVE('',#302,#304,#305,.T.);
#261=EDGE_CURVE('',#304,#306,#307,.T.);
#262=EDGE_CURVE('',#306,#308,#309,.T.);
#263=EDGE_CURVE('',#308,#310,#311,.T.);
#264=EDGE_CURVE('',#310,#312,#313,.T.);
#265=EDGE_CURVE('',#312,#314,#315,.T.);
#266=EDGE_CURVE('',#314,#316,#317,.T.);
#267=EDGE_CURVE('',#316,#318,#319,.T.);
#268=EDGE_CURVE('',#318,#320,#321,.T.);
#269=EDGE_CURVE('',#322,#320,#323,.T.);
#270=EDGE_CURVE('',#322,#324,#325,.T.);
#271=EDGE_CURVE('',#326,#324,#327,.T.);
#272=EDGE_CURVE('',#326,#301,#328,.T.);
#273=EDGE_CURVE('',#329,#301,#330,.T.);
#274=EDGE_CURVE('',#326,#331,#332,.T.);
#275=EDGE_CURVE('',#329,#331,#333,.T.);
#276=EDGE_CURVE('',#334,#335,#336,.T.);
#277=EDGE_CURVE('',#337,#334,#338,.T.);
#278=EDGE_CURVE('',#339,#337,#340,.T.);
#279=EDGE_CURVE('',#341,#339,#342,.T.);
#280=EDGE_CURVE('',#343,#341,#344,.T.);
#281=EDGE_CURVE('',#345,#343,#346,.T.);
#282=EDGE_CURVE('',#347,#345,#348,.T.);
#283=EDGE_CURVE('',#329,#347,#349,.T.);
#284=EDGE_CURVE('',#350,#331,#351,.T.);
#285=EDGE_CURVE('',#352,#350,#353,.T.);
#286=EDGE_CURVE('',#354,#352,#355,.T.);
#287=EDGE_CURVE('',#356,#354,#357,.T.);
#288=EDGE_CURVE('',#335,#356,#358,.T.);
#289=EDGE_CURVE('',#335,#316,#359,.T.);
#290=EDGE_CURVE('',#318,#356,#360,.T.);
#291=EDGE_CURVE('',#354,#320,#361,.T.);
#292=EDGE_CURVE('',#352,#322,#362,.T.);
#293=EDGE_CURVE('',#350,#324,#363,.T.);
#294=EDGE_CURVE('',#334,#314,#364,.T.);
#295=EDGE_CURVE('',#337,#312,#365,.T.);
#296=EDGE_CURVE('',#339,#310,#366,.T.);
#297=EDGE_CURVE('',#341,#308,#367,.T.);
#298=EDGE_CURVE('',#343,#306,#368,.T.);
#299=EDGE_CURVE('',#345,#304,#369,.T.);
#300=EDGE_CURVE('',#347,#302,#370,.T.);
#301=VERTEX_POINT('',#371);
#302=VERTEX_POINT('',#372);
#303=LINE('',#373,#374);
#304=VERTEX_POINT('',#375);
#305=LINE('',#376,#377);
#306=VERTEX_POINT('',#378);
#307=LINE('',#379,#380);
#308=VERTEX_POINT('',#381);
#309=LINE('',#382,#383);
#310=VERTEX_POINT('',#384);
#311=LINE('',#385,#386);
#312=VERTEX_POINT('',#387);
#313=LINE('',#388,#389);
#314=VERTEX_POINT('',#390);
#315=LINE('',#391,#392);
#316=VERTEX_POINT('',#393);
#317=LINE('',#394,#395);
#318=VERTEX_POINT('',#396);
#319=LINE('',#397,#398);
#320=VERTEX_POINT('',#399);
#321=LINE('',#400,#401);
#322=VERTEX_POINT('',#402);
#323=LINE('',#403,#404);
#324=VERTEX_POINT('',#405);
#325=LINE('',#406,#407);
#326=VERTEX_POINT('',#408);
#327=LINE('',#409,#410);
#328=LINE('',#411,#412);
#329=VERTEX_POINT('',#413);
#330=LINE('',#414,#415);
#331=VERTEX_POINT('',#416);
#332=LINE('',#417,#418);
#333=LINE('',#419,#420);
#334=VERTEX_POINT('',#421);
#335=VERTEX_POINT('',#422);
#336=LINE('',#423,#424);
#337=VERTEX_POINT('',#425);
#338=LINE('',#426,#427);
#339=VERTEX_POINT('',#428);
#340=LINE('',#429,#430);
#341=VERTEX_POINT('',#431);
#342=LINE('',#432,#433);
#343=VERTEX_POINT('',#434);
#344=LINE('',#435,#436);
#345=VERTEX_POINT('',#437);
#346=LINE('',#438,#439);
#347=VERTEX_POINT('',#440);
#348=LINE('',#441,#442);
#349=LINE('',#443,#444);
#350=VERTEX_POINT('',#445);
#351=LINE('',#446,#447);
#352=VERTEX_POINT('',#448);
#353=LINE('',#449,#450);
#354=VERTEX_POINT('',#451);
#355=LINE('',#452,#453);
#356=VERTEX_POINT('',#454);
#357=LINE('',#455,#456);
#358=LINE('',#457,#458);
#359=LINE('',#459,#460);
#360=LINE('',#461,#462);
#361=LINE('',#463,#464);
#362=LINE('',#465,#466);
#363=LINE('',#467,#468);
#364=LINE('',#469,#470);
#365=LINE('',#471,#472);
#366=LINE('',#473,#474);
#367=LINE('',#475,#476);
#368=LINE('',#477,#478);
#369=LINE('',#479,#480);
#370=LINE('',#481,#482);
#371=CARTESIAN_POINT('',(7.0,0.0,-677.0));
#372=CARTESIAN_POINT('',(0.0,0.0,-677.0));
#373=CARTESIAN_POINT('',(7.0,0.0,-677.0));
#374=VECTOR('',#483,7.0);
#375=CARTESIAN_POINT('',(0.0,16.0,-677.0));
#376=CARTESIAN_POINT('',(0.0,0.0,-677.0));
#377=VECTOR('',#484,16.0);
#378=CARTESIAN_POINT('',(1.2,16.0,-677.0));
#379=CARTESIAN_POINT('',(0.0,16.0,-677.0));
#380=VECTOR('',#485,1.2);
#381=CARTESIAN_POINT('',(1.2,7.0,-677.0));
#382=CARTESIAN_POINT('',(1.2,16.0,-677.0));
#383=VECTOR('',#486,9.0);
#384=CARTESIAN_POINT('',(7.0,7.0,-677.0));
#385=CARTESIAN_POINT('',(1.2,7.0,-677.0));
#386=VECTOR('',#487,5.8);
#387=CARTESIAN_POINT('',(7.0,5.8,-677.0));
#388=CARTESIAN_POINT('',(7.0,7.0,-677.0));
#389=VECTOR('',#488,1.2);
#390=CARTESIAN_POINT('',(7.0,4.6,-677.0));
#391=CARTESIAN_POINT('',(7.0,5.8,-677.0));
#392=VECTOR('',#489,1.2);
#393=CARTESIAN_POINT('',(2.4,4.6,-677.0));
#394=CARTESIAN_POINT('',(7.0,4.6,-677.0));
#395=VECTOR('',#490,4.6);
#396=CARTESIAN_POINT('',(2.4,4.5,-677.0));
#397=CARTESIAN_POINT('',(2.4,4.6,-677.0));
#398=VECTOR('',#491,0.1);
#399=CARTESIAN_POINT('',(7.0,4.5,-677.0));
#400=CARTESIAN_POINT('',(2.4,4.5,-677.0));
#401=VECTOR('',#492,4.6);
#402=CARTESIAN_POINT('',(41.0,5.45,-677.0));
#403=CARTESIAN_POINT('',(41.0,5.45,-677.0));
#404=VECTOR('',#493,34.01326946943);
#405=CARTESIAN_POINT('',(41.0,1.45,-677.0));
#406=CARTESIAN_POINT('',(41.0,5.45,-677.0));
#407=VECTOR('',#494,4.0);
#408=CARTESIAN_POINT('',(7.0,2.4,-677.0));
#409=CARTESIAN_POINT('',(7.0,2.4,-677.0));
#410=VECTOR('',#495,34.01326946943);
#411=CARTESIAN_POINT('',(7.0,2.4,-677.0));
#412=VECTOR('',#496,2.4);
#413=CARTESIAN_POINT('',(7.0,0.0,3.789561257387E-14));
#414=CARTESIAN_POINT('',(7.0,0.0,3.789561257387E-14));
#415=VECTOR('',#497,677.0);
#416=CARTESIAN_POINT('',(7.0,2.4,0.0));
#417=CARTESIAN_POINT('',(7.0,2.4,-677.0));
#418=VECTOR('',#498,677.0);
#419=CARTESIAN_POINT('',(7.0,0.0,3.789561257387E-14));
#420=VECTOR('',#499,2.4);
#421=CARTESIAN_POINT('',(7.0,4.6,3.789561257387E-14));
#422=CARTESIAN_POINT('',(2.4,4.6,3.789561257387E-14));
#423=CARTESIAN_POINT('',(7.0,4.6,3.789561257387E-14));
#424=VECTOR('',#500,4.6);
#425=CARTESIAN_POINT('',(7.0,5.8,3.789561257387E-14));
#426=CARTESIAN_POINT('',(7.0,5.8,3.789561257387E-14));
#427=VECTOR('',#501,1.2);
#428=CARTESIAN_POINT('',(7.0,7.0,3.789561257387E-14));
#429=CARTESIAN_POINT('',(7.0,7.0,3.789561257387E-14));
#430=VECTOR('',#502,1.2);
#431=CARTESIAN_POINT('',(1.2,7.0,3.789561257387E-14));
#432=CARTESIAN_POINT('',(1.2,7.0,3.789561257387E-14));
#433=VECTOR('',#503,5.8);
#434=CARTESIAN_POINT('',(1.2,16.0,3.789561257387E-14));
#435=CARTESIAN_POINT('',(1.2,16.0,3.789561257387E-14));
#436=VECTOR('',#504,9.0);
#437=CARTESIAN_POINT('',(0.0,16.0,3.789561257387E-14));
#438=CARTESIAN_POINT('',(0.0,16.0,3.789561257387E-14));
#439=VECTOR('',#505,1.2);
#440=CARTESIAN_POINT('',(0.0,0.0,3.789561257387E-14));
#441=CARTESIAN_POINT('',(0.0,0.0,3.789561257387E-14));
#442=VECTOR('',#506,16.0);
#443=CARTESIAN_POINT('',(7.0,0.0,3.789561257387E-14));
#444=VECTOR('',#507,7.0);
#445=CARTESIAN_POINT('',(41.0,1.45,3.789561257387E-14));
#446=CARTESIAN_POINT('',(41.0,1.45,3.789561257387E-14));
#447=VECTOR('',#508,34.01326946943);
#448=CARTESIAN_POINT('',(41.0,5.45,3.789561257387E-14));
#449=CARTESIAN_POINT('',(41.0,5.45,3.789561257387E-14));
#450=VECTOR('',#509,4.0);
#451=CARTESIAN_POINT('',(7.0,4.5,3.789561257387E-14));
#452=CARTESIAN_POINT('',(7.0,4.5,3.789561257387E-14));
#453=VECTOR('',#510,34.01326946943);
#454=CARTESIAN_POINT('',(2.4,4.5,0.0));
#455=CARTESIAN_POINT('',(2.4,4.5,0.0));
#456=VECTOR('',#511,4.6);
#457=CARTESIAN_POINT('',(2.4,4.6,3.789561257387E-14));
#458=VECTOR('',#512,0.1);
#459=CARTESIAN_POINT('',(2.4,4.6,3.789561257387E-14));
#460=VECTOR('',#513,677.0);
#461=CARTESIAN_POINT('',(2.4,4.5,-677.0));
#462=VECTOR('',#514,677.0);
#463=CARTESIAN_POINT('',(7.0,4.5,3.789561257387E-14));
#464=VECTOR('',#515,677.0);
#465=CARTESIAN_POINT('',(41.0,5.45,3.789561257387E-14));
#466=VECTOR('',#516,677.0);
#467=CARTESIAN_POINT('',(41.0,1.45,3.789561257387E-14));
#468=VECTOR('',#517,677.0);
#469=CARTESIAN_POINT('',(7.0,4.6,3.789561257387E-14));
#470=VECTOR('',#518,677.0);
#471=CARTESIAN_POINT('',(7.0,5.8,3.789561257387E-14));
#472=VECTOR('',#519,677.0);
#473=CARTESIAN_POINT('',(7.0,7.0,3.789561257387E-14));
#474=VECTOR('',#520,677.0);
#475=CARTESIAN_POINT('',(1.2,7.0,3.789561257387E-14));
#476=VECTOR('',#521,677.0);
#477=CARTESIAN_POINT('',(1.2,16.0,3.789561257387E-14));
#478=VECTOR('',#522,677.0);
#479=CARTESIAN_POINT('',(0.0,16.0,3.789561257387E-14));
#480=VECTOR('',#523,677.0);
#481=CARTESIAN_POINT('',(0.0,0.0,3.789561257387E-14));
#482=VECTOR('',#524,677.0);
#483=DIRECTION('',(-1.0,0.0,0.0));
#484=DIRECTION('',(0.0,1.0,0.0));
#485=DIRECTION('',(1.0,0.0,0.0));
#486=DIRECTION('',(0.0,-1.0,0.0));
#487=DIRECTION('',(1.0,0.0,0.0));
#488=DIRECTION('',(0.0,-1.0,0.0));
#489=DIRECTION('',(0.0,-1.0,0.0));
#490=DIRECTION('',(-1.0,0.0,0.0));
#491=DIRECTION('',(0.0,-1.0,1.136868377216E-12));
#492=DIRECTION('',(1.0,0.0,0.0));
#493=DIRECTION('',(-0.999609873745273,-0.0279302758840592,0.0));
#494=DIRECTION('',(0.0,-1.0,0.0));
#495=DIRECTION('',(0.999609873745273,-0.0279302758840493,0.0));
#496=DIRECTION('',(0.0,-1.0,-4.736951571734E-14));
#497=DIRECTION('',(0.0,0.0,-1.0));
#498=DIRECTION('',(0.0,0.0,1.0));
#499=DIRECTION('',(0.0,1.0,-1.578983857245E-14));
#500=DIRECTION('',(-1.0,0.0,0.0));
#501=DIRECTION('',(0.0,-1.0,0.0));
#502=DIRECTION('',(0.0,-1.0,0.0));
#503=DIRECTION('',(1.0,0.0,0.0));
#504=DIRECTION('',(0.0,-1.0,0.0));
#505=DIRECTION('',(1.0,0.0,0.0));
#506=DIRECTION('',(0.0,1.0,0.0));
#507=DIRECTION('',(-1.0,0.0,0.0));
#508=DIRECTION('',(-0.999609873745273,0.0279302758840493,0.0));
#509=DIRECTION('',(0.0,-1.0,0.0));
#510=DIRECTION('',(0.999609873745273,0.0279302758840592,0.0));
#511=DIRECTION('',(1.0,0.0,0.0));
#512=DIRECTION('',(0.0,-1.0,-3.789561257387E-13));
#513=DIRECTION('',(0.0,0.0,-1.0));
#514=DIRECTION('',(0.0,0.0,1.0));
#515=DIRECTION('',(0.0,0.0,-1.0));
#516=DIRECTION('',(0.0,0.0,-1.0));
#517=DIRECTION('',(0.0,0.0,-1.0));
#518=DIRECTION('',(0.0,0.0,-1.0));
#519=DIRECTION('',(0.0,0.0,-1.0));
#520=DIRECTION('',(0.0,0.0,-1.0));
#521=DIRECTION('',(0.0,0.0,-1.0));
#522=DIRECTION('',(0.0,0.0,-1.0));
#523=DIRECTION('',(0.0,0.0,-1.0));
#524=DIRECTION('',(0.0,0.0,-1.0));
ENDSEC;
END-ISO-10303-21;
