999
DXF file: C:\Users\sesa63760\Dev\_Creo\CAD\MCADID0004821_3D-CAD\drw0001_2.dxf
999
Pro/ENGINEER 2019471 by Parametric Technology Corporation
  0
SECTION
  2
HEADER
  9
$ACADVER
  1
AC1024
  9
$DWGCODEPAGE
  3
ANSI_1252
  9
$EXTMAX
 10
79.2893345534
 20
112.1377731541
 30
0.0
  9
$EXTMIN
 10
0.0
 20
0.0
 30
0.0
  9
$LIMMIN
 10
0.0
 20
0.0
  9
$LIMMAX
 10
79.2893345534
 20
112.1377731541
  9
$VIEWCTR
 10
39.6446672767
 20
56.068886577
  9
$VIEWSIZE
 40
112.1377731541
  9
$CLAYER
  8
0
  9
$LTSCALE
 40
7.3097215093
  9
$CELTYPE
  6
BYLAYER
  9
$DIMSCALE
 40
1.0
  9
$DIMASZ
 40
0.9439206494
  9
$DIMEXO
 40
1.0
  9
$DIMDLI
 40
5.0503530428
  9
$DIMEXE
 40
1.0
  9
$DIMCEN
 40
1.196136247
  9
$DIMLFAC
 40
1.0
  9
$DIMBLK
  1
_FILLED
  9
$DIMALT
 70
0
  9
$DIMALTF
 40
0.0393700787
  9
$DIMTXT
 40
1.3214889092
  9
$DIMTOL
 70
1
  9
$DIMLIM
 70
0
  9
$DIMTFAC
 40
1.0
  9
$DIMTP
 40
0.01
  9
$DIMTM
 40
0.01
  9
$DIMGAP
 40
0.625
  9
$DIMDSEP
 70
46
  9
$AUNITS
 70
0
  9
$PDMODE
 70
3
  9
$PDSIZE
 40
0.3125
  9
$HANDSEED
  5
28F
  9
$TILEMODE
 70
1
  9
$MEASUREMENT
 70
1
  9
$INSUNITS
 70
4
  0
ENDSEC
  0
SECTION
  2
CLASSES
  0
CLASS
  1
ACDBDICTIONARYWDFLT
  2
AcDbDictionaryWithDefault
  3
AutoCAD 2000
 90
0
 91
1
280
0
281
0
  0
CLASS
  1
ACDBPLACEHOLDER
  2
AcDbPlaceHolder
  3
AutoCAD 2000
 90
0
 91
1
280
0
281
0
  0
CLASS
  1
LAYOUT
  2
AcDbLayout
  3
AutoCAD 2000
 90
0
 91
0
280
0
281
0
  0
ENDSEC
  0
SECTION
  2
TABLES
  0
TABLE
  2
VPORT
  5
8
100
AcDbSymbolTable
 70
2
  0
VPORT
  5
1F4
100
AcDbSymbolTableRecord
100
AcDbViewportTableRecord
  2
*ACTIVE
 70
0
 10
0.0
 20
0.0
 11
1.0
 21
1.0
 12
39.6446672767
 22
56.068886577
 13
0.0
 23
0.0
 14
1.0
 24
1.0
 15
0.0
 25
0.0
 16
0.0
 26
0.0
 36
1.0
 17
0.0
 27
0.0
 37
0.0
 40
112.1377731541
 41
0.7070707071
 42
50.0
 43
0.0
 44
0.0
 50
0.0
 51
0.0
 71
0
 72
100
 73
1
 74
1
 75
0
 76
0
 77
0
 78
0
  0
ENDTAB
  0
TABLE
  2
LTYPE
  5
5
100
AcDbSymbolTable
 70
6
  0
LTYPE
  5
14
100
AcDbSymbolTableRecord
100
AcDbLinetypeTableRecord
  2
BYBLOCK
 70
0
  3

 72
65
 73
0
 40
0.0
  0
LTYPE
  5
15
100
AcDbSymbolTableRecord
100
AcDbLinetypeTableRecord
  2
BYLAYER
 70
0
  3

 72
65
 73
0
 40
0.0
  0
LTYPE
  5
16
100
AcDbSymbolTableRecord
100
AcDbLinetypeTableRecord
  2
CONTINUOUS
 70
64
  3
Solid line
 72
65
 73
0
 40
0.0
  0
LTYPE
  5
1F5
100
AcDbSymbolTableRecord
100
AcDbLinetypeTableRecord
  2
CENTER
 70
64
  3
____ _ ____ _ ____ _ ____ _ ____ _ ____ _ ____
 72
65
 73
4
 40
0.6
 49
0.375
 74
0
 49
-0.075
 74
0
 49
0.075
 74
0
 49
-0.075
 74
0
  0
LTYPE
  5
1F6
100
AcDbSymbolTableRecord
100
AcDbLinetypeTableRecord
  2
HIDDEN
 70
64
  3
- - - - - - - - - - - - - - - - - - - -
 72
65
 73
2
 40
0.2
 49
0.1
 74
0
 49
-0.1
 74
0
  0
LTYPE
  5
1F7
100
AcDbSymbolTableRecord
100
AcDbLinetypeTableRecord
  2
PHANTOM
 70
64
  3
_____ _ _ _____ _ _ _____ _ _ _____
 72
65
 73
6
 40
0.8
 49
0.45
 74
0
 49
-0.05
 74
0
 49
0.1
 74
0
 49
-0.05
 74
0
 49
0.1
 74
0
 49
-0.05
 74
0
  0
LTYPE
  5
1F8
100
AcDbSymbolTableRecord
100
AcDbLinetypeTableRecord
  2
DOT
 70
64
  3
. . . . . . . . . . . . . . . . . . . .
 72
65
 73
2
 40
0.2
 49
0.1
 74
0
 49
-0.1
 74
0
  0
LTYPE
  5
1F9
100
AcDbSymbolTableRecord
100
AcDbLinetypeTableRecord
  2
DASHED
 70
64
  3
- - - - - - - - - - - - - - - - - - - -
 72
65
 73
2
 40
0.2
 49
0.1
 74
0
 49
-0.1
 74
0
  0
ENDTAB
  0
TABLE
  2
LAYER
  5
2
100
AcDbSymbolTable
 70
36
  0
LAYER
  5
10
100
AcDbSymbolTableRecord
100
AcDbLayerTableRecord
  2
0
 70
0
 62
7
  6
CONTINUOUS
370
-3
390
F
  0
LAYER
  5
1FA
100
AcDbSymbolTableRecord
100
AcDbLayerTableRecord
  2
DEFAULT_1
 70
0
 62
7
  6
CENTER
370
-3
390
F
  0
LAYER
  5
1FB
100
AcDbSymbolTableRecord
100
AcDbLayerTableRecord
  2
DEFAULT_2
 70
0
 62
7
  6
HIDDEN
370
-3
390
F
  0
LAYER
  5
1FC
100
AcDbSymbolTableRecord
100
AcDbLayerTableRecord
  2
DEFAULT_3
 70
0
 62
7
  6
PHANTOM
370
-3
390
F
  0
LAYER
  5
1FD
100
AcDbSymbolTableRecord
100
AcDbLayerTableRecord
  2
00_COMPONENTS
 70
0
 62
7
  6
CONTINUOUS
370
-3
390
F
  0
LAYER
  5
1FE
100
AcDbSymbolTableRecord
100
AcDbLayerTableRecord
  2
01_1_DEFAULT_DATUMS
 70
0
 62
7
  6
CONTINUOUS
370
-3
390
F
  0
LAYER
  5
1FF
100
AcDbSymbolTableRecord
100
AcDbLayerTableRecord
  2
01_PLANES
 70
0
 62
7
  6
CONTINUOUS
370
-3
390
F
  0
LAYER
  5
200
100
AcDbSymbolTableRecord
100
AcDbLayerTableRecord
  2
02_COORD_SYS
 70
0
 62
7
  6
CONTINUOUS
370
-3
390
F
  0
LAYER
  5
201
100
AcDbSymbolTableRecord
100
AcDbLayerTableRecord
  2
03_AXES
 70
0
 62
7
  6
CONTINUOUS
370
-3
390
F
  0
LAYER
  5
202
100
AcDbSymbolTableRecord
100
AcDbLayerTableRecord
  2
04_POINTS
 70
0
 62
7
  6
CONTINUOUS
370
-3
390
F
  0
LAYER
  5
203
100
AcDbSymbolTableRecord
100
AcDbLayerTableRecord
  2
05_CURVES
 70
0
 62
7
  6
CONTINUOUS
370
-3
390
F
  0
LAYER
  5
204
100
AcDbSymbolTableRecord
100
AcDbLayerTableRecord
  2
06_SURFS
 70
0
 62
7
  6
CONTINUOUS
370
-3
390
F
  0
LAYER
  5
205
100
AcDbSymbolTableRecord
100
AcDbLayerTableRecord
  2
07_COSMETICS
 70
0
 62
7
  6
CONTINUOUS
370
-3
390
F
  0
LAYER
  5
206
100
AcDbSymbolTableRecord
100
AcDbLayerTableRecord
  2
10_NOTES
 70
0
 62
7
  6
CONTINUOUS
370
-3
390
F
  0
LAYER
  5
207
100
AcDbSymbolTableRecord
100
AcDbLayerTableRecord
  2
11_NOTES_PUB
 70
0
 62
7
  6
CONTINUOUS
370
-3
390
F
  0
LAYER
  5
208
100
AcDbSymbolTableRecord
100
AcDbLayerTableRecord
  2
13_REF_GTOL
 70
0
 62
7
  6
CONTINUOUS
370
-3
390
F
  0
LAYER
  5
209
100
AcDbSymbolTableRecord
100
AcDbLayerTableRecord
  2
16_MISC
 70
0
 62
7
  6
CONTINUOUS
370
-3
390
F
  0
LAYER
  5
20A
100
AcDbSymbolTableRecord
100
AcDbLayerTableRecord
  2
17_NO_PRINT
 70
0
 62
7
  6
CONTINUOUS
370
-3
390
F
  0
LAYER
  5
20B
100
AcDbSymbolTableRecord
100
AcDbLayerTableRecord
  2
18_DATUM_CAMS_JOINTS
 70
0
 62
7
  6
CONTINUOUS
370
-3
390
F
  0
LAYER
  5
20C
100
AcDbSymbolTableRecord
100
AcDbLayerTableRecord
  2
19_DATUM_FUNCTIONAL
 70
0
 62
7
  6
CONTINUOUS
370
-3
390
F
  0
LAYER
  5
20D
100
AcDbSymbolTableRecord
100
AcDbLayerTableRecord
  2
20_DATUM_KINEMATIC_SCHEME
 70
0
 62
7
  6
CONTINUOUS
370
-3
390
F
  0
ENDTAB
  0
TABLE
  2
STYLE
  5
3
100
AcDbSymbolTable
 70
1
  0
STYLE
  5
11
100
AcDbSymbolTableRecord
100
AcDbTextStyleTableRecord
  2
STANDARD
 70
0
 40
0.0
 41
1.0
 50
0.0
 71
0
 42
0.2
  3
ARIAL.TTF
  4

  0
STYLE
  5
20E
100
AcDbSymbolTableRecord
100
AcDbTextStyleTableRecord
  2
TEXTSTYLE_1
 70
0
 40
0.0
 41
0.8
 50
0.0
 71
0
 42
0.2
  3
gdt
  4

  0
ENDTAB
  0
TABLE
  2
VIEW
  5
6
100
AcDbSymbolTable
 70
0
  0
ENDTAB
  0
TABLE
  2
UCS
  5
7
100
AcDbSymbolTable
 70
0
  0
ENDTAB
  0
TABLE
  2
APPID
  5
9
100
AcDbSymbolTable
 70
1
  0
APPID
  5
20F
100
AcDbSymbolTableRecord
100
AcDbRegAppTableRecord
  2
ACAD
 70
0
  0
ENDTAB
  0
TABLE
  2
BLOCK_RECORD
  5
1
100
AcDbSymbolTable
 70
0
  0
BLOCK_RECORD
  5
210
100
AcDbSymbolTableRecord
100
AcDbBlockTableRecord
  2
*Model_Space
  0
BLOCK_RECORD
  5
211
100
AcDbSymbolTableRecord
100
AcDbBlockTableRecord
  2
*Paper_Space
  0
BLOCK_RECORD
  5
212
100
AcDbSymbolTableRecord
100
AcDbBlockTableRecord
  2
_FILLED
  0
ENDTAB
  0
TABLE
  2
DIMSTYLE
  5
A
100
AcDbSymbolTable
 70
1
100
AcDbDimStyleTable
 71
0
  0
DIMSTYLE
105
213
100
AcDbSymbolTableRecord
100
AcDbDimStyleTableRecord
  2
STANDARD
 70
0
  3

  4

 40
1.0
 41
0.9439206494
 42
1.0
 43
0.38
 44
1.0
 45
0.0
 46
0.0
 47
0.01
 48
0.01
140
1.3214889092
141
0.09
142
0.0
143
25.4
144
1.0
145
0.0
146
1.0
147
0.625
 71
1
 72
0
 73
0
 74
0
 75
0
 76
0
 77
1
 78
8
 79
2
170
0
171
1
172
0
173
0
174
0
175
0
176
0
177
0
178
0
270
2
179
2
271
2
272
2
273
2
274
2
275
0
280
0
281
0
282
0
283
1
284
8
285
0
286
0
287
3
288
0
340
11
278
46
341
212
342
212
343
212
344
212
  0
ENDTAB
  0
ENDSEC
  0
SECTION
  2
BLOCKS
  0
BLOCK
  5
20
100
AcDbEntity
  8
0
100
AcDbBlockBegin
  2
*Model_Space
 70
0
 10
0.0
 20
0.0
 30
0.0
  3
*Model_Space
  1

  0
ENDBLK
  5
21
100
AcDbEntity
  8
0
100
AcDbBlockEnd
  0
BLOCK
  5
1C
100
AcDbEntity
  8
0
100
AcDbBlockBegin
  2
*Paper_Space
 70
0
 10
0.0
 20
0.0
 30
0.0
  3
*Paper_Space
  1

  0
ENDBLK
  5
1D
100
AcDbEntity
  8
0
100
AcDbBlockEnd
  0
BLOCK
  5
214
100
AcDbEntity
  8
0
100
AcDbBlockBegin
  2
_FILLED
 70
64
 10
0.0
 20
0.0
  3
_FILLED
  1

  0
SOLID
  5
215
100
AcDbEntity
  8
0
  6
BYBLOCK
 62
0
100
AcDbTrace
 10
0.0
 20
0.0
 11
-1.0
 21
0.25
 12
-1.0
 22
-0.25
 13
-1.0
 23
-0.25
  0
ENDBLK
  5
216
100
AcDbEntity
  8
0
  6
BYBLOCK
 62
0
100
AcDbBlockEnd
  0
ENDSEC
  0
SECTION
  2
ENTITIES
  0
LINE
  5
217
100
AcDbEntity
  8
0
100
AcDbLine
 62
7
  6
BYLAYER
 10
8.6938350019
 20
63.3629426885
 11
8.6938350019
 21
48.7629426756
  0
LINE
  5
218
100
AcDbEntity
  8
0
100
AcDbLine
 62
7
  6
BYLAYER
 10
9.0785725421
 20
63.6782716098
 11
9.0785725421
 21
48.4476137896
  0
LINE
  5
219
100
AcDbEntity
  8
0
100
AcDbLine
 62
7
  6
BYLAYER
 10
10.1903675005
 20
49.8629426823
 11
10.1903675005
 21
48.3629424167
  0
LINE
  5
21A
100
AcDbEntity
  8
0
100
AcDbLine
 62
7
  6
BYLAYER
 10
10.4299265311
 20
48.3629414509
 11
10.4299265581
 21
49.8629426823
  0
LINE
  5
21B
100
AcDbEntity
  8
0
100
AcDbLine
 62
7
  6
BYLAYER
 10
10.5316089769
 20
49.3629426823
 11
10.5316089769
 21
48.2629428685
  0
LINE
  5
21C
100
AcDbEntity
  8
0
100
AcDbLine
 62
7
  6
BYLAYER
 10
10.5676028191
 20
49.8629426823
 11
10.5676028191
 21
49.3629426823
  0
LINE
  5
21D
100
AcDbEntity
  8
0
100
AcDbLine
 62
7
  6
BYLAYER
 10
10.7699930977
 20
48.2629426823
 11
10.7699930977
 21
49.3629426823
  0
LINE
  5
21E
100
AcDbEntity
  8
0
100
AcDbLine
 62
7
  6
BYLAYER
 10
11.1436399184
 20
49.3129426823
 11
11.1436399184
 21
48.0629426823
  0
LINE
  5
21F
100
AcDbEntity
  8
0
100
AcDbLine
 62
7
  6
BYLAYER
 10
13.4719158917
 20
49.3129426823
 11
13.4719158917
 21
48.0629426823
  0
LINE
  5
220
100
AcDbEntity
  8
0
100
AcDbLine
 62
7
  6
BYLAYER
 10
13.5851418388
 20
48.0629426823
 11
13.5851418388
 21
49.3129426823
  0
LINE
  5
221
100
AcDbEntity
  8
0
100
AcDbLine
 62
7
  6
BYLAYER
 10
13.7827511751
 20
49.7129426823
 11
13.7827511751
 21
49.4129426823
  0
LINE
  5
222
100
AcDbEntity
  8
0
100
AcDbLine
 62
7
  6
BYLAYER
 10
13.7827511751
 20
47.9629426823
 11
13.7827511751
 21
47.6629426823
  0
LINE
  5
223
100
AcDbEntity
  8
0
100
AcDbLine
 62
7
  6
BYLAYER
 10
13.8154323237
 20
47.6629426823
 11
13.8154323237
 21
47.9629426823
  0
LINE
  5
224
100
AcDbEntity
  8
0
100
AcDbLine
 62
7
  6
BYLAYER
 10
13.8154323237
 20
49.4129426823
 11
13.8154323237
 21
49.7129426823
  0
LINE
  5
225
100
AcDbEntity
  8
0
100
AcDbLine
 62
7
  6
BYLAYER
 10
13.8596291774
 20
49.7129426823
 11
13.8596291774
 21
49.4129426823
  0
LINE
  5
226
100
AcDbEntity
  8
0
100
AcDbLine
 62
7
  6
BYLAYER
 10
13.8618653319
 20
49.4129426823
 11
13.8618653319
 21
49.7129426823
  0
LINE
  5
227
100
AcDbEntity
  8
0
100
AcDbLine
 62
7
  6
BYLAYER
 10
14.3188350019
 20
49.8629426823
 11
14.3188350019
 21
49.3629426823
  0
LINE
  5
228
100
AcDbEntity
  8
0
100
AcDbLine
 62
7
  6
BYLAYER
 10
14.4438350019
 20
49.3629426823
 11
14.4438350019
 21
49.8629426823
  0
LINE
  5
229
100
AcDbEntity
  8
0
100
AcDbLine
 62
7
  6
BYLAYER
 10
17.0152407527
 20
48.2629426823
 11
17.0152407527
 21
49.3629426823
  0
LINE
  5
22A
100
AcDbEntity
  8
0
100
AcDbLine
 62
7
  6
BYLAYER
 10
17.1938350019
 20
49.8629426823
 11
17.1938350019
 21
48.2629426823
  0
LINE
  5
22B
100
AcDbEntity
  8
0
100
AcDbLine
 62
7
  6
BYLAYER
 10
17.3738983418
 20
49.8629426823
 11
17.3738983418
 21
48.3629426823
  0
LINE
  5
22C
100
AcDbEntity
  8
0
100
AcDbLine
 62
7
  6
BYLAYER
 10
11.1962160468
 20
47.6629426823
 11
14.3486652729
 21
47.6629426823
  0
LINE
  5
22D
100
AcDbEntity
  8
0
100
AcDbLine
 62
7
  6
BYLAYER
 10
13.6228838211
 20
47.9629426823
 11
14.3486652729
 21
47.9629426823
  0
LINE
  5
22E
100
AcDbEntity
  8
0
100
AcDbLine
 62
7
  6
BYLAYER
 10
37.9938350458
 20
48.0629426823
 11
13.5851418388
 21
48.0629426823
  0
LINE
  5
22F
100
AcDbEntity
  8
0
100
AcDbLine
 62
7
  6
BYLAYER
 10
13.4719158917
 20
48.0629426823
 11
9.3938355341
 21
48.0629426823
  0
LINE
  5
230
100
AcDbEntity
  8
0
100
AcDbLine
 62
7
  6
BYLAYER
 10
17.1938350019
 20
48.2629426823
 11
13.5851418388
 21
48.2629426823
  0
LINE
  5
231
100
AcDbEntity
  8
0
100
AcDbLine
 62
7
  6
BYLAYER
 10
11.1436399184
 20
48.2629426823
 11
10.4473055318
 21
48.2629431102
  0
LINE
  5
232
100
AcDbEntity
  8
0
100
AcDbLine
 62
7
  6
BYLAYER
 10
38.0618223236
 20
48.3629426823
 11
25.8640884433
 21
48.3629426823
  0
LINE
  5
233
100
AcDbEntity
  8
0
100
AcDbLine
 62
7
  6
BYLAYER
 10
21.5235815605
 20
48.3629426823
 11
17.1938350019
 21
48.3629426823
  0
LINE
  5
234
100
AcDbEntity
  8
0
100
AcDbLine
 62
7
  6
BYLAYER
 10
9.325848324
 20
48.3629426823
 11
10.4299265775
 21
48.3629424167
  0
LINE
  5
235
100
AcDbEntity
  8
0
100
AcDbLine
 62
7
  6
BYLAYER
 10
11.1436399184
 20
49.3129426823
 11
13.4719158917
 21
49.3129426823
  0
LINE
  5
236
100
AcDbEntity
  8
0
100
AcDbLine
 62
7
  6
BYLAYER
 10
10.5316089769
 20
49.3629426823
 11
11.1436399184
 21
49.3629426823
  0
LINE
  5
237
100
AcDbEntity
  8
0
100
AcDbLine
 62
7
  6
BYLAYER
 10
13.5851418388
 20
49.3629426823
 11
17.1938350019
 21
49.3629426823
  0
LINE
  5
238
100
AcDbEntity
  8
0
100
AcDbLine
 62
7
  6
BYLAYER
 10
13.6228838211
 20
49.4129426823
 11
13.8618158832
 21
49.4129426823
  0
LINE
  5
239
100
AcDbEntity
  8
0
100
AcDbLine
 62
7
  6
BYLAYER
 10
52.3882697433
 20
49.4629426823
 11
41.1938350019
 21
49.4629426823
  0
LINE
  5
23A
100
AcDbEntity
  8
0
100
AcDbLine
 62
7
  6
BYLAYER
 10
14.4438350019
 20
49.4689154938
 11
17.1938350019
 21
49.4689154938
  0
LINE
  5
23B
100
AcDbEntity
  8
0
100
AcDbLine
 62
7
  6
BYLAYER
 10
11.1962160468
 20
49.7129426823
 11
13.8618157026
 21
49.7129426823
  0
LINE
  5
23C
100
AcDbEntity
  8
0
100
AcDbLine
 62
7
  6
BYLAYER
 10
14.3188350019
 20
49.7629426823
 11
14.4438350019
 21
49.7629426823
  0
LINE
  5
23D
100
AcDbEntity
  8
0
100
AcDbLine
 62
7
  6
BYLAYER
 10
17.1938350019
 20
49.8459608099
 11
14.4438350019
 21
49.8459608099
  0
LINE
  5
23E
100
AcDbEntity
  8
0
100
AcDbLine
 62
7
  6
BYLAYER
 10
17.3738982929
 20
49.8629426823
 11
10.1903673371
 21
49.8629426823
  0
LINE
  5
23F
100
AcDbEntity
  8
0
100
AcDbLine
 62
7
  6
BYLAYER
 10
38.6938350019
 20
50.1797376015
 11
41.1938350019
 21
50.1797376015
  0
LINE
  5
240
100
AcDbEntity
  8
0
100
AcDbLine
 62
7
  6
BYLAYER
 10
38.8938350019
 20
50.3297376015
 11
39.5938350019
 21
50.3297376015
  0
LINE
  5
241
100
AcDbEntity
  8
0
100
AcDbLine
 62
7
  6
BYLAYER
 10
41.1938350019
 20
50.3599896894
 11
39.5938350019
 21
50.3599896892
  0
LINE
  5
242
100
AcDbEntity
  8
0
100
AcDbLine
 62
7
  6
BYLAYER
 10
38.6938350019
 20
50.4629426823
 11
41.1938350019
 21
50.4629426823
  0
LINE
  5
243
100
AcDbEntity
  8
0
100
AcDbLine
 62
7
  6
BYLAYER
 10
61.1938350019
 20
51.7379426823
 11
55.3466176312
 21
51.7379426823
  0
LINE
  5
244
100
AcDbEntity
  8
0
100
AcDbLine
 62
7
  6
BYLAYER
 10
38.3090974615
 20
63.6782716096
 11
38.3090974615
 21
48.4476137893
  0
LINE
  5
245
100
AcDbEntity
  8
0
100
AcDbLine
 62
7
  6
BYLAYER
 10
71.6938350019
 20
52.8129426823
 11
61.1938350019
 21
52.8129426823
  0
LINE
  5
246
100
AcDbEntity
  8
0
100
AcDbLine
 62
7
  6
BYLAYER
 10
38.6938350019
 20
48.7629426944
 11
38.6938350019
 21
63.3629428169
  0
LINE
  5
247
100
AcDbEntity
  8
0
100
AcDbLine
 62
7
  6
BYLAYER
 10
38.8938350019
 20
50.1797376015
 11
38.8938350019
 21
50.4629426823
  0
LINE
  5
248
100
AcDbEntity
  8
0
100
AcDbLine
 62
7
  6
BYLAYER
 10
39.5938350019
 20
50.3599883599
 11
39.5938350019
 21
50.1797376015
  0
LINE
  5
249
100
AcDbEntity
  8
0
100
AcDbLine
 62
7
  6
BYLAYER
 10
41.1938350019
 20
55.2629426835
 11
38.6938350019
 21
55.2629426835
  0
LINE
  5
24A
100
AcDbEntity
  8
0
100
AcDbLine
 62
7
  6
BYLAYER
 10
41.1938350019
 20
49.4629426823
 11
41.1938350019
 21
63.4629426823
  0
LINE
  5
24B
100
AcDbEntity
  8
0
100
AcDbLine
 62
7
  6
BYLAYER
 10
38.6938350019
 20
57.662942681
 11
41.1938350019
 21
57.6629426811
  0
LINE
  5
24C
100
AcDbEntity
  8
0
100
AcDbLine
 62
7
  6
BYLAYER
 10
71.6938350019
 20
60.1129426823
 11
61.1938350019
 21
60.1129426823
  0
LINE
  5
24D
100
AcDbEntity
  8
0
100
AcDbLine
 62
7
  6
BYLAYER
 10
61.1938350019
 20
61.1879426823
 11
55.3466176312
 21
61.1879426823
  0
LINE
  5
24E
100
AcDbEntity
  8
0
100
AcDbLine
 62
7
  6
BYLAYER
 10
41.1938350019
 20
62.4629426823
 11
38.6938350019
 21
62.4629426823
  0
LINE
  5
24F
100
AcDbEntity
  8
0
100
AcDbLine
 62
7
  6
BYLAYER
 10
52.3882697433
 20
63.4629426823
 11
41.1938350019
 21
63.4629426823
  0
LINE
  5
250
100
AcDbEntity
  8
0
100
AcDbLine
 62
7
  6
BYLAYER
 10
9.3258476802
 20
63.7629426823
 11
21.5235815605
 21
63.7629426823
  0
LINE
  5
251
100
AcDbEntity
  8
0
100
AcDbLine
 62
7
  6
BYLAYER
 10
25.8640884433
 20
63.7629426823
 11
38.0618216798
 21
63.7629426823
  0
LINE
  5
252
100
AcDbEntity
  8
0
100
AcDbLine
 62
7
  6
BYLAYER
 10
9.3938349672
 20
64.0629426823
 11
37.9938344696
 21
64.0629426823
  0
LINE
  5
253
100
AcDbEntity
  8
0
100
AcDbLine
 62
7
  6
BYLAYER
 10
52.3882697433
 20
63.4627956605
 11
52.3882697433
 21
49.4629426823
  0
LINE
  5
254
100
AcDbEntity
  8
0
100
AcDbLine
 62
7
  6
BYLAYER
 10
54.2191963607
 20
50.6581397736
 11
54.2191963607
 21
62.267623672
  0
LINE
  5
255
100
AcDbEntity
  8
0
100
AcDbLine
 62
7
  6
BYLAYER
 10
54.4311543225
 20
61.7855412279
 11
54.4311543225
 21
51.1404782426
  0
LINE
  5
256
100
AcDbEntity
  8
0
100
AcDbLine
 62
7
  6
BYLAYER
 10
55.3466176312
 20
51.7379426823
 11
55.3466176312
 21
61.1879426823
  0
LINE
  5
257
100
AcDbEntity
  8
0
100
AcDbLine
 62
7
  6
BYLAYER
 10
54.4311543225
 20
51.1403441366
 11
54.2191963607
 21
50.6581397736
  0
LINE
  5
258
100
AcDbEntity
  8
0
100
AcDbLine
 62
7
  6
BYLAYER
 10
54.4311543225
 20
61.7855412279
 11
54.2191963607
 21
62.267745591
  0
LINE
  5
259
100
AcDbEntity
  8
0
100
AcDbLine
 62
7
  6
BYLAYER
 10
61.1938350019
 20
61.1879426823
 11
61.1938350019
 21
51.7379426823
  0
LINE
  5
25A
100
AcDbEntity
  8
0
100
AcDbLine
 62
7
  6
BYLAYER
 10
71.6938350019
 20
60.1129426823
 11
71.6938350019
 21
52.8129426823
  0
ARC
  5
25B
100
AcDbEntity
  8
0
100
AcDbCircle
 62
7
  6
BYLAYER
 10
9.3938350019
 20
48.7629426823
 40
0.7
100
AcDbArc
 50
180.0000007222
 51
270.0
  0
ARC
  5
25C
100
AcDbEntity
  8
0
100
AcDbCircle
 62
7
  6
BYLAYER
 10
9.3257209471
 20
48.7659816673
 40
0.4030390052
100
AcDbArc
 50
232.1778752924
 51
270.0181078196
  0
ARC
  5
25D
100
AcDbEntity
  8
0
100
AcDbCircle
 62
7
  6
BYLAYER
 10
17.3938350019
 20
48.2629426823
 40
0.2
100
AcDbArc
 50
179.9999999867
 51
270.0
  0
CIRCLE
  5
25E
100
AcDbEntity
  8
0
100
AcDbCircle
 62
7
  6
BYLAYER
 10
23.6938350019
 20
56.0629426823
 40
8.0
  0
CIRCLE
  5
25F
100
AcDbEntity
  8
0
100
AcDbCircle
 62
7
  6
BYLAYER
 10
23.6938350019
 20
56.0629426823
 40
6.4557800191
  0
ARC
  5
260
100
AcDbEntity
  8
0
100
AcDbCircle
 62
7
  6
BYLAYER
 10
23.6938350019
 20
56.0629426823
 40
6.4441761225
100
AcDbArc
 50
234.4142461719
 51
305.5857538281
  0
CIRCLE
  5
261
100
AcDbEntity
  8
0
100
AcDbCircle
 62
7
  6
BYLAYER
 10
23.6938350019
 20
56.0629426823
 40
5.9558561962
  0
CIRCLE
  5
262
100
AcDbEntity
  8
0
100
AcDbCircle
 62
7
  6
BYLAYER
 10
23.6938350019
 20
56.0629426823
 40
5.9207328233
  0
CIRCLE
  5
263
100
AcDbEntity
  8
0
100
AcDbCircle
 62
7
  6
BYLAYER
 10
23.6938350019
 20
56.0629426823
 40
5.7207631581
  0
CIRCLE
  5
264
100
AcDbEntity
  8
0
100
AcDbCircle
 62
7
  6
BYLAYER
 10
23.6938350019
 20
56.0629426823
 40
5.6049782198
  0
CIRCLE
  5
265
100
AcDbEntity
  8
0
100
AcDbCircle
 62
7
  6
BYLAYER
 10
23.6938350019
 20
56.0629426823
 40
5.4317731342
  0
CIRCLE
  5
266
100
AcDbEntity
  8
0
100
AcDbCircle
 62
7
  6
BYLAYER
 10
23.6938350019
 20
56.0629426823
 40
4.5080126927
  0
CIRCLE
  5
267
100
AcDbEntity
  8
0
100
AcDbCircle
 62
7
  6
BYLAYER
 10
23.6938350019
 20
56.0629426823
 40
3.2089745851
  0
ARC
  5
268
100
AcDbEntity
  8
0
100
AcDbCircle
 62
7
  6
BYLAYER
 10
9.3938350019
 20
63.3629426823
 40
0.7
100
AcDbArc
 50
90.0
 51
179.9999993299
  0
ARC
  5
269
100
AcDbEntity
  8
0
100
AcDbCircle
 62
7
  6
BYLAYER
 10
52.3882697433
 20
51.4629426823
 40
2.0
100
AcDbArc
 50
270.0
 51
336.271608924
  0
ARC
  5
26A
100
AcDbEntity
  8
0
100
AcDbCircle
 62
7
  6
BYLAYER
 10
55.3466176312
 20
50.7379426823
 40
1.0
100
AcDbArc
 50
90.0
 51
156.271608924
  0
ARC
  5
26B
100
AcDbEntity
  8
0
100
AcDbCircle
 62
7
  6
BYLAYER
 10
37.9938350019
 20
48.7629426823
 40
0.7
100
AcDbArc
 50
270.0
 51
359.9999754574
  0
ARC
  5
26C
100
AcDbEntity
  8
0
100
AcDbCircle
 62
7
  6
BYLAYER
 10
52.3882697433
 20
61.4629426823
 40
2.0
100
AcDbArc
 50
23.728391076
 51
90.0
  0
ARC
  5
26D
100
AcDbEntity
  8
0
100
AcDbCircle
 62
7
  6
BYLAYER
 10
55.3466176312
 20
62.1879426823
 40
1.0
100
AcDbArc
 50
203.728391076
 51
270.0
  0
ARC
  5
26E
100
AcDbEntity
  8
0
100
AcDbCircle
 62
7
  6
BYLAYER
 10
37.9938350019
 20
63.3629426823
 40
0.7
100
AcDbArc
 50
0.0000379003
 51
90.0
  0
ARC
  5
26F
100
AcDbEntity
  8
0
100
AcDbCircle
 62
7
  6
BYLAYER
 10
38.0619490568
 20
63.3599036979
 40
0.4030390045
100
AcDbArc
 50
52.1778752791
 51
90.0181078374
  0
SPLINE
  5
270
100
AcDbEntity
  8
0
100
AcDbSpline
 62
7
  6
BYLAYER
 70
0
 71
3
 72
19
 73
15
 74
0
 42
0.0000001
 43
0.0000001
 44
0.0000000001
 40
0.0
 40
0.0
 40
0.0
 40
0.0
 40
0.0125933224
 40
0.0208615533
 40
0.0308955974
 40
0.0568455917
 40
0.0910333815
 40
0.1334247997
 40
0.1838058086
 40
0.2417809278
 40
0.3068453662
 40
0.4558829625
 40
0.6253807775
 40
1.0
 40
1.0
 40
1.0
 40
1.0
 10
14.3486652729
 20
47.6629426823
 30
0.0
 10
14.3503811634
 20
47.6629426823
 30
0.0
 10
14.3531716313
 20
47.6643394984
 30
0.0
 10
14.356032305
 20
47.6674007393
 30
0.0
 10
14.3594662523
 20
47.672395707
 30
0.0
 10
14.3634395787
 20
47.681140517
 30
0.0
 10
14.367815699
 20
47.6944178811
 30
0.0
 10
14.3720375127
 20
47.7112064937
 30
0.0
 10
14.3760648835
 20
47.7313526873
 30
0.0
 10
14.3798496656
 20
47.7546812813
 30
0.0
 10
14.3847399263
 20
47.7914326179
 30
0.0
 10
14.3897788963
 20
47.8434725124
 30
0.0
 10
14.3957725763
 20
47.9377363093
 30
0.0
 10
14.3974130102
 20
48.0118993169
 30
0.0
 10
14.3974130102
 20
48.0629426823
 30
0.0
  0
SPLINE
  5
271
100
AcDbEntity
  8
0
100
AcDbSpline
 62
7
  6
BYLAYER
 70
0
 71
3
 72
16
 73
12
 74
0
 42
0.0000001
 43
0.0000001
 44
0.0000000001
 40
0.0
 40
0.0
 40
0.0
 40
0.0
 40
0.3750155871
 40
0.544688526
 40
0.6938172477
 40
0.8169980218
 40
0.8674136728
 40
0.9098651283
 40
0.9440886095
 40
0.9700541473
 40
1.0
 40
1.0
 40
1.0
 40
1.0
 10
14.3608522072
 20
48.0629426823
 30
0.0
 10
14.3608522072
 20
48.050181174
 30
0.0
 10
14.360440513
 20
48.0316397597
 30
0.0
 10
14.3589460441
 20
48.0080745848
 30
0.0
 10
14.357486934
 20
47.9931005367
 30
0.0
 10
14.3559512071
 20
47.9822241554
 30
0.0
 10
14.3545057881
 20
47.9750049953
 30
0.0
 10
14.3534611611
 20
47.9708253189
 30
0.0
 10
14.3523383489
 20
47.9674576129
 30
0.0
 10
14.3511425741
 20
47.9647910175
 30
0.0
 10
14.3496843085
 20
47.9629426823
 30
0.0
 10
14.3486652729
 20
47.9629426823
 30
0.0
  0
SPLINE
  5
272
100
AcDbEntity
  8
0
100
AcDbSpline
 62
7
  6
BYLAYER
 70
0
 71
3
 72
16
 73
12
 74
0
 42
0.0000001
 43
0.0000001
 44
0.0000000001
 40
0.0
 40
0.0
 40
0.0
 40
0.0
 40
0.0420191811
 40
0.0706657598
 40
0.1064471555
 40
0.2022251472
 40
0.329103478
 40
0.4824602619
 40
0.6524798336
 40
0.8282084413
 40
1.0
 40
1.0
 40
1.0
 40
1.0
 10
37.9938340011
 20
64.0629426823
 30
0.0
 10
37.9982899204
 20
64.0629426822
 30
0.0
 10
38.0056472182
 20
64.0592501263
 30
0.0
 10
38.0132259109
 20
64.0509430206
 30
0.0
 10
38.0225192396
 20
64.0366001592
 30
0.0
 10
38.0327557386
 20
64.0110080319
 30
0.0
 10
38.0431746536
 20
63.9724816806
 30
0.0
 10
38.0514770808
 20
63.9254062905
 30
0.0
 10
38.0575782882
 20
63.8728105065
 30
0.0
 10
38.0610548785
 20
63.8180165268
 30
0.0
 10
38.0618217108
 20
63.7811602986
 30
0.0
 10
38.0618217361
 20
63.7629426823
 30
0.0
  0
SPLINE
  5
273
100
AcDbEntity
  8
0
100
AcDbSpline
 62
7
  6
BYLAYER
 70
0
 71
3
 72
15
 73
11
 74
0
 42
0.0000001
 43
0.0000001
 44
0.0000000001
 40
0.0
 40
0.0
 40
0.0
 40
0.0
 40
0.037676124
 40
0.064508793
 40
0.0985895801
 40
0.1909235718
 40
0.3146023265
 40
0.4658904406
 40
0.6366791932
 40
1.0
 40
1.0
 40
1.0
 40
1.0
 10
38.4245186265
 20
63.9147683935
 30
0.0
 10
38.4271944592
 20
63.9126799855
 30
0.0
 10
38.4295654707
 20
63.906632699
 30
0.0
 10
38.4296632356
 20
63.8978261263
 30
0.0
 10
38.4277249453
 20
63.8840663802
 30
0.0
 10
38.4206502644
 20
63.8625775098
 30
0.0
 10
38.4071761621
 20
63.8323275582
 30
0.0
 10
38.3880742619
 20
63.7969646804
 30
0.0
 10
38.3560473259
 20
63.7441549301
 30
0.0
 10
38.3285509184
 20
63.7045960559
 30
0.0
 10
38.3090973233
 20
63.67827166
 30
0.0
  0
SPLINE
  5
274
100
AcDbEntity
  8
0
100
AcDbSpline
 62
7
  6
BYLAYER
 70
0
 71
3
 72
14
 73
10
 74
0
 42
0.0000001
 43
0.0000001
 44
0.0000000001
 40
0.0
 40
0.0
 40
0.0
 40
0.0
 40
0.3251254318
 40
0.4698641245
 40
0.6003435161
 40
0.7165316497
 40
0.8197334296
 40
0.9127070589
 40
1.0
 40
1.0
 40
1.0
 40
1.0
 10
38.3090974615
 20
63.6782716096
 30
0.0
 10
38.3635495144
 20
63.6611793148
 30
0.0
 10
38.4411211642
 20
63.6318994823
 30
0.0
 10
38.5338259559
 20
63.5814695818
 30
0.0
 10
38.5903263677
 20
63.5420606425
 30
0.0
 10
38.6354846959
 20
63.5000759142
 30
0.0
 10
38.6686710323
 20
63.4559624614
 30
0.0
 10
38.68912409
 20
63.4100627175
 30
0.0
 10
38.6938324998
 20
63.3782659818
 30
0.0
 10
38.6938350019
 20
63.3629428137
 30
0.0
  0
SPLINE
  5
275
100
AcDbEntity
  8
0
100
AcDbSpline
 62
7
  6
BYLAYER
 70
0
 71
3
 72
14
 73
10
 74
0
 42
0.0000001
 43
0.0000001
 44
0.0000000001
 40
0.0
 40
0.0
 40
0.0
 40
0.0
 40
0.3251255313
 40
0.4698641729
 40
0.6003433374
 40
0.7165312519
 40
0.8197336124
 40
0.9127084782
 40
1.0
 40
1.0
 40
1.0
 40
1.0
 10
9.0785725421
 20
48.447613755
 30
0.0
 10
9.0241206512
 20
48.464706642
 30
0.0
 10
8.9465490559
 20
48.4939864632
 30
0.0
 10
8.853844066
 20
48.544415958
 30
0.0
 10
8.7973435313
 20
48.5838245799
 30
0.0
 10
8.7521850927
 20
48.6258092599
 30
0.0
 10
8.7189988407
 20
48.6699231747
 30
0.0
 10
8.6985460949
 20
48.71582309
 30
0.0
 10
8.6938374417
 20
48.7476197553
 30
0.0
 10
8.6938350019
 20
48.7629426756
 30
0.0
  0
SPLINE
  5
276
100
AcDbEntity
  8
0
100
AcDbSpline
 62
7
  6
BYLAYER
 70
0
 71
3
 72
15
 73
11
 74
0
 42
0.0000001
 43
0.0000001
 44
0.0000000001
 40
0.0
 40
0.0
 40
0.0
 40
0.0
 40
0.0376761236
 40
0.0645087923
 40
0.098589579
 40
0.1909235701
 40
0.3146023245
 40
0.4658904387
 40
0.6366791918
 40
1.0
 40
1.0
 40
1.0
 40
1.0
 10
8.9631513774
 20
48.211116971
 30
0.0
 10
8.9604755447
 20
48.2132053789
 30
0.0
 10
8.958104533
 20
48.2192526652
 30
0.0
 10
8.958006768
 20
48.2280592378
 30
0.0
 10
8.9599450582
 20
48.2418189838
 30
0.0
 10
8.9670197389
 20
48.2633078542
 30
0.0
 10
8.9804938411
 20
48.2935578058
 30
0.0
 10
8.9995957413
 20
48.3289206837
 30
0.0
 10
9.0316226774
 20
48.3817304342
 30
0.0
 10
9.059119085
 20
48.4212893086
 30
0.0
 10
9.0785726802
 20
48.4476137046
 30
0.0
  0
SPLINE
  5
277
100
AcDbEntity
  8
0
100
AcDbSpline
 62
7
  6
BYLAYER
 70
0
 71
3
 72
16
 73
12
 74
0
 42
0.0000001
 43
0.0000001
 44
0.0000000001
 40
0.0
 40
0.0
 40
0.0
 40
0.0
 40
0.0420191811
 40
0.0706657598
 40
0.1064471555
 40
0.2022251472
 40
0.329103478
 40
0.4824602619
 40
0.6524798336
 40
0.8282084413
 40
1.0
 40
1.0
 40
1.0
 40
1.0
 10
9.3938360027
 20
48.0629426823
 30
0.0
 10
9.3893800834
 20
48.0629426823
 30
0.0
 10
9.3820227856
 20
48.0666352382
 30
0.0
 10
9.3744440929
 20
48.074942344
 30
0.0
 10
9.3651507642
 20
48.0892852054
 30
0.0
 10
9.3549142652
 20
48.1148773327
 30
0.0
 10
9.3444953502
 20
48.1534036839
 30
0.0
 10
9.336192923
 20
48.200479074
 30
0.0
 10
9.3300917156
 20
48.2530748581
 30
0.0
 10
9.3266151253
 20
48.3078688377
 30
0.0
 10
9.3258482929
 20
48.3447250659
 30
0.0
 10
9.3258482677
 20
48.3629426823
 30
0.0
  0
SPLINE
  5
278
100
AcDbEntity
  8
0
100
AcDbSpline
 62
7
  6
BYLAYER
 70
0
 71
3
 72
15
 73
11
 74
0
 42
0.0000001
 43
0.0000001
 44
0.0000000001
 40
0.0
 40
0.0
 40
0.0
 40
0.0
 40
0.0416364041
 40
0.0709717378
 40
0.1072139431
 40
0.2009819416
 40
0.3224509245
 40
0.4690598966
 40
0.6352110859
 40
1.0
 40
1.0
 40
1.0
 40
1.0
 10
10.2503438503
 20
48.0629426823
 30
0.0
 10
10.2459783479
 20
48.0629459338
 30
0.0
 10
10.2389713033
 20
48.0676504061
 30
0.0
 10
10.2324039111
 20
48.0765898546
 30
0.0
 10
10.2243621372
 20
48.091365958
 30
0.0
 10
10.2156490981
 20
48.1163358848
 30
0.0
 10
10.2068912554
 20
48.1532936951
 30
0.0
 10
10.1998234913
 20
48.1983045411
 30
0.0
 10
10.1924949695
 20
48.2689821468
 30
0.0
 10
10.19036871
 20
48.3246952073
 30
0.0
 10
10.19036735
 20
48.3629426823
 30
0.0
  0
SPLINE
  5
279
100
AcDbEntity
  8
0
100
AcDbSpline
 62
7
  6
BYLAYER
 70
0
 71
3
 72
13
 73
9
 74
0
 42
0.0000001
 43
0.0000001
 44
0.0000000001
 40
0.0
 40
0.0
 40
0.0
 40
0.0
 40
0.0378462118
 40
0.1003448551
 40
0.1943459011
 40
0.317338124
 40
0.63108988
 40
1.0
 40
1.0
 40
1.0
 40
1.0
 10
10.4473055318
 20
48.2629431102
 30
0.0
 10
10.446000016
 20
48.2630444247
 30
0.0
 10
10.4429515457
 20
48.2654154658
 30
0.0
 10
10.440080684
 20
48.2714804328
 30
0.0
 10
10.4372309815
 20
48.2807689131
 30
0.0
 10
10.4336439695
 20
48.2987838804
 30
0.0
 10
10.4306593892
 20
48.3265543872
 30
0.0
 10
10.429960479
 20
48.350177574
 30
0.0
 10
10.4299265311
 20
48.3629414509
 30
0.0
  0
SPLINE
  5
27A
100
AcDbEntity
  8
0
100
AcDbSpline
 62
7
  6
BYLAYER
 70
0
 71
3
 72
11
 73
7
 74
0
 42
0.0000001
 43
0.0000001
 44
0.0000000001
 40
0.0
 40
0.0
 40
0.0
 40
0.0
 40
0.2368529071
 40
0.4953381698
 40
0.7566157149
 40
1.0
 40
1.0
 40
1.0
 40
1.0
 10
10.2503438373
 20
48.0629426823
 30
0.0
 10
10.2748003885
 20
48.0629426823
 30
0.0
 10
10.3264483888
 20
48.072840794
 30
0.0
 10
10.3933102041
 20
48.1173241333
 30
0.0
 10
10.4374387442
 20
48.1852011544
 30
0.0
 10
10.4473054255
 20
48.2378120324
 30
0.0
 10
10.4473053879
 20
48.2629429894
 30
0.0
  0
SPLINE
  5
27B
100
AcDbEntity
  8
0
100
AcDbSpline
 62
7
  6
BYLAYER
 70
0
 71
3
 72
15
 73
11
 74
0
 42
0.0000001
 43
0.0000001
 44
0.0000000001
 40
0.0
 40
0.0
 40
0.0
 40
0.0
 40
0.0424878633
 40
0.0719070661
 40
0.1082195101
 40
0.2025149826
 40
0.3243755664
 40
0.4704403398
 40
0.6358745653
 40
1.0
 40
1.0
 40
1.0
 40
1.0
 10
10.8114156679
 20
48.0629426823
 30
0.0
 10
10.8084362562
 20
48.0629426823
 30
0.0
 10
10.8036130697
 20
48.0659189453
 30
0.0
 10
10.7990041972
 20
48.0718521306
 30
0.0
 10
10.7934325377
 20
48.0816773127
 30
0.0
 10
10.7874583002
 20
48.0984146257
 30
0.0
 10
10.7814325609
 20
48.1231126404
 30
0.0
 10
10.7764929844
 20
48.1531229243
 30
0.0
 10
10.7713927613
 20
48.2002384945
 30
0.0
 10
10.7699930977
 20
48.2374088127
 30
0.0
 10
10.7699930977
 20
48.2629426823
 30
0.0
  0
SPLINE
  5
27C
100
AcDbEntity
  8
0
100
AcDbSpline
 62
7
  6
BYLAYER
 70
0
 71
3
 72
11
 73
7
 74
0
 42
0.0000001
 43
0.0000001
 44
0.0000000001
 40
0.0
 40
0.0
 40
0.0
 40
0.0
 40
0.2517652906
 40
0.5025001407
 40
0.751770465
 40
1.0
 40
1.0
 40
1.0
 40
1.0
 10
10.5316089769
 20
48.2629429894
 30
0.0
 10
10.5316090162
 20
48.236945851
 30
0.0
 10
10.5214132133
 20
48.1845018432
 30
0.0
 10
10.4776955138
 20
48.1180329542
 30
0.0
 10
10.4122247869
 20
48.0734068593
 30
0.0
 10
10.3602794645
 20
48.0629426823
 30
0.0
 10
10.3346474263
 20
48.0629426823
 30
0.0
  0
SPLINE
  5
27D
100
AcDbEntity
  8
0
100
AcDbSpline
 62
7
  6
BYLAYER
 70
0
 71
3
 72
14
 73
10
 74
0
 42
0.0000001
 43
0.0000001
 44
0.0000000001
 40
0.0
 40
0.0
 40
0.0
 40
0.0
 40
0.3765915849
 40
0.5470338964
 40
0.6966302208
 40
0.8199417687
 40
0.9127443815
 40
0.9720749233
 40
1.0
 40
1.0
 40
1.0
 40
1.0
 10
17.0152407527
 20
48.2629426823
 30
0.0
 10
17.0152407527
 20
48.2374246726
 30
0.0
 10
17.0159682358
 20
48.2003376709
 30
0.0
 10
17.0185815403
 20
48.1532282138
 30
0.0
 10
17.0211739999
 20
48.1232289993
 30
0.0
 10
17.0241270584
 20
48.0987993772
 30
0.0
 10
17.027835802
 20
48.080022152
 30
0.0
 10
17.0307957933
 20
48.0691038178
 30
0.0
 10
17.0347542881
 20
48.0629426823
 30
0.0
 10
17.0366465035
 20
48.0629426823
 30
0.0
  0
SPLINE
  5
27E
100
AcDbEntity
  8
0
100
AcDbSpline
 62
7
  6
BYLAYER
 70
0
 71
3
 72
15
 73
11
 74
0
 42
0.0000001
 43
0.0000001
 44
0.0000000001
 40
0.0
 40
0.0
 40
0.0
 40
0.0
 40
0.0387501086
 40
0.0664580095
 40
0.1016047707
 40
0.1963248331
 40
0.321959702
 40
0.4739124614
 40
0.643690992
 40
1.0
 40
1.0
 40
1.0
 40
1.0
 10
8.9631514564
 20
63.9147684552
 30
0.0
 10
8.9603994391
 20
63.9126207163
 30
0.0
 10
8.958038033
 20
63.9063335852
 30
0.0
 10
8.9580443965
 20
63.897267626
 30
0.0
 10
8.9601710157
 20
63.8831371057
 30
0.0
 10
8.9675454007
 20
63.8612407287
 30
0.0
 10
8.9813363991
 20
63.8306400463
 30
0.0
 10
9.0006109961
 20
63.7952100105
 30
0.0
 10
9.0323968714
 20
63.7430340554
 30
0.0
 10
9.0594954615
 20
63.7040865454
 30
0.0
 10
9.0785725537
 20
63.6782716421
 30
0.0
  0
SPLINE
  5
27F
100
AcDbEntity
  8
0
100
AcDbSpline
 62
7
  6
BYLAYER
 70
0
 71
3
 72
16
 73
12
 74
0
 42
0.0000001
 43
0.0000001
 44
0.0000000001
 40
0.0
 40
0.0
 40
0.0
 40
0.0
 40
0.1717920562
 40
0.3475210155
 40
0.5175407244
 40
0.6708974451
 40
0.7977755342
 40
0.8935532289
 40
0.9293344937
 40
0.9579809579
 40
1.0
 40
1.0
 40
1.0
 40
1.0
 10
9.3258476802
 20
63.7629426823
 30
0.0
 10
9.3258476802
 20
63.7811603471
 30
0.0
 10
9.3266144657
 20
63.8180166579
 30
0.0
 10
9.330090994
 20
63.8728107336
 30
0.0
 10
9.3361921492
 20
63.9254065569
 30
0.0
 10
9.3444945267
 20
63.9724819266
 30
0.0
 10
9.3549133946
 20
64.0110082151
 30
0.0
 10
9.3651498591
 20
64.0366002736
 30
0.0
 10
9.374443155
 20
64.0509430822
 30
0.0
 10
9.3820218251
 20
64.0592501526
 30
0.0
 10
9.3893790984
 20
64.0629426807
 30
0.0
 10
9.3938350019
 20
64.0629426823
 30
0.0
  0
SPLINE
  5
280
100
AcDbEntity
  8
0
100
AcDbSpline
 62
7
  6
BYLAYER
 70
0
 71
3
 72
14
 73
10
 74
0
 42
0.0000001
 43
0.0000001
 44
0.0000000001
 40
0.0
 40
0.0
 40
0.0
 40
0.0
 40
0.0872670685
 40
0.180238784
 40
0.2834515958
 40
0.3996597491
 40
0.5301811893
 40
0.6749344906
 40
1.0
 40
1.0
 40
1.0
 40
1.0
 10
8.6938350019
 20
63.3629426885
 30
0.0
 10
8.6938368742
 20
63.3782613914
 30
0.0
 10
8.6985428235
 20
63.4100534811
 30
0.0
 10
8.7189913487
 20
63.4559522762
 30
0.0
 10
8.7521770808
 20
63.5000728453
 30
0.0
 10
8.7973422345
 20
63.5420702912
 30
0.0
 10
8.8538594524
 20
63.5814796248
 30
0.0
 10
8.9465640753
 20
63.6319092929
 30
0.0
 10
9.0241311528
 20
63.6611794819
 30
0.0
 10
9.0785725421
 20
63.6782715752
 30
0.0
  0
SPLINE
  5
281
100
AcDbEntity
  8
0
100
AcDbSpline
 62
7
  6
BYLAYER
 70
0
 71
3
 72
9
 73
5
 74
0
 42
0.0000001
 43
0.0000001
 44
0.0000000001
 40
0.0
 40
0.0
 40
0.0
 40
0.0
 40
0.4988339738
 40
1.0
 40
1.0
 40
1.0
 40
1.0
 10
9.3258476802
 20
63.7629426823
 30
0.0
 10
9.2817994369
 20
63.7625715793
 30
0.0
 10
9.1929319712
 20
63.7482025998
 30
0.0
 10
9.1135849598
 20
63.705340062
 30
0.0
 10
9.0785725421
 20
63.6782716098
 30
0.0
  0
SPLINE
  5
282
100
AcDbEntity
  8
0
100
AcDbSpline
 62
7
  6
BYLAYER
 70
0
 71
3
 72
17
 73
13
 74
0
 42
0.0000001
 43
0.0000001
 44
0.0000000001
 40
0.0
 40
0.0
 40
0.0
 40
0.0
 40
0.1932500162
 40
0.3794741114
 40
0.5515475902
 40
0.7023564469
 40
0.8255214458
 40
0.9175389747
 40
0.9510455068
 40
0.9758433409
 40
0.9918460538
 40
1.0
 40
1.0
 40
1.0
 40
1.0
 10
17.3738961436
 20
48.3629426823
 30
0.0
 10
17.3738962931
 20
48.3434744006
 30
0.0
 10
17.3741547269
 20
48.3052453688
 30
0.0
 10
17.3752643107
 20
48.249690287
 30
0.0
 10
17.3770290201
 20
48.1984331732
 30
0.0
 10
17.3793736647
 20
48.1535474567
 30
0.0
 10
17.3822365884
 20
48.116805224
 30
0.0
 10
17.3851551741
 20
48.0918630457
 30
0.0
 10
17.3877397327
 20
48.0769999764
 30
0.0
 10
17.3896492912
 20
48.0696306666
 30
0.0
 10
17.3911501825
 20
48.0651792095
 30
0.0
 10
17.393011416
 20
48.0629452871
 30
0.0
 10
17.393832852
 20
48.0629426823
 30
0.0
  0
SPLINE
  5
283
100
AcDbEntity
  8
0
100
AcDbSpline
 62
7
  6
BYLAYER
 70
0
 71
3
 72
15
 73
11
 74
0
 42
0.0000001
 43
0.0000001
 44
0.0000000001
 40
0.0
 40
0.0
 40
0.0
 40
0.0
 40
0.0387501089
 40
0.0664580099
 40
0.1016047713
 40
0.196324834
 40
0.3219597031
 40
0.4739124624
 40
0.6436909928
 40
1.0
 40
1.0
 40
1.0
 40
1.0
 10
38.424518547
 20
48.2111169091
 30
0.0
 10
38.4272705643
 20
48.2132646481
 30
0.0
 10
38.4296319703
 20
48.2195517792
 30
0.0
 10
38.4296256068
 20
48.2286177385
 30
0.0
 10
38.4274989875
 20
48.2427482587
 30
0.0
 10
38.4201246025
 20
48.2646446358
 30
0.0
 10
38.406333604
 20
48.2952453183
 30
0.0
 10
38.387059007
 20
48.330675354
 30
0.0
 10
38.3552731318
 20
48.382851309
 30
0.0
 10
38.3281745418
 20
48.421798819
 30
0.0
 10
38.3090974498
 20
48.4476137222
 30
0.0
  0
SPLINE
  5
284
100
AcDbEntity
  8
0
100
AcDbSpline
 62
7
  6
BYLAYER
 70
0
 71
3
 72
16
 73
12
 74
0
 42
0.0000001
 43
0.0000001
 44
0.0000000001
 40
0.0
 40
0.0
 40
0.0
 40
0.0
 40
0.1717920562
 40
0.3475210155
 40
0.5175407244
 40
0.6708974451
 40
0.7977755342
 40
0.8935532289
 40
0.9293344937
 40
0.9579809579
 40
1.0
 40
1.0
 40
1.0
 40
1.0
 10
38.0618223236
 20
48.3629426823
 30
0.0
 10
38.0618223236
 20
48.3447250174
 30
0.0
 10
38.0610555381
 20
48.3078687066
 30
0.0
 10
38.0575790098
 20
48.2530746309
 30
0.0
 10
38.0514778546
 20
48.2004788076
 30
0.0
 10
38.0431754771
 20
48.1534034379
 30
0.0
 10
38.0327566091
 20
48.1148771494
 30
0.0
 10
38.0225201447
 20
48.089285091
 30
0.0
 10
38.0132268488
 20
48.0749422824
 30
0.0
 10
38.0056481787
 20
48.066635212
 30
0.0
 10
37.9982909054
 20
48.0629426838
 30
0.0
 10
37.9938350019
 20
48.0629426823
 30
0.0
  0
SPLINE
  5
285
100
AcDbEntity
  8
0
100
AcDbSpline
 62
7
  6
BYLAYER
 70
0
 71
3
 72
14
 73
10
 74
0
 42
0.0000001
 43
0.0000001
 44
0.0000000001
 40
0.0
 40
0.0
 40
0.0
 40
0.0
 40
0.0872686268
 40
0.1802391133
 40
0.2834513326
 40
0.3996596703
 40
0.5301813214
 40
0.6749346559
 40
1.0
 40
1.0
 40
1.0
 40
1.0
 10
38.6938350019
 20
48.7629426913
 30
0.0
 10
38.6938330645
 20
48.7476237122
 30
0.0
 10
38.6891273807
 20
48.7158315161
 30
0.0
 10
38.6686785536
 20
48.6699328445
 30
0.0
 10
38.6354927392
 20
48.6258127241
 30
0.0
 10
38.5903276817
 20
48.5838152372
 30
0.0
 10
38.5338105878
 20
48.5444055758
 30
0.0
 10
38.4411061606
 20
48.4939754802
 30
0.0
 10
38.3635390101
 20
48.4647053119
 30
0.0
 10
38.3090974615
 20
48.4476137893
 30
0.0
  0
SPLINE
  5
286
100
AcDbEntity
  8
0
100
AcDbSpline
 62
7
  6
BYLAYER
 70
0
 71
3
 72
9
 73
5
 74
0
 42
0.0000001
 43
0.0000001
 44
0.0000000001
 40
0.0
 40
0.0
 40
0.0
 40
0.0
 40
0.4988339738
 40
1.0
 40
1.0
 40
1.0
 40
1.0
 10
38.0618223236
 20
48.3629426823
 30
0.0
 10
38.1058705669
 20
48.3633137852
 30
0.0
 10
38.1947380325
 20
48.3776827647
 30
0.0
 10
38.2740850438
 20
48.4205453025
 30
0.0
 10
38.3090974615
 20
48.4476137546
 30
0.0
  0
ELLIPSE
  5
287
100
AcDbEntity
  8
0
100
AcDbEllipse
 62
7
  6
BYLAYER
 10
13.6228838211
 20
48.0629426823
 30
0.0
 11
-0.0
 21
0.1
 31
0.0
 40
0.3774198235
 41
-4.7123889804
 42
-3.1415926536
  0
ELLIPSE
  5
288
100
AcDbEntity
  8
0
100
AcDbEllipse
 62
7
  6
BYLAYER
 10
13.6228838211
 20
49.3129426823
 30
0.0
 11
-0.0
 21
0.1
 31
0.0
 40
0.3774198235
 41
-0.0
 42
1.5707963268
  0
ELLIPSE
  5
289
100
AcDbEntity
  8
0
100
AcDbEllipse
 62
7
  6
BYLAYER
 10
11.1962160468
 20
48.0629426823
 30
0.0
 11
0.0
 21
0.4
 31
0.0
 40
0.1314403209
 41
1.5707963267
 42
3.1415926536
  0
ELLIPSE
  5
28A
100
AcDbEntity
  8
0
100
AcDbEllipse
 62
7
  6
BYLAYER
 10
11.1962160468
 20
49.3129426823
 30
0.0
 11
-0.0
 21
0.4
 31
0.0
 40
0.1314403209
 41
0.0
 42
1.5707963268
  0
ELLIPSE
  5
28B
100
AcDbEntity
  8
0
100
AcDbEllipse
 62
7
  6
BYLAYER
 10
13.6228838211
 20
48.0629426823
 30
0.0
 11
0.0
 21
0.4
 31
0.0
 40
0.3774198235
 41
1.5707963267
 42
3.1415926536
  0
ELLIPSE
  5
28C
100
AcDbEntity
  8
0
100
AcDbEllipse
 62
7
  6
BYLAYER
 10
13.6228838211
 20
49.3129426823
 30
0.0
 11
0.0
 21
0.4
 31
0.0
 40
0.3774198235
 41
-0.0
 42
1.5707963268
  0
ENDSEC
  0
SECTION
  2
OBJECTS
  0
DICTIONARY
  5
C
100
AcDbDictionary
280
0
281
1
  3
ACAD_GROUP
350
D
  3
ACAD_MLINESTYLE
350
17
  3
ACAD_LAYOUT
350
1A
  3
ACAD_PLOTSETTINGS
350
19
  3
ACAD_PLOTSTYLENAME
350
E
  0
DICTIONARY
  5
D
102
{ACAD_REACTORS
330
C
102
}
100
AcDbDictionary
280
0
281
1
  0
ACDBDICTIONARYWDFLT
  5
E
102
{ACAD_REACTORS
330
C
102
}
100
AcDbDictionary
281
1
  3
Normal
350
F
100
AcDbDictionaryWithDefault
340
F
  0
DICTIONARY
  5
17
102
{ACAD_REACTORS
330
C
102
}
100
AcDbDictionary
280
0
281
1
  3
Standard
350
18
  0
DICTIONARY
  5
19
102
{ACAD_REACTORS
330
C
102
}
100
AcDbDictionary
281
1
  0
DICTIONARY
  5
1A
102
{ACAD_REACTORS
330
C
102
}
100
AcDbDictionary
281
1
  3
Model
350
28D
  3
Layout1
350
28E
  0
ACDBPLACEHOLDER
  5
F
102
{ACAD_REACTORS
330
E
102
}
  0
MLINESTYLE
  5
18
102
{ACAD_REACTORS
330
17
102
}
100
AcDbMlineStyle
  2
STANDARD
 70
0
  3

 62
256
 51
90.0
 52
90.0
 71
2
 49
0.5
 62
256
  6
BYLAYER
 49
-0.5
 62
256
  6
BYLAYER
  0
LAYOUT
  5
28D
102
{ACAD_REACTORS
330
1A
102
}
100
AcDbPlotSettings
  1

  2
none_device
  4

  6

 40
0.0
 41
0.0
 42
0.0
 43
0.0
 44
210.0
 45
297.0
 46
0.0
 47
0.0
 48
0.0
 49
0.0
140
0.0
141
0.0
142
1.0
143
1.0
 70
1024
 72
1
 73
0
 74
0
  7

 75
0
147
1.0
148
0.0
149
0.0
100
AcDbLayout
  1
Model
 70
0
 71
0
 10
0.0
 20
0.0
 11
210.0
 21
297.0
 12
0.0
 22
0.0
 32
0.0
 14
0.0
 24
0.0
 34
0.0
 15
0.0
 25
0.0
 35
0.0
146
0.0
 13
0.0
 23
0.0
 33
0.0
 16
1.0
 26
0.0
 36
0.0
 17
0.0
 27
1.0
 37
0.0
 76
0
330
210
345
0
346
0
  0
LAYOUT
  5
28E
102
{ACAD_REACTORS
330
1A
102
}
100
AcDbPlotSettings
  1

  2
none_device
  4

  6

 40
0.0
 41
0.0
 42
0.0
 43
0.0
 44
210.0
 45
297.0
 46
0.0
 47
0.0
 48
0.0
 49
0.0
140
0.0
141
0.0
142
1.0
143
1.0
 70
0
 72
1
 73
0
 74
0
  7

 75
0
147
1.0
148
0.0
149
0.0
100
AcDbLayout
  1
Layout1
 70
0
 71
1
 10
0.0
 20
0.0
 11
210.0
 21
297.0
 12
0.0
 22
0.0
 32
0.0
 14
0.0
 24
0.0
 34
0.0
 15
0.0
 25
0.0
 35
0.0
146
0.0
 13
0.0
 23
0.0
 33
0.0
 16
1.0
 26
0.0
 36
0.0
 17
0.0
 27
1.0
 37
0.0
 76
0
330
211
345
0
346
0
  0
ENDSEC
  0
EOF
