999
DXF file: C:\Users\sesa63760\Dev\_Creo\CAD\MCADID0002084_3D-CAD\drw0001_3.dxf
999
Pro/ENGINEER 2019471 by Parametric Technology Corporation
  0
SECTION
  2
HEADER
  9
$ACADVER
  1
AC1024
  9
$DWGCODEPAGE
  3
ANSI_1252
  9
$EXTMAX
 10
553.4278232633
 20
782.7050643296
 30
0.0
  9
$EXTMIN
 10
0.0
 20
0.0
 30
0.0
  9
$LIMMIN
 10
0.0
 20
0.0
  9
$LIMMAX
 10
553.4278232633
 20
782.7050643296
  9
$VIEWCTR
 10
276.7139116317
 20
391.3525321648
  9
$VIEWSIZE
 40
782.7050643296
  9
$CLAYER
  8
0
  9
$LTSCALE
 40
51.0207745637
  9
$CELTYPE
  6
BYLAYER
  9
$DIMSCALE
 40
1.0
  9
$DIMASZ
 40
6.5884264674
  9
$DIMEXO
 40
1.0
  9
$DIMDLI
 40
35.2507169713
  9
$DIMEXE
 40
1.0
  9
$DIMCEN
 40
8.3488540195
  9
$DIMLFAC
 40
1.0
  9
$DIMBLK
  1
_FILLED
  9
$DIMALT
 70
0
  9
$DIMALTF
 40
0.0393700787
  9
$DIMTXT
 40
9.2237970544
  9
$DIMTOL
 70
1
  9
$DIMLIM
 70
0
  9
$DIMTFAC
 40
1.0
  9
$DIMTP
 40
0.01
  9
$DIMTM
 40
0.01
  9
$DIMGAP
 40
0.625
  9
$DIMDSEP
 70
46
  9
$AUNITS
 70
0
  9
$PDMODE
 70
3
  9
$PDSIZE
 40
0.3125
  9
$HANDSEED
  5
4E6
  9
$TILEMODE
 70
1
  9
$MEASUREMENT
 70
1
  9
$INSUNITS
 70
4
  0
ENDSEC
  0
SECTION
  2
CLASSES
  0
CLASS
  1
ACDBDICTIONARYWDFLT
  2
AcDbDictionaryWithDefault
  3
AutoCAD 2000
 90
0
 91
1
280
0
281
0
  0
CLASS
  1
ACDBPLACEHOLDER
  2
AcDbPlaceHolder
  3
AutoCAD 2000
 90
0
 91
1
280
0
281
0
  0
CLASS
  1
LAYOUT
  2
AcDbLayout
  3
AutoCAD 2000
 90
0
 91
0
280
0
281
0
  0
ENDSEC
  0
SECTION
  2
TABLES
  0
TABLE
  2
VPORT
  5
8
100
AcDbSymbolTable
 70
2
  0
VPORT
  5
1F4
100
AcDbSymbolTableRecord
100
AcDbViewportTableRecord
  2
*ACTIVE
 70
0
 10
0.0
 20
0.0
 11
1.0
 21
1.0
 12
276.7139116317
 22
391.3525321648
 13
0.0
 23
0.0
 14
1.0
 24
1.0
 15
0.0
 25
0.0
 16
0.0
 26
0.0
 36
1.0
 17
0.0
 27
0.0
 37
0.0
 40
782.7050643296
 41
0.7070707071
 42
50.0
 43
0.0
 44
0.0
 50
0.0
 51
0.0
 71
0
 72
100
 73
1
 74
1
 75
0
 76
0
 77
0
 78
0
  0
ENDTAB
  0
TABLE
  2
LTYPE
  5
5
100
AcDbSymbolTable
 70
6
  0
LTYPE
  5
14
100
AcDbSymbolTableRecord
100
AcDbLinetypeTableRecord
  2
BYBLOCK
 70
0
  3

 72
65
 73
0
 40
0.0
  0
LTYPE
  5
15
100
AcDbSymbolTableRecord
100
AcDbLinetypeTableRecord
  2
BYLAYER
 70
0
  3

 72
65
 73
0
 40
0.0
  0
LTYPE
  5
16
100
AcDbSymbolTableRecord
100
AcDbLinetypeTableRecord
  2
CONTINUOUS
 70
64
  3
Solid line
 72
65
 73
0
 40
0.0
  0
LTYPE
  5
1F5
100
AcDbSymbolTableRecord
100
AcDbLinetypeTableRecord
  2
CENTER
 70
64
  3
____ _ ____ _ ____ _ ____ _ ____ _ ____ _ ____
 72
65
 73
4
 40
0.6
 49
0.375
 74
0
 49
-0.075
 74
0
 49
0.075
 74
0
 49
-0.075
 74
0
  0
LTYPE
  5
1F6
100
AcDbSymbolTableRecord
100
AcDbLinetypeTableRecord
  2
HIDDEN
 70
64
  3
- - - - - - - - - - - - - - - - - - - -
 72
65
 73
2
 40
0.2
 49
0.1
 74
0
 49
-0.1
 74
0
  0
LTYPE
  5
1F7
100
AcDbSymbolTableRecord
100
AcDbLinetypeTableRecord
  2
PHANTOM
 70
64
  3
_____ _ _ _____ _ _ _____ _ _ _____
 72
65
 73
6
 40
0.8
 49
0.45
 74
0
 49
-0.05
 74
0
 49
0.1
 74
0
 49
-0.05
 74
0
 49
0.1
 74
0
 49
-0.05
 74
0
  0
LTYPE
  5
1F8
100
AcDbSymbolTableRecord
100
AcDbLinetypeTableRecord
  2
DOT
 70
64
  3
. . . . . . . . . . . . . . . . . . . .
 72
65
 73
2
 40
0.2
 49
0.1
 74
0
 49
-0.1
 74
0
  0
LTYPE
  5
1F9
100
AcDbSymbolTableRecord
100
AcDbLinetypeTableRecord
  2
DASHED
 70
64
  3
- - - - - - - - - - - - - - - - - - - -
 72
65
 73
2
 40
0.2
 49
0.1
 74
0
 49
-0.1
 74
0
  0
ENDTAB
  0
TABLE
  2
LAYER
  5
2
100
AcDbSymbolTable
 70
36
  0
LAYER
  5
10
100
AcDbSymbolTableRecord
100
AcDbLayerTableRecord
  2
0
 70
0
 62
7
  6
CONTINUOUS
370
-3
390
F
  0
LAYER
  5
1FA
100
AcDbSymbolTableRecord
100
AcDbLayerTableRecord
  2
DEFAULT_1
 70
0
 62
7
  6
CENTER
370
-3
390
F
  0
LAYER
  5
1FB
100
AcDbSymbolTableRecord
100
AcDbLayerTableRecord
  2
DEFAULT_2
 70
0
 62
8
  6
HIDDEN
370
-3
390
F
  0
LAYER
  5
1FC
100
AcDbSymbolTableRecord
100
AcDbLayerTableRecord
  2
DEFAULT_3
 70
0
 62
7
  6
PHANTOM
370
-3
390
F
  0
LAYER
  5
1FD
100
AcDbSymbolTableRecord
100
AcDbLayerTableRecord
  2
00_COMPONENTS
 70
0
 62
7
  6
CONTINUOUS
370
-3
390
F
  0
LAYER
  5
1FE
100
AcDbSymbolTableRecord
100
AcDbLayerTableRecord
  2
01_1_DEFAULT_DATUMS
 70
0
 62
7
  6
CONTINUOUS
370
-3
390
F
  0
LAYER
  5
1FF
100
AcDbSymbolTableRecord
100
AcDbLayerTableRecord
  2
01_PLANES
 70
0
 62
7
  6
CONTINUOUS
370
-3
390
F
  0
LAYER
  5
200
100
AcDbSymbolTableRecord
100
AcDbLayerTableRecord
  2
02_COORD_SYS
 70
0
 62
7
  6
CONTINUOUS
370
-3
390
F
  0
LAYER
  5
201
100
AcDbSymbolTableRecord
100
AcDbLayerTableRecord
  2
03_AXES
 70
0
 62
7
  6
CONTINUOUS
370
-3
390
F
  0
LAYER
  5
202
100
AcDbSymbolTableRecord
100
AcDbLayerTableRecord
  2
04_POINTS
 70
0
 62
7
  6
CONTINUOUS
370
-3
390
F
  0
LAYER
  5
203
100
AcDbSymbolTableRecord
100
AcDbLayerTableRecord
  2
05_CURVES
 70
0
 62
7
  6
CONTINUOUS
370
-3
390
F
  0
LAYER
  5
204
100
AcDbSymbolTableRecord
100
AcDbLayerTableRecord
  2
06_SURFS
 70
0
 62
7
  6
CONTINUOUS
370
-3
390
F
  0
LAYER
  5
205
100
AcDbSymbolTableRecord
100
AcDbLayerTableRecord
  2
07_COSMETICS
 70
0
 62
7
  6
CONTINUOUS
370
-3
390
F
  0
LAYER
  5
206
100
AcDbSymbolTableRecord
100
AcDbLayerTableRecord
  2
10_NOTES
 70
0
 62
7
  6
CONTINUOUS
370
-3
390
F
  0
LAYER
  5
207
100
AcDbSymbolTableRecord
100
AcDbLayerTableRecord
  2
11_NOTES_PUB
 70
0
 62
7
  6
CONTINUOUS
370
-3
390
F
  0
LAYER
  5
208
100
AcDbSymbolTableRecord
100
AcDbLayerTableRecord
  2
13_REF_GTOL
 70
0
 62
7
  6
CONTINUOUS
370
-3
390
F
  0
LAYER
  5
209
100
AcDbSymbolTableRecord
100
AcDbLayerTableRecord
  2
16_MISC
 70
0
 62
7
  6
CONTINUOUS
370
-3
390
F
  0
LAYER
  5
20A
100
AcDbSymbolTableRecord
100
AcDbLayerTableRecord
  2
17_NO_PRINT
 70
0
 62
7
  6
CONTINUOUS
370
-3
390
F
  0
LAYER
  5
20B
100
AcDbSymbolTableRecord
100
AcDbLayerTableRecord
  2
18_DATUM_CAMS_JOINTS
 70
0
 62
7
  6
CONTINUOUS
370
-3
390
F
  0
LAYER
  5
20C
100
AcDbSymbolTableRecord
100
AcDbLayerTableRecord
  2
19_DATUM_FUNCTIONAL
 70
0
 62
7
  6
CONTINUOUS
370
-3
390
F
  0
LAYER
  5
20D
100
AcDbSymbolTableRecord
100
AcDbLayerTableRecord
  2
20_DATUM_KINEMATIC_SCHEME
 70
0
 62
7
  6
CONTINUOUS
370
-3
390
F
  0
ENDTAB
  0
TABLE
  2
STYLE
  5
3
100
AcDbSymbolTable
 70
1
  0
STYLE
  5
11
100
AcDbSymbolTableRecord
100
AcDbTextStyleTableRecord
  2
STANDARD
 70
0
 40
0.0
 41
0.8
 50
0.0
 71
0
 42
0.2
  3
txt
  4

  0
STYLE
  5
20E
100
AcDbSymbolTableRecord
100
AcDbTextStyleTableRecord
  2
TEXTSTYLE_1
 70
0
 40
0.0
 41
0.8
 50
0.0
 71
0
 42
0.2
  3
gdt
  4

  0
ENDTAB
  0
TABLE
  2
VIEW
  5
6
100
AcDbSymbolTable
 70
0
  0
ENDTAB
  0
TABLE
  2
UCS
  5
7
100
AcDbSymbolTable
 70
0
  0
ENDTAB
  0
TABLE
  2
APPID
  5
9
100
AcDbSymbolTable
 70
1
  0
APPID
  5
20F
100
AcDbSymbolTableRecord
100
AcDbRegAppTableRecord
  2
ACAD
 70
0
  0
ENDTAB
  0
TABLE
  2
BLOCK_RECORD
  5
1
100
AcDbSymbolTable
 70
0
  0
BLOCK_RECORD
  5
210
100
AcDbSymbolTableRecord
100
AcDbBlockTableRecord
  2
*Model_Space
  0
BLOCK_RECORD
  5
211
100
AcDbSymbolTableRecord
100
AcDbBlockTableRecord
  2
*Paper_Space
  0
BLOCK_RECORD
  5
212
100
AcDbSymbolTableRecord
100
AcDbBlockTableRecord
  2
_FILLED
  0
ENDTAB
  0
TABLE
  2
DIMSTYLE
  5
A
100
AcDbSymbolTable
 70
1
100
AcDbDimStyleTable
 71
0
  0
DIMSTYLE
105
213
100
AcDbSymbolTableRecord
100
AcDbDimStyleTableRecord
  2
STANDARD
 70
0
  3

  4

 40
1.0
 41
6.5884264674
 42
1.0
 43
0.38
 44
1.0
 45
0.0
 46
0.0
 47
0.01
 48
0.01
140
9.2237970544
141
0.09
142
0.0
143
25.4
144
1.0
145
0.0
146
1.0
147
0.625
 71
1
 72
0
 73
0
 74
0
 75
0
 76
0
 77
1
 78
8
 79
2
170
0
171
1
172
0
173
0
174
0
175
0
176
0
177
0
178
0
270
2
179
2
271
2
272
2
273
2
274
2
275
0
280
0
281
0
282
0
283
1
284
8
285
0
286
0
287
3
288
0
340
11
278
46
341
212
342
212
343
212
344
212
  0
ENDTAB
  0
ENDSEC
  0
SECTION
  2
BLOCKS
  0
BLOCK
  5
20
100
AcDbEntity
  8
0
100
AcDbBlockBegin
  2
*Model_Space
 70
0
 10
0.0
 20
0.0
 30
0.0
  3
*Model_Space
  1

  0
ENDBLK
  5
21
100
AcDbEntity
  8
0
100
AcDbBlockEnd
  0
BLOCK
  5
1C
100
AcDbEntity
  8
0
100
AcDbBlockBegin
  2
*Paper_Space
 70
0
 10
0.0
 20
0.0
 30
0.0
  3
*Paper_Space
  1

  0
ENDBLK
  5
1D
100
AcDbEntity
  8
0
100
AcDbBlockEnd
  0
BLOCK
  5
214
100
AcDbEntity
  8
0
100
AcDbBlockBegin
  2
_FILLED
 70
64
 10
0.0
 20
0.0
  3
_FILLED
  1

  0
SOLID
  5
215
100
AcDbEntity
  8
0
  6
BYBLOCK
 62
0
100
AcDbTrace
 10
0.0
 20
0.0
 11
-1.0
 21
0.25
 12
-1.0
 22
-0.25
 13
-1.0
 23
-0.25
  0
ENDBLK
  5
216
100
AcDbEntity
  8
0
  6
BYBLOCK
 62
0
100
AcDbBlockEnd
  0
ENDSEC
  0
SECTION
  2
ENTITIES
  0
LINE
  5
217
100
AcDbEntity
  8
0
100
AcDbLine
 62
7
  6
CONTINUOUS
 10
68.2296288233
 20
420.2182772733
 11
68.2231732244
 21
420.1879278797
  0
LINE
  5
218
100
AcDbEntity
  8
0
100
AcDbLine
 62
7
  6
CONTINUOUS
 10
68.2325691756
 20
420.2176489308
 11
68.2231732244
 21
420.1879278797
  0
LINE
  5
219
100
AcDbEntity
  8
0
100
AcDbLine
 62
7
  6
CONTINUOUS
 10
68.2231228749
 20
366.3494658354
 11
68.2326557329
 21
366.3193114037
  0
LINE
  5
21A
100
AcDbEntity
  8
0
100
AcDbLine
 62
7
  6
CONTINUOUS
 10
68.2231228749
 20
366.3494658354
 11
68.2296727811
 21
366.3186738979
  0
LINE
  5
21B
100
AcDbEntity
  8
0
100
AcDbLine
 62
7
  6
CONTINUOUS
 10
79.4318092531
 20
375.0417683827
 11
79.4318092531
 21
375.6535805185
  0
LINE
  5
21C
100
AcDbEntity
  8
0
100
AcDbLine
 62
7
  6
CONTINUOUS
 10
79.4318092541
 20
410.8835818024
 11
79.4318092541
 21
411.4953939381
  0
LINE
  5
21D
100
AcDbEntity
  8
0
100
AcDbLine
 62
7
  6
CONTINUOUS
 10
85.6855254435
 20
354.3606240113
 11
85.6855254435
 21
363.4685324367
  0
LINE
  5
21E
100
AcDbEntity
  8
0
100
AcDbLine
 62
7
  6
CONTINUOUS
 10
85.6855254416
 20
423.0686309396
 11
85.6855254416
 21
432.1765382422
  0
LINE
  5
21F
100
AcDbEntity
  8
0
100
AcDbLine
 62
7
  6
CONTINUOUS
 10
78.820566599
 20
381.0959332454
 11
78.8200837907
 21
380.6675428456
  0
LINE
  5
220
100
AcDbEntity
  8
0
100
AcDbLine
 62
7
  6
CONTINUOUS
 10
97.1735769265
 20
432.0938665245
 11
97.1735769265
 21
427.2685811604
  0
LINE
  5
221
100
AcDbEntity
  8
0
100
AcDbLine
 62
7
  6
CONTINUOUS
 10
97.1735769265
 20
359.2685811604
 11
97.1735769265
 21
354.4432957963
  0
LINE
  5
222
100
AcDbEntity
  8
0
100
AcDbLine
 62
7
  6
CONTINUOUS
 10
105.5735769265
 20
354.4432957963
 11
105.5735769265
 21
359.2685811604
  0
LINE
  5
223
100
AcDbEntity
  8
0
100
AcDbLine
 62
7
  6
CONTINUOUS
 10
105.5735769265
 20
427.2685811604
 11
105.5735769265
 21
432.0938665245
  0
LINE
  5
224
100
AcDbEntity
  8
0
100
AcDbLine
 62
7
  6
CONTINUOUS
 10
156.8735769265
 20
404.7685811604
 11
156.8735769265
 21
381.7685811604
  0
LINE
  5
225
100
AcDbEntity
  8
0
100
AcDbLine
 62
7
  6
CONTINUOUS
 10
68.291636577
 20
366.3394092767
 11
69.80512586
 21
367.5324416793
  0
LINE
  5
226
100
AcDbEntity
  8
0
100
AcDbLine
 62
7
  6
CONTINUOUS
 10
68.8211757935
 20
366.7583592156
 11
69.80512586
 21
367.5324416793
  0
LINE
  5
227
100
AcDbEntity
  8
0
100
AcDbLine
 62
7
  6
CONTINUOUS
 10
69.8051106112
 20
419.0046034752
 11
68.2916183405
 21
420.1976695392
  0
LINE
  5
228
100
AcDbEntity
  8
0
100
AcDbLine
 62
7
  6
CONTINUOUS
 10
68.5852695343
 20
419.964680104
 11
68.2916183405
 21
420.1976695392
  0
LINE
  5
229
100
AcDbEntity
  8
0
100
AcDbLine
 62
7
  6
CONTINUOUS
 10
85.6855526159
 20
354.3606280344
 11
84.4273457179
 21
353.2685927702
  0
LINE
  5
22A
100
AcDbEntity
  8
0
100
AcDbLine
 62
7
  6
CONTINUOUS
 10
84.4272948313
 20
433.2685696189
 11
85.685500085
 21
432.1765354218
  0
LINE
  5
22B
100
AcDbEntity
  8
0
100
AcDbLine
 62
7
  6
CONTINUOUS
 10
236.8735769265
 20
381.7685811604
 11
236.8735769265
 21
404.7685811604
  0
LINE
  5
22C
100
AcDbEntity
  8
0
100
AcDbLine
 62
7
  6
CONTINUOUS
 10
420.1421243676
 20
376.8060933154
 11
426.2992835804
 21
377.4328700018
  0
LINE
  5
22D
100
AcDbEntity
  8
0
100
AcDbLine
 62
7
  6
CONTINUOUS
 10
431.2735769265
 20
377.9392351927
 11
444.2992835804
 21
379.2652053311
  0
LINE
  5
22E
100
AcDbEntity
  8
0
100
AcDbLine
 62
7
  6
CONTINUOUS
 10
449.2735769265
 20
379.771570522
 11
462.2992835804
 21
381.0975406605
  0
LINE
  5
22F
100
AcDbEntity
  8
0
100
AcDbLine
 62
7
  6
CONTINUOUS
 10
467.2735769265
 20
381.6039058514
 11
480.2992835804
 21
382.9298759898
  0
LINE
  5
230
100
AcDbEntity
  8
0
100
AcDbLine
 62
7
  6
CONTINUOUS
 10
485.2735769265
 20
383.4362411807
 11
498.2992835804
 21
384.7622113191
  0
LINE
  5
231
100
AcDbEntity
  8
0
100
AcDbLine
 62
7
  6
CONTINUOUS
 10
310.2686647158
 20
359.3644936242
 11
319.8735769265
 21
359.5321479905
  0
LINE
  5
232
100
AcDbEntity
  8
0
100
AcDbLine
 62
7
  6
CONTINUOUS
 10
324.8735769265
 20
359.6194233151
 11
331.8259341458
 21
359.7407771618
  0
LINE
  5
233
100
AcDbEntity
  8
0
100
AcDbLine
 62
7
  6
CONTINUOUS
 10
84.43047323
 20
353.2685869401
 11
297.8180832057
 21
353.2685869398
  0
LINE
  5
234
100
AcDbEntity
  8
0
100
AcDbLine
 62
7
  6
CONTINUOUS
 10
296.5617219158
 20
354.3606240787
 11
85.685560519
 21
354.3606240787
  0
LINE
  5
235
100
AcDbEntity
  8
0
100
AcDbLine
 62
7
  6
CONTINUOUS
 10
285.5735769265
 20
354.4432957963
 11
277.1735769265
 21
354.4432957963
  0
LINE
  5
236
100
AcDbEntity
  8
0
100
AcDbLine
 62
7
  6
CONTINUOUS
 10
105.5735769265
 20
354.4432957963
 11
97.1735769265
 21
354.4432957963
  0
LINE
  5
237
100
AcDbEntity
  8
0
100
AcDbLine
 62
7
  6
CONTINUOUS
 10
285.5735769265
 20
357.5022645471
 11
277.1735769265
 21
357.5022645471
  0
LINE
  5
238
100
AcDbEntity
  8
0
100
AcDbLine
 62
7
  6
CONTINUOUS
 10
105.5735769265
 20
357.5022645471
 11
97.1735769265
 21
357.5022645471
  0
LINE
  5
239
100
AcDbEntity
  8
0
100
AcDbLine
 62
7
  6
CONTINUOUS
 10
281.3531283862
 20
363.4685313812
 11
101.3940254668
 21
363.4685313812
  0
LINE
  5
23A
100
AcDbEntity
  8
0
100
AcDbLine
 62
7
  6
CONTINUOUS
 10
296.5616284114
 20
363.4685324362
 11
281.3940176954
 21
363.4685324362
  0
LINE
  5
23B
100
AcDbEntity
  8
0
100
AcDbLine
 62
7
  6
CONTINUOUS
 10
101.3531357944
 20
363.4685324367
 11
85.6855254435
 21
363.4685324367
  0
LINE
  5
23C
100
AcDbEntity
  8
0
100
AcDbLine
 62
7
  6
CONTINUOUS
 10
296.5616012386
 20
432.1765342864
 11
297.8198081367
 21
433.2685695506
  0
LINE
  5
23D
100
AcDbEntity
  8
0
100
AcDbLine
 62
7
  6
CONTINUOUS
 10
419.4032638231
 20
376.7584309456
 11
420.1421243677
 21
376.8060933154
  0
LINE
  5
23E
100
AcDbEntity
  8
0
100
AcDbLine
 62
7
  6
CONTINUOUS
 10
346.7735769265
 20
374.7685765101
 11
419.4032638231
 21
376.7584309456
  0
LINE
  5
23F
100
AcDbEntity
  8
0
100
AcDbLine
 62
7
  6
CONTINUOUS
 10
331.8259463505
 20
374.0476249642
 11
336.8259341458
 21
374.1044668101
  0
LINE
  5
240
100
AcDbEntity
  8
0
100
AcDbLine
 62
7
  6
CONTINUOUS
 10
67.8712740127
 20
368.0685765101
 11
67.9543859642
 21
368.0685765101
  0
LINE
  5
241
100
AcDbEntity
  8
0
100
AcDbLine
 62
7
  6
CONTINUOUS
 10
334.7735769265
 20
368.2685765101
 11
304.7735769265
 21
368.2685765101
  0
LINE
  5
242
100
AcDbEntity
  8
0
100
AcDbLine
 62
7
  6
CONTINUOUS
 10
339.7002964221
 20
374.7685765101
 11
346.7735769265
 21
374.7685765101
  0
LINE
  5
243
100
AcDbEntity
  8
0
100
AcDbLine
 62
7
  6
CONTINUOUS
 10
302.8153451151
 20
375.0417683827
 11
79.431808754
 21
375.0417683827
  0
LINE
  5
244
100
AcDbEntity
  8
0
100
AcDbLine
 62
7
  6
CONTINUOUS
 10
302.8153447275
 20
375.6535780112
 11
79.4318091246
 21
375.6535780114
  0
LINE
  5
245
100
AcDbEntity
  8
0
100
AcDbLine
 62
7
  6
CONTINUOUS
 10
83.9780363344
 20
376.5365303528
 11
298.2686799153
 21
376.5365303528
  0
LINE
  5
246
100
AcDbEntity
  8
0
100
AcDbLine
 62
7
  6
CONTINUOUS
 10
300.9704564351
 20
380.2494750373
 11
81.2766975213
 21
380.2494750373
  0
LINE
  5
247
100
AcDbEntity
  8
0
100
AcDbLine
 62
7
  6
CONTINUOUS
 10
297.8198590192
 20
353.2685927019
 11
296.5616537655
 21
354.3606268991
  0
LINE
  5
248
100
AcDbEntity
  8
0
100
AcDbLine
 62
7
  6
CONTINUOUS
 10
277.1735769265
 20
432.0938665245
 11
277.1735769265
 21
427.2685811604
  0
LINE
  5
249
100
AcDbEntity
  8
0
100
AcDbLine
 62
7
  6
CONTINUOUS
 10
277.1735769265
 20
359.2685811604
 11
277.1735769265
 21
354.4432957963
  0
LINE
  5
24A
100
AcDbEntity
  8
0
100
AcDbLine
 62
7
  6
CONTINUOUS
 10
285.5735769265
 20
354.4432957963
 11
285.5735769265
 21
359.2685811604
  0
LINE
  5
24B
100
AcDbEntity
  8
0
100
AcDbLine
 62
7
  6
CONTINUOUS
 10
285.5735769265
 20
427.2685811604
 11
285.5735769265
 21
432.0938665245
  0
LINE
  5
24C
100
AcDbEntity
  8
0
100
AcDbLine
 62
7
  6
CONTINUOUS
 10
313.7774612338
 20
420.0566634764
 11
312.4420236195
 21
419.0047449812
  0
LINE
  5
24D
100
AcDbEntity
  8
0
100
AcDbLine
 62
7
  6
CONTINUOUS
 10
313.4546138772
 20
419.8012654519
 11
312.4420236195
 21
419.0047449812
  0
LINE
  5
24E
100
AcDbEntity
  8
0
100
AcDbLine
 62
7
  6
CONTINUOUS
 10
419.3183452028
 20
407.7595435698
 11
419.4032638231
 21
407.7750165693
  0
LINE
  5
24F
100
AcDbEntity
  8
0
100
AcDbLine
 62
7
  6
CONTINUOUS
 10
419.3183452028
 20
408.2139162835
 11
419.4142186166
 21
408.2307780933
  0
LINE
  5
250
100
AcDbEntity
  8
0
100
AcDbLine
 62
7
  6
CONTINUOUS
 10
419.4885579485
 20
408.4627574146
 11
419.463778564
 21
408.4597270589
  0
LINE
  5
251
100
AcDbEntity
  8
0
100
AcDbLine
 62
7
  6
CONTINUOUS
 10
303.4265904278
 20
381.0959332454
 11
78.820566599
 21
381.0959332454
  0
LINE
  5
252
100
AcDbEntity
  8
0
100
AcDbLine
 62
7
  6
CONTINUOUS
 10
236.8735769265
 20
381.7685811604
 11
156.8735769265
 21
381.7685811604
  0
LINE
  5
253
100
AcDbEntity
  8
0
100
AcDbLine
 62
7
  6
CONTINUOUS
 10
304.7735769265
 20
389.5122485159
 11
308.7735769265
 21
389.5122485159
  0
LINE
  5
254
100
AcDbEntity
  8
0
100
AcDbLine
 62
7
  6
CONTINUOUS
 10
312.442031374
 20
367.532494428
 11
313.777469472
 21
366.4805414993
  0
LINE
  5
255
100
AcDbEntity
  8
0
100
AcDbLine
 62
7
  6
CONTINUOUS
 10
313.4580034812
 20
366.7334311193
 11
313.777469472
 21
366.4805414993
  0
LINE
  5
256
100
AcDbEntity
  8
0
100
AcDbLine
 62
7
  6
CONTINUOUS
 10
296.5616283148
 20
432.1765382422
 11
296.5616283148
 21
423.0686309396
  0
LINE
  5
257
100
AcDbEntity
  8
0
100
AcDbLine
 62
7
  6
CONTINUOUS
 10
296.5616284114
 20
363.4685324362
 11
296.5616284114
 21
354.3606240113
  0
LINE
  5
258
100
AcDbEntity
  8
0
100
AcDbLine
 62
7
  6
CONTINUOUS
 10
308.7735769265
 20
397.0249045043
 11
304.7735769265
 21
397.0249045043
  0
LINE
  5
259
100
AcDbEntity
  8
0
100
AcDbLine
 62
7
  6
CONTINUOUS
 10
156.8735769265
 20
404.7685811604
 11
236.8735769265
 21
404.7685811604
  0
LINE
  5
25A
100
AcDbEntity
  8
0
100
AcDbLine
 62
7
  6
CONTINUOUS
 10
78.8205634392
 20
405.4412290754
 11
303.4265905627
 21
405.4412290754
  0
LINE
  5
25B
100
AcDbEntity
  8
0
100
AcDbLine
 62
7
  6
CONTINUOUS
 10
81.2766975213
 20
406.2876872836
 11
300.9704564351
 21
406.2876872836
  0
LINE
  5
25C
100
AcDbEntity
  8
0
100
AcDbLine
 62
7
  6
CONTINUOUS
 10
298.269117701
 20
410.000631968
 11
83.9784739696
 21
410.000631968
  0
LINE
  5
25D
100
AcDbEntity
  8
0
100
AcDbLine
 62
7
  6
CONTINUOUS
 10
303.4265904278
 20
381.0959332454
 11
303.4268696165
 21
380.667433206
  0
LINE
  5
25E
100
AcDbEntity
  8
0
100
AcDbLine
 62
7
  6
CONTINUOUS
 10
303.4265905627
 20
405.4412290754
 11
303.4265171063
 21
405.8699028351
  0
LINE
  5
25F
100
AcDbEntity
  8
0
100
AcDbLine
 62
7
  6
CONTINUOUS
 10
302.8153452449
 20
411.4953939381
 11
302.8153452449
 21
410.8835818024
  0
LINE
  5
260
100
AcDbEntity
  8
0
100
AcDbLine
 62
7
  6
CONTINUOUS
 10
302.815345244
 20
375.6535805185
 11
302.815345244
 21
375.0417683827
  0
LINE
  5
261
100
AcDbEntity
  8
0
100
AcDbLine
 62
7
  6
CONTINUOUS
 10
304.7735769265
 20
389.5122485159
 11
304.7735769265
 21
397.0249045042
  0
LINE
  5
262
100
AcDbEntity
  8
0
100
AcDbLine
 62
7
  6
CONTINUOUS
 10
308.7735769265
 20
397.0249045042
 11
308.7735769265
 21
389.5122485159
  0
LINE
  5
263
100
AcDbEntity
  8
0
100
AcDbLine
 62
7
  6
CONTINUOUS
 10
79.4318091255
 20
410.8835843097
 11
302.8153447284
 21
410.8835843094
  0
LINE
  5
264
100
AcDbEntity
  8
0
100
AcDbLine
 62
7
  6
CONTINUOUS
 10
302.8153452449
 20
411.4953939381
 11
79.4318092541
 21
411.4953939381
  0
LINE
  5
265
100
AcDbEntity
  8
0
100
AcDbLine
 62
7
  6
CONTINUOUS
 10
339.7002964221
 20
411.7685765101
 11
346.7735769265
 21
411.7685765101
  0
LINE
  5
266
100
AcDbEntity
  8
0
100
AcDbLine
 62
7
  6
CONTINUOUS
 10
304.7735769265
 20
418.2685765101
 11
334.7735769265
 21
418.2685765101
  0
LINE
  5
267
100
AcDbEntity
  8
0
100
AcDbLine
 62
7
  6
CONTINUOUS
 10
296.5616183495
 20
423.0686298841
 11
85.6855355631
 21
423.0686298846
  0
LINE
  5
268
100
AcDbEntity
  8
0
100
AcDbLine
 62
7
  6
CONTINUOUS
 10
336.8259341458
 20
412.4327251776
 11
331.8259672878
 21
412.4895458568
  0
LINE
  5
269
100
AcDbEntity
  8
0
100
AcDbLine
 62
7
  6
CONTINUOUS
 10
346.7735769265
 20
411.7685765101
 11
417.7902948638
 21
409.8229130049
  0
LINE
  5
26A
100
AcDbEntity
  8
0
100
AcDbLine
 62
7
  6
CONTINUOUS
 10
419.4142186147
 20
410.1685075975
 11
419.2332387108
 21
410.173468903
  0
LINE
  5
26B
100
AcDbEntity
  8
0
100
AcDbLine
 62
7
  6
CONTINUOUS
 10
418.2119621772
 20
410.1653369497
 11
417.7864302534
 21
410.1770271954
  0
LINE
  5
26C
100
AcDbEntity
  8
0
100
AcDbLine
 62
7
  6
CONTINUOUS
 10
418.2119621772
 20
409.6698115396
 11
417.7864302534
 21
409.6818547237
  0
LINE
  5
26D
100
AcDbEntity
  8
0
100
AcDbLine
 62
7
  6
CONTINUOUS
 10
418.0089824586
 20
409.2618631509
 11
417.7864302534
 21
409.2681720762
  0
LINE
  5
26E
100
AcDbEntity
  8
0
100
AcDbLine
 62
7
  6
CONTINUOUS
 10
419.2332387108
 20
408.8698094119
 11
418.9779195923
 21
408.8772138804
  0
LINE
  5
26F
100
AcDbEntity
  8
0
100
AcDbLine
 62
7
  6
CONTINUOUS
 10
419.2332387108
 20
409.2927890874
 11
418.9779195923
 21
409.3001727924
  0
LINE
  5
270
100
AcDbEntity
  8
0
100
AcDbLine
 62
7
  6
CONTINUOUS
 10
419.2332387108
 20
408.4298976144
 11
418.9779195923
 21
408.4377013452
  0
LINE
  5
271
100
AcDbEntity
  8
0
100
AcDbLine
 62
7
  6
CONTINUOUS
 10
419.3183452028
 20
408.2139162835
 11
418.8928132195
 21
408.2271080372
  0
LINE
  5
272
100
AcDbEntity
  8
0
100
AcDbLine
 62
7
  6
CONTINUOUS
 10
419.3183452028
 20
407.7595435698
 11
418.8928132195
 21
407.7728269423
  0
LINE
  5
273
100
AcDbEntity
  8
0
100
AcDbLine
 62
7
  6
CONTINUOUS
 10
420.4892174672
 20
409.6957268742
 11
420.8596997856
 21
409.6580131052
  0
LINE
  5
274
100
AcDbEntity
  8
0
100
AcDbLine
 62
7
  6
CONTINUOUS
 10
421.7675141926
 20
409.5656008602
 11
426.2992835804
 21
409.1042830183
  0
LINE
  5
275
100
AcDbEntity
  8
0
100
AcDbLine
 62
7
  6
CONTINUOUS
 10
431.2735769265
 20
408.5979178274
 11
435.7510837523
 21
408.1421237194
  0
LINE
  5
276
100
AcDbEntity
  8
0
100
AcDbLine
 62
7
  6
CONTINUOUS
 10
438.2075984265
 20
407.8920593514
 11
438.820099007
 21
407.8297089929
  0
LINE
  5
277
100
AcDbEntity
  8
0
100
AcDbLine
 62
7
  6
CONTINUOUS
 10
439.7702173174
 20
407.7329903625
 11
444.2992835804
 21
407.271947689
  0
LINE
  5
278
100
AcDbEntity
  8
0
100
AcDbLine
 62
7
  6
CONTINUOUS
 10
449.2735769265
 20
406.7655824981
 11
453.7574493324
 21
406.3091403969
  0
LINE
  5
279
100
AcDbEntity
  8
0
100
AcDbLine
 62
7
  6
CONTINUOUS
 10
457.8067847156
 20
405.8969326034
 11
462.2992835804
 21
405.4396123597
  0
LINE
  5
27A
100
AcDbEntity
  8
0
100
AcDbLine
 62
7
  6
CONTINUOUS
 10
467.2735769265
 20
404.9332471687
 11
471.7473987845
 21
404.4778281772
  0
LINE
  5
27B
100
AcDbEntity
  8
0
100
AcDbLine
 62
7
  6
CONTINUOUS
 10
475.8110510038
 20
404.0641629812
 11
480.2992835804
 21
403.6072770303
  0
LINE
  5
27C
100
AcDbEntity
  8
0
100
AcDbLine
 62
7
  6
CONTINUOUS
 10
485.2735769265
 20
403.1009118394
 11
489.7864302534
 21
402.6415195846
  0
LINE
  5
27D
100
AcDbEntity
  8
0
100
AcDbLine
 62
7
  6
CONTINUOUS
 10
493.8177000236
 20
402.2311508056
 11
498.2992835804
 21
401.774941701
  0
LINE
  5
27E
100
AcDbEntity
  8
0
100
AcDbLine
 62
7
  6
CONTINUOUS
 10
475.1070703778
 20
404.5375847239
 11
475.1906856436
 21
404.5290727586
  0
LINE
  5
27F
100
AcDbEntity
  8
0
100
AcDbLine
 62
7
  6
CONTINUOUS
 10
437.6587706942
 20
408.3387096159
 11
437.2332387108
 21
408.3820595892
  0
LINE
  5
280
100
AcDbEntity
  8
0
100
AcDbLine
 62
7
  6
CONTINUOUS
 10
455.6587706942
 20
406.504812078
 11
455.2332387108
 21
406.5481716143
  0
LINE
  5
281
100
AcDbEntity
  8
0
100
AcDbLine
 62
7
  6
CONTINUOUS
 10
491.6587706942
 20
402.8497281578
 11
491.2332387108
 21
402.8930604622
  0
LINE
  5
282
100
AcDbEntity
  8
0
100
AcDbLine
 62
7
  6
CONTINUOUS
 10
471.7864302534
 20
404.8612549597
 11
475.1055792708
 21
404.5229371886
  0
LINE
  5
283
100
AcDbEntity
  8
0
100
AcDbLine
 62
7
  6
CONTINUOUS
 10
492.5098344225
 20
402.7572100253
 11
493.1906856436
 21
402.6878345349
  0
LINE
  5
284
100
AcDbEntity
  8
0
100
AcDbLine
 62
7
  6
CONTINUOUS
 10
420.6800471682
 20
410.0318279416
 11
420.8502601523
 21
410.0144527159
  0
LINE
  5
285
100
AcDbEntity
  8
0
100
AcDbLine
 62
7
  6
CONTINUOUS
 10
435.7864302534
 20
408.4893511129
 11
436.2119621772
 21
408.4458872437
  0
LINE
  5
286
100
AcDbEntity
  8
0
100
AcDbLine
 62
7
  6
CONTINUOUS
 10
436.8077068466
 20
408.3850364187
 11
437.0630259651
 21
408.3589569883
  0
LINE
  5
287
100
AcDbEntity
  8
0
100
AcDbLine
 62
7
  6
CONTINUOUS
 10
471.7864302534
 20
404.4213633226
 11
472.9454181825
 21
404.3028098144
  0
LINE
  5
288
100
AcDbEntity
  8
0
100
AcDbLine
 62
7
  6
CONTINUOUS
 10
475.1244098813
 20
404.0799089614
 11
475.7864302534
 21
404.0121884333
  0
LINE
  5
289
100
AcDbEntity
  8
0
100
AcDbLine
 62
7
  6
CONTINUOUS
 10
438.5098344225
 20
408.2039624834
 11
438.765153541
 21
408.1778683704
  0
LINE
  5
28A
100
AcDbEntity
  8
0
100
AcDbLine
 62
7
  6
CONTINUOUS
 10
454.8928132195
 20
406.5368807413
 11
455.2332387108
 21
406.5020728015
  0
LINE
  5
28B
100
AcDbEntity
  8
0
100
AcDbLine
 62
7
  6
CONTINUOUS
 10
456.5098344225
 20
406.3715357511
 11
457.1906856436
 21
406.3019111989
  0
LINE
  5
28C
100
AcDbEntity
  8
0
100
AcDbLine
 62
7
  6
CONTINUOUS
 10
473.5077009572
 20
404.6492413907
 11
471.7864302534
 21
404.8252568562
  0
LINE
  5
28D
100
AcDbEntity
  8
0
100
AcDbLine
 62
7
  6
CONTINUOUS
 10
489.7864302534
 20
403.0005109325
 11
493.1055792708
 21
402.6610840457
  0
LINE
  5
28E
100
AcDbEntity
  8
0
100
AcDbLine
 62
7
  6
CONTINUOUS
 10
457.7864302534
 20
406.2238452773
 11
457.3864837488
 21
406.2648002747
  0
LINE
  5
28F
100
AcDbEntity
  8
0
100
AcDbLine
 62
7
  6
CONTINUOUS
 10
453.8355331604
 20
406.588793888
 11
453.7864302534
 21
406.5938353262
  0
LINE
  5
290
100
AcDbEntity
  8
0
100
AcDbLine
 62
7
  6
CONTINUOUS
 10
457.1055792708
 20
406.2529807553
 11
456.5098344225
 21
406.3141688663
  0
LINE
  5
291
100
AcDbEntity
  8
0
100
AcDbLine
 62
7
  6
CONTINUOUS
 10
489.8704813604
 20
402.5251849192
 11
489.7864302534
 21
402.5338405583
  0
LINE
  5
292
100
AcDbEntity
  8
0
100
AcDbLine
 62
7
  6
CONTINUOUS
 10
472.9779195923
 20
404.6205361525
 11
473.4885579485
 21
404.5679381265
  0
LINE
  5
293
100
AcDbEntity
  8
0
100
AcDbLine
 62
7
  6
CONTINUOUS
 10
489.7864302534
 20
402.9403850842
 11
491.1196973292
 21
402.8031934358
  0
LINE
  5
294
100
AcDbEntity
  8
0
100
AcDbLine
 62
7
  6
CONTINUOUS
 10
491.1196973292
 20
402.8031934358
 11
493.7864302534
 21
402.528662571
  0
LINE
  5
295
100
AcDbEntity
  8
0
100
AcDbLine
 62
7
  6
CONTINUOUS
 10
493.7864302534
 20
402.121703787
 11
493.7020242986
 21
402.130403584
  0
LINE
  5
296
100
AcDbEntity
  8
0
100
AcDbLine
 62
7
  6
CONTINUOUS
 10
493.7864302534
 20
402.121703787
 11
493.7020244639
 21
402.1304051877
  0
LINE
  5
297
100
AcDbEntity
  8
0
100
AcDbLine
 62
7
  6
CONTINUOUS
 10
453.7864302534
 20
406.5185772788
 11
453.8215894935
 21
406.5149469426
  0
LINE
  5
298
100
AcDbEntity
  8
0
100
AcDbLine
 62
7
  6
CONTINUOUS
 10
457.3746394479
 20
406.1479271295
 11
457.7864302534
 21
406.1053763713
  0
LINE
  5
299
100
AcDbEntity
  8
0
100
AcDbLine
 62
7
  6
CONTINUOUS
 10
420.8502601523
 20
409.6369718598
 11
420.6800471682
 21
409.6547473557
  0
LINE
  5
29A
100
AcDbEntity
  8
0
100
AcDbLine
 62
7
  6
CONTINUOUS
 10
457.3608983893
 20
406.0149461479
 11
457.7864302534
 21
405.9705050765
  0
LINE
  5
29B
100
AcDbEntity
  8
0
100
AcDbLine
 62
7
  6
CONTINUOUS
 10
491.4034515757
 20
402.6504513031
 11
492.1694089312
 21
402.5705642076
  0
LINE
  5
29C
100
AcDbEntity
  8
0
100
AcDbLine
 62
7
  6
CONTINUOUS
 10
438.8502601523
 20
407.7510820425
 11
438.6800471682
 21
407.7689798544
  0
LINE
  5
29D
100
AcDbEntity
  8
0
100
AcDbLine
 62
7
  6
CONTINUOUS
 10
420.8502601523
 20
409.5143256725
 11
420.6800471682
 21
409.5322352161
  0
LINE
  5
29E
100
AcDbEntity
  8
0
100
AcDbLine
 62
7
  6
CONTINUOUS
 10
492.0843025583
 20
402.4763175748
 11
491.4885579485
 21
402.5391431725
  0
LINE
  5
29F
100
AcDbEntity
  8
0
100
AcDbLine
 62
7
  6
CONTINUOUS
 10
491.4885579485
 20
402.1220490363
 11
492.0843025583
 21
402.0590162886
  0
LINE
  5
2A0
100
AcDbEntity
  8
0
100
AcDbLine
 62
7
  6
CONTINUOUS
 10
436.2119621772
 20
407.8922134398
 11
435.7864302534
 21
407.9373179508
  0
LINE
  5
2A1
100
AcDbEntity
  8
0
100
AcDbLine
 62
7
  6
CONTINUOUS
 10
438.8502601523
 20
407.6123196067
 11
438.6800471682
 21
407.6303903465
  0
LINE
  5
2A2
100
AcDbEntity
  8
0
100
AcDbLine
 62
7
  6
CONTINUOUS
 10
439.1252261065
 20
407.3680484528
 11
439.1906856436
 21
407.3609929827
  0
LINE
  5
2A3
100
AcDbEntity
  8
0
100
AcDbLine
 62
7
  6
CONTINUOUS
 10
471.7864302534
 20
404.2534740799
 11
472.9779195923
 21
404.1252330534
  0
LINE
  5
2A4
100
AcDbEntity
  8
0
100
AcDbLine
 62
7
  6
CONTINUOUS
 10
439.1055792708
 20
407.1857682161
 11
438.5098344225
 21
407.2507982155
  0
LINE
  5
2A5
100
AcDbEntity
  8
0
100
AcDbLine
 62
7
  6
CONTINUOUS
 10
439.1055792708
 20
407.1857682161
 11
438.5098364564
 21
407.2508168499
  0
LINE
  5
2A6
100
AcDbEntity
  8
0
100
AcDbLine
 62
7
  6
CONTINUOUS
 10
473.5310351535
 20
403.4443965833
 11
473.4885579485
 21
403.4490825288
  0
LINE
  5
2A7
100
AcDbEntity
  8
0
100
AcDbLine
 62
7
  6
CONTINUOUS
 10
473.5310347673
 20
403.4443930824
 11
473.4885579485
 21
403.4490825288
  0
LINE
  5
2A8
100
AcDbEntity
  8
0
100
AcDbLine
 62
7
  6
CONTINUOUS
 10
473.4885579485
 20
403.5105388975
 11
472.9779195923
 21
403.5685380794
  0
LINE
  5
2A9
100
AcDbEntity
  8
0
100
AcDbLine
 62
7
  6
CONTINUOUS
 10
457.7864302534
 20
404.8805957256
 11
457.3608983893
 21
404.9291914123
  0
LINE
  5
2AA
100
AcDbEntity
  8
0
100
AcDbLine
 62
7
  6
CONTINUOUS
 10
472.9779195923
 20
403.118172152
 11
473.4885579485
 21
403.0596397491
  0
LINE
  5
2AB
100
AcDbEntity
  8
0
100
AcDbLine
 62
7
  6
CONTINUOUS
 10
457.3608983893
 20
404.4764705136
 11
457.7864302534
 21
404.4274640683
  0
LINE
  5
2AC
100
AcDbEntity
  8
0
100
AcDbLine
 62
7
  6
CONTINUOUS
 10
319.8735769265
 20
427.0050050296
 11
319.8735769265
 21
426.7681549432
  0
LINE
  5
2AD
100
AcDbEntity
  8
0
100
AcDbLine
 62
7
  6
CONTINUOUS
 10
319.8735769265
 20
359.7689980769
 11
319.8735769265
 21
359.5321479905
  0
LINE
  5
2AE
100
AcDbEntity
  8
0
100
AcDbLine
 62
7
  6
CONTINUOUS
 10
324.8735769265
 20
359.6194233151
 11
324.8735769265
 21
359.8479146315
  0
LINE
  5
2AF
100
AcDbEntity
  8
0
100
AcDbLine
 62
7
  6
CONTINUOUS
 10
324.8735769265
 20
426.6892382243
 11
324.8735769265
 21
426.917729705
  0
LINE
  5
2B0
100
AcDbEntity
  8
0
100
AcDbLine
 62
7
  6
CONTINUOUS
 10
285.5735769265
 20
429.0348977737
 11
277.1735769265
 21
429.0348977737
  0
LINE
  5
2B1
100
AcDbEntity
  8
0
100
AcDbLine
 62
7
  6
CONTINUOUS
 10
105.5735769265
 20
429.0348977737
 11
97.1735769265
 21
429.0348977737
  0
LINE
  5
2B2
100
AcDbEntity
  8
0
100
AcDbLine
 62
7
  6
CONTINUOUS
 10
97.1735769265
 20
432.0938665245
 11
105.5735769265
 21
432.0938665245
  0
LINE
  5
2B3
100
AcDbEntity
  8
0
100
AcDbLine
 62
7
  6
CONTINUOUS
 10
277.1735769265
 20
432.0938665245
 11
285.5735769265
 21
432.0938665245
  0
LINE
  5
2B4
100
AcDbEntity
  8
0
100
AcDbLine
 62
7
  6
CONTINUOUS
 10
296.5616283148
 20
432.1765382422
 11
85.6855254416
 21
432.1765382422
  0
LINE
  5
2B5
100
AcDbEntity
  8
0
100
AcDbLine
 62
7
  6
CONTINUOUS
 10
297.8180850273
 20
433.2685753807
 11
84.4304630625
 21
433.268575381
  0
LINE
  5
2B6
100
AcDbEntity
  8
0
100
AcDbLine
 62
7
  6
CONTINUOUS
 10
331.8259341458
 20
426.7963758583
 11
324.8735769265
 21
426.917729705
  0
LINE
  5
2B7
100
AcDbEntity
  8
0
100
AcDbLine
 62
7
  6
CONTINUOUS
 10
319.8735769265
 20
427.0050050296
 11
310.2686744414
 21
427.1726592262
  0
LINE
  5
2B8
100
AcDbEntity
  8
0
100
AcDbLine
 62
7
  6
CONTINUOUS
 10
491.4885579485
 20
401.6599786544
 11
492.0843025583
 21
401.5905185443
  0
LINE
  5
2B9
100
AcDbEntity
  8
0
100
AcDbLine
 62
7
  6
CONTINUOUS
 10
491.4034515757
 20
401.4245296543
 11
491.6587281772
 21
401.3938840549
  0
LINE
  5
2BA
100
AcDbEntity
  8
0
100
AcDbLine
 62
7
  6
CONTINUOUS
 10
491.6587281772
 20
401.3938840549
 11
492.1694089312
 21
401.3325068288
  0
LINE
  5
2BB
100
AcDbEntity
  8
0
100
AcDbLine
 62
7
  6
CONTINUOUS
 10
331.8259465378
 20
374.0476084546
 11
331.8259341458
 21
359.7407771618
  0
LINE
  5
2BC
100
AcDbEntity
  8
0
100
AcDbLine
 62
7
  6
CONTINUOUS
 10
331.8259683723
 20
412.4895802067
 11
331.8259341458
 21
426.7963758583
  0
LINE
  5
2BD
100
AcDbEntity
  8
0
100
AcDbLine
 62
7
  6
CONTINUOUS
 10
334.7735769265
 20
362.7403202473
 11
334.7735769265
 21
373.033815323
  0
LINE
  5
2BE
100
AcDbEntity
  8
0
100
AcDbLine
 62
7
  6
CONTINUOUS
 10
334.7735769265
 20
413.5033376971
 11
334.7735769265
 21
423.7968327729
  0
LINE
  5
2BF
100
AcDbEntity
  8
0
100
AcDbLine
 62
7
  6
CONTINUOUS
 10
336.8259381644
 20
414.018485874
 11
336.8259346572
 21
372.5186670845
  0
LINE
  5
2C0
100
AcDbEntity
  8
0
100
AcDbLine
 62
7
  6
CONTINUOUS
 10
339.7002964221
 20
374.6685765101
 11
339.7002964225
 21
411.8685765101
  0
LINE
  5
2C1
100
AcDbEntity
  8
0
100
AcDbLine
 62
7
  6
CONTINUOUS
 10
346.7735769265
 20
411.7685765101
 11
346.7735769265
 21
374.7685765101
  0
LINE
  5
2C2
100
AcDbEntity
  8
0
100
AcDbLine
 62
7
  6
CONTINUOUS
 10
417.7864302534
 20
408.4213029977
 11
417.7864302534
 21
409.0291507321
  0
LINE
  5
2C3
100
AcDbEntity
  8
0
100
AcDbLine
 62
7
  6
CONTINUOUS
 10
417.7864302534
 20
409.2681720762
 11
417.7864302534
 21
410.1770271954
  0
LINE
  5
2C4
100
AcDbEntity
  8
0
100
AcDbLine
 62
7
  6
CONTINUOUS
 10
417.8715366337
 20
408.2284814238
 11
417.8715366337
 21
408.6700547644
  0
LINE
  5
2C5
100
AcDbEntity
  8
0
100
AcDbLine
 62
7
  6
CONTINUOUS
 10
418.1268557746
 20
408.0161473152
 11
418.1268557746
 21
408.4637080958
  0
LINE
  5
2C6
100
AcDbEntity
  8
0
100
AcDbLine
 62
7
  6
CONTINUOUS
 10
418.2119621772
 20
409.0494268905
 11
418.2119621772
 21
408.8088631261
  0
LINE
  5
2C7
100
AcDbEntity
  8
0
100
AcDbLine
 62
7
  6
CONTINUOUS
 10
418.2119621772
 20
409.3247826312
 11
418.2119621772
 21
410.1027502066
  0
LINE
  5
2C8
100
AcDbEntity
  8
0
100
AcDbLine
 62
7
  6
CONTINUOUS
 10
418.29706855
 20
408.7145992734
 11
418.29706855
 21
409.1423620185
  0
LINE
  5
2C9
100
AcDbEntity
  8
0
100
AcDbLine
 62
7
  6
CONTINUOUS
 10
418.4672812957
 20
407.8757599436
 11
418.4672812957
 21
408.3272458714
  0
LINE
  5
2CA
100
AcDbEntity
  8
0
100
AcDbLine
 62
7
  6
CONTINUOUS
 10
418.4672812957
 20
408.8030931084
 11
418.4672812957
 21
409.2283672674
  0
LINE
  5
2CB
100
AcDbEntity
  8
0
100
AcDbLine
 62
7
  6
CONTINUOUS
 10
418.7226004738
 20
408.8554627203
 11
418.7226004738
 21
409.2791710858
  0
LINE
  5
2CC
100
AcDbEntity
  8
0
100
AcDbLine
 62
7
  6
CONTINUOUS
 10
418.8928132195
 20
407.7728269423
 11
418.8928132195
 21
408.2271080372
  0
LINE
  5
2CD
100
AcDbEntity
  8
0
100
AcDbLine
 62
7
  6
CONTINUOUS
 10
418.9779195923
 20
408.8772138804
 11
418.9779195923
 21
409.3001727924
  0
LINE
  5
2CE
100
AcDbEntity
  8
0
100
AcDbLine
 62
7
  6
CONTINUOUS
 10
419.2332387108
 20
408.8698094119
 11
419.2332387108
 21
409.2927890874
  0
LINE
  5
2CF
100
AcDbEntity
  8
0
100
AcDbLine
 62
7
  6
CONTINUOUS
 10
419.2332387108
 20
410.0152221326
 11
419.2332387108
 21
410.173468903
  0
LINE
  5
2D0
100
AcDbEntity
  8
0
100
AcDbLine
 62
7
  6
CONTINUOUS
 10
419.3183452028
 20
407.7595435698
 11
419.3183452028
 21
408.2139162835
  0
LINE
  5
2D1
100
AcDbEntity
  8
0
100
AcDbLine
 62
7
  6
CONTINUOUS
 10
419.4032638231
 20
409.4572436646
 11
419.4032638231
 21
409.444620093
  0
LINE
  5
2D2
100
AcDbEntity
  8
0
100
AcDbLine
 62
7
  6
CONTINUOUS
 10
419.4032638231
 20
408.8454939891
 11
419.4032638231
 21
408.4513154287
  0
LINE
  5
2D3
100
AcDbEntity
  8
0
100
AcDbLine
 62
7
  6
CONTINUOUS
 10
419.4032638231
 20
407.7750165693
 11
419.4032638231
 21
376.7584309456
  0
LINE
  5
2D4
100
AcDbEntity
  8
0
100
AcDbLine
 62
7
  6
CONTINUOUS
 10
419.4142186166
 20
409.9823697774
 11
419.4142186166
 21
409.8624548159
  0
LINE
  5
2D5
100
AcDbEntity
  8
0
100
AcDbLine
 62
7
  6
CONTINUOUS
 10
419.4142186166
 20
409.4448547228
 11
419.4142186166
 21
409.2674594575
  0
LINE
  5
2D6
100
AcDbEntity
  8
0
100
AcDbLine
 62
7
  6
CONTINUOUS
 10
419.4142186166
 20
408.453454061
 11
419.4142186166
 21
408.2307780933
  0
LINE
  5
2D7
100
AcDbEntity
  8
0
100
AcDbLine
 62
7
  6
CONTINUOUS
 10
419.4885579485
 20
408.8328213721
 11
419.4885579485
 21
409.2566992955
  0
LINE
  5
2D8
100
AcDbEntity
  8
0
100
AcDbLine
 62
7
  6
CONTINUOUS
 10
419.6587706942
 20
408.7648584954
 11
419.6587706942
 21
409.190665185
  0
LINE
  5
2D9
100
AcDbEntity
  8
0
100
AcDbLine
 62
7
  6
CONTINUOUS
 10
419.6587706942
 20
409.928967221
 11
419.6587706942
 21
410.158921063
  0
LINE
  5
2DA
100
AcDbEntity
  8
0
100
AcDbLine
 62
7
  6
CONTINUOUS
 10
419.743877067
 20
407.8295685903
 11
419.743877067
 21
408.2820069419
  0
LINE
  5
2DB
100
AcDbEntity
  8
0
100
AcDbLine
 62
7
  6
CONTINUOUS
 10
419.8289834398
 20
408.659912126
 11
419.8289834398
 21
409.0887103435
  0
LINE
  5
2DC
100
AcDbEntity
  8
0
100
AcDbLine
 62
7
  6
CONTINUOUS
 10
419.9140898127
 20
408.7448624172
 11
419.9140898127
 21
408.9864057526
  0
LINE
  5
2DD
100
AcDbEntity
  8
0
100
AcDbLine
 62
7
  6
CONTINUOUS
 10
419.9991961855
 20
407.9385617304
 11
419.9991961855
 21
408.3880554032
  0
LINE
  5
2DE
100
AcDbEntity
  8
0
100
AcDbLine
 62
7
  6
CONTINUOUS
 10
420.0843025583
 20
409.3920046045
 11
420.0843025583
 21
409.6574662516
  0
LINE
  5
2DF
100
AcDbEntity
  8
0
100
AcDbLine
 62
7
  6
CONTINUOUS
 10
420.0843025583
 20
409.187718036
 11
420.0843025583
 21
409.2733028319
  0
LINE
  5
2E0
100
AcDbEntity
  8
0
100
AcDbLine
 62
7
  6
CONTINUOUS
 10
420.0843025583
 20
409.8105975806
 11
420.0843025583
 21
410.0717223696
  0
LINE
  5
2E1
100
AcDbEntity
  8
0
100
AcDbLine
 62
7
  6
CONTINUOUS
 10
420.1421243676
 20
376.8060933154
 11
420.1421243676
 21
408.0404317024
  0
LINE
  5
2E2
100
AcDbEntity
  8
0
100
AcDbLine
 62
7
  6
CONTINUOUS
 10
420.1826335829
 20
409.6318389808
 11
420.1826335829
 21
409.780327088
  0
LINE
  5
2E3
100
AcDbEntity
  8
0
100
AcDbLine
 62
7
  6
CONTINUOUS
 10
420.1826335829
 20
409.2578890467
 11
420.1826335829
 21
409.3920046045
  0
LINE
  5
2E4
100
AcDbEntity
  8
0
100
AcDbLine
 62
7
  6
CONTINUOUS
 10
420.1826335829
 20
408.5140598609
 11
420.1826335829
 21
409.1262807787
  0
LINE
  5
2E5
100
AcDbEntity
  8
0
100
AcDbLine
 62
7
  6
CONTINUOUS
 10
420.254515304
 20
408.1165789393
 11
420.254515304
 21
408.5608517424
  0
LINE
  5
2E6
100
AcDbEntity
  8
0
100
AcDbLine
 62
7
  6
CONTINUOUS
 10
420.3396216768
 20
408.2987918867
 11
420.3396216768
 21
408.9105984267
  0
LINE
  5
2E7
100
AcDbEntity
  8
0
100
AcDbLine
 62
7
  6
CONTINUOUS
 10
420.3396216768
 20
409.3920046045
 11
420.3396216768
 21
409.5895521493
  0
LINE
  5
2E8
100
AcDbEntity
  8
0
100
AcDbLine
 62
7
  6
CONTINUOUS
 10
420.3396216768
 20
409.7310597047
 11
420.3396216768
 21
410.0601690096
  0
LINE
  5
2E9
100
AcDbEntity
  8
0
100
AcDbLine
 62
7
  6
CONTINUOUS
 10
420.5949407953
 20
408.7655930776
 11
420.5949407953
 21
409.1908929745
  0
LINE
  5
2EA
100
AcDbEntity
  8
0
100
AcDbLine
 62
7
  6
CONTINUOUS
 10
420.6800471682
 20
409.3175357844
 11
420.6800471682
 21
409.5322352161
  0
LINE
  5
2EB
100
AcDbEntity
  8
0
100
AcDbLine
 62
7
  6
CONTINUOUS
 10
420.6800471682
 20
409.6547473557
 11
420.6800471682
 21
410.0318279416
  0
LINE
  5
2EC
100
AcDbEntity
  8
0
100
AcDbLine
 62
7
  6
CONTINUOUS
 10
420.8502601523
 20
407.7109663171
 11
420.8502601523
 21
408.3751674489
  0
LINE
  5
2ED
100
AcDbEntity
  8
0
100
AcDbLine
 62
7
  6
CONTINUOUS
 10
420.8502601523
 20
409.6369718598
 11
420.8502601523
 21
409.9696054674
  0
LINE
  5
2EE
100
AcDbEntity
  8
0
100
AcDbLine
 62
7
  6
CONTINUOUS
 10
420.8502601523
 20
409.2784212532
 11
420.8502601523
 21
409.5143256725
  0
LINE
  5
2EF
100
AcDbEntity
  8
0
100
AcDbLine
 62
7
  6
CONTINUOUS
 10
420.8502601523
 20
408.7086259104
 11
420.8502601523
 21
409.1347942275
  0
LINE
  5
2F0
100
AcDbEntity
  8
0
100
AcDbLine
 62
7
  6
CONTINUOUS
 10
421.1055792708
 20
408.6205374733
 11
421.1055792708
 21
409.0484226652
  0
LINE
  5
2F1
100
AcDbEntity
  8
0
100
AcDbLine
 62
7
  6
CONTINUOUS
 10
421.1055792708
 20
407.725963528
 11
421.1055792708
 21
408.1795415576
  0
LINE
  5
2F2
100
AcDbEntity
  8
0
100
AcDbLine
 62
7
  6
CONTINUOUS
 10
421.1055792708
 20
409.6476599726
 11
421.1055792708
 21
409.9251380846
  0
LINE
  5
2F3
100
AcDbEntity
  8
0
100
AcDbLine
 62
7
  6
CONTINUOUS
 10
421.1906856436
 20
409.1895827533
 11
421.1906856436
 21
409.5001231336
  0
LINE
  5
2F4
100
AcDbEntity
  8
0
100
AcDbLine
 62
7
  6
CONTINUOUS
 10
421.2757920164
 20
408.5073454474
 11
421.2757920164
 21
408.9378772193
  0
LINE
  5
2F5
100
AcDbEntity
  8
0
100
AcDbLine
 62
7
  6
CONTINUOUS
 10
421.2757920164
 20
409.682680662
 11
421.2757920164
 21
409.8769925551
  0
LINE
  5
2F6
100
AcDbEntity
  8
0
100
AcDbLine
 62
7
  6
CONTINUOUS
 10
421.3608983893
 20
408.6243359107
 11
421.3608983893
 21
408.8318670773
  0
LINE
  5
2F7
100
AcDbEntity
  8
0
100
AcDbLine
 62
7
  6
CONTINUOUS
 10
421.3608983893
 20
409.7530190417
 11
421.3608983893
 21
409.808533498
  0
LINE
  5
2F8
100
AcDbEntity
  8
0
100
AcDbLine
 62
7
  6
CONTINUOUS
 10
421.4460047621
 20
407.8169058375
 11
421.4460047621
 21
408.2668050367
  0
LINE
  5
2F9
100
AcDbEntity
  8
0
100
AcDbLine
 62
7
  6
CONTINUOUS
 10
421.5311111349
 20
409.1331127883
 11
421.5311111349
 21
409.5464608137
  0
LINE
  5
2FA
100
AcDbEntity
  8
0
100
AcDbLine
 62
7
  6
CONTINUOUS
 10
421.7013238806
 20
407.9931361981
 11
421.7013238806
 21
408.4371206332
  0
LINE
  5
2FB
100
AcDbEntity
  8
0
100
AcDbLine
 62
7
  6
CONTINUOUS
 10
421.7013238806
 20
409.1922275155
 11
421.7013238806
 21
409.6036533129
  0
LINE
  5
2FC
100
AcDbEntity
  8
0
100
AcDbLine
 62
7
  6
CONTINUOUS
 10
421.7864302534
 20
408.1746143414
 11
421.7864302534
 21
408.7518850684
  0
LINE
  5
2FD
100
AcDbEntity
  8
0
100
AcDbLine
 62
7
  6
CONTINUOUS
 10
421.7864302534
 20
409.285137965
 11
421.7864302534
 21
409.7514233397
  0
LINE
  5
2FE
100
AcDbEntity
  8
0
100
AcDbLine
 62
7
  6
CONTINUOUS
 10
426.2992835804
 20
409.1042830183
 11
426.2992835804
 21
377.4328700018
  0
LINE
  5
2FF
100
AcDbEntity
  8
0
100
AcDbLine
 62
7
  6
CONTINUOUS
 10
431.2864302534
 20
377.6860525972
 11
431.2864302534
 21
408.8511004229
  0
LINE
  5
300
100
AcDbEntity
  8
0
100
AcDbLine
 62
7
  6
CONTINUOUS
 10
435.7864302534
 20
406.9107333248
 11
435.7864302534
 21
408.4893511129
  0
LINE
  5
301
100
AcDbEntity
  8
0
100
AcDbLine
 62
7
  6
CONTINUOUS
 10
436.2119621772
 20
407.5013684521
 11
436.2119621772
 21
408.3761788604
  0
LINE
  5
302
100
AcDbEntity
  8
0
100
AcDbLine
 62
7
  6
CONTINUOUS
 10
436.8077068466
 20
408.3135960066
 11
436.8077068466
 21
408.3850364187
  0
LINE
  5
303
100
AcDbEntity
  8
0
100
AcDbLine
 62
7
  6
CONTINUOUS
 10
437.0630259651
 20
408.2492564653
 11
437.0630259651
 21
408.3589569883
  0
LINE
  5
304
100
AcDbEntity
  8
0
100
AcDbLine
 62
7
  6
CONTINUOUS
 10
437.2332387108
 20
408.2012525153
 11
437.2332387108
 21
408.3820595892
  0
LINE
  5
305
100
AcDbEntity
  8
0
100
AcDbLine
 62
7
  6
CONTINUOUS
 10
437.6587706942
 20
408.08040695
 11
437.6587706942
 21
408.3387096159
  0
LINE
  5
306
100
AcDbEntity
  8
0
100
AcDbLine
 62
7
  6
CONTINUOUS
 10
437.743877067
 20
408.0512000058
 11
437.743877067
 21
408.2393964078
  0
LINE
  5
307
100
AcDbEntity
  8
0
100
AcDbLine
 62
7
  6
CONTINUOUS
 10
437.8289834398
 20
408.0219930616
 11
437.8289834398
 21
408.210237952
  0
LINE
  5
308
100
AcDbEntity
  8
0
100
AcDbLine
 62
7
  6
CONTINUOUS
 10
437.9140898126
 20
407.9927861174
 11
437.9140898126
 21
408.2219512461
  0
LINE
  5
309
100
AcDbEntity
  8
0
100
AcDbLine
 62
7
  6
CONTINUOUS
 10
438.0843025583
 20
407.3474076059
 11
438.0843025583
 21
407.7649374402
  0
LINE
  5
30A
100
AcDbEntity
  8
0
100
AcDbLine
 62
7
  6
CONTINUOUS
 10
438.1694089312
 20
407.8959469048
 11
438.1694089312
 21
408.22297363
  0
LINE
  5
30B
100
AcDbEntity
  8
0
100
AcDbLine
 62
7
  6
CONTINUOUS
 10
438.3396216768
 20
407.2718710105
 11
438.3396216768
 21
407.6908631578
  0
LINE
  5
30C
100
AcDbEntity
  8
0
100
AcDbLine
 62
7
  6
CONTINUOUS
 10
438.5098344225
 20
407.2507982155
 11
438.5098344225
 21
407.4343776366
  0
LINE
  5
30D
100
AcDbEntity
  8
0
100
AcDbLine
 62
7
  6
CONTINUOUS
 10
438.5098344225
 20
407.8612928129
 11
438.5098344225
 21
408.2039624834
  0
LINE
  5
30E
100
AcDbEntity
  8
0
100
AcDbLine
 62
7
  6
CONTINUOUS
 10
438.6800471682
 20
407.4343776366
 11
438.6800471682
 21
407.6303903465
  0
LINE
  5
30F
100
AcDbEntity
  8
0
100
AcDbLine
 62
7
  6
CONTINUOUS
 10
438.765153541
 20
407.8353022439
 11
438.765153541
 21
408.1778683704
  0
LINE
  5
310
100
AcDbEntity
  8
0
100
AcDbLine
 62
7
  6
CONTINUOUS
 10
438.8502601523
 20
407.7510820425
 11
438.8502601523
 21
408.1259978905
  0
LINE
  5
311
100
AcDbEntity
  8
0
100
AcDbLine
 62
7
  6
CONTINUOUS
 10
438.8502601523
 20
407.3976852968
 11
438.8502601523
 21
407.6123196067
  0
LINE
  5
312
100
AcDbEntity
  8
0
100
AcDbLine
 62
7
  6
CONTINUOUS
 10
439.1055792708
 20
407.7664460819
 11
439.1055792708
 21
408.0792108215
  0
LINE
  5
313
100
AcDbEntity
  8
0
100
AcDbLine
 62
7
  6
CONTINUOUS
 10
439.1906856436
 20
407.3609929827
 11
439.1906856436
 21
407.6006629527
  0
LINE
  5
314
100
AcDbEntity
  8
0
100
AcDbLine
 62
7
  6
CONTINUOUS
 10
439.2757920164
 20
407.8081831098
 11
439.2757920164
 21
408.0271952967
  0
LINE
  5
315
100
AcDbEntity
  8
0
100
AcDbLine
 62
7
  6
CONTINUOUS
 10
439.3608983893
 20
407.8886291605
 11
439.3608983893
 21
407.9511945017
  0
LINE
  5
316
100
AcDbEntity
  8
0
100
AcDbLine
 62
7
  6
CONTINUOUS
 10
439.5311111349
 20
407.2410332335
 11
439.5311111349
 21
407.657534403
  0
LINE
  5
317
100
AcDbEntity
  8
0
100
AcDbLine
 62
7
  6
CONTINUOUS
 10
439.7013238806
 20
407.3103782045
 11
439.7013238806
 21
407.7243996935
  0
LINE
  5
318
100
AcDbEntity
  8
0
100
AcDbLine
 62
7
  6
CONTINUOUS
 10
439.7864302534
 20
406.4657195182
 11
439.7864302534
 21
407.1113693112
  0
LINE
  5
319
100
AcDbEntity
  8
0
100
AcDbLine
 62
7
  6
CONTINUOUS
 10
439.7864302534
 20
407.4167750979
 11
439.7864302534
 21
407.8922586157
  0
LINE
  5
31A
100
AcDbEntity
  8
0
100
AcDbLine
 62
7
  6
CONTINUOUS
 10
444.2992835804
 20
407.271947689
 11
444.2992835804
 21
379.2652053311
  0
LINE
  5
31B
100
AcDbEntity
  8
0
100
AcDbLine
 62
7
  6
CONTINUOUS
 10
449.2864302534
 20
379.5183879266
 11
449.2864302534
 21
407.0187650935
  0
LINE
  5
31C
100
AcDbEntity
  8
0
100
AcDbLine
 62
7
  6
CONTINUOUS
 10
453.7864302534
 20
405.5940325991
 11
453.7864302534
 21
406.5938353262
  0
LINE
  5
31D
100
AcDbEntity
  8
0
100
AcDbLine
 62
7
  6
CONTINUOUS
 10
454.4672812957
 20
406.5239267233
 11
454.4672812957
 21
406.5636854693
  0
LINE
  5
31E
100
AcDbEntity
  8
0
100
AcDbLine
 62
7
  6
CONTINUOUS
 10
454.8928132195
 20
406.4802338438
 11
454.8928132195
 21
406.5368807413
  0
LINE
  5
31F
100
AcDbEntity
  8
0
100
AcDbLine
 62
7
  6
CONTINUOUS
 10
455.2332387108
 20
406.4452744488
 11
455.2332387108
 21
406.5481716143
  0
LINE
  5
320
100
AcDbEntity
  8
0
100
AcDbLine
 62
7
  6
CONTINUOUS
 10
455.6587706942
 20
406.4015751929
 11
455.6587706942
 21
406.504812078
  0
LINE
  5
321
100
AcDbEntity
  8
0
100
AcDbLine
 62
7
  6
CONTINUOUS
 10
456.5098344225
 20
406.3141688663
 11
456.5098344225
 21
406.3715357511
  0
LINE
  5
322
100
AcDbEntity
  8
0
100
AcDbLine
 62
7
  6
CONTINUOUS
 10
457.3608983893
 20
404.4764705136
 11
457.3608983893
 21
404.9291914123
  0
LINE
  5
323
100
AcDbEntity
  8
0
100
AcDbLine
 62
7
  6
CONTINUOUS
 10
457.3608983893
 20
405.1696943738
 11
457.3608983893
 21
406.0149461479
  0
LINE
  5
324
100
AcDbEntity
  8
0
100
AcDbLine
 62
7
  6
CONTINUOUS
 10
457.7864302534
 20
404.4274640683
 11
457.7864302534
 21
406.2238452773
  0
LINE
  5
325
100
AcDbEntity
  8
0
100
AcDbLine
 62
7
  6
CONTINUOUS
 10
462.2992835804
 20
405.4396123597
 11
462.2992835804
 21
381.0975406605
  0
LINE
  5
326
100
AcDbEntity
  8
0
100
AcDbLine
 62
7
  6
CONTINUOUS
 10
467.2864302534
 20
381.3507232559
 11
467.2864302534
 21
405.1864297642
  0
LINE
  5
327
100
AcDbEntity
  8
0
100
AcDbLine
 62
7
  6
CONTINUOUS
 10
471.7864302534
 20
403.6365931073
 11
471.7864302534
 21
404.2534740799
  0
LINE
  5
328
100
AcDbEntity
  8
0
100
AcDbLine
 62
7
  6
CONTINUOUS
 10
471.7864302534
 20
404.4213633226
 11
471.7864302534
 21
404.8252568562
  0
LINE
  5
329
100
AcDbEntity
  8
0
100
AcDbLine
 62
7
  6
CONTINUOUS
 10
472.9779195923
 20
403.118172152
 11
472.9779195923
 21
403.9394242635
  0
LINE
  5
32A
100
AcDbEntity
  8
0
100
AcDbLine
 62
7
  6
CONTINUOUS
 10
472.9779195923
 20
404.1252330534
 11
472.9779195923
 21
404.6205361525
  0
LINE
  5
32B
100
AcDbEntity
  8
0
100
AcDbLine
 62
7
  6
CONTINUOUS
 10
473.4885579485
 20
404.4620402268
 11
473.4885579485
 21
404.0702234454
  0
LINE
  5
32C
100
AcDbEntity
  8
0
100
AcDbLine
 62
7
  6
CONTINUOUS
 10
473.4885579485
 20
403.0596397491
 11
473.4885579485
 21
403.8834517798
  0
LINE
  5
32D
100
AcDbEntity
  8
0
100
AcDbLine
 62
7
  6
CONTINUOUS
 10
475.7864302534
 20
403.1951223158
 11
475.7864302534
 21
403.8223003152
  0
LINE
  5
32E
100
AcDbEntity
  8
0
100
AcDbLine
 62
7
  6
CONTINUOUS
 10
475.7864302534
 20
404.0121884333
 11
475.7864302534
 21
404.4535353911
  0
LINE
  5
32F
100
AcDbEntity
  8
0
100
AcDbLine
 62
7
  6
CONTINUOUS
 10
480.2992835804
 20
403.6072770303
 11
480.2992835804
 21
382.9298759898
  0
LINE
  5
330
100
AcDbEntity
  8
0
100
AcDbLine
 62
7
  6
CONTINUOUS
 10
485.2864302534
 20
383.2383081077
 11
485.2864302534
 21
403.2988449124
  0
LINE
  5
331
100
AcDbEntity
  8
0
100
AcDbLine
 62
7
  6
CONTINUOUS
 10
489.7864302534
 20
401.9295108108
 11
489.7864302534
 21
402.3631103724
  0
LINE
  5
332
100
AcDbEntity
  8
0
100
AcDbLine
 62
7
  6
CONTINUOUS
 10
489.7864302534
 20
402.5338405583
 11
489.7864302534
 21
403.0005109325
  0
LINE
  5
333
100
AcDbEntity
  8
0
100
AcDbLine
 62
7
  6
CONTINUOUS
 10
489.8715366337
 20
401.6956827213
 11
489.8715366337
 21
402.1403246845
  0
LINE
  5
334
100
AcDbEntity
  8
0
100
AcDbLine
 62
7
  6
CONTINUOUS
 10
490.1268557746
 20
401.4510972315
 11
490.1268557746
 21
401.9071262739
  0
LINE
  5
335
100
AcDbEntity
  8
0
100
AcDbLine
 62
7
  6
CONTINUOUS
 10
490.29706855
 20
402.1307037104
 11
490.29706855
 21
402.461482358
  0
LINE
  5
336
100
AcDbEntity
  8
0
100
AcDbLine
 62
7
  6
CONTINUOUS
 10
490.3821749229
 20
401.27834593
 11
490.3821749229
 21
401.7424423879
  0
LINE
  5
337
100
AcDbEntity
  8
0
100
AcDbLine
 62
7
  6
CONTINUOUS
 10
490.4672812957
 20
402.1032060183
 11
490.4672812957
 21
402.5256661535
  0
LINE
  5
338
100
AcDbEntity
  8
0
100
AcDbLine
 62
7
  6
CONTINUOUS
 10
490.7226004738
 20
401.1363000936
 11
490.7226004738
 21
401.6066341131
  0
LINE
  5
339
100
AcDbEntity
  8
0
100
AcDbLine
 62
7
  6
CONTINUOUS
 10
490.9779195923
 20
401.0527336067
 11
490.9779195923
 21
401.5265624631
  0
LINE
  5
33A
100
AcDbEntity
  8
0
100
AcDbLine
 62
7
  6
CONTINUOUS
 10
490.9779195923
 20
402.152240589
 11
490.9779195923
 21
402.5702278561
  0
LINE
  5
33B
100
AcDbEntity
  8
0
100
AcDbLine
 62
7
  6
CONTINUOUS
 10
491.2332387108
 20
402.852555632
 11
491.2332387108
 21
402.8930604622
  0
LINE
  5
33C
100
AcDbEntity
  8
0
100
AcDbLine
 62
7
  6
CONTINUOUS
 10
491.4034515757
 20
400.9466735781
 11
491.4034515757
 21
401.4245296543
  0
LINE
  5
33D
100
AcDbEntity
  8
0
100
AcDbLine
 62
7
  6
CONTINUOUS
 10
491.4885579485
 20
402.1220490363
 11
491.4885579485
 21
402.5391431725
  0
LINE
  5
33E
100
AcDbEntity
  8
0
100
AcDbLine
 62
7
  6
CONTINUOUS
 10
491.6587706942
 20
402.8090393585
 11
491.6587706942
 21
402.8497281578
  0
LINE
  5
33F
100
AcDbEntity
  8
0
100
AcDbLine
 62
7
  6
CONTINUOUS
 10
492.0843025583
 20
402.0590162886
 11
492.0843025583
 21
402.4763175748
  0
LINE
  5
340
100
AcDbEntity
  8
0
100
AcDbLine
 62
7
  6
CONTINUOUS
 10
492.1694089312
 20
400.8529864941
 11
492.1694089312
 21
401.3325068288
  0
LINE
  5
341
100
AcDbEntity
  8
0
100
AcDbLine
 62
7
  6
CONTINUOUS
 10
492.5098344225
 20
402.7220068359
 11
492.5098344225
 21
402.7572100253
  0
LINE
  5
342
100
AcDbEntity
  8
0
100
AcDbLine
 62
7
  6
CONTINUOUS
 10
492.5949407953
 20
400.8563577513
 11
492.5949407953
 21
401.3335184419
  0
LINE
  5
343
100
AcDbEntity
  8
0
100
AcDbLine
 62
7
  6
CONTINUOUS
 10
492.5949407953
 20
401.9806835989
 11
492.5949407953
 21
402.3992760521
  0
LINE
  5
344
100
AcDbEntity
  8
0
100
AcDbLine
 62
7
  6
CONTINUOUS
 10
492.8502601523
 20
400.8796953428
 11
492.8502601523
 21
401.3541868245
  0
LINE
  5
345
100
AcDbEntity
  8
0
100
AcDbLine
 62
7
  6
CONTINUOUS
 10
493.1055792708
 20
401.8199195282
 11
493.1055792708
 21
402.2436827365
  0
LINE
  5
346
100
AcDbEntity
  8
0
100
AcDbLine
 62
7
  6
CONTINUOUS
 10
493.1906856436
 20
400.9440855825
 11
493.1906856436
 21
401.4131168437
  0
LINE
  5
347
100
AcDbEntity
  8
0
100
AcDbLine
 62
7
  6
CONTINUOUS
 10
493.2757920164
 20
401.796925944
 11
493.2757920164
 21
402.1401583015
  0
LINE
  5
348
100
AcDbEntity
  8
0
100
AcDbLine
 62
7
  6
CONTINUOUS
 10
493.4460047621
 20
401.0632806186
 11
493.4460047621
 21
401.5242781736
  0
LINE
  5
349
100
AcDbEntity
  8
0
100
AcDbLine
 62
7
  6
CONTINUOUS
 10
493.7013238806
 20
401.2602358694
 11
493.7013238806
 21
401.7092469351
  0
LINE
  5
34A
100
AcDbEntity
  8
0
100
AcDbLine
 62
7
  6
CONTINUOUS
 10
493.7864302534
 20
401.4871242929
 11
493.7864302534
 21
401.9239712978
  0
LINE
  5
34B
100
AcDbEntity
  8
0
100
AcDbLine
 62
7
  6
CONTINUOUS
 10
493.7864302534
 20
402.121703787
 11
493.7864302534
 21
402.5914441141
  0
LINE
  5
34C
100
AcDbEntity
  8
0
100
AcDbLine
 62
7
  6
CONTINUOUS
 10
498.2992835804
 20
401.774941701
 11
498.2992835804
 21
384.7622113191
  0
LINE
  5
34D
100
AcDbEntity
  8
0
100
AcDbLine
 62
7
  6
CONTINUOUS
 10
503.2864302534
 20
385.0606057124
 11
503.2864302534
 21
401.4765473077
  0
ARC
  5
34E
100
AcDbEntity
  8
0
100
AcDbCircle
 62
7
  6
CONTINUOUS
 10
230.2113272636
 20
393.2685811826
 40
151.8793909335
100
AcDbArc
 50
175.4029944901
 51
184.5970055181
  0
ARC
  5
34F
100
AcDbEntity
  8
0
100
AcDbCircle
 62
7
  6
CONTINUOUS
 10
152.0358265955
 20
393.2685811384
 40
151.8793909302
100
AcDbArc
 50
355.4029944925
 51
4.5970055207
  0
ARC
  5
350
100
AcDbEntity
  8
0
100
AcDbCircle
 62
7
  6
CONTINUOUS
 10
156.0809002986
 20
393.6606911188
 40
147.8143206638
100
AcDbArc
 50
6.9299703883
 51
9.6192309736
  0
ARC
  5
351
100
AcDbEntity
  8
0
100
AcDbCircle
 62
7
  6
CONTINUOUS
 10
226.166253536
 20
392.8764711994
 40
147.8143206432
100
AcDbArc
 50
186.9299703889
 51
189.6192309738
  0
ARC
  5
352
100
AcDbEntity
  8
0
100
AcDbCircle
 62
7
  6
CONTINUOUS
 10
225.6903692916
 20
393.7298997103
 40
147.3335630269
100
AcDbArc
 50
170.3763806179
 51
173.0744180325
  0
ARC
  5
353
100
AcDbEntity
  8
0
100
AcDbCircle
 62
7
  6
CONTINUOUS
 10
156.556784565
 20
392.8072626102
 40
147.3335630253
100
AcDbArc
 50
350.3763806178
 51
353.0744180333
  0
ARC
  5
354
100
AcDbEntity
  8
0
100
AcDbCircle
 62
7
  6
CONTINUOUS
 10
195.3735779134
 20
393.2685765101
 40
129.9687558608
100
AcDbArc
 50
191.180048621
 51
191.9536222049
  0
ARC
  5
355
100
AcDbEntity
  8
0
100
AcDbCircle
 62
7
  6
CONTINUOUS
 10
195.3735779134
 20
393.2685765101
 40
129.9687558608
100
AcDbArc
 50
168.0462693902
 51
168.819951379
  0
ARC
  5
356
100
AcDbEntity
  8
0
100
AcDbCircle
 62
7
  6
CONTINUOUS
 10
195.3735769265
 20
393.2685811604
 40
129.9038105637
100
AcDbArc
 50
168.0352587285
 51
191.9648373059
  0
ARC
  5
357
100
AcDbEntity
  8
0
100
AcDbCircle
 62
7
  6
CONTINUOUS
 10
79.2826454852
 20
326.551170168
 40
78.8914098567
100
AcDbArc
 50
90.335624703
 51
90.6302135692
  0
ARC
  5
358
100
AcDbEntity
  8
0
100
AcDbCircle
 62
7
  6
CONTINUOUS
 10
79.4292825623
 20
356.5729357912
 40
19.0806423874
100
AcDbArc
 50
89.9924131822
 51
91.0418650907
  0
ARC
  5
359
100
AcDbEntity
  8
0
100
AcDbCircle
 62
7
  6
CONTINUOUS
 10
84.360663429
 20
369.7632566999
 40
16.4946661064
100
AcDbArc
 50
192.0538020359
 51
269.99783651
  0
ARC
  5
35A
100
AcDbEntity
  8
0
100
AcDbCircle
 62
7
  6
CONTINUOUS
 10
84.4235224167
 20
369.7590690649
 40
16.4904415022
100
AcDbArc
 50
191.973308837
 51
270.0241504304
  0
ARC
  5
35B
100
AcDbEntity
  8
0
100
AcDbCircle
 62
7
  6
CONTINUOUS
 10
79.2852561058
 20
358.6970174058
 40
16.3454191626
100
AcDbArc
 50
89.4862794918
 51
96.5349720302
  0
ARC
  5
35C
100
AcDbEntity
  8
0
100
AcDbCircle
 62
7
  6
CONTINUOUS
 10
281.3735769265
 20
359.2685811604
 40
4.2
100
AcDbArc
 50
0.0
 51
180.0
  0
ARC
  5
35D
100
AcDbEntity
  8
0
100
AcDbCircle
 62
7
  6
CONTINUOUS
 10
101.3735769265
 20
359.2685811604
 40
4.2
100
AcDbArc
 50
0.0
 51
180.0
  0
ARC
  5
35E
100
AcDbEntity
  8
0
100
AcDbCircle
 62
7
  6
CONTINUOUS
 10
79.5612252284
 20
380.0255212473
 40
0.9805520698
100
AcDbArc
 50
139.0989070604
 51
149.9178241767
  0
ARC
  5
35F
100
AcDbEntity
  8
0
100
AcDbCircle
 62
7
  6
CONTINUOUS
 10
79.3002862063
 20
463.2435228969
 40
82.1489628609
100
AcDbArc
 50
269.3824719206
 51
269.6653805452
  0
ARC
  5
360
100
AcDbEntity
  8
0
100
AcDbCircle
 62
7
  6
CONTINUOUS
 10
79.4291746746
 20
429.945847696
 40
19.0622635684
100
AcDbArc
 50
268.9584688145
 51
270.0079184153
  0
ARC
  5
361
100
AcDbEntity
  8
0
100
AcDbCircle
 62
7
  6
CONTINUOUS
 10
84.3605820707
 20
416.7740063361
 40
16.4945644064
100
AcDbArc
 50
90.002136415
 51
167.9472302478
  0
ARC
  5
362
100
AcDbEntity
  8
0
100
AcDbCircle
 62
7
  6
CONTINUOUS
 10
84.423545049
 20
416.7780555174
 40
16.490487256
100
AcDbArc
 50
89.9759635865
 51
168.0273357325
  0
ARC
  5
363
100
AcDbEntity
  8
0
100
AcDbCircle
 62
7
  6
CONTINUOUS
 10
79.2746646035
 20
427.6391309149
 40
16.1444741413
100
AcDbArc
 50
263.4211847833
 51
270.5577026267
  0
ARC
  5
364
100
AcDbEntity
  8
0
100
AcDbCircle
 62
7
  6
CONTINUOUS
 10
281.3735769265
 20
427.2685811604
 40
4.2
100
AcDbArc
 50
180.0
 51
360.0
  0
ARC
  5
365
100
AcDbEntity
  8
0
100
AcDbCircle
 62
7
  6
CONTINUOUS
 10
101.3735769265
 20
427.2685811604
 40
4.2
100
AcDbArc
 50
180.0
 51
360.0
  0
ARC
  5
366
100
AcDbEntity
  8
0
100
AcDbCircle
 62
7
  6
CONTINUOUS
 10
302.9727448847
 20
327.3947018823
 40
78.0478442856
100
AcDbArc
 50
89.3690216594
 51
89.6667943406
  0
ARC
  5
367
100
AcDbEntity
  8
0
100
AcDbCircle
 62
7
  6
CONTINUOUS
 10
302.8179788283
 20
356.5912740156
 40
19.0623041775
100
AcDbArc
 50
88.9584692391
 51
90.0079173462
  0
ARC
  5
368
100
AcDbEntity
  8
0
100
AcDbCircle
 62
7
  6
CONTINUOUS
 10
297.8869930995
 20
369.7619163619
 40
16.4933564152
100
AcDbArc
 50
269.9983231512
 51
320.2716767074
  0
ARC
  5
369
100
AcDbEntity
  8
0
100
AcDbCircle
 62
7
  6
CONTINUOUS
 10
302.9724889967
 20
358.898035597
 40
16.1444699613
100
AcDbArc
 50
83.4211810722
 51
90.557701812
  0
ARC
  5
36A
100
AcDbEntity
  8
0
100
AcDbCircle
 62
7
  6
CONTINUOUS
 10
336.7735769243
 20
375.3275954596
 40
3.0000000016
100
AcDbArc
 50
319.2313493987
 51
347.309824447
  0
ARC
  5
36B
100
AcDbEntity
  8
0
100
AcDbCircle
 62
7
  6
CONTINUOUS
 10
331.7735769265
 20
362.7403202473
 40
3.0
100
AcDbArc
 50
271.0
 51
360.0
  0
ARC
  5
36C
100
AcDbEntity
  8
0
100
AcDbCircle
 62
7
  6
CONTINUOUS
 10
500.7864302534
 20
385.0153939146
 40
2.5
100
AcDbArc
 50
185.8124823833
 51
360.0
  0
ARC
  5
36D
100
AcDbEntity
  8
0
100
AcDbCircle
 62
7
  6
CONTINUOUS
 10
482.7864302534
 20
383.1830585853
 40
2.5
100
AcDbArc
 50
185.8124823835
 51
360.0
  0
ARC
  5
36E
100
AcDbEntity
  8
0
100
AcDbCircle
 62
7
  6
CONTINUOUS
 10
464.7864302534
 20
381.3507232559
 40
2.5
100
AcDbArc
 50
185.8124823835
 51
360.0
  0
ARC
  5
36F
100
AcDbEntity
  8
0
100
AcDbCircle
 62
7
  6
CONTINUOUS
 10
446.7864302534
 20
379.5183879266
 40
2.5
100
AcDbArc
 50
185.8124823832
 51
360.0
  0
ARC
  5
370
100
AcDbEntity
  8
0
100
AcDbCircle
 62
7
  6
CONTINUOUS
 10
428.7864302534
 20
377.6860525972
 40
2.5
100
AcDbArc
 50
185.8124823832
 51
360.0
  0
ARC
  5
371
100
AcDbEntity
  8
0
100
AcDbCircle
 62
7
  6
CONTINUOUS
 10
297.8219765766
 20
416.7741576723
 40
16.4944437802
100
AcDbArc
 50
32.9761786476
 51
90.0135178671
  0
ARC
  5
372
100
AcDbEntity
  8
0
100
AcDbCircle
 62
7
  6
CONTINUOUS
 10
297.8869258592
 20
416.7751469821
 40
16.4934368848
100
AcDbArc
 50
39.7285008965
 51
90.0016966717
  0
ARC
  5
373
100
AcDbEntity
  8
0
100
AcDbCircle
 62
7
  6
CONTINUOUS
 10
302.9619860748
 20
427.8389179622
 40
16.3441901398
100
AcDbArc
 50
269.4859333948
 51
276.5351547165
  0
ARC
  5
374
100
AcDbEntity
  8
0
100
AcDbCircle
 62
7
  6
CONTINUOUS
 10
336.7735769244
 20
411.2095575605
 40
3.0000000016
100
AcDbArc
 50
12.690192823
 51
40.7686506013
  0
ARC
  5
375
100
AcDbEntity
  8
0
100
AcDbCircle
 62
7
  6
CONTINUOUS
 10
331.7735769265
 20
423.7968327729
 40
3.0
100
AcDbArc
 50
0.0
 51
89.0
  0
ARC
  5
376
100
AcDbEntity
  8
0
100
AcDbCircle
 62
7
  6
CONTINUOUS
 10
302.6789285694
 20
406.5164990419
 40
0.9884205968
100
AcDbArc
 50
319.1431704045
 51
329.8807244404
  0
ARC
  5
377
100
AcDbEntity
  8
0
100
AcDbCircle
 62
7
  6
CONTINUOUS
 10
302.9634509973
 20
460.1040882389
 40
79.0095099914
100
AcDbArc
 50
270.3358898135
 51
270.6300383869
  0
ARC
  5
378
100
AcDbEntity
  8
0
100
AcDbCircle
 62
7
  6
CONTINUOUS
 10
302.8178709706
 20
429.9642617054
 40
19.0806775632
100
AcDbArc
 50
269.9924141575
 51
271.0418645186
  0
ARC
  5
379
100
AcDbEntity
  8
0
100
AcDbCircle
 62
7
  6
CONTINUOUS
 10
419.1293795865
 20
399.7782265745
 40
10.3941845764
100
AcDbArc
 50
87.0805785826
 51
88.4296875477
  0
ARC
  5
37A
100
AcDbEntity
  8
0
100
AcDbCircle
 62
7
  6
CONTINUOUS
 10
419.1291600768
 20
399.497264528
 40
9.9548387155
100
AcDbArc
 50
84.4941398731
 51
85.6399222384
  0
ARC
  5
37B
100
AcDbEntity
  8
0
100
AcDbCircle
 62
7
  6
CONTINUOUS
 10
419.1292827024
 20
399.4986286682
 40
9.9534692007
100
AcDbArc
 50
85.6400290934
 51
87.9314320001
  0
ARC
  5
37C
100
AcDbEntity
  8
0
100
AcDbCircle
 62
7
  6
CONTINUOUS
 10
418.7172491122
 20
399.5720300554
 40
9.9287084654
100
AcDbArc
 50
81.5126734668
 51
82.0859787788
  0
ARC
  5
37D
100
AcDbEntity
  8
0
100
AcDbCircle
 62
7
  6
CONTINUOUS
 10
419.1291172808
 20
399.4455462483
 40
9.8740659498
100
AcDbArc
 50
84.4487099441
 51
85.4402651479
  0
ARC
  5
37E
100
AcDbEntity
  8
0
100
AcDbCircle
 62
7
  6
CONTINUOUS
 10
418.6095592052
 20
399.5439895503
 40
9.8404474708
100
AcDbArc
 50
80.8013451247
 51
80.9945660634
  0
ARC
  5
37F
100
AcDbEntity
  8
0
100
AcDbCircle
 62
7
  6
CONTINUOUS
 10
418.6101865618
 20
399.5479607859
 40
9.8364269877
100
AcDbArc
 50
80.9945544913
 51
81.3810154222
  0
ARC
  5
380
100
AcDbEntity
  8
0
100
AcDbCircle
 62
7
  6
CONTINUOUS
 10
419.5514112896
 20
399.6217658742
 40
9.8240468422
100
AcDbArc
 50
90.3665755872
 51
90.8001607469
  0
ARC
  5
381
100
AcDbEntity
  8
0
100
AcDbCircle
 62
7
  6
CONTINUOUS
 10
418.104469288
 20
399.9565449956
 40
9.4025832313
100
AcDbArc
 50
81.5351278326
 51
81.9928454814
  0
ARC
  5
382
100
AcDbEntity
  8
0
100
AcDbCircle
 62
7
  6
CONTINUOUS
 10
418.1182790639
 20
399.9034189694
 40
9.0339300136
100
AcDbArc
 50
81.2756229813
 51
81.8225230704
  0
ARC
  5
383
100
AcDbEntity
  8
0
100
AcDbCircle
 62
7
  6
CONTINUOUS
 10
417.990079896
 20
401.4206844275
 40
8.4988440843
100
AcDbArc
 50
75.049611072
 51
75.2781036495
  0
ARC
  5
384
100
AcDbEntity
  8
0
100
AcDbCircle
 62
7
  6
CONTINUOUS
 10
417.9942124571
 20
401.4364536066
 40
8.4825423984
100
AcDbArc
 50
75.2780327857
 51
75.735473689
  0
ARC
  5
385
100
AcDbEntity
  8
0
100
AcDbCircle
 62
7
  6
CONTINUOUS
 10
419.804419418
 20
401.9121788417
 40
8.1643422979
100
AcDbArc
 50
87.3448156843
 51
88.0354491878
  0
ARC
  5
386
100
AcDbEntity
  8
0
100
AcDbCircle
 62
7
  6
CONTINUOUS
 10
416.9720083173
 20
402.5175267627
 40
7.1937103412
100
AcDbArc
 50
68.0691253308
 51
69.5233040276
  0
ARC
  5
387
100
AcDbEntity
  8
0
100
AcDbCircle
 62
7
  6
CONTINUOUS
 10
416.9718114217
 20
402.2828351449
 40
7.0168637473
100
AcDbArc
 50
67.4847818077
 51
68.4838425607
  0
ARC
  5
388
100
AcDbEntity
  8
0
100
AcDbCircle
 62
7
  6
CONTINUOUS
 10
416.9945440826
 20
402.3402486274
 40
6.9551136589
100
AcDbArc
 50
68.4845950284
 51
68.9865511844
  0
ARC
  5
389
100
AcDbEntity
  8
0
100
AcDbCircle
 62
7
  6
CONTINUOUS
 10
417.8433796344
 20
403.5440966329
 40
6.5111461085
100
AcDbArc
 50
69.8690331551
 51
71.9422730467
  0
ARC
  5
38A
100
AcDbEntity
  8
0
100
AcDbCircle
 62
7
  6
CONTINUOUS
 10
418.1880146501
 20
403.7565821083
 40
6.3453926803
100
AcDbArc
 50
71.6789472238
 51
78.8578857198
  0
ARC
  5
38B
100
AcDbEntity
  8
0
100
AcDbCircle
 62
7
  6
CONTINUOUS
 10
417.9037320888
 20
403.7323832485
 40
6.3134259299
100
AcDbArc
 50
71.9333395945
 51
76.1577268556
  0
ARC
  5
38C
100
AcDbEntity
  8
0
100
AcDbCircle
 62
7
  6
CONTINUOUS
 10
416.8231213525
 20
403.8670394416
 40
6.2406683832
100
AcDbArc
 50
57.4302648388
 51
58.3975665879
  0
ARC
  5
38D
100
AcDbEntity
  8
0
100
AcDbCircle
 62
7
  6
CONTINUOUS
 10
416.5754099758
 20
403.8519265888
 40
6.1651962158
100
AcDbArc
 50
58.1476337458
 51
58.4445289487
  0
ARC
  5
38E
100
AcDbEntity
  8
0
100
AcDbCircle
 62
7
  6
CONTINUOUS
 10
416.8736807078
 20
403.9489540111
 40
6.144407144
100
AcDbArc
 50
58.3988403313
 51
58.8872781657
  0
ARC
  5
38F
100
AcDbEntity
  8
0
100
AcDbCircle
 62
7
  6
CONTINUOUS
 10
416.9058835393
 20
404.0023100039
 40
6.0820863263
100
AcDbArc
 50
58.8872804125
 51
59.3788416824
  0
ARC
  5
390
100
AcDbEntity
  8
0
100
AcDbCircle
 62
7
  6
CONTINUOUS
 10
416.6376474006
 20
403.9540965057
 40
6.0455634549
100
AcDbArc
 50
58.4404221405
 51
60.0181473692
  0
ARC
  5
391
100
AcDbEntity
  8
0
100
AcDbCircle
 62
7
  6
CONTINUOUS
 10
417.9395198043
 20
403.6207081595
 40
6.0172828797
100
AcDbArc
 50
75.4881482937
 51
75.9211700143
  0
ARC
  5
392
100
AcDbEntity
  8
0
100
AcDbCircle
 62
7
  6
CONTINUOUS
 10
416.5875621449
 20
403.593731701
 40
6.0143990648
100
AcDbArc
 50
57.3882526191
 51
58.6615414738
  0
ARC
  5
393
100
AcDbEntity
  8
0
100
AcDbCircle
 62
7
  6
CONTINUOUS
 10
416.9523345457
 20
404.0810425826
 40
5.9906724438
100
AcDbArc
 50
59.3776024779
 51
60.3701717409
  0
ARC
  5
394
100
AcDbEntity
  8
0
100
AcDbCircle
 62
7
  6
CONTINUOUS
 10
416.65121163
 20
403.6978215467
 40
5.8923912773
100
AcDbArc
 50
58.6637517204
 51
59.3085892808
  0
ARC
  5
395
100
AcDbEntity
  8
0
100
AcDbCircle
 62
7
  6
CONTINUOUS
 10
420.5552900745
 20
399.6373069614
 40
8.8896846825
100
AcDbArc
 50
97.0528055462
 51
97.3747782231
  0
ARC
  5
396
100
AcDbEntity
  8
0
100
AcDbCircle
 62
7
  6
CONTINUOUS
 10
420.9043835191
 20
399.7297521457
 40
8.6306450279
100
AcDbArc
 50
99.2028533473
 51
99.9424979494
  0
ARC
  5
397
100
AcDbEntity
  8
0
100
AcDbCircle
 62
7
  6
CONTINUOUS
 10
420.9000977068
 20
399.7560491181
 40
8.6040011109
100
AcDbArc
 50
98.4621092736
 51
99.2026871158
  0
ARC
  5
398
100
AcDbEntity
  8
0
100
AcDbCircle
 62
7
  6
CONTINUOUS
 10
420.8963431189
 20
399.7814299337
 40
8.5783440986
100
AcDbArc
 50
97.720802841
 51
98.462250931
  0
ARC
  5
399
100
AcDbEntity
  8
0
100
AcDbCircle
 62
7
  6
CONTINUOUS
 10
420.8763708451
 20
399.6678355581
 40
8.2399288981
100
AcDbArc
 50
97.8997226472
 51
100.2985122099
  0
ARC
  5
39A
100
AcDbEntity
  8
0
100
AcDbCircle
 62
7
  6
CONTINUOUS
 10
422.5070311022
 20
401.7103543604
 40
6.7141494631
100
AcDbArc
 50
111.9325547672
 51
114.3017333638
  0
ARC
  5
39B
100
AcDbEntity
  8
0
100
AcDbCircle
 62
7
  6
CONTINUOUS
 10
422.3275534195
 20
402.0039218099
 40
7.0552429194
100
AcDbArc
 50
112.2265283606
 51
113.7279959589
  0
ARC
  5
39C
100
AcDbEntity
  8
0
100
AcDbCircle
 62
7
  6
CONTINUOUS
 10
422.554923869
 20
401.8766066023
 40
6.9950795301
100
AcDbArc
 50
112.9363404013
 51
113.6945447145
  0
ARC
  5
39D
100
AcDbEntity
  8
0
100
AcDbCircle
 62
7
  6
CONTINUOUS
 10
422.5277367435
 20
401.9408112296
 40
6.9253559783
100
AcDbArc
 50
112.1737378494
 51
112.9362030459
  0
ARC
  5
39E
100
AcDbEntity
  8
0
100
AcDbCircle
 62
7
  6
CONTINUOUS
 10
422.5022565275
 20
402.0033631682
 40
6.8578135008
100
AcDbArc
 50
111.4072095154
 51
112.1738408837
  0
ARC
  5
39F
100
AcDbEntity
  8
0
100
AcDbCircle
 62
7
  6
CONTINUOUS
 10
422.9259330242
 20
403.4387947001
 40
6.0535057416
100
AcDbArc
 50
122.0295128687
 51
122.6641776947
  0
ARC
  5
3A0
100
AcDbEntity
  8
0
100
AcDbCircle
 62
7
  6
CONTINUOUS
 10
422.8594440038
 20
403.545505467
 40
5.9277761707
100
AcDbArc
 50
120.7458341557
 51
122.0317066492
  0
ARC
  5
3A1
100
AcDbEntity
  8
0
100
AcDbCircle
 62
7
  6
CONTINUOUS
 10
423.3398193269
 20
403.7221207745
 40
5.738528464
100
AcDbArc
 50
124.1145408516
 51
125.6011531395
  0
ARC
  5
3A2
100
AcDbEntity
  8
0
100
AcDbCircle
 62
7
  6
CONTINUOUS
 10
423.3446592462
 20
403.3959279563
 40
5.6415994803
100
AcDbArc
 50
124.5875135584
 51
126.3701190763
  0
ARC
  5
3A3
100
AcDbEntity
  8
0
100
AcDbCircle
 62
7
  6
CONTINUOUS
 10
423.2501517101
 20
403.8538764004
 40
5.5791556123
100
AcDbArc
 50
123.3545026625
 51
124.1110244469
  0
ARC
  5
3A4
100
AcDbEntity
  8
0
100
AcDbCircle
 62
7
  6
CONTINUOUS
 10
420.1250408148
 20
404.1897685804
 40
5.8821134619
100
AcDbArc
 50
92.5724721928
 51
94.5466842234
  0
ARC
  5
3A5
100
AcDbEntity
  8
0
100
AcDbCircle
 62
7
  6
CONTINUOUS
 10
420.1239423974
 20
404.2133200003
 40
5.8585364757
100
AcDbArc
 50
90.3876757995
 51
92.5720785383
  0
ARC
  5
3A6
100
AcDbEntity
  8
0
100
AcDbCircle
 62
7
  6
CONTINUOUS
 10
415.8134624941
 20
405.6628638841
 40
5.278359116
100
AcDbArc
 50
39.0246269696
 51
39.5101690304
  0
ARC
  5
3A7
100
AcDbEntity
  8
0
100
AcDbCircle
 62
7
  6
CONTINUOUS
 10
423.9270015292
 20
405.3980878356
 40
5.2253574561
100
AcDbArc
 50
140.1718414034
 51
141.6519223179
  0
ARC
  5
3A8
100
AcDbEntity
  8
0
100
AcDbCircle
 62
7
  6
CONTINUOUS
 10
415.9604202537
 20
405.7844042227
 40
5.0876536896
100
AcDbArc
 50
39.5070941731
 51
40.5020639981
  0
ARC
  5
3A9
100
AcDbEntity
  8
0
100
AcDbCircle
 62
7
  6
CONTINUOUS
 10
446.7864302534
 20
407.0187650935
 40
2.5
100
AcDbArc
 50
0.0
 51
174.1875176168
  0
ARC
  5
3AA
100
AcDbEntity
  8
0
100
AcDbCircle
 62
7
  6
CONTINUOUS
 10
428.7864302534
 20
408.8511004229
 40
2.5
100
AcDbArc
 50
0.0
 51
174.1875176168
  0
ARC
  5
3AB
100
AcDbEntity
  8
0
100
AcDbCircle
 62
7
  6
CONTINUOUS
 10
500.7864302534
 20
401.5217591055
 40
2.5
100
AcDbArc
 50
0.0
 51
174.1875176167
  0
ARC
  5
3AC
100
AcDbEntity
  8
0
100
AcDbCircle
 62
7
  6
CONTINUOUS
 10
482.7864302534
 20
403.3540944349
 40
2.5
100
AcDbArc
 50
0.0
 51
174.1875176165
  0
ARC
  5
3AD
100
AcDbEntity
  8
0
100
AcDbCircle
 62
7
  6
CONTINUOUS
 10
464.7864302534
 20
405.1864297642
 40
2.5
100
AcDbArc
 50
0.0
 51
174.1875176165
  0
SPLINE
  5
3AE
100
AcDbEntity
  8
0
100
AcDbSpline
 62
7
  6
CONTINUOUS
 70
0
 71
3
 72
20
 73
16
 74
0
 42
0.0000001
 43
0.0000001
 44
0.0000000001
 40
0.0
 40
0.0
 40
0.0
 40
0.0
 40
0.0239460598
 40
0.0598298477
 40
0.1091490568
 40
0.1709633571
 40
0.2432487722
 40
0.3235324505
 40
0.4974260949
 40
0.6718966358
 40
0.8258285331
 40
0.8886222358
 40
0.9388928682
 40
0.9755660143
 40
1.0
 40
1.0
 40
1.0
 40
1.0
 10
324.8735769265
 20
426.6892311409
 30
0.0
 10
324.8735769265
 20
426.644817012
 30
0.0
 10
324.8226169418
 20
426.537737263
 30
0.0
 10
324.6756108661
 20
426.3982957329
 30
0.0
 10
324.4465493269
 20
426.2474244629
 30
0.0
 10
324.1388153108
 20
426.1008815181
 30
0.0
 10
323.7625006642
 20
425.9699632102
 30
0.0
 10
323.1724042288
 20
425.830498696
 30
0.0
 10
322.3741848288
 20
425.76556638
 30
0.0
 10
321.4431380857
 20
425.8694127251
 30
0.0
 10
320.7445078057
 20
426.0857456218
 30
0.0
 10
320.301922681
 20
426.3097224264
 30
0.0
 10
320.0720138899
 20
426.4684164908
 30
0.0
 10
319.9247836402
 20
426.6134049167
 30
0.0
 10
319.8735769271
 20
426.722835828
 30
0.0
 10
319.8735769265
 20
426.768154941
 30
0.0
  0
SPLINE
  5
3AF
100
AcDbEntity
  8
0
100
AcDbSpline
 62
7
  6
CONTINUOUS
 70
0
 71
3
 72
10
 73
6
 74
0
 42
0.0000001
 43
0.0000001
 44
0.0000000001
 40
0.0
 40
0.0
 40
0.0
 40
0.0
 40
0.2621963848
 40
0.5902018738
 40
1.0
 40
1.0
 40
1.0
 40
1.0
 10
339.0456342135
 20
373.3685765101
 30
0.0
 10
338.8889552118
 20
373.2246666331
 30
0.0
 10
338.5027971095
 20
372.9407908889
 30
0.0
 10
337.7551199693
 20
372.6157831261
 30
0.0
 10
337.15688811
 20
372.523506508
 30
0.0
 10
336.8259346465
 20
372.5186676883
 30
0.0
  0
SPLINE
  5
3B0
100
AcDbEntity
  8
0
100
AcDbSpline
 62
7
  6
CONTINUOUS
 70
0
 71
3
 72
20
 73
16
 74
0
 42
0.0000001
 43
0.0000001
 44
0.0000000001
 40
0.0
 40
0.0
 40
0.0
 40
0.0
 40
0.0244344987
 40
0.0611104716
 40
0.1113845305
 40
0.1741825462
 40
0.3281199663
 40
0.5025920176
 40
0.6764857313
 40
0.7567675778
 40
0.8290490782
 40
0.8908586284
 40
0.9401740543
 40
0.9760546566
 40
1.0
 40
1.0
 40
1.0
 40
1.0
 10
319.8735769265
 20
359.7689980783
 30
0.0
 10
319.8735769269
 20
359.8143181412
 30
0.0
 10
319.9247878846
 20
359.9237545339
 30
0.0
 10
320.07202906
 20
360.0687497152
 30
0.0
 10
320.3019572624
 20
360.2274503419
 30
0.0
 10
320.7445666915
 20
360.4514335662
 30
0.0
 10
321.4432230627
 20
360.6677559698
 30
0.0
 10
322.3742837218
 20
360.7715866886
 30
0.0
 10
323.1725028143
 20
360.7066449982
 30
0.0
 10
323.7625842869
 20
360.5671628083
 30
0.0
 10
324.1388778259
 20
360.4362440997
 30
0.0
 10
324.4465891453
 20
360.2897069515
 30
0.0
 10
324.6756287438
 20
360.1388422817
 30
0.0
 10
324.8226223458
 20
359.9994081427
 30
0.0
 10
324.8735769265
 20
359.8923346776
 30
0.0
 10
324.8735769265
 20
359.8479218792
 30
0.0
  0
LINE
  5
3B1
100
AcDbEntity
  8
0
100
AcDbLine
 62
7
  6
CONTINUOUS
 10
336.8259346465
 20
372.5186676883
 11
334.7735769265
 21
372.488632958
  0
SPLINE
  5
3B2
100
AcDbEntity
  8
0
100
AcDbSpline
 62
7
  6
CONTINUOUS
 70
0
 71
3
 72
10
 73
6
 74
0
 42
0.0000001
 43
0.0000001
 44
0.0000000001
 40
0.0
 40
0.0
 40
0.0
 40
0.0
 40
0.4097764653
 40
0.7377606429
 40
1.0
 40
1.0
 40
1.0
 40
1.0
 10
336.825934642
 20
414.0184853323
 30
0.0
 10
337.1568764083
 20
414.0136463594
 30
0.0
 10
337.755092195
 20
413.9214701885
 30
0.0
 10
338.5028119203
 20
413.5964928528
 30
0.0
 10
338.8889608023
 20
413.3125528382
 30
0.0
 10
339.0456342135
 20
413.1685765101
 30
0.0
  0
LINE
  5
3B3
100
AcDbEntity
  8
0
100
AcDbLine
 62
7
  6
CONTINUOUS
 10
334.7735769265
 20
414.0485200622
 11
336.825934642
 21
414.0184853323
  0
SPLINE
  5
3B4
100
AcDbEntity
  8
0
100
AcDbSpline
 62
7
  6
CONTINUOUS
 70
0
 71
3
 72
14
 73
10
 74
0
 42
0.0000001
 43
0.0000001
 44
0.0000000001
 40
0.0
 40
0.0
 40
0.0
 40
0.0
 40
0.0529967926
 40
0.1254566076
 40
0.2218827558
 40
0.3421103165
 40
0.4840740053
 40
0.6444418174
 40
1.0
 40
1.0
 40
1.0
 40
1.0
 10
334.7735769265
 20
373.033815323
 30
0.0
 10
334.7735769265
 20
373.0914818426
 30
0.0
 10
334.7176774107
 20
373.2256423828
 30
0.0
 10
334.5412914045
 20
373.3934792297
 30
0.0
 10
334.2738417491
 20
373.5619991784
 30
0.0
 10
333.9162527156
 20
373.7205886762
 30
0.0
 10
333.4773668354
 20
373.8603971117
 30
0.0
 10
332.7767077277
 20
374.0108067967
 30
0.0
 10
332.212796679
 20
374.0520145879
 30
0.0
 10
331.8259341458
 20
374.0476088891
 30
0.0
  0
SPLINE
  5
3B5
100
AcDbEntity
  8
0
100
AcDbSpline
 62
7
  6
CONTINUOUS
 70
0
 71
3
 72
8
 73
4
 74
0
 42
0.0000001
 43
0.0000001
 44
0.0000000001
 40
0.0
 40
0.0
 40
0.0
 40
0.0
 40
1.0
 40
1.0
 40
1.0
 40
1.0
 10
331.8259683723
 20
412.4895802067
 30
0.0
 10
326.2446720035
 20
412.5529369277
 30
0.0
 10
320.6633703122
 20
412.6158244607
 30
0.0
 10
315.0820676017
 20
412.6786200362
 30
0.0
  0
SPLINE
  5
3B6
100
AcDbEntity
  8
0
100
AcDbSpline
 62
7
  6
CONTINUOUS
 70
0
 71
3
 72
8
 73
4
 74
0
 42
0.0000001
 43
0.0000001
 44
0.0000000001
 40
0.0
 40
0.0
 40
0.0
 40
0.0
 40
1.0
 40
1.0
 40
1.0
 40
1.0
 10
315.0820675556
 20
373.8585381561
 30
0.0
 10
320.6633630629
 20
373.9213386274
 30
0.0
 10
326.2446573145
 20
373.9842519621
 30
0.0
 10
331.8259465378
 20
374.0476084546
 30
0.0
  0
SPLINE
  5
3B7
100
AcDbEntity
  8
0
100
AcDbSpline
 62
7
  6
CONTINUOUS
 70
0
 71
3
 72
14
 73
10
 74
0
 42
0.0000001
 43
0.0000001
 44
0.0000000001
 40
0.0
 40
0.0
 40
0.0
 40
0.0
 40
0.0532681682
 40
0.125714613
 40
0.222050237
 40
0.3422377495
 40
0.4841628388
 40
0.6444972113
 40
1.0
 40
1.0
 40
1.0
 40
1.0
 10
334.7735769265
 20
413.5033376971
 30
0.0
 10
334.7735769265
 20
413.445366166
 30
0.0
 10
334.7181279005
 20
413.3107132572
 30
0.0
 10
334.5414143661
 20
413.1426545914
 30
0.0
 10
334.2737813208
 20
412.9747246414
 30
0.0
 10
333.9162854199
 20
412.8162248804
 30
0.0
 10
333.4773572133
 20
412.676687863
 30
0.0
 10
332.7767138673
 20
412.526340373
 30
0.0
 10
332.212801301
 20
412.4851732254
 30
0.0
 10
331.8259341458
 20
412.4895789973
 30
0.0
  0
LINE
  5
3B8
100
AcDbEntity
  8
0
100
AcDbLine
 62
7
  6
CONTINUOUS
 10
438.5098364564
 20
407.2508168499
 11
435.7864302534
 21
407.5477292669
  0
LINE
  5
3B9
100
AcDbEntity
  8
0
100
AcDbLine
 62
7
  6
CONTINUOUS
 10
438.5098344225
 20
407.4343776366
 11
439.1252262445
 21
407.3680497329
  0
LINE
  5
3BA
100
AcDbEntity
  8
0
100
AcDbLine
 62
7
  6
CONTINUOUS
 10
456.509834647
 20
406.3141710524
 11
453.8355331604
 21
406.588793888
  0
LINE
  5
3BB
100
AcDbEntity
  8
0
100
AcDbLine
 62
7
  6
CONTINUOUS
 10
475.1055792708
 20
403.8958252258
 11
473.4885579485
 21
404.0702234454
  0
SPLINE
  5
3BC
100
AcDbEntity
  8
0
100
AcDbSpline
 62
7
  6
CONTINUOUS
 70
0
 71
3
 72
8
 73
4
 74
0
 42
0.0000001
 43
0.0000001
 44
0.0000000001
 40
0.0
 40
0.0
 40
0.0
 40
0.0
 40
1.0
 40
1.0
 40
1.0
 40
1.0
 10
435.7864302534
 20
407.3479066413
 30
0.0
 10
437.1198026714
 20
407.2006759668
 30
0.0
 10
438.4531373696
 20
407.0531032037
 30
0.0
 10
439.7864302534
 20
406.9051540142
 30
0.0
  0
LINE
  5
3BD
100
AcDbEntity
  8
0
100
AcDbLine
 62
7
  6
CONTINUOUS
 10
472.9779195923
 20
403.5053884042
 11
471.7864302534
 21
403.6365931073
  0
SPLINE
  5
3BE
100
AcDbEntity
  8
0
100
AcDbSpline
 62
7
  6
CONTINUOUS
 70
0
 71
3
 72
8
 73
4
 74
0
 42
0.0000001
 43
0.0000001
 44
0.0000000001
 40
0.0
 40
0.0
 40
0.0
 40
0.0
 40
1.0
 40
1.0
 40
1.0
 40
1.0
 10
475.7864302534
 20
403.1951223158
 30
0.0
 10
475.034649186
 20
403.2783701106
 30
0.0
 10
474.2828499967
 20
403.3614543739
 30
0.0
 10
473.5310351535
 20
403.4443965833
 30
0.0
  0
SPLINE
  5
3BF
100
AcDbEntity
  8
0
100
AcDbSpline
 62
7
  6
CONTINUOUS
 70
0
 71
3
 72
8
 73
4
 74
0
 42
0.0000001
 43
0.0000001
 44
0.0000000001
 40
0.0
 40
0.0
 40
0.0
 40
0.0
 40
1.0
 40
1.0
 40
1.0
 40
1.0
 10
439.7864302534
 20
406.4657195182
 30
0.0
 10
438.4531417193
 20
406.6144595789
 30
0.0
 10
437.119806812
 20
406.7627844354
 30
0.0
 10
435.7864302534
 20
406.9107333248
 30
0.0
  0
LINE
  5
3C0
100
AcDbEntity
  8
0
100
AcDbLine
 62
7
  6
CONTINUOUS
 10
457.3328634198
 20
405.7438988631
 11
454.2096512923
 21
406.0668317416
  0
LINE
  5
3C1
100
AcDbEntity
  8
0
100
AcDbLine
 62
7
  6
CONTINUOUS
 10
453.8215894935
 20
406.5149469426
 11
457.3746399406
 21
406.1479318976
  0
LINE
  5
3C2
100
AcDbEntity
  8
0
100
AcDbLine
 62
7
  6
CONTINUOUS
 10
471.7864302534
 20
404.0698715758
 11
472.9779195923
 21
403.9394242635
  0
SPLINE
  5
3C3
100
AcDbEntity
  8
0
100
AcDbSpline
 62
7
  6
CONTINUOUS
 70
0
 71
3
 72
8
 73
4
 74
0
 42
0.0000001
 43
0.0000001
 44
0.0000000001
 40
0.0
 40
0.0
 40
0.0
 40
0.0
 40
1.0
 40
1.0
 40
1.0
 40
1.0
 10
473.4885579485
 20
403.8834517798
 30
0.0
 10
474.2545306813
 20
403.7994609438
 30
0.0
 10
475.0204885145
 20
403.7153340996
 30
0.0
 10
475.7864302534
 20
403.6310610881
 30
0.0
  0
LINE
  5
3C4
100
AcDbEntity
  8
0
100
AcDbLine
 62
7
  6
CONTINUOUS
 10
492.1694089312
 20
400.8529864941
 11
491.4034515757
 21
400.9466735781
  0
LINE
  5
3C5
100
AcDbEntity
  8
0
100
AcDbLine
 62
7
  6
CONTINUOUS
 10
475.7864302534
 20
404.4162207525
 11
473.5077010093
 21
404.6492419006
  0
SPLINE
  5
3C6
100
AcDbEntity
  8
0
100
AcDbSpline
 62
7
  6
CONTINUOUS
 70
0
 71
3
 72
9
 73
5
 74
0
 42
0.0000001
 43
0.0000001
 44
0.0000000001
 40
0.0
 40
0.0
 40
0.0
 40
0.0
 40
0.5538559131
 40
1.0
 40
1.0
 40
1.0
 40
1.0
 10
78.973268784
 20
375.8960952315
 30
0.0
 10
78.9839313895
 20
375.8473078122
 30
0.0
 10
79.012935418
 20
375.7619632472
 30
0.0
 10
79.0549985198
 20
375.6798910767
 30
0.0
 10
79.0823955171
 20
375.6504356882
 30
0.0
  0
SPLINE
  5
3C7
100
AcDbEntity
  8
0
100
AcDbSpline
 62
7
  6
CONTINUOUS
 70
0
 71
3
 72
8
 73
4
 74
0
 42
0.0000001
 43
0.0000001
 44
0.0000000001
 40
0.0
 40
0.0
 40
0.0
 40
0.0
 40
1.0
 40
1.0
 40
1.0
 40
1.0
 10
77.4273578852
 20
375.1079297765
 30
0.0
 10
77.4142242222
 20
375.0522054843
 30
0.0
 10
77.4094606725
 20
374.9912980989
 30
0.0
 10
77.4249879065
 20
374.936192792
 30
0.0
  0
SPLINE
  5
3C8
100
AcDbEntity
  8
0
100
AcDbSpline
 62
7
  6
CONTINUOUS
 70
0
 71
3
 72
12
 73
8
 74
0
 42
0.0000001
 43
0.0000001
 44
0.0000000001
 40
0.0
 40
0.0
 40
0.0
 40
0.0
 40
0.12564804
 40
0.2502555341
 40
0.4990161205
 40
0.7488394006
 40
1.0
 40
1.0
 40
1.0
 40
1.0
 10
77.4249897352
 20
374.9362334161
 30
0.0
 10
77.4566503204
 20
375.0066367504
 30
0.0
 10
77.5705017991
 20
375.1208130204
 30
0.0
 10
77.8327104577
 20
375.2774220066
 30
0.0
 10
78.1874775923
 20
375.4276097547
 30
0.0
 10
78.6288697954
 20
375.559936472
 30
0.0
 10
78.9303529807
 20
375.6241508308
 30
0.0
 10
79.0824057531
 20
375.6504253157
 30
0.0
  0
SPLINE
  5
3C9
100
AcDbEntity
  8
0
100
AcDbSpline
 62
7
  6
CONTINUOUS
 70
0
 71
3
 72
11
 73
7
 74
0
 42
0.0000001
 43
0.0000001
 44
0.0000000001
 40
0.0
 40
0.0
 40
0.0
 40
0.0
 40
0.2510452946
 40
0.5013007238
 40
0.7507863814
 40
1.0
 40
1.0
 40
1.0
 40
1.0
 10
85.6855355035
 20
363.4685324367
 30
0.0
 10
85.0462721747
 20
363.4685572277
 30
0.0
 10
83.7561712757
 20
363.714538753
 30
0.0
 10
82.1103673769
 20
364.7692066134
 30
0.0
 10
80.9417463319
 20
366.3220579106
 30
0.0
 10
80.5363257937
 20
367.5510828391
 30
0.0
 10
80.4302004612
 20
368.1767452718
 30
0.0
  0
SPLINE
  5
3CA
100
AcDbEntity
  8
0
100
AcDbSpline
 62
7
  6
CONTINUOUS
 70
0
 71
3
 72
14
 73
10
 74
0
 42
0.0000001
 43
0.0000001
 44
0.0000000001
 40
0.0
 40
0.0
 40
0.0
 40
0.0
 40
0.3348848447
 40
0.4979242575
 40
0.6474422077
 40
0.7759159868
 40
0.8786558015
 40
0.952830041
 40
1.0
 40
1.0
 40
1.0
 40
1.0
 10
80.4302007381
 20
368.1767439175
 30
0.0
 10
79.2525126076
 20
367.9681326675
 30
0.0
 10
77.4942847377
 20
367.695338666
 30
0.0
 10
75.1968298556
 20
367.4323290245
 30
0.0
 10
73.6265895411
 20
367.3015524707
 30
0.0
 10
72.268073228
 20
367.2459198148
 30
0.0
 10
71.1751490156
 20
367.2601967818
 30
0.0
 10
70.3809598841
 20
367.3432965708
 30
0.0
 10
69.9531859951
 20
367.4519929142
 30
0.0
 10
69.8051816954
 20
367.5324609438
 30
0.0
  0
SPLINE
  5
3CB
100
AcDbEntity
  8
0
100
AcDbSpline
 62
7
  6
CONTINUOUS
 70
0
 71
3
 72
11
 73
7
 74
0
 42
0.0000001
 43
0.0000001
 44
0.0000000001
 40
0.0
 40
0.0
 40
0.0
 40
0.0
 40
0.2502610124
 40
0.5006427671
 40
0.7506442097
 40
1.0
 40
1.0
 40
1.0
 40
1.0
 10
85.6855523556
 20
354.3606278988
 30
0.0
 10
83.833415167
 20
354.3801280415
 30
0.0
 10
80.1039611149
 20
355.0622736033
 30
0.0
 10
75.2046616209
 20
357.8997014432
 30
0.0
 10
71.5359946173
 20
362.2003501327
 30
0.0
 10
70.1759674391
 20
365.724598809
 30
0.0
 10
69.8051724079
 20
367.5325062272
 30
0.0
  0
SPLINE
  5
3CC
100
AcDbEntity
  8
0
100
AcDbSpline
 62
7
  6
CONTINUOUS
 70
0
 71
3
 72
10
 73
6
 74
0
 42
0.0000001
 43
0.0000001
 44
0.0000000001
 40
0.0
 40
0.0
 40
0.0
 40
0.0
 40
0.2441048093
 40
0.4933650943
 40
1.0
 40
1.0
 40
1.0
 40
1.0
 10
81.2766733422
 20
380.2494656692
 30
0.0
 10
82.1185802905
 20
380.2080771637
 30
0.0
 10
83.8139868487
 20
380.0046656083
 30
0.0
 10
87.2044722931
 20
379.3457468505
 30
0.0
 10
89.7348302831
 20
378.6994542037
 30
0.0
 10
91.4303953408
 20
378.2685112916
 30
0.0
  0
SPLINE
  5
3CD
100
AcDbEntity
  8
0
100
AcDbSpline
 62
7
  6
CONTINUOUS
 70
0
 71
3
 72
9
 73
5
 74
0
 42
0.0000001
 43
0.0000001
 44
0.0000000001
 40
0.0
 40
0.0
 40
0.0
 40
0.0
 40
0.5040924237
 40
1.0
 40
1.0
 40
1.0
 40
1.0
 10
91.4304115094
 20
378.2685870834
 30
0.0
 10
90.1883669967
 20
377.9353362408
 30
0.0
 10
87.7245870276
 20
377.2755789907
 30
0.0
 10
85.2284336195
 20
376.7310602657
 30
0.0
 10
83.9783842843
 20
376.53653328
 30
0.0
  0
SPLINE
  5
3CE
100
AcDbEntity
  8
0
100
AcDbSpline
 62
7
  6
CONTINUOUS
 70
0
 71
3
 72
9
 73
5
 74
0
 42
0.0000001
 43
0.0000001
 44
0.0000000001
 40
0.0
 40
0.0
 40
0.0
 40
0.0
 40
0.4959074985
 40
1.0
 40
1.0
 40
1.0
 40
1.0
 10
298.2687698095
 20
376.536533425
 30
0.0
 10
297.0187206734
 20
376.7310604384
 30
0.0
 10
294.5225672638
 20
377.2755791963
 30
0.0
 10
292.058787289
 20
377.9353364755
 30
0.0
 10
290.8167425802
 20
378.2685873768
 30
0.0
  0
SPLINE
  5
3CF
100
AcDbEntity
  8
0
100
AcDbSpline
 62
7
  6
CONTINUOUS
 70
0
 71
3
 72
10
 73
6
 74
0
 42
0.0000001
 43
0.0000001
 44
0.0000000001
 40
0.0
 40
0.0
 40
0.0
 40
0.0
 40
0.5066348539
 40
0.7558953016
 40
1.0
 40
1.0
 40
1.0
 40
1.0
 10
290.816758584
 20
378.2685116303
 30
0.0
 10
292.5123234846
 20
378.6994543493
 30
0.0
 10
295.0426818649
 20
379.3457461438
 30
0.0
 10
298.4331671105
 20
380.0046674496
 30
0.0
 10
300.128574084
 20
380.2080743235
 30
0.0
 10
300.9704804971
 20
380.2494657146
 30
0.0
  0
SPLINE
  5
3D0
100
AcDbEntity
  8
0
100
AcDbSpline
 62
7
  6
CONTINUOUS
 70
0
 71
3
 72
9
 73
5
 74
0
 42
0.0000001
 43
0.0000001
 44
0.0000000001
 40
0.0
 40
0.0
 40
0.0
 40
0.0
 40
0.2490671069
 40
1.0
 40
1.0
 40
1.0
 40
1.0
 10
312.4420236195
 20
419.0047449812
 30
0.0
 10
312.8236490779
 20
416.8921974038
 30
0.0
 10
314.1616273572
 20
408.3763114314
 30
0.0
 10
314.7340580051
 20
399.7409658863
 30
0.0
 10
314.734213082
 20
393.2685811604
 30
0.0
  0
SPLINE
  5
3D1
100
AcDbEntity
  8
0
100
AcDbSpline
 62
7
  6
CONTINUOUS
 70
0
 71
3
 72
9
 73
5
 74
0
 42
0.0000001
 43
0.0000001
 44
0.0000000001
 40
0.0
 40
0.0
 40
0.0
 40
0.0
 40
0.2542132601
 40
1.0
 40
1.0
 40
1.0
 40
1.0
 10
83.9780363344
 20
376.5365303528
 30
0.0
 10
83.5600067723
 20
376.481147903
 30
0.0
 10
81.9182040891
 20
376.2442749874
 30
0.0
 10
80.287237844
 20
375.9308086067
 30
0.0
 10
79.0823397359
 20
375.6504236917
 30
0.0
  0
SPLINE
  5
3D2
100
AcDbEntity
  8
0
100
AcDbSpline
 62
7
  6
CONTINUOUS
 70
0
 71
3
 72
9
 73
5
 74
0
 42
0.0000001
 43
0.0000001
 44
0.0000000001
 40
0.0
 40
0.0
 40
0.0
 40
0.0
 40
0.2455006064
 40
1.0
 40
1.0
 40
1.0
 40
1.0
 10
303.1644769983
 20
375.6504287601
 30
0.0
 10
302.7678455989
 20
375.7427777519
 30
0.0
 10
301.1474502471
 20
376.0981615048
 30
0.0
 10
299.5094330882
 20
376.3722918485
 30
0.0
 10
298.2686799153
 20
376.5365303528
 30
0.0
  0
SPLINE
  5
3D3
100
AcDbEntity
  8
0
100
AcDbSpline
 62
7
  6
CONTINUOUS
 70
0
 71
3
 72
12
 73
8
 74
0
 42
0.0000001
 43
0.0000001
 44
0.0000000001
 40
0.0
 40
0.0
 40
0.0
 40
0.0
 40
0.1170667713
 40
0.2401053521
 40
0.4911710617
 40
0.7449198647
 40
1.0
 40
1.0
 40
1.0
 40
1.0
 10
304.8221761323
 20
374.9361968232
 30
0.0
 10
304.796488919
 20
375.0033837153
 30
0.0
 10
304.6841103938
 20
375.1121816449
 30
0.0
 10
304.4305524
 20
375.2710513421
 30
0.0
 10
304.0721474275
 20
375.422995243
 30
0.0
 10
303.6255340967
 20
375.5584821094
 30
0.0
 10
303.3191772014
 20
375.6236504659
 30
0.0
 10
303.164751816
 20
375.6504298189
 30
0.0
  0
SPLINE
  5
3D4
100
AcDbEntity
  8
0
100
AcDbSpline
 62
7
  6
CONTINUOUS
 70
0
 71
3
 72
11
 73
7
 74
0
 42
0.0000001
 43
0.0000001
 44
0.0000000001
 40
0.0
 40
0.0
 40
0.0
 40
0.0
 40
0.2504735337
 40
0.5006545156
 40
0.7504667868
 40
1.0
 40
1.0
 40
1.0
 40
1.0
 10
312.4419860549
 20
367.5325268621
 30
0.0
 10
312.0700086007
 20
365.7164193736
 30
0.0
 10
310.7028391216
 20
362.1834146306
 30
0.0
 10
307.0235556066
 20
357.8846448118
 30
0.0
 10
302.1280251653
 20
355.0585385104
 30
0.0
 10
298.4084025071
 20
354.3799260452
 30
0.0
 10
296.5616522824
 20
354.3606281789
 30
0.0
  0
SPLINE
  5
3D5
100
AcDbEntity
  8
0
100
AcDbSpline
 62
7
  6
CONTINUOUS
 70
0
 71
3
 72
11
 73
7
 74
0
 42
0.0000001
 43
0.0000001
 44
0.0000000001
 40
0.0
 40
0.0
 40
0.0
 40
0.0
 40
0.2502610109
 40
0.5006427649
 40
0.7506442077
 40
1.0
 40
1.0
 40
1.0
 40
1.0
 10
296.561601499
 20
432.176534422
 30
0.0
 10
298.4137367839
 20
432.157034299
 30
0.0
 10
302.143186953
 20
431.4748901252
 30
0.0
 10
307.0424827499
 20
428.6374679196
 30
0.0
 10
310.7111496639
 20
424.3368269981
 30
0.0
 10
312.0711796478
 20
420.8125837046
 30
0.0
 10
312.4419768218
 20
419.0046786356
 30
0.0
  0
SPLINE
  5
3D6
100
AcDbEntity
  8
0
100
AcDbSpline
 62
7
  6
CONTINUOUS
 70
0
 71
3
 72
9
 73
5
 74
0
 42
0.0000001
 43
0.0000001
 44
0.0000000001
 40
0.0
 40
0.0
 40
0.0
 40
0.0
 40
0.5538665908
 40
1.0
 40
1.0
 40
1.0
 40
1.0
 10
303.2738852202
 20
375.8960952199
 30
0.0
 10
303.2632218277
 20
375.8473042032
 30
0.0
 10
303.2342153963
 20
375.7619556872
 30
0.0
 10
303.1921489563
 20
375.6798782992
 30
0.0
 10
303.1647482525
 20
375.6504246815
 30
0.0
  0
SPLINE
  5
3D7
100
AcDbEntity
  8
0
100
AcDbSpline
 62
7
  6
CONTINUOUS
 70
0
 71
3
 72
11
 73
7
 74
0
 42
0.0000001
 43
0.0000001
 44
0.0000000001
 40
0.0
 40
0.0
 40
0.0
 40
0.0
 40
0.2504735416
 40
0.5006545214
 40
0.7504667904
 40
1.0
 40
1.0
 40
1.0
 40
1.0
 10
69.805154848
 20
419.0045725432
 30
0.0
 10
70.1771265333
 20
420.8206866699
 30
0.0
 10
71.5442879777
 20
424.3537066183
 30
0.0
 10
75.2235720259
 20
428.6524980852
 30
0.0
 10
80.1191127199
 20
431.4786199265
 30
0.0
 10
83.8387461025
 20
432.1572362456
 30
0.0
 10
85.6855015681
 20
432.1765341419
 30
0.0
  0
SPLINE
  5
3D8
100
AcDbEntity
  8
0
100
AcDbSpline
 62
7
  6
CONTINUOUS
 70
0
 71
3
 72
9
 73
5
 74
0
 42
0.0000001
 43
0.0000001
 44
0.0000000001
 40
0.0
 40
0.0
 40
0.0
 40
0.0
 40
0.2508751734
 40
1.0
 40
1.0
 40
1.0
 40
1.0
 10
67.5127511995
 20
393.2685811604
 30
0.0
 10
67.5127512003
 20
395.4308861373
 30
0.0
 10
67.703772119
 20
404.0487511
 30
0.0
 10
68.6573082669
 20
412.6507014673
 30
0.0
 10
69.8051106112
 20
419.0046034752
 30
0.0
  0
SPLINE
  5
3D9
100
AcDbEntity
  8
0
100
AcDbSpline
 62
7
  6
CONTINUOUS
 70
0
 71
3
 72
9
 73
5
 74
0
 42
0.0000001
 43
0.0000001
 44
0.0000000001
 40
0.0
 40
0.0
 40
0.0
 40
0.0
 40
0.2490671078
 40
1.0
 40
1.0
 40
1.0
 40
1.0
 10
69.80512586
 20
367.5324416793
 30
0.0
 10
69.4235009689
 20
369.6449872847
 30
0.0
 10
68.0855255237
 20
378.16086538
 30
0.0
 10
67.5130958488
 20
386.7962026208
 30
0.0
 10
67.512940771
 20
393.2685811604
 30
0.0
  0
SPLINE
  5
3DA
100
AcDbEntity
  8
0
100
AcDbSpline
 62
7
  6
CONTINUOUS
 70
0
 71
3
 72
9
 73
5
 74
0
 42
0.0000001
 43
0.0000001
 44
0.0000000001
 40
0.0
 40
0.0
 40
0.0
 40
0.0
 40
0.2547901515
 40
1.0
 40
1.0
 40
1.0
 40
1.0
 10
303.9030650425
 20
380.9173792934
 30
0.0
 10
303.8850775995
 20
380.8742870799
 30
0.0
 10
303.794759985
 20
380.7129536791
 30
0.0
 10
303.6480610671
 20
380.5923913461
 30
0.0
 10
303.5342503375
 20
380.5168931592
 30
0.0
  0
SPLINE
  5
3DB
100
AcDbEntity
  8
0
100
AcDbSpline
 62
7
  6
CONTINUOUS
 70
0
 71
3
 72
8
 73
4
 74
0
 42
0.0000001
 43
0.0000001
 44
0.0000000001
 40
0.0
 40
0.0
 40
0.0
 40
0.0
 40
1.0
 40
1.0
 40
1.0
 40
1.0
 10
78.3440866065
 20
380.9173606244
 30
0.0
 10
78.3508036386
 20
380.9821026962
 30
0.0
 10
78.3744237008
 20
381.0483672384
 30
0.0
 10
78.4149101852
 20
381.0993329029
 30
0.0
  0
SPLINE
  5
3DC
100
AcDbEntity
  8
0
100
AcDbSpline
 62
7
  6
CONTINUOUS
 70
0
 71
3
 72
14
 73
10
 74
0
 42
0.0000001
 43
0.0000001
 44
0.0000000001
 40
0.0
 40
0.0
 40
0.0
 40
0.0
 40
0.3343379245
 40
0.4972828388
 40
0.6468330515
 40
0.7754442082
 40
0.8783697457
 40
0.9527166546
 40
1.0
 40
1.0
 40
1.0
 40
1.0
 10
80.4302014943
 20
418.3604182935
 30
0.0
 10
79.2544302076
 20
418.5686900192
 30
0.0
 10
77.4984693917
 20
418.8411881076
 30
0.0
 10
75.2031920039
 20
419.1041920208
 30
0.0
 10
73.6326944098
 20
419.2352211792
 30
0.0
 10
72.2729177606
 20
419.2911678843
 30
0.0
 10
71.1782023908
 20
419.2771632734
 30
0.0
 10
70.3823327551
 20
419.1941198369
 30
0.0
 10
69.9534770885
 20
419.0853438348
 30
0.0
 10
69.8051228361
 20
419.0046697204
 30
0.0
  0
SPLINE
  5
3DD
100
AcDbEntity
  8
0
100
AcDbSpline
 62
7
  6
CONTINUOUS
 70
0
 71
3
 72
8
 73
4
 74
0
 42
0.0000001
 43
0.0000001
 44
0.0000000001
 40
0.0
 40
0.0
 40
0.0
 40
0.0
 40
1.0
 40
1.0
 40
1.0
 40
1.0
 10
77.4273510124
 20
411.4291514098
 30
0.0
 10
77.4143787023
 20
411.4849450611
 30
0.0
 10
77.4105234851
 20
411.5455557127
 30
0.0
 10
77.4249897635
 20
411.6009807896
 30
0.0
  0
SPLINE
  5
3DE
100
AcDbEntity
  8
0
100
AcDbSpline
 62
7
  6
CONTINUOUS
 70
0
 71
3
 72
9
 73
5
 74
0
 42
0.0000001
 43
0.0000001
 44
0.0000000001
 40
0.0
 40
0.0
 40
0.0
 40
0.0
 40
0.4982843093
 40
1.0
 40
1.0
 40
1.0
 40
1.0
 10
303.5342503375
 20
380.5168931592
 30
0.0
 10
303.1716366922
 20
380.2944183011
 30
0.0
 10
302.3350693332
 20
380.0342475219
 30
0.0
 10
301.4849493135
 20
379.9604930843
 30
0.0
 10
301.0569299961
 20
379.9436284825
 30
0.0
  0
SPLINE
  5
3DF
100
AcDbEntity
  8
0
100
AcDbSpline
 62
7
  6
CONTINUOUS
 70
0
 71
3
 72
11
 73
7
 74
0
 42
0.0000001
 43
0.0000001
 44
0.0000000001
 40
0.0
 40
0.0
 40
0.0
 40
0.0
 40
0.2453559598
 40
0.4947852753
 40
0.7468162621
 40
1.0
 40
1.0
 40
1.0
 40
1.0
 10
301.0569299961
 20
379.9436284825
 30
0.0
 10
300.2086769255
 20
379.898025381
 30
0.0
 10
298.5010241185
 20
379.739130965
 30
0.0
 10
295.9480152498
 20
379.3229698451
 30
0.0
 10
293.3846556262
 20
378.8168522624
 30
0.0
 10
291.6729041348
 20
378.4566669863
 30
0.0
 10
290.8167409123
 20
378.2685811604
 30
0.0
  0
SPLINE
  5
3E0
100
AcDbEntity
  8
0
100
AcDbSpline
 62
7
  6
CONTINUOUS
 70
0
 71
3
 72
8
 73
4
 74
0
 42
0.0000001
 43
0.0000001
 44
0.0000000001
 40
0.0
 40
0.0
 40
0.0
 40
0.0
 40
1.0
 40
1.0
 40
1.0
 40
1.0
 10
304.8198029933
 20
375.1080109614
 30
0.0
 10
304.8327753046
 20
375.0522172876
 30
0.0
 10
304.8366306008
 20
374.9916066146
 30
0.0
 10
304.8221643165
 20
374.9361815164
 30
0.0
  0
SPLINE
  5
3E1
100
AcDbEntity
  8
0
100
AcDbSpline
 62
7
  6
CONTINUOUS
 70
0
 71
3
 72
9
 73
5
 74
0
 42
0.0000001
 43
0.0000001
 44
0.0000000001
 40
0.0
 40
0.0
 40
0.0
 40
0.0
 40
0.5011882396
 40
1.0
 40
1.0
 40
1.0
 40
1.0
 10
303.903065496
 20
380.9173794796
 30
0.0
 10
304.004200194
 20
379.9395856904
 30
0.0
 10
304.2438273517
 20
377.9924485654
 30
0.0
 10
304.5954881214
 20
376.0602974788
 30
0.0
 10
304.8198029933
 20
375.1080109614
 30
0.0
  0
SPLINE
  5
3E2
100
AcDbEntity
  8
0
100
AcDbSpline
 62
7
  6
CONTINUOUS
 70
0
 71
3
 72
8
 73
4
 74
0
 42
0.0000001
 43
0.0000001
 44
0.0000000001
 40
0.0
 40
0.0
 40
0.0
 40
0.0
 40
1.0
 40
1.0
 40
1.0
 40
1.0
 10
303.9030658678
 20
405.6197876623
 30
0.0
 10
303.8963487129
 20
405.5550448398
 30
0.0
 10
303.8727287371
 20
405.4887791068
 30
0.0
 10
303.8322410657
 20
405.4378134155
 30
0.0
  0
SPLINE
  5
3E3
100
AcDbEntity
  8
0
100
AcDbSpline
 62
7
  6
CONTINUOUS
 70
0
 71
3
 72
9
 73
5
 74
0
 42
0.0000001
 43
0.0000001
 44
0.0000000001
 40
0.0
 40
0.0
 40
0.0
 40
0.0
 40
0.4988109853
 40
1.0
 40
1.0
 40
1.0
 40
1.0
 10
304.8197965509
 20
411.4292327719
 30
0.0
 10
304.5954781501
 20
410.4769360119
 30
0.0
 10
304.2438445032
 20
408.5447546209
 30
0.0
 10
304.0042020538
 20
406.5975952494
 30
0.0
 10
303.9030658678
 20
405.6197876623
 30
0.0
  0
SPLINE
  5
3E4
100
AcDbEntity
  8
0
100
AcDbSpline
 62
7
  6
CONTINUOUS
 70
0
 71
3
 72
14
 73
10
 74
0
 42
0.0000001
 43
0.0000001
 44
0.0000000001
 40
0.0
 40
0.0
 40
0.0
 40
0.0
 40
0.3343379265
 40
0.4972828415
 40
0.6468330547
 40
0.7754442112
 40
0.878369748
 40
0.9527166559
 40
1.0
 40
1.0
 40
1.0
 40
1.0
 10
301.8169523607
 20
368.1767440269
 30
0.0
 10
302.9927236569
 20
367.9684722996
 30
0.0
 10
304.7486844864
 20
367.6959742094
 30
0.0
 10
307.0439618903
 20
367.4329702958
 30
0.0
 10
308.6144594916
 20
367.3019411384
 30
0.0
 10
309.9742361422
 20
367.2459944356
 30
0.0
 10
311.0689515079
 20
367.2599990496
 30
0.0
 10
311.8648211337
 20
367.3430424898
 30
0.0
 10
312.2936767926
 20
367.4518184954
 30
0.0
 10
312.4420310388
 20
367.5324926123
 30
0.0
  0
SPLINE
  5
3E5
100
AcDbEntity
  8
0
100
AcDbSpline
 62
7
  6
CONTINUOUS
 70
0
 71
3
 72
11
 73
7
 74
0
 42
0.0000001
 43
0.0000001
 44
0.0000000001
 40
0.0
 40
0.0
 40
0.0
 40
0.0
 40
0.2446977705
 40
0.4911972495
 40
0.7427337917
 40
1.0
 40
1.0
 40
1.0
 40
1.0
 10
296.5616182886
 20
363.4686076576
 30
0.0
 10
297.1847300691
 20
363.4686181352
 30
0.0
 10
298.4481916242
 20
363.7030195762
 30
0.0
 10
300.0882691759
 20
364.7254899708
 30
0.0
 10
301.2870950509
 20
366.2771448446
 30
0.0
 10
301.7073233843
 20
367.5308663927
 30
0.0
 10
301.8168810699
 20
368.1767572917
 30
0.0
  0
SPLINE
  5
3E6
100
AcDbEntity
  8
0
100
AcDbSpline
 62
7
  6
CONTINUOUS
 70
0
 71
3
 72
9
 73
5
 74
0
 42
0.0000001
 43
0.0000001
 44
0.0000000001
 40
0.0
 40
0.0
 40
0.0
 40
0.0
 40
0.5031750812
 40
1.0
 40
1.0
 40
1.0
 40
1.0
 10
290.8167409123
 20
378.2685811604
 30
0.0
 10
292.0690441772
 20
377.9776559646
 30
0.0
 10
294.5625331939
 20
377.4206953262
 30
0.0
 10
297.077716329
 20
376.9578232166
 30
0.0
 10
298.3357007555
 20
376.787765739
 30
0.0
  0
SPLINE
  5
3E7
100
AcDbEntity
  8
0
100
AcDbSpline
 62
7
  6
CONTINUOUS
 70
0
 71
3
 72
9
 73
5
 74
0
 42
0.0000001
 43
0.0000001
 44
0.0000000001
 40
0.0
 40
0.0
 40
0.0
 40
0.0
 40
0.2542221634
 40
1.0
 40
1.0
 40
1.0
 40
1.0
 10
298.3346636481
 20
376.7879324343
 30
0.0
 10
298.7564309614
 20
376.7323675115
 30
0.0
 10
300.4128675195
 20
376.4944474145
 30
0.0
 10
302.0579831922
 20
376.1773463495
 30
0.0
 10
303.2738528615
 20
375.8960994145
 30
0.0
  0
SPLINE
  5
3E8
100
AcDbEntity
  8
0
100
AcDbSpline
 62
7
  6
CONTINUOUS
 70
0
 71
3
 72
10
 73
6
 74
0
 42
0.0000001
 43
0.0000001
 44
0.0000000001
 40
0.0
 40
0.0
 40
0.0
 40
0.0
 40
0.4985716201
 40
0.7479187798
 40
1.0
 40
1.0
 40
1.0
 40
1.0
 10
303.2745484552
 20
375.8959013701
 30
0.0
 10
303.5581850467
 20
375.8244701101
 30
0.0
 10
303.9811915709
 20
375.6940958493
 30
0.0
 10
304.4999887357
 20
375.4192054696
 30
0.0
 10
304.7315757789
 20
375.2266991961
 30
0.0
 10
304.8198006903
 20
375.1080115106
 30
0.0
  0
SPLINE
  5
3E9
100
AcDbEntity
  8
0
100
AcDbSpline
 62
7
  6
CONTINUOUS
 70
0
 71
3
 72
10
 73
6
 74
0
 42
0.0000001
 43
0.0000001
 44
0.0000000001
 40
0.0
 40
0.0
 40
0.0
 40
0.0
 40
0.6304310867
 40
0.8616479466
 40
1.0
 40
1.0
 40
1.0
 40
1.0
 10
301.0569299961
 20
379.9436284825
 30
0.0
 10
301.0548860475
 20
380.0118782385
 30
0.0
 10
301.0447060603
 20
380.1070881275
 30
0.0
 10
301.0083550332
 20
380.2074194451
 30
0.0
 10
300.9840933777
 20
380.2432645145
 30
0.0
 10
300.9704564351
 20
380.2494750373
 30
0.0
  0
SPLINE
  5
3EA
100
AcDbEntity
  8
0
100
AcDbSpline
 62
7
  6
CONTINUOUS
 70
0
 71
3
 72
8
 73
4
 74
0
 42
0.0000001
 43
0.0000001
 44
0.0000000001
 40
0.0
 40
0.0
 40
0.0
 40
0.0
 40
1.0
 40
1.0
 40
1.0
 40
1.0
 10
303.9030633973
 20
380.917379443
 30
0.0
 10
303.8963461138
 20
380.9821223385
 30
0.0
 10
303.8727329644
 20
381.0483923663
 30
0.0
 10
303.8322413592
 20
381.0993550421
 30
0.0
  0
SPLINE
  5
3EB
100
AcDbEntity
  8
0
100
AcDbSpline
 62
7
  6
CONTINUOUS
 70
0
 71
3
 72
8
 73
4
 74
0
 42
0.0000001
 43
0.0000001
 44
0.0000000001
 40
0.0
 40
0.0
 40
0.0
 40
0.0
 40
1.0
 40
1.0
 40
1.0
 40
1.0
 10
303.4268696165
 20
380.6674289326
 30
0.0
 10
303.4671595379
 20
380.6207835345
 30
0.0
 10
303.5034025568
 20
380.5702549934
 30
0.0
 10
303.5342503377
 20
380.5168931592
 30
0.0
  0
SPLINE
  5
3EC
100
AcDbEntity
  8
0
100
AcDbSpline
 62
7
  6
CONTINUOUS
 70
0
 71
3
 72
9
 73
5
 74
0
 42
0.0000001
 43
0.0000001
 44
0.0000000001
 40
0.0
 40
0.0
 40
0.0
 40
0.0
 40
0.2743013433
 40
1.0
 40
1.0
 40
1.0
 40
1.0
 10
303.4268615625
 20
380.6674419758
 30
0.0
 10
303.4766087235
 20
380.6914316076
 30
0.0
 10
303.6469957223
 20
380.7789758629
 30
0.0
 10
303.8521068811
 20
380.9545955081
 30
0.0
 10
303.8322194653
 20
381.0993519897
 30
0.0
  0
SPLINE
  5
3ED
100
AcDbEntity
  8
0
100
AcDbSpline
 62
7
  6
CONTINUOUS
 70
0
 71
3
 72
10
 73
6
 74
0
 42
0.0000001
 43
0.0000001
 44
0.0000000001
 40
0.0
 40
0.0
 40
0.0
 40
0.0
 40
0.2449096883
 40
0.494520201
 40
1.0
 40
1.0
 40
1.0
 40
1.0
 10
78.820083945
 20
380.66754309
 30
0.0
 10
79.0035386335
 20
380.5771379334
 30
0.0
 10
79.4018510196
 20
380.453878599
 30
0.0
 10
80.2233758562
 20
380.3047574557
 30
0.0
 10
80.8547734377
 20
380.2622862114
 30
0.0
 10
81.2766981927
 20
380.2494754577
 30
0.0
  0
SPLINE
  5
3EE
100
AcDbEntity
  8
0
100
AcDbSpline
 62
7
  6
CONTINUOUS
 70
0
 71
3
 72
10
 73
6
 74
0
 42
0.0000001
 43
0.0000001
 44
0.0000000001
 40
0.0
 40
0.0
 40
0.0
 40
0.0
 40
0.5054785687
 40
0.7550896775
 40
1.0
 40
1.0
 40
1.0
 40
1.0
 10
300.9704557083
 20
380.2494754924
 30
0.0
 10
301.3923411472
 20
380.2622849643
 30
0.0
 10
302.0236794758
 20
380.3047517941
 30
0.0
 10
302.8451351479
 20
380.4538401297
 30
0.0
 10
303.2434125102
 20
380.5770719424
 30
0.0
 10
303.4268655356
 20
380.6674396753
 30
0.0
  0
SPLINE
  5
3EF
100
AcDbEntity
  8
0
100
AcDbSpline
 62
7
  6
CONTINUOUS
 70
0
 71
3
 72
10
 73
6
 74
0
 42
0.0000001
 43
0.0000001
 44
0.0000000001
 40
0.0
 40
0.0
 40
0.0
 40
0.0
 40
0.2298277477
 40
0.6041319902
 40
1.0
 40
1.0
 40
1.0
 40
1.0
 10
78.414931735
 20
381.0993299305
 30
0.0
 10
78.4084278272
 20
381.052010361
 30
0.0
 10
78.4435260026
 20
380.9210260424
 30
0.0
 10
78.6069284124
 20
380.78125552
 30
0.0
 10
78.7459923426
 20
380.7033052769
 30
0.0
 10
78.8200954319
 20
380.6675640609
 30
0.0
  0
SPLINE
  5
3F0
100
AcDbEntity
  8
0
100
AcDbSpline
 62
7
  6
CONTINUOUS
 70
0
 71
3
 72
11
 73
7
 74
0
 42
0.0000001
 43
0.0000001
 44
0.0000000001
 40
0.0
 40
0.0
 40
0.0
 40
0.0
 40
0.2531843579
 40
0.5052151775
 40
0.754645309
 40
1.0
 40
1.0
 40
1.0
 40
1.0
 10
91.4304130986
 20
378.2685811604
 30
0.0
 10
90.5742344977
 20
378.4566093275
 30
0.0
 10
88.8625083361
 20
378.816921795
 30
0.0
 10
86.2991039529
 20
379.3228652944
 30
0.0
 10
83.746143005
 20
379.7391932693
 30
0.0
 10
82.0384938733
 20
379.8984130344
 30
0.0
 10
81.1902239606
 20
379.9436284794
 30
0.0
  0
SPLINE
  5
3F1
100
AcDbEntity
  8
0
100
AcDbSpline
 62
7
  6
CONTINUOUS
 70
0
 71
3
 72
9
 73
5
 74
0
 42
0.0000001
 43
0.0000001
 44
0.0000000001
 40
0.0
 40
0.0
 40
0.0
 40
0.0
 40
0.5017146165
 40
1.0
 40
1.0
 40
1.0
 40
1.0
 10
81.1902239606
 20
379.9436284794
 30
0.0
 10
80.7621686079
 20
379.9604037224
 30
0.0
 10
79.9118079901
 20
380.0339451741
 30
0.0
 10
79.0756964077
 20
380.2950238644
 30
0.0
 10
78.7127462701
 20
380.5170147084
 30
0.0
  0
SPLINE
  5
3F2
100
AcDbEntity
  8
0
100
AcDbSpline
 62
7
  6
CONTINUOUS
 70
0
 71
3
 72
9
 73
5
 74
0
 42
0.0000001
 43
0.0000001
 44
0.0000000001
 40
0.0
 40
0.0
 40
0.0
 40
0.0
 40
0.2876674584
 40
1.0
 40
1.0
 40
1.0
 40
1.0
 10
298.3346795904
 20
376.7879304006
 30
0.0
 10
298.3314114344
 20
376.7631793519
 30
0.0
 10
298.3164214756
 20
376.6779957651
 30
0.0
 10
298.2976775041
 20
376.5911602931
 30
0.0
 10
298.2687614965
 20
376.5365182564
 30
0.0
  0
SPLINE
  5
3F3
100
AcDbEntity
  8
0
100
AcDbSpline
 62
7
  6
CONTINUOUS
 70
0
 71
3
 72
10
 73
6
 74
0
 42
0.0000001
 43
0.0000001
 44
0.0000000001
 40
0.0
 40
0.0
 40
0.0
 40
0.0
 40
0.6304309881
 40
0.8616478969
 40
1.0
 40
1.0
 40
1.0
 40
1.0
 10
81.1902239605
 20
379.9436284794
 30
0.0
 10
81.1922679086
 20
380.0118782253
 30
0.0
 10
81.2024478936
 20
380.1070881101
 30
0.0
 10
81.2387989166
 20
380.2074194279
 30
0.0
 10
81.2630605737
 20
380.2432645122
 30
0.0
 10
81.2766975213
 20
380.2494750373
 30
0.0
  0
LINE
  5
3F4
100
AcDbEntity
  8
0
100
AcDbLine
 62
7
  6
CONTINUOUS
 10
78.8205634392
 20
405.4412290754
 11
78.8203221326
 21
405.869747812
  0
SPLINE
  5
3F5
100
AcDbEntity
  8
0
100
AcDbSpline
 62
7
  6
CONTINUOUS
 70
0
 71
3
 72
9
 73
5
 74
0
 42
0.0000001
 43
0.0000001
 44
0.0000000001
 40
0.0
 40
0.0
 40
0.0
 40
0.0
 40
0.2743003041
 40
1.0
 40
1.0
 40
1.0
 40
1.0
 10
78.820330213
 20
405.869739036
 30
0.0
 10
78.7705794168
 20
405.8457490887
 30
0.0
 10
78.6001803486
 20
405.758202473
 30
0.0
 10
78.3950457019
 20
405.582576956
 30
0.0
 10
78.4149345513
 20
405.4378107913
 30
0.0
  0
SPLINE
  5
3F6
100
AcDbEntity
  8
0
100
AcDbSpline
 62
7
  6
CONTINUOUS
 70
0
 71
3
 72
8
 73
4
 74
0
 42
0.0000001
 43
0.0000001
 44
0.0000000001
 40
0.0
 40
0.0
 40
0.0
 40
0.0
 40
1.0
 40
1.0
 40
1.0
 40
1.0
 10
78.3440904836
 20
405.6197833042
 30
0.0
 10
78.3508079345
 20
405.5550404279
 30
0.0
 10
78.3744173476
 20
405.4887675336
 30
0.0
 10
78.4149125583
 20
405.4378077251
 30
0.0
  0
SPLINE
  5
3F7
100
AcDbEntity
  8
0
100
AcDbSpline
 62
7
  6
CONTINUOUS
 70
0
 71
3
 72
8
 73
4
 74
0
 42
0.0000001
 43
0.0000001
 44
0.0000000001
 40
0.0
 40
0.0
 40
0.0
 40
0.0
 40
1.0
 40
1.0
 40
1.0
 40
1.0
 10
78.8203221326
 20
405.8697521224
 30
0.0
 10
78.7800318789
 20
405.9163996623
 30
0.0
 10
78.7437891184
 20
405.9669306775
 30
0.0
 10
78.7129414721
 20
406.0202947126
 30
0.0
  0
SPLINE
  5
3F8
100
AcDbEntity
  8
0
100
AcDbSpline
 62
7
  6
CONTINUOUS
 70
0
 71
3
 72
10
 73
6
 74
0
 42
0.0000001
 43
0.0000001
 44
0.0000000001
 40
0.0
 40
0.0
 40
0.0
 40
0.0
 40
0.6304310867
 40
0.8616479469
 40
1.0
 40
1.0
 40
1.0
 40
1.0
 10
81.1902239605
 20
406.5935338414
 30
0.0
 10
81.192267909
 20
406.5252840847
 30
0.0
 10
81.2024478961
 20
406.4300741948
 30
0.0
 10
81.2387989231
 20
406.3297428762
 30
0.0
 10
81.2630605786
 20
406.2938978064
 30
0.0
 10
81.2766975213
 20
406.2876872836
 30
0.0
  0
SPLINE
  5
3F9
100
AcDbEntity
  8
0
100
AcDbSpline
 62
7
  6
CONTINUOUS
 70
0
 71
3
 72
10
 73
6
 74
0
 42
0.0000001
 43
0.0000001
 44
0.0000000001
 40
0.0
 40
0.0
 40
0.0
 40
0.0
 40
0.498571618
 40
0.7479187781
 40
1.0
 40
1.0
 40
1.0
 40
1.0
 10
78.9726053292
 20
410.6412610113
 30
0.0
 10
78.6889687698
 20
410.7126922568
 30
0.0
 10
78.2659623043
 20
410.8430665317
 30
0.0
 10
77.7471652041
 20
411.1179568993
 30
0.0
 10
77.5155782194
 20
411.3104631859
 30
0.0
 10
77.4273533178
 20
411.4291508589
 30
0.0
  0
SPLINE
  5
3FA
100
AcDbEntity
  8
0
100
AcDbSpline
 62
7
  6
CONTINUOUS
 70
0
 71
3
 72
9
 73
5
 74
0
 42
0.0000001
 43
0.0000001
 44
0.0000000001
 40
0.0
 40
0.0
 40
0.0
 40
0.0
 40
0.498811454
 40
1.0
 40
1.0
 40
1.0
 40
1.0
 10
77.4273533178
 20
411.4291508589
 30
0.0
 10
77.6516680141
 20
410.4768651684
 30
0.0
 10
78.0033260719
 20
408.5447140685
 30
0.0
 10
78.24295412
 20
406.5975776031
 30
0.0
 10
78.344088814
 20
405.6197834561
 30
0.0
  0
SPLINE
  5
3FB
100
AcDbEntity
  8
0
100
AcDbSpline
 62
7
  6
CONTINUOUS
 70
0
 71
3
 72
9
 73
5
 74
0
 42
0.0000001
 43
0.0000001
 44
0.0000000001
 40
0.0
 40
0.0
 40
0.0
 40
0.0
 40
0.2547904161
 40
1.0
 40
1.0
 40
1.0
 40
1.0
 10
78.344088814
 20
405.6197834561
 30
0.0
 10
78.3620778513
 20
405.6628792111
 30
0.0
 10
78.4524044942
 20
405.8242251877
 30
0.0
 10
78.5991192772
 20
405.9447936127
 30
0.0
 10
78.7129414722
 20
406.0202947126
 30
0.0
  0
SPLINE
  5
3FC
100
AcDbEntity
  8
0
100
AcDbSpline
 62
7
  6
CONTINUOUS
 70
0
 71
3
 72
9
 73
5
 74
0
 42
0.0000001
 43
0.0000001
 44
0.0000000001
 40
0.0
 40
0.0
 40
0.0
 40
0.0
 40
0.49828433
 40
1.0
 40
1.0
 40
1.0
 40
1.0
 10
78.7129414722
 20
406.0202947126
 30
0.0
 10
79.0755541689
 20
406.2427570019
 30
0.0
 10
79.9121064613
 20
406.5029161945
 30
0.0
 10
80.7622121026
 20
406.576669596
 30
0.0
 10
81.1902239606
 20
406.5935338414
 30
0.0
  0
SPLINE
  5
3FD
100
AcDbEntity
  8
0
100
AcDbSpline
 62
7
  6
CONTINUOUS
 70
0
 71
3
 72
11
 73
7
 74
0
 42
0.0000001
 43
0.0000001
 44
0.0000000001
 40
0.0
 40
0.0
 40
0.0
 40
0.0
 40
0.2453559597
 40
0.4947852754
 40
0.7468162622
 40
1.0
 40
1.0
 40
1.0
 40
1.0
 10
81.1902239606
 20
406.5935338414
 30
0.0
 10
82.0384770368
 20
406.639136917
 30
0.0
 10
83.7461298522
 20
406.79803136
 30
0.0
 10
86.2991387316
 20
407.2141924875
 30
0.0
 10
88.8624983732
 20
407.7203100494
 30
0.0
 10
90.5742498728
 20
408.0804953291
 30
0.0
 10
91.4304130986
 20
408.2685811604
 30
0.0
  0
SPLINE
  5
3FE
100
AcDbEntity
  8
0
100
AcDbSpline
 62
7
  6
CONTINUOUS
 70
0
 71
3
 72
9
 73
5
 74
0
 42
0.0000001
 43
0.0000001
 44
0.0000000001
 40
0.0
 40
0.0
 40
0.0
 40
0.0
 40
0.5031750803
 40
1.0
 40
1.0
 40
1.0
 40
1.0
 10
91.4304130986
 20
408.2685811604
 30
0.0
 10
90.1781100402
 20
408.5595063044
 30
0.0
 10
87.6846214238
 20
409.1164667918
 30
0.0
 10
85.1694387295
 20
409.5793390231
 30
0.0
 10
83.9114544941
 20
409.7493963801
 30
0.0
  0
SPLINE
  5
3FF
100
AcDbEntity
  8
0
100
AcDbSpline
 62
7
  6
CONTINUOUS
 70
0
 71
3
 72
9
 73
5
 74
0
 42
0.0000001
 43
0.0000001
 44
0.0000000001
 40
0.0
 40
0.0
 40
0.0
 40
0.0
 40
0.2542221671
 40
1.0
 40
1.0
 40
1.0
 40
1.0
 10
83.9124901333
 20
409.7492299144
 30
0.0
 10
83.4907228438
 20
409.8047948336
 30
0.0
 10
81.8342864035
 20
410.0427149118
 30
0.0
 10
80.1891708486
 20
410.3598159601
 30
0.0
 10
78.9733012745
 20
410.6410628848
 30
0.0
  0
SPLINE
  5
400
100
AcDbEntity
  8
0
100
AcDbSpline
 62
7
  6
CONTINUOUS
 70
0
 71
3
 72
9
 73
5
 74
0
 42
0.0000001
 43
0.0000001
 44
0.0000000001
 40
0.0
 40
0.0
 40
0.0
 40
0.0
 40
0.7452068793
 40
1.0
 40
1.0
 40
1.0
 40
1.0
 10
78.7127462701
 20
380.5170147084
 30
0.0
 10
78.5989785336
 20
380.5924792853
 30
0.0
 10
78.4523205259
 20
380.7130099509
 30
0.0
 10
78.3621118104
 20
380.8743031951
 30
0.0
 10
78.3440870442
 20
380.9173604364
 30
0.0
  0
SPLINE
  5
401
100
AcDbEntity
  8
0
100
AcDbSpline
 62
7
  6
CONTINUOUS
 70
0
 71
3
 72
12
 73
8
 74
0
 42
0.0000001
 43
0.0000001
 44
0.0000000001
 40
0.0
 40
0.0
 40
0.0
 40
0.0
 40
0.117066771
 40
0.2401053518
 40
0.4911710614
 40
0.7449198645
 40
1.0
 40
1.0
 40
1.0
 40
1.0
 10
77.4249779459
 20
411.6009654717
 30
0.0
 10
77.4506651589
 20
411.5337785827
 30
0.0
 10
77.5630436761
 20
411.4249806556
 30
0.0
 10
77.8166016585
 20
411.2661109616
 30
0.0
 10
78.1750066158
 20
411.1141670652
 30
0.0
 10
78.621619929
 20
410.978680204
 30
0.0
 10
78.9279768124
 20
410.9135118506
 30
0.0
 10
79.0824021918
 20
410.8867324991
 30
0.0
  0
SPLINE
  5
402
100
AcDbEntity
  8
0
100
AcDbSpline
 62
7
  6
CONTINUOUS
 70
0
 71
3
 72
9
 73
5
 74
0
 42
0.0000001
 43
0.0000001
 44
0.0000000001
 40
0.0
 40
0.0
 40
0.0
 40
0.0
 40
0.5538665909
 40
1.0
 40
1.0
 40
1.0
 40
1.0
 10
78.9732687875
 20
410.6410670961
 30
0.0
 10
78.9839321799
 20
410.6898581132
 30
0.0
 10
79.0129386113
 20
410.7752066299
 30
0.0
 10
79.0550050515
 20
410.8572840187
 30
0.0
 10
79.0824057555
 20
410.8867376366
 30
0.0
  0
SPLINE
  5
403
100
AcDbEntity
  8
0
100
AcDbSpline
 62
7
  6
CONTINUOUS
 70
0
 71
3
 72
9
 73
5
 74
0
 42
0.0000001
 43
0.0000001
 44
0.0000000001
 40
0.0
 40
0.0
 40
0.0
 40
0.0
 40
0.5011885349
 40
1.0
 40
1.0
 40
1.0
 40
1.0
 10
78.3440870442
 20
380.9173604364
 30
0.0
 10
78.24295107
 20
379.9395562341
 30
0.0
 10
78.0033027365
 20
377.9924026218
 30
0.0
 10
77.651675734
 20
376.0602250509
 30
0.0
 10
77.4273576699
 20
375.1079297477
 30
0.0
  0
SPLINE
  5
404
100
AcDbEntity
  8
0
100
AcDbSpline
 62
7
  6
CONTINUOUS
 70
0
 71
3
 72
9
 73
5
 74
0
 42
0.0000001
 43
0.0000001
 44
0.0000000001
 40
0.0
 40
0.0
 40
0.0
 40
0.0
 40
0.2876674455
 40
1.0
 40
1.0
 40
1.0
 40
1.0
 10
83.9124744131
 20
409.7492319197
 30
0.0
 10
83.9157425687
 20
409.7739829656
 30
0.0
 10
83.9307325256
 20
409.859166547
 30
0.0
 10
83.9494764979
 20
409.9460020108
 30
0.0
 10
83.9783924982
 20
410.0006440478
 30
0.0
  0
SPLINE
  5
405
100
AcDbEntity
  8
0
100
AcDbSpline
 62
7
  6
CONTINUOUS
 70
0
 71
3
 72
9
 73
5
 74
0
 42
0.0000001
 43
0.0000001
 44
0.0000000001
 40
0.0
 40
0.0
 40
0.0
 40
0.0
 40
0.2455006055
 40
1.0
 40
1.0
 40
1.0
 40
1.0
 10
79.0826771014
 20
410.8867335565
 30
0.0
 10
79.4793085095
 20
410.7943846853
 30
0.0
 10
81.0997037477
 20
410.4390007909
 30
0.0
 10
82.7377208018
 20
410.1648701114
 30
0.0
 10
83.9784739696
 20
410.000631968
 30
0.0
  0
SPLINE
  5
406
100
AcDbEntity
  8
0
100
AcDbSpline
 62
7
  6
CONTINUOUS
 70
0
 71
3
 72
9
 73
5
 74
0
 42
0.0000001
 43
0.0000001
 44
0.0000000001
 40
0.0
 40
0.0
 40
0.0
 40
0.0
 40
0.2542132618
 40
1.0
 40
1.0
 40
1.0
 40
1.0
 10
298.269117701
 20
410.000631968
 30
0.0
 10
298.6871472436
 20
410.0560145507
 30
0.0
 10
300.3289499208
 20
410.2928873121
 30
0.0
 10
301.9599162457
 20
410.606353325
 30
0.0
 10
303.1648142461
 20
410.8867386315
 30
0.0
  0
SPLINE
  5
407
100
AcDbEntity
  8
0
100
AcDbSpline
 62
7
  6
CONTINUOUS
 70
0
 71
3
 72
9
 73
5
 74
0
 42
0.0000001
 43
0.0000001
 44
0.0000000001
 40
0.0
 40
0.0
 40
0.0
 40
0.0
 40
0.4959075015
 40
1.0
 40
1.0
 40
1.0
 40
1.0
 10
83.9783841938
 20
410.0006288954
 30
0.0
 10
85.2284333385
 20
409.8061018806
 30
0.0
 10
87.7245867506
 20
409.2615831222
 30
0.0
 10
90.1883667278
 20
408.6018258425
 30
0.0
 10
91.4304114305
 20
408.2685749431
 30
0.0
  0
SPLINE
  5
408
100
AcDbEntity
  8
0
100
AcDbSpline
 62
7
  6
CONTINUOUS
 70
0
 71
3
 72
10
 73
6
 74
0
 42
0.0000001
 43
0.0000001
 44
0.0000000001
 40
0.0
 40
0.0
 40
0.0
 40
0.0
 40
0.5066348711
 40
0.7558953199
 40
1.0
 40
1.0
 40
1.0
 40
1.0
 10
91.4303954235
 20
408.2686507041
 30
0.0
 10
89.7348304606
 20
407.8377079473
 30
0.0
 10
87.2044720014
 20
407.1914161472
 30
0.0
 10
83.8139867395
 20
406.5324948127
 30
0.0
 10
82.1185798099
 20
406.3290879857
 30
0.0
 10
81.2766734546
 20
406.287696608
 30
0.0
  0
SPLINE
  5
409
100
AcDbEntity
  8
0
100
AcDbSpline
 62
7
  6
CONTINUOUS
 70
0
 71
3
 72
10
 73
6
 74
0
 42
0.0000001
 43
0.0000001
 44
0.0000000001
 40
0.0
 40
0.0
 40
0.0
 40
0.0
 40
0.2441048319
 40
0.4933651156
 40
1.0
 40
1.0
 40
1.0
 40
1.0
 10
300.9704806083
 20
406.2876966494
 30
0.0
 10
300.1285735877
 20
406.329085171
 30
0.0
 10
298.4331669731
 20
406.5324967852
 30
0.0
 10
295.0426815444
 20
407.1914155064
 30
0.0
 10
292.5123236486
 20
407.8377081465
 30
0.0
 10
290.8167586658
 20
408.2686510123
 30
0.0
  0
SPLINE
  5
40A
100
AcDbEntity
  8
0
100
AcDbSpline
 62
7
  6
CONTINUOUS
 70
0
 71
3
 72
9
 73
5
 74
0
 42
0.0000001
 43
0.0000001
 44
0.0000000001
 40
0.0
 40
0.0
 40
0.0
 40
0.0
 40
0.5040924199
 40
1.0
 40
1.0
 40
1.0
 40
1.0
 10
290.8167425018
 20
408.2685752363
 30
0.0
 10
292.0587870039
 20
408.6018260759
 30
0.0
 10
294.5225669706
 20
409.2615833261
 30
0.0
 10
297.0187203759
 20
409.8061020528
 30
0.0
 10
298.2687697195
 20
410.0006290403
 30
0.0
  0
SPLINE
  5
40B
100
AcDbEntity
  8
0
100
AcDbSpline
 62
7
  6
CONTINUOUS
 70
0
 71
3
 72
10
 73
6
 74
0
 42
0.0000001
 43
0.0000001
 44
0.0000000001
 40
0.0
 40
0.0
 40
0.0
 40
0.0
 40
0.5054783961
 40
0.7550895717
 40
1.0
 40
1.0
 40
1.0
 40
1.0
 10
81.2766982528
 20
406.2876868255
 30
0.0
 10
80.8548200141
 20
406.274877571
 30
0.0
 10
80.223492529
 20
406.2324116014
 30
0.0
 10
79.4020497782
 20
406.083329166
 30
0.0
 10
79.0037785101
 20
405.9601030283
 30
0.0
 10
78.8203262448
 20
405.8697412928
 30
0.0
  0
SPLINE
  5
40C
100
AcDbEntity
  8
0
100
AcDbSpline
 62
7
  6
CONTINUOUS
 70
0
 71
3
 72
10
 73
6
 74
0
 42
0.0000001
 43
0.0000001
 44
0.0000000001
 40
0.0
 40
0.0
 40
0.0
 40
0.0
 40
0.2449136873
 40
0.4945239919
 40
1.0
 40
1.0
 40
1.0
 40
1.0
 10
303.4265130063
 20
405.8698963337
 30
0.0
 10
303.2430670766
 20
405.9602126706
 30
0.0
 10
302.8448426689
 20
406.0833851055
 30
0.0
 10
302.0235092521
 20
406.2324232493
 30
0.0
 10
301.3922732363
 20
406.2748792752
 30
0.0
 10
300.9704557093
 20
406.2876868291
 30
0.0
  0
SPLINE
  5
40D
100
AcDbEntity
  8
0
100
AcDbSpline
 62
7
  6
CONTINUOUS
 70
0
 71
3
 72
10
 73
6
 74
0
 42
0.0000001
 43
0.0000001
 44
0.0000000001
 40
0.0
 40
0.0
 40
0.0
 40
0.0
 40
0.2298245613
 40
0.6041555707
 40
1.0
 40
1.0
 40
1.0
 40
1.0
 10
303.8322199728
 20
405.4378163619
 30
0.0
 10
303.8387273078
 20
405.4851832245
 30
0.0
 10
303.8035248504
 20
405.6162969756
 30
0.0
 10
303.6399116406
 20
405.7561343776
 30
0.0
 10
303.5006935755
 20
405.8341425995
 30
0.0
 10
303.4265094596
 20
405.8698947644
 30
0.0
  0
SPLINE
  5
40E
100
AcDbEntity
  8
0
100
AcDbSpline
 62
7
  6
CONTINUOUS
 70
0
 71
3
 72
10
 73
6
 74
0
 42
0.0000001
 43
0.0000001
 44
0.0000000001
 40
0.0
 40
0.0
 40
0.0
 40
0.0
 40
0.6304309768
 40
0.8616478909
 40
1.0
 40
1.0
 40
1.0
 40
1.0
 10
301.0569299961
 20
406.5935338383
 30
0.0
 10
301.0548860479
 20
406.5252840943
 30
0.0
 10
301.044706063
 20
406.430074211
 30
0.0
 10
301.0083550405
 20
406.3297428943
 30
0.0
 10
300.9840933832
 20
406.2938978088
 30
0.0
 10
300.9704564351
 20
406.2876872836
 30
0.0
  0
SPLINE
  5
40F
100
AcDbEntity
  8
0
100
AcDbSpline
 62
7
  6
CONTINUOUS
 70
0
 71
3
 72
9
 73
5
 74
0
 42
0.0000001
 43
0.0000001
 44
0.0000000001
 40
0.0
 40
0.0
 40
0.0
 40
0.0
 40
0.5017143025
 40
1.0
 40
1.0
 40
1.0
 40
1.0
 10
301.0569299961
 20
406.5935338383
 30
0.0
 10
301.4848835183
 20
406.576763034
 30
0.0
 10
302.3350500764
 20
406.5032385198
 30
0.0
 10
303.1709500086
 20
406.2423136728
 30
0.0
 10
303.5338952355
 20
406.0205078418
 30
0.0
  0
SPLINE
  5
410
100
AcDbEntity
  8
0
100
AcDbSpline
 62
7
  6
CONTINUOUS
 70
0
 71
3
 72
9
 73
5
 74
0
 42
0.0000001
 43
0.0000001
 44
0.0000000001
 40
0.0
 40
0.0
 40
0.0
 40
0.0
 40
0.7452028893
 40
1.0
 40
1.0
 40
1.0
 40
1.0
 10
303.5338952355
 20
406.0205078418
 30
0.0
 10
303.6478288086
 20
405.9450092985
 30
0.0
 10
303.794691511
 20
405.8243685859
 30
0.0
 10
303.8850219007
 20
405.6628964918
 30
0.0
 10
303.9030654268
 20
405.6197878504
 30
0.0
  0
SPLINE
  5
411
100
AcDbEntity
  8
0
100
AcDbSpline
 62
7
  6
CONTINUOUS
 70
0
 71
3
 72
10
 73
6
 74
0
 42
0.0000001
 43
0.0000001
 44
0.0000000001
 40
0.0
 40
0.0
 40
0.0
 40
0.0
 40
0.253781723
 40
0.5027946831
 40
1.0
 40
1.0
 40
1.0
 40
1.0
 10
304.8197546527
 20
411.4292679765
 30
0.0
 10
304.7343995595
 20
411.3071968989
 30
0.0
 10
304.4963655707
 20
411.1182282745
 30
0.0
 10
303.9798138439
 20
410.8424758999
 30
0.0
 10
303.5579971957
 20
410.7069071923
 30
0.0
 10
303.2737044884
 20
410.6410304633
 30
0.0
  0
SPLINE
  5
412
100
AcDbEntity
  8
0
100
AcDbSpline
 62
7
  6
CONTINUOUS
 70
0
 71
3
 72
9
 73
5
 74
0
 42
0.0000001
 43
0.0000001
 44
0.0000000001
 40
0.0
 40
0.0
 40
0.0
 40
0.0
 40
0.2455100996
 40
1.0
 40
1.0
 40
1.0
 40
1.0
 10
303.2739082686
 20
410.6410700799
 30
0.0
 10
302.8736379477
 20
410.5485084785
 30
0.0
 10
301.2386091416
 20
410.1919465847
 30
0.0
 10
299.5864243104
 20
409.9142084201
 30
0.0
 10
298.3346959167
 20
409.7492340049
 30
0.0
  0
SPLINE
  5
413
100
AcDbEntity
  8
0
100
AcDbSpline
 62
7
  6
CONTINUOUS
 70
0
 71
3
 72
9
 73
5
 74
0
 42
0.0000001
 43
0.0000001
 44
0.0000000001
 40
0.0
 40
0.0
 40
0.0
 40
0.0
 40
0.4968291421
 40
1.0
 40
1.0
 40
1.0
 40
1.0
 10
298.3309658154
 20
409.7486328231
 30
0.0
 10
297.0737674352
 20
409.5786094717
 30
0.0
 10
294.5601753162
 20
409.1159515904
 30
0.0
 10
292.0682434642
 20
408.5593503217
 30
0.0
 10
290.8167409123
 20
408.2685811604
 30
0.0
  0
SPLINE
  5
414
100
AcDbEntity
  8
0
100
AcDbSpline
 62
7
  6
CONTINUOUS
 70
0
 71
3
 72
11
 73
7
 74
0
 42
0.0000001
 43
0.0000001
 44
0.0000000001
 40
0.0
 40
0.0
 40
0.0
 40
0.0
 40
0.2531843579
 40
0.5052151776
 40
0.7546453089
 40
1.0
 40
1.0
 40
1.0
 40
1.0
 10
290.8167409123
 20
408.2685811604
 30
0.0
 10
291.6729195103
 20
408.0805530004
 30
0.0
 10
293.3846456639
 20
407.7202405373
 30
0.0
 10
295.9480500276
 20
407.2142970112
 30
0.0
 10
298.5010109658
 20
406.7979690465
 30
0.0
 10
300.2086600894
 20
406.6387493173
 30
0.0
 10
301.0569299961
 20
406.5935338383
 30
0.0
  0
SPLINE
  5
415
100
AcDbEntity
  8
0
100
AcDbSpline
 62
7
  6
CONTINUOUS
 70
0
 71
3
 72
9
 73
5
 74
0
 42
0.0000001
 43
0.0000001
 44
0.0000000001
 40
0.0
 40
0.0
 40
0.0
 40
0.0
 40
0.2876581177
 40
1.0
 40
1.0
 40
1.0
 40
1.0
 10
298.3346795901
 20
409.7492319222
 30
0.0
 10
298.3314117092
 20
409.7739808875
 30
0.0
 10
298.3164231688
 20
409.8591604132
 30
0.0
 10
298.2976785305
 20
409.9459897862
 30
0.0
 10
298.2687678975
 20
410.0006319673
 30
0.0
  0
SPLINE
  5
416
100
AcDbEntity
  8
0
100
AcDbSpline
 62
7
  6
CONTINUOUS
 70
0
 71
3
 72
9
 73
5
 74
0
 42
0.0000001
 43
0.0000001
 44
0.0000000001
 40
0.0
 40
0.0
 40
0.0
 40
0.0
 40
0.5538559184
 40
1.0
 40
1.0
 40
1.0
 40
1.0
 10
303.2738852237
 20
410.6410670937
 30
0.0
 10
303.2632226178
 20
410.6898545143
 30
0.0
 10
303.2342185883
 20
410.7751990804
 30
0.0
 10
303.192155485
 20
410.8572712525
 30
0.0
 10
303.1647584863
 20
410.88672664
 30
0.0
  0
SPLINE
  5
417
100
AcDbEntity
  8
0
100
AcDbSpline
 62
7
  6
CONTINUOUS
 70
0
 71
3
 72
8
 73
4
 74
0
 42
0.0000001
 43
0.0000001
 44
0.0000000001
 40
0.0
 40
0.0
 40
0.0
 40
0.0
 40
1.0
 40
1.0
 40
1.0
 40
1.0
 10
304.8197962462
 20
411.4292326442
 30
0.0
 10
304.8329299052
 20
411.4849569119
 30
0.0
 10
304.8376933996
 20
411.545864272
 30
0.0
 10
304.8221661718
 20
411.600969555
 30
0.0
  0
SPLINE
  5
418
100
AcDbEntity
  8
0
100
AcDbSpline
 62
7
  6
CONTINUOUS
 70
0
 71
3
 72
12
 73
8
 74
0
 42
0.0000001
 43
0.0000001
 44
0.0000000001
 40
0.0
 40
0.0
 40
0.0
 40
0.0
 40
0.1256480398
 40
0.2502555336
 40
0.49901612
 40
0.7488394003
 40
1.0
 40
1.0
 40
1.0
 40
1.0
 10
304.8221643453
 20
411.6009289202
 30
0.0
 10
304.7905037537
 20
411.5305255857
 30
0.0
 10
304.6766522645
 20
411.4163493201
 30
0.0
 10
304.4144435965
 20
411.2597403296
 30
0.0
 10
304.0596764474
 20
411.1095525794
 30
0.0
 10
303.6182842287
 20
410.9772258557
 30
0.0
 10
303.3168010325
 20
410.9130114927
 30
0.0
 10
303.1647482546
 20
410.8867370057
 30
0.0
  0
SPLINE
  5
419
100
AcDbEntity
  8
0
100
AcDbSpline
 62
7
  6
CONTINUOUS
 70
0
 71
3
 72
11
 73
7
 74
0
 42
0.0000001
 43
0.0000001
 44
0.0000000001
 40
0.0
 40
0.0
 40
0.0
 40
0.0
 40
0.2510452946
 40
0.5013007238
 40
0.7507863814
 40
1.0
 40
1.0
 40
1.0
 40
1.0
 10
296.5616183495
 20
423.0686298841
 30
0.0
 10
297.2008816783
 20
423.0686050868
 30
0.0
 10
298.4909825776
 20
422.8226235716
 30
0.0
 10
300.136786476
 20
421.7679557065
 30
0.0
 10
301.3054075211
 20
420.2151044105
 30
0.0
 10
301.7108280593
 20
418.9860794817
 30
0.0
 10
301.8169533918
 20
418.360417049
 30
0.0
  0
SPLINE
  5
41A
100
AcDbEntity
  8
0
100
AcDbSpline
 62
7
  6
CONTINUOUS
 70
0
 71
3
 72
14
 73
10
 74
0
 42
0.0000001
 43
0.0000001
 44
0.0000000001
 40
0.0
 40
0.0
 40
0.0
 40
0.0
 40
0.3348848447
 40
0.4979242575
 40
0.6474422077
 40
0.7759159868
 40
0.8786558015
 40
0.952830041
 40
1.0
 40
1.0
 40
1.0
 40
1.0
 10
301.8169531149
 20
418.3604184034
 30
0.0
 10
302.9946412454
 20
418.5690296533
 30
0.0
 10
304.7528691153
 20
418.8418236548
 30
0.0
 10
307.0503239974
 20
419.1048332963
 30
0.0
 10
308.6205643119
 20
419.2356098501
 30
0.0
 10
309.979080625
 20
419.2912425061
 30
0.0
 10
311.0720048374
 20
419.2769655391
 30
0.0
 10
311.8661939688
 20
419.1938657501
 30
0.0
 10
312.2939678578
 20
419.0851694066
 30
0.0
 10
312.4419721576
 20
419.004701377
 30
0.0
  0
SPLINE
  5
41B
100
AcDbEntity
  8
0
100
AcDbSpline
 62
7
  6
CONTINUOUS
 70
0
 71
3
 72
10
 73
6
 74
0
 42
0.0000001
 43
0.0000001
 44
0.0000000001
 40
0.0
 40
0.0
 40
0.0
 40
0.0
 40
0.2537817225
 40
0.5027946834
 40
1.0
 40
1.0
 40
1.0
 40
1.0
 10
77.4273994731
 20
375.1078944489
 30
0.0
 10
77.5127545634
 20
375.2299654885
 30
0.0
 10
77.7507884945
 20
375.4189340686
 30
0.0
 10
78.2673401073
 20
375.6946863913
 30
0.0
 10
78.6891566566
 20
375.8302550852
 30
0.0
 10
78.973449299
 20
375.8961318114
 30
0.0
  0
SPLINE
  5
41C
100
AcDbEntity
  8
0
100
AcDbSpline
 62
7
  6
CONTINUOUS
 70
0
 71
3
 72
11
 73
7
 74
0
 42
0.0000001
 43
0.0000001
 44
0.0000000001
 40
0.0
 40
0.0
 40
0.0
 40
0.0
 40
0.2446977705
 40
0.4911972495
 40
0.7427337917
 40
1.0
 40
1.0
 40
1.0
 40
1.0
 10
85.6855355644
 20
423.0685546632
 30
0.0
 10
85.0624237839
 20
423.0685441856
 30
0.0
 10
83.7989622288
 20
422.8341427447
 30
0.0
 10
82.1588846771
 20
421.81167235
 30
0.0
 10
80.9600588021
 20
420.2600174762
 30
0.0
 10
80.5398304686
 20
419.0062959282
 30
0.0
 10
80.4302727831
 20
418.3604050291
 30
0.0
  0
SPLINE
  5
41D
100
AcDbEntity
  8
0
100
AcDbSpline
 62
7
  6
CONTINUOUS
 70
0
 71
3
 72
9
 73
5
 74
0
 42
0.0000001
 43
0.0000001
 44
0.0000000001
 40
0.0
 40
0.0
 40
0.0
 40
0.0
 40
0.2455100933
 40
1.0
 40
1.0
 40
1.0
 40
1.0
 10
78.9732462708
 20
375.8960923142
 30
0.0
 10
79.3735165209
 20
375.9886539079
 30
0.0
 10
81.0085450824
 20
376.3452157754
 30
0.0
 10
82.6607296726
 20
376.6229538996
 30
0.0
 10
83.9124578937
 20
376.7879282922
 30
0.0
  0
SPLINE
  5
41E
100
AcDbEntity
  8
0
100
AcDbSpline
 62
7
  6
CONTINUOUS
 70
0
 71
3
 72
9
 73
5
 74
0
 42
0.0000001
 43
0.0000001
 44
0.0000000001
 40
0.0
 40
0.0
 40
0.0
 40
0.0
 40
0.4968291431
 40
1.0
 40
1.0
 40
1.0
 40
1.0
 10
83.9161894202
 20
376.7885296973
 30
0.0
 10
85.1733876001
 20
376.9585530158
 30
0.0
 10
87.6869793031
 20
377.4212108753
 30
0.0
 10
90.1789107527
 20
377.9778120441
 30
0.0
 10
91.4304130986
 20
378.2685811604
 30
0.0
  0
SPLINE
  5
41F
100
AcDbEntity
  8
0
100
AcDbSpline
 62
7
  6
CONTINUOUS
 70
0
 71
3
 72
9
 73
5
 74
0
 42
0.0000001
 43
0.0000001
 44
0.0000000001
 40
0.0
 40
0.0
 40
0.0
 40
0.0
 40
0.2876581178
 40
1.0
 40
1.0
 40
1.0
 40
1.0
 10
83.9124744133
 20
376.7879303996
 30
0.0
 10
83.9157422942
 20
376.7631814342
 30
0.0
 10
83.9307308347
 20
376.678001908
 30
0.0
 10
83.9494754729
 20
376.5911725347
 30
0.0
 10
83.9783861061
 20
376.5365303533
 30
0.0
  0
ELLIPSE
  5
420
100
AcDbEntity
  8
0
100
AcDbEllipse
 62
7
  6
CONTINUOUS
 10
431.0559050835
 20
393.2685765101
 30
0.0
 11
18.7702048815
 21
0.0
 31
0.0
 40
0.8330895328
 41
1.0870184934
 42
1.122547591
  0
ELLIPSE
  5
421
100
AcDbEntity
  8
0
100
AcDbEllipse
 62
7
  6
CONTINUOUS
 10
439.3650699573
 20
393.2685765101
 30
0.0
 11
0.0
 21
14.9060793334
 31
0.0
 40
0.1459128119
 41
6.0882226038
 42
6.1279623684
  0
ELLIPSE
  5
422
100
AcDbEntity
  8
0
100
AcDbEllipse
 62
7
  6
CONTINUOUS
 10
438.2387476559
 20
393.2685765101
 30
0.0
 11
0.0
 21
15.0020698881
 31
0.0
 40
0.5113292759
 41
6.0913477061
 42
6.1139039934
  0
ELLIPSE
  5
423
100
AcDbEntity
  8
0
100
AcDbEllipse
 62
7
  6
CONTINUOUS
 10
436.1260486546
 20
393.2685765101
 30
0.0
 11
15.5616582177
 21
-0.0
 31
0.0
 40
0.9738599758
 41
7.6333858267
 42
7.6557508029
  0
ELLIPSE
  5
424
100
AcDbEntity
  8
0
100
AcDbEllipse
 62
7
  6
CONTINUOUS
 10
401.5368804849
 20
393.2685765101
 30
0.0
 11
76.6303019105
 21
0.0
 31
0.0
 40
0.2226223134
 41
1.0571346712
 42
1.0622280513
  0
ELLIPSE
  5
425
100
AcDbEntity
  8
0
100
AcDbEllipse
 62
7
  6
CONTINUOUS
 10
441.0751948942
 20
393.2685765101
 30
0.0
 11
22.5706352559
 21
0.0
 31
0.0
 40
0.6447930255
 41
1.6581719814
 42
1.6695332019
  0
ELLIPSE
  5
426
100
AcDbEntity
  8
0
100
AcDbEllipse
 62
7
  6
CONTINUOUS
 10
424.0261062876
 20
393.2685765101
 30
0.0
 11
33.6390976834
 21
-0.0
 31
0.0
 40
0.4788844362
 41
1.120066828
 42
1.1312793956
  0
ELLIPSE
  5
427
100
AcDbEntity
  8
0
100
AcDbEllipse
 62
7
  6
CONTINUOUS
 10
433.7620567324
 20
393.2685765101
 30
0.0
 11
-0.0
 21
15.4112647952
 31
0.0
 40
0.9158079345
 41
5.9528782354
 42
6.1087187885
  0
ELLIPSE
  5
428
100
AcDbEntity
  8
0
100
AcDbEllipse
 62
7
  6
CONTINUOUS
 10
439.8935584471
 20
393.2685765101
 30
0.0
 11
0.0
 21
14.8507141161
 31
0.0
 40
0.2042993056
 41
0.1764788164
 42
0.205049011
  0
ELLIPSE
  5
429
100
AcDbEntity
  8
0
100
AcDbEllipse
 62
7
  6
CONTINUOUS
 10
440.8489496153
 20
393.2685765101
 30
0.0
 11
-0.0
 21
14.721184525
 31
0.0
 40
0.682492174
 41
0.157225345
 42
0.1744026431
  0
ELLIPSE
  5
42A
100
AcDbEntity
  8
0
100
AcDbEllipse
 62
7
  6
CONTINUOUS
 10
429.4358475239
 20
393.2685765101
 30
0.0
 11
40.6429742332
 21
0.0
 31
0.0
 40
0.3782062536
 41
1.3884058635
 42
1.3990422266
  0
ELLIPSE
  5
42B
100
AcDbEntity
  8
0
100
AcDbEllipse
 62
7
  6
CONTINUOUS
 10
422.8642601094
 20
393.2685765101
 30
0.0
 11
42.3509749915
 21
0.0
 31
0.0
 40
0.3782061968
 41
1.2253469811
 42
1.2289106779
  0
ELLIPSE
  5
42C
100
AcDbEntity
  8
0
100
AcDbEllipse
 62
7
  6
CONTINUOUS
 10
435.4895576817
 20
393.2685765101
 30
0.0
 11
0.0
 21
15.2556502733
 31
0.0
 40
0.7682960098
 41
-0.1935400368
 42
-0.1861609065
  0
ELLIPSE
  5
42D
100
AcDbEntity
  8
0
100
AcDbEllipse
 62
7
  6
CONTINUOUS
 10
436.4466688934
 20
393.2685765101
 30
0.0
 11
0.0
 21
15.1842503795
 31
0.0
 40
0.5113300093
 41
-0.1789920411
 42
-0.1678636117
  0
ELLIPSE
  5
42E
100
AcDbEntity
  8
0
100
AcDbEllipse
 62
7
  6
CONTINUOUS
 10
438.1048873768
 20
393.2685765101
 30
0.0
 11
15.3559188
 21
0.0
 31
0.0
 40
0.9738609147
 41
1.566594576
 42
1.5832216643
  0
ELLIPSE
  5
42F
100
AcDbEntity
  8
0
100
AcDbEllipse
 62
7
  6
CONTINUOUS
 10
434.7003241851
 20
393.2685765101
 30
0.0
 11
31.4196699467
 21
-0.0
 31
0.0
 40
0.4788844362
 41
1.4492512496
 42
1.4601595156
  0
ELLIPSE
  5
430
100
AcDbEntity
  8
0
100
AcDbEllipse
 62
7
  6
CONTINUOUS
 10
424.4615887064
 20
393.2685765101
 30
0.0
 11
41.9357114577
 21
-0.0
 31
0.0
 40
0.3782072436
 41
1.2205675715
 42
1.2227274162
  0
ELLIPSE
  5
431
100
AcDbEntity
  8
0
100
AcDbEllipse
 62
7
  6
CONTINUOUS
 10
438.4094206142
 20
393.2685765101
 30
0.0
 11
0.0
 21
14.9847194244
 31
0.0
 40
0.5113300093
 41
0.0646916758
 42
0.0758265989
  0
ELLIPSE
  5
432
100
AcDbEntity
  8
0
100
AcDbEllipse
 62
7
  6
CONTINUOUS
 10
453.8609953683
 20
393.2685765101
 30
0.0
 11
18.2905055419
 21
0.0
 31
0.0
 40
0.7272854778
 41
1.5376426773
 42
1.5562603825
  0
ELLIPSE
  5
433
100
AcDbEntity
  8
0
100
AcDbEllipse
 62
7
  6
CONTINUOUS
 10
448.8311266299
 20
393.2685765101
 30
0.0
 11
35.6020253308
 21
-0.0
 31
0.0
 40
0.3782062536
 41
1.3997003668
 42
1.4118175495
  0
ELLIPSE
  5
434
100
AcDbEntity
  8
0
100
AcDbEllipse
 62
7
  6
CONTINUOUS
 10
451.1420874572
 20
393.2685765101
 30
0.0
 11
18.6673890795
 21
-0.0
 31
0.0
 40
0.7272855427
 41
1.30757509
 42
1.3264152792
  0
ELLIPSE
  5
435
100
AcDbEntity
  8
0
100
AcDbEllipse
 62
7
  6
CONTINUOUS
 10
454.4668665524
 20
393.2685765101
 30
0.0
 11
-0.0
 21
13.3443778685
 31
0.0
 40
0.6139613733
 41
-0.1943835485
 42
-0.1881385998
  0
ELLIPSE
  5
436
100
AcDbEntity
  8
0
100
AcDbEllipse
 62
7
  6
CONTINUOUS
 10
454.6377433756
 20
393.2685765101
 30
0.0
 11
0.0
 21
13.327017091
 31
0.0
 40
0.6139614273
 41
0.0624789772
 42
0.0686346457
  0
ELLIPSE
  5
437
100
AcDbEntity
  8
0
100
AcDbEllipse
 62
7
  6
CONTINUOUS
 10
438.7335460726
 20
393.2685765101
 30
0.0
 11
32.1101967563
 21
-0.0
 31
0.0
 40
0.4550218504
 41
7.235121495
 42
7.3660631403
  0
ELLIPSE
  5
438
100
AcDbEntity
  8
0
100
AcDbEllipse
 62
7
  6
CONTINUOUS
 10
453.7586815041
 20
393.2685765101
 30
0.0
 11
16.0166005273
 21
0.0
 31
0.0
 40
0.8330895328
 41
7.5997793738
 42
7.6380290962
  0
ELLIPSE
  5
439
100
AcDbEntity
  8
0
100
AcDbEllipse
 62
7
  6
CONTINUOUS
 10
469.8922500567
 20
393.2685765101
 30
0.0
 11
13.5576409026
 21
0.0
 31
0.0
 40
0.8643967465
 41
7.4042213264
 42
7.5855074446
  0
ELLIPSE
  5
43A
100
AcDbEntity
  8
0
100
AcDbEllipse
 62
7
  6
CONTINUOUS
 10
473.4382608911
 20
393.2685765101
 30
0.0
 11
13.6296776909
 21
0.0
 31
0.0
 40
0.8330895328
 41
7.6808342114
 42
7.7250505334
  0
ELLIPSE
  5
43B
100
AcDbEntity
  8
0
100
AcDbEllipse
 62
7
  6
CONTINUOUS
 10
494.0531446703
 20
393.2685765101
 30
0.0
 11
0.0
 21
9.3386547032
 31
0.0
 40
0.2042997734
 41
0.3713077543
 42
0.4196513528
  0
ELLIPSE
  5
43C
100
AcDbEntity
  8
0
100
AcDbEllipse
 62
7
  6
CONTINUOUS
 10
495.5656884968
 20
393.2685765101
 30
0.0
 11
0.0
 21
9.164611214
 31
0.0
 40
0.682492174
 41
0.3748185779
 42
0.4042365478
  0
ELLIPSE
  5
43D
100
AcDbEntity
  8
0
100
AcDbEllipse
 62
7
  6
CONTINUOUS
 10
497.4678402382
 20
393.2685765101
 30
0.0
 11
13.7765968394
 21
-0.0
 31
0.0
 40
0.644792717
 41
1.8929844562
 42
1.9323292779
  0
ELLIPSE
  5
43E
100
AcDbEntity
  8
0
100
AcDbEllipse
 62
7
  6
CONTINUOUS
 10
479.1966837346
 20
393.2685765101
 30
0.0
 11
66.5037864963
 21
-0.0
 31
0.0
 40
0.1275528179
 41
1.3679418669
 42
1.3757747069
  0
ELLIPSE
  5
43F
100
AcDbEntity
  8
0
100
AcDbEllipse
 62
7
  6
CONTINUOUS
 10
384.6031996921
 20
393.2685765101
 30
0.0
 11
125.5089641427
 21
-0.0
 31
0.0
 40
0.1275527691
 41
0.5517369923
 42
0.5594506472
  0
ELLIPSE
  5
440
100
AcDbEntity
  8
0
100
AcDbEllipse
 62
7
  6
CONTINUOUS
 10
481.4179866909
 20
393.2685765101
 30
0.0
 11
16.2794564849
 21
0.0
 31
0.0
 40
0.6447929484
 41
0.9431527479
 42
0.9813846861
  0
ELLIPSE
  5
441
100
AcDbEntity
  8
0
100
AcDbEllipse
 62
7
  6
CONTINUOUS
 10
487.0994893782
 20
393.2685765101
 30
0.0
 11
0.0
 21
10.0243674244
 31
0.0
 40
0.682492174
 41
-0.5146790734
 42
-0.4863206127
  0
ELLIPSE
  5
442
100
AcDbEntity
  8
0
100
AcDbEllipse
 62
7
  6
CONTINUOUS
 10
489.4383814577
 20
393.2685765101
 30
0.0
 11
0.0
 21
9.8083194608
 31
0.0
 40
0.2042997734
 41
5.8403297082
 42
5.8868399093
  0
ELLIPSE
  5
443
100
AcDbEntity
  8
0
100
AcDbEllipse
 62
7
  6
CONTINUOUS
 10
488.1127476384
 20
393.2685765101
 30
0.0
 11
30.4709053999
 21
-0.0
 31
0.0
 40
0.3101090615
 41
1.4766274493
 42
1.4850406075
  0
ELLIPSE
  5
444
100
AcDbEntity
  8
0
100
AcDbEllipse
 62
7
  6
CONTINUOUS
 10
491.229303136
 20
393.2685765101
 30
0.0
 11
19.6659894729
 21
0.0
 31
0.0
 40
0.4788829166
 41
1.5965646077
 42
1.6138854585
  0
ELLIPSE
  5
445
100
AcDbEntity
  8
0
100
AcDbEllipse
 62
7
  6
CONTINUOUS
 10
493.148681376
 20
393.2685765101
 30
0.0
 11
0.0
 21
9.431329064
 31
0.0
 40
0.1702383026
 41
-0.4084740744
 42
-0.3513893224
  0
ELLIPSE
  5
446
100
AcDbEntity
  8
0
100
AcDbEllipse
 62
7
  6
CONTINUOUS
 10
491.4447893827
 20
393.2685765101
 30
0.0
 11
0.0
 21
9.5874885036
 31
0.0
 40
0.6139610206
 41
-0.3934214936
 42
-0.3468913076
  0
ELLIPSE
  5
447
100
AcDbEntity
  8
0
100
AcDbEllipse
 62
7
  6
CONTINUOUS
 10
489.6836358254
 20
393.2685765101
 30
0.0
 11
9.9936747286
 21
0.0
 31
0.0
 40
0.9738609147
 41
1.1848079013
 42
1.2122354986
  0
ELLIPSE
  5
448
100
AcDbEntity
  8
0
100
AcDbEllipse
 62
7
  6
CONTINUOUS
 10
483.8462783002
 20
393.2685765101
 30
0.0
 11
21.201099622
 21
-0.0
 31
0.0
 40
0.4788830042
 41
1.1143610989
 42
1.1321723569
  0
ELLIPSE
  5
449
100
AcDbEntity
  8
0
100
AcDbEllipse
 62
7
  6
CONTINUOUS
 10
475.1968015766
 20
393.2685765101
 30
0.0
 11
34.499243372
 21
-0.0
 31
0.0
 40
0.3101087408
 41
1.0336274287
 42
1.0422194483
  0
ELLIPSE
  5
44A
100
AcDbEntity
  8
0
100
AcDbEllipse
 62
7
  6
CONTINUOUS
 10
442.9219689783
 20
393.2685765101
 30
0.0
 11
74.2754785008
 21
0.0
 31
0.0
 40
0.1672971649
 41
0.8382475238
 42
0.8459269486
  0
ELLIPSE
  5
44B
100
AcDbEntity
  8
0
100
AcDbEllipse
 62
7
  6
CONTINUOUS
 10
471.0264598187
 20
393.2685765101
 30
0.0
 11
59.666488941
 21
0.0
 31
0.0
 40
0.1672971006
 41
1.2222681504
 42
1.2298458547
  0
ELLIPSE
  5
44C
100
AcDbEntity
  8
0
100
AcDbEllipse
 62
7
  6
CONTINUOUS
 10
491.8345417798
 20
393.2685765101
 30
0.0
 11
9.7700627909
 21
0.0
 31
0.0
 40
0.9738607998
 41
1.7200041589
 42
1.7464863886
  0
ELLIPSE
  5
44D
100
AcDbEntity
  8
0
100
AcDbEllipse
 62
7
  6
CONTINUOUS
 10
491.3935230288
 20
393.2685765101
 30
0.0
 11
-0.0
 21
9.5926970682
 31
0.0
 40
0.6139610746
 41
0.2167640851
 42
0.2613881863
  0
ELLIPSE
  5
44E
100
AcDbEntity
  8
0
100
AcDbEllipse
 62
7
  6
CONTINUOUS
 10
490.3677045662
 20
393.2685765101
 30
0.0
 11
0.0
 21
9.7143800122
 31
0.0
 40
0.1702383175
 41
0.3047180218
 42
0.3591585101
  0
ELLIPSE
  5
44F
100
AcDbEntity
  8
0
100
AcDbEllipse
 62
7
  6
CONTINUOUS
 10
491.3039211352
 20
393.2685765101
 30
0.0
 11
11.462763877
 21
-0.0
 31
0.0
 40
0.8330895328
 41
7.6356802844
 42
7.688629736
  0
ELLIPSE
  5
450
100
AcDbEntity
  8
0
100
AcDbEllipse
 62
7
  6
CONTINUOUS
 10
422.7620670257
 20
393.2685765101
 30
0.0
 11
-0.0
 21
16.5579366986
 31
0.0
 40
0.682492174
 41
0.1319032071
 42
0.1471133184
  0
ELLIPSE
  5
451
100
AcDbEntity
  8
0
100
AcDbEllipse
 62
7
  6
CONTINUOUS
 10
421.8857732218
 20
393.2685765101
 30
0.0
 11
0.0
 21
16.6834456566
 31
0.0
 40
0.2042993056
 41
0.1546089792
 42
0.1799325686
  0
ELLIPSE
  5
452
100
AcDbEntity
  8
0
100
AcDbEllipse
 62
7
  6
CONTINUOUS
 10
421.3610987344
 20
393.2685765101
 30
0.0
 11
-0.0
 21
16.7386167797
 31
0.0
 40
0.1459128119
 41
6.1081464216
 42
6.1434300749
  0
ELLIPSE
  5
453
100
AcDbEntity
  8
0
100
AcDbEllipse
 62
7
  6
CONTINUOUS
 10
420.1899764219
 20
393.2685765101
 30
0.0
 11
0.0
 21
16.836885984
 31
0.0
 40
0.5113300093
 41
6.1067207128
 42
6.1267691156
  0
ELLIPSE
  5
454
100
AcDbEntity
  8
0
100
AcDbEllipse
 62
7
  6
CONTINUOUS
 10
417.9293909958
 20
393.2685765101
 30
0.0
 11
17.4533760294
 21
0.0
 31
0.0
 40
0.9738627925
 41
7.6461257857
 42
7.6660192823
  0
ELLIPSE
  5
455
100
AcDbEntity
  8
0
100
AcDbEllipse
 62
7
  6
CONTINUOUS
 10
379.7727795728
 20
393.2685765101
 30
0.0
 11
85.6813567656
 21
0.0
 31
0.0
 40
0.2226207732
 41
1.0662679769
 42
1.070800982
  0
ELLIPSE
  5
456
100
AcDbEntity
  8
0
100
AcDbEllipse
 62
7
  6
CONTINUOUS
 10
422.6265561843
 20
393.2685765101
 30
0.0
 11
25.447573467
 21
0.0
 31
0.0
 40
0.6447930255
 41
1.6306010052
 42
1.640655312
  0
ELLIPSE
  5
457
100
AcDbEntity
  8
0
100
AcDbEllipse
 62
7
  6
CONTINUOUS
 10
405.212759117
 20
393.2685765101
 30
0.0
 11
37.5508469968
 21
-0.0
 31
0.0
 40
0.4788844362
 41
1.1462553967
 42
1.1561821938
  0
ELLIPSE
  5
458
100
AcDbEntity
  8
0
100
AcDbEllipse
 62
7
  6
CONTINUOUS
 10
415.6056160298
 20
393.2685765101
 30
0.0
 11
0.0
 21
17.2515454832
 31
0.0
 40
0.9158081232
 41
-0.3043127514
 42
-0.2939144856
  0
ELLIPSE
  5
459
100
AcDbEntity
  8
0
100
AcDbEllipse
 62
7
  6
CONTINUOUS
 10
416.6852273532
 20
393.2685765101
 30
0.0
 11
0.0
 21
16.9794613556
 31
0.0
 40
0.91213888
 41
-0.1771293927
 42
-0.0987380703
  0
ELLIPSE
  5
45A
100
AcDbEntity
  8
0
100
AcDbEllipse
 62
7
  6
CONTINUOUS
 10
380.1843870287
 20
393.2685765101
 30
0.0
 11
85.5101895213
 21
-0.0
 31
0.0
 40
0.2226207732
 41
1.0706560012
 42
1.0736664266
  0
ELLIPSE
  5
45B
100
AcDbEntity
  8
0
100
AcDbEllipse
 62
7
  6
CONTINUOUS
 10
418.0154200438
 20
393.2685765101
 30
0.0
 11
17.4444572253
 21
0.0
 31
0.0
 40
0.9738613841
 41
1.3678701907
 42
1.3877544605
  0
ELLIPSE
  5
45C
100
AcDbEntity
  8
0
100
AcDbEllipse
 62
7
  6
CONTINUOUS
 10
420.2326477708
 20
393.2685765101
 30
0.0
 11
-0.0
 21
16.8325481317
 31
0.0
 40
0.5113292759
 41
-0.1714770313
 42
-0.1514399545
  0
ELLIPSE
  5
45D
100
AcDbEntity
  8
0
100
AcDbEllipse
 62
7
  6
CONTINUOUS
 10
421.3115111205
 20
393.2685765101
 30
0.0
 11
-0.0
 21
16.7429970729
 31
0.0
 40
0.1702383026
 41
-0.1674015501
 42
-0.1573325116
  0
ELLIPSE
  5
45E
100
AcDbEntity
  8
0
100
AcDbEllipse
 62
7
  6
CONTINUOUS
 10
418.3087959374
 20
393.2685765101
 30
0.0
 11
26.1208984552
 21
-0.0
 31
0.0
 40
0.6447930255
 41
1.492970625
 42
1.4989975494
  0
ELLIPSE
  5
45F
100
AcDbEntity
  8
0
100
AcDbEllipse
 62
7
  6
CONTINUOUS
 10
392.3267843132
 20
393.2685765101
 30
0.0
 11
80.460765238
 21
-0.0
 31
0.0
 40
0.2226207732
 41
1.2106766944
 42
1.2151938161
  0
ELLIPSE
  5
460
100
AcDbEntity
  8
0
100
AcDbEllipse
 62
7
  6
CONTINUOUS
 10
419.0436850428
 20
393.2685765101
 30
0.0
 11
-0.0
 21
16.9198821976
 31
0.0
 40
0.2042583551
 41
0.3460245018
 42
0.3723293087
  0
ELLIPSE
  5
461
100
AcDbEntity
  8
0
100
AcDbEllipse
 62
7
  6
CONTINUOUS
 10
418.9909061456
 20
393.2685765101
 30
0.0
 11
-0.0
 21
16.978069017
 31
0.0
 40
0.2042993056
 41
-0.3993665758
 42
-0.3728796066
  0
ELLIPSE
  5
462
100
AcDbEntity
  8
0
100
AcDbEllipse
 62
7
  6
CONTINUOUS
 10
415.4646018074
 20
393.2685765101
 30
0.0
 11
0.0
 21
17.2990060916
 31
0.0
 40
0.682492174
 41
5.8654368277
 42
5.8720882386
  0
ELLIPSE
  5
463
100
AcDbEntity
  8
0
100
AcDbEllipse
 62
7
  6
CONTINUOUS
 10
420.438340485
 20
393.2685765101
 30
0.0
 11
0.0
 21
16.8307572553
 31
0.0
 40
0.2042993056
 41
5.8803196929
 42
5.9070752557
  0
ELLIPSE
  5
464
100
AcDbEntity
  8
0
100
AcDbEllipse
 62
7
  6
CONTINUOUS
 10
417.4718610158
 20
393.2685765101
 30
0.0
 11
-0.0
 21
17.1030028647
 31
0.0
 40
0.6139610206
 41
5.8686290116
 42
5.8950435227
  0
ELLIPSE
  5
465
100
AcDbEntity
  8
0
100
AcDbEllipse
 62
7
  6
CONTINUOUS
 10
410.7055458399
 20
393.2685765101
 30
0.0
 11
24.272555602
 21
0.0
 31
0.0
 40
0.7272855427
 41
1.1124185274
 42
1.1279988386
  0
ELLIPSE
  5
466
100
AcDbEntity
  8
0
100
AcDbEllipse
 62
7
  6
CONTINUOUS
 10
395.0261868521
 20
393.2685765101
 30
0.0
 11
49.5864133017
 21
-0.0
 31
0.0
 40
0.3782049227
 41
1.0169784211
 42
1.0270371349
  0
ELLIPSE
  5
467
100
AcDbEntity
  8
0
100
AcDbEllipse
 62
7
  6
CONTINUOUS
 10
158.7871626252
 20
393.2685765101
 30
0.0
 11
310.7586050478
 21
0.0
 31
0.0
 40
0.0959399581
 41
6.8516036333
 42
6.8545702645
  0
ELLIPSE
  5
468
100
AcDbEntity
  8
0
100
AcDbEllipse
 62
7
  6
CONTINUOUS
 10
423.4354031305
 20
393.2685765101
 30
0.0
 11
0.0
 21
16.5193783551
 31
0.0
 40
0.3406300851
 41
0.3775777657
 42
0.3939020919
  0
ELLIPSE
  5
469
100
AcDbEntity
  8
0
100
AcDbEllipse
 62
7
  6
CONTINUOUS
 10
425.2135588764
 20
393.2685765101
 30
0.0
 11
-0.0
 21
16.3089837371
 31
0.0
 40
0.682492174
 41
0.361602551
 42
0.3780035681
  0
ELLIPSE
  5
46A
100
AcDbEntity
  8
0
100
AcDbEllipse
 62
7
  6
CONTINUOUS
 10
428.2527248829
 20
393.2685765101
 30
0.0
 11
24.5702111876
 21
0.0
 31
0.0
 40
0.6447930255
 41
1.8659497235
 42
1.8768289991
  0
ELLIPSE
  5
46B
100
AcDbEntity
  8
0
100
AcDbEllipse
 62
7
  6
CONTINUOUS
 10
428.6840833378
 20
393.2685765101
 30
0.0
 11
42.5261885512
 21
-0.0
 31
0.0
 40
0.3907057603
 41
1.8031216062
 42
1.8134169329
  0
ELLIPSE
  5
46C
100
AcDbEntity
  8
0
100
AcDbEllipse
 62
7
  6
CONTINUOUS
 10
431.4207999058
 20
393.2685765101
 30
0.0
 11
118.535959693
 21
-0.0
 31
0.0
 40
0.137172761
 41
1.6722609585
 42
1.6766834194
  0
ELLIPSE
  5
46D
100
AcDbEntity
  8
0
100
AcDbEllipse
 62
7
  6
CONTINUOUS
 10
415.8600906131
 20
393.2685765101
 30
0.0
 11
-0.0
 21
17.0066291639
 31
0.0
 40
0.3404402987
 41
5.8487336618
 42
5.8648788203
  0
ELLIPSE
  5
46E
100
AcDbEntity
  8
0
100
AcDbEllipse
 62
7
  6
CONTINUOUS
 10
413.3142281698
 20
393.2685765101
 30
0.0
 11
0.0
 21
17.074147292
 31
0.0
 40
0.6809694651
 41
-0.4591632385
 42
-0.4428969532
  0
ELLIPSE
  5
46F
100
AcDbEntity
  8
0
100
AcDbEllipse
 62
7
  6
CONTINUOUS
 10
406.2504309751
 20
393.2685765101
 30
0.0
 11
26.4572656832
 21
0.0
 31
0.0
 40
0.6522000222
 41
1.0799095836
 42
1.0908203605
  0
ELLIPSE
  5
470
100
AcDbEntity
  8
0
100
AcDbEllipse
 62
7
  6
CONTINUOUS
 10
391.4535270279
 20
393.2685765101
 30
0.0
 11
54.1559639742
 21
0.0
 31
0.0
 40
0.3252395238
 41
1.037652848
 42
1.0431183298
  0
ELLIPSE
  5
471
100
AcDbEntity
  8
0
100
AcDbEllipse
 62
7
  6
CONTINUOUS
 10
437.9938653857
 20
393.2685765101
 30
0.0
 11
50.2493964744
 21
0.0
 31
0.0
 40
0.3252393709
 41
8.2327201243
 42
8.2365994713
  0
ELLIPSE
  5
472
100
AcDbEntity
  8
0
100
AcDbEllipse
 62
7
  6
CONTINUOUS
 10
421.2725698201
 20
393.2685765101
 30
0.0
 11
0.0
 21
16.856705845
 31
0.0
 40
0.6128518397
 41
0.3094162121
 42
0.3354745618
  0
ELLIPSE
  5
473
100
AcDbEntity
  8
0
100
AcDbEllipse
 62
7
  6
CONTINUOUS
 10
424.6509875513
 20
393.2685765101
 30
0.0
 11
22.83100851
 21
-0.0
 31
0.0
 40
0.7338637918
 41
1.8450689598
 42
1.8605931163
  0
ELLIPSE
  5
474
100
AcDbEntity
  8
0
100
AcDbEllipse
 62
7
  6
CONTINUOUS
 10
490.6817693386
 20
393.2685765101
 30
0.0
 11
-0.0
 21
9.2594807938
 31
0.0
 40
0.682492174
 41
5.8720978759
 42
5.889555476
  0
ELLIPSE
  5
475
100
AcDbEntity
  8
0
100
AcDbEllipse
 62
7
  6
CONTINUOUS
 10
486.3139283132
 20
393.2685765101
 30
0.0
 11
14.9000630398
 21
0.0
 31
0.0
 40
0.6447917716
 41
7.380695585
 42
7.418835768
  0
ELLIPSE
  5
476
100
AcDbEntity
  8
0
100
AcDbEllipse
 62
7
  6
CONTINUOUS
 10
409.826912671
 20
393.2685765101
 30
0.0
 11
107.3112474013
 21
0.0
 31
0.0
 40
0.1275528179
 41
0.689931832
 42
0.6973745254
  0
ELLIPSE
  5
477
100
AcDbEntity
  8
0
100
AcDbEllipse
 62
7
  6
CONTINUOUS
 10
490.6627047954
 20
393.2685765101
 30
0.0
 11
0.0
 21
9.662517137
 31
0.0
 40
0.682492174
 41
5.8757597125
 42
5.903706925
  0
ELLIPSE
  5
478
100
AcDbEntity
  8
0
100
AcDbEllipse
 62
7
  6
CONTINUOUS
 10
492.5886814909
 20
393.2685765101
 30
0.0
 11
-0.0
 21
9.4876995742
 31
0.0
 40
0.2042993056
 41
-0.4097639218
 42
-0.3623640501
  0
ELLIPSE
  5
479
100
AcDbEntity
  8
0
100
AcDbEllipse
 62
7
  6
CONTINUOUS
 10
492.0215376228
 20
393.2685765101
 30
0.0
 11
0.0
 21
9.1234251582
 31
0.0
 40
0.682492174
 41
0.2522804975
 42
0.2673236869
  0
ELLIPSE
  5
47A
100
AcDbEntity
  8
0
100
AcDbEllipse
 62
7
  6
CONTINUOUS
 10
492.7687699465
 20
393.2685765101
 30
0.0
 11
13.8934681455
 21
-0.0
 31
0.0
 40
0.644792003
 41
1.7000546885
 42
1.7372160096
  0
ELLIPSE
  5
47B
100
AcDbEntity
  8
0
100
AcDbEllipse
 62
7
  6
CONTINUOUS
 10
430.3648840078
 20
393.2685765101
 30
0.0
 11
18.8540259045
 21
-0.0
 31
0.0
 40
0.8330891944
 41
1.0887442902
 42
1.1240864589
  0
ELLIPSE
  5
47C
100
AcDbEntity
  8
0
100
AcDbEllipse
 62
7
  6
CONTINUOUS
 10
386.925556003
 20
393.2685765101
 30
0.0
 11
82.7059232573
 21
-0.0
 31
0.0
 40
0.2226238536
 41
0.8946841286
 42
0.8999499982
  0
ELLIPSE
  5
47D
100
AcDbEntity
  8
0
100
AcDbEllipse
 62
7
  6
CONTINUOUS
 10
486.2154836723
 20
393.2685765101
 30
0.0
 11
15.5313474245
 21
0.0
 31
0.0
 40
0.6447917716
 41
7.3943420763
 42
7.4307082237
  0
ELLIPSE
  5
47E
100
AcDbEntity
  8
0
100
AcDbEllipse
 62
7
  6
CONTINUOUS
 10
429.1145616063
 20
393.2685765101
 30
0.0
 11
65.1617969639
 21
0.0
 31
0.0
 40
0.2226238536
 41
1.4155409754
 42
1.4208267271
  0
ELLIPSE
  5
47F
100
AcDbEntity
  8
0
100
AcDbEllipse
 62
7
  6
CONTINUOUS
 10
441.890484266
 20
393.2685765101
 30
0.0
 11
14.9623738014
 21
0.0
 31
0.0
 40
0.9738599758
 41
1.7291443227
 42
1.7522292798
  0
ELLIPSE
  5
480
100
AcDbEntity
  8
0
100
AcDbEllipse
 62
7
  6
CONTINUOUS
 10
441.0975360985
 20
393.2685765101
 30
0.0
 11
0.0
 21
14.7114488704
 31
0.0
 40
0.5113300093
 41
0.1866897142
 42
0.2097696324
  0
ELLIPSE
  5
481
100
AcDbEntity
  8
0
100
AcDbEllipse
 62
7
  6
CONTINUOUS
 10
490.9028450096
 20
393.2685765101
 30
0.0
 11
0.0
 21
9.6592745709
 31
0.0
 40
0.2042993056
 41
0.3120114339
 42
0.3576786225
  0
ELLIPSE
  5
482
100
AcDbEntity
  8
0
100
AcDbEllipse
 62
7
  6
CONTINUOUS
 10
492.0024730796
 20
393.2685765101
 30
0.0
 11
0.0
 21
9.5264615013
 31
0.0
 40
0.682492174
 41
0.2383713169
 42
0.26540478
  0
ELLIPSE
  5
483
100
AcDbEntity
  8
0
100
AcDbEllipse
 62
7
  6
CONTINUOUS
 10
492.6703253762
 20
393.2685765101
 30
0.0
 11
14.5247522981
 21
0.0
 31
0.0
 40
0.644792003
 41
1.6875803421
 42
1.7230591445
  0
ELLIPSE
  5
484
100
AcDbEntity
  8
0
100
AcDbEllipse
 62
7
  6
CONTINUOUS
 10
456.4886630862
 20
393.2685765101
 30
0.0
 11
80.6685243952
 21
-0.0
 31
0.0
 40
0.1275527691
 41
1.1220092933
 42
1.1290233257
  0
ELLIPSE
  5
485
100
AcDbEntity
  8
0
100
AcDbEllipse
 62
7
  6
CONTINUOUS
 10
407.3112584996
 20
393.2685765101
 30
0.0
 11
111.3441919729
 21
-0.0
 31
0.0
 40
0.1275528179
 41
0.6982842248
 42
0.705387672
  0
ELLIPSE
  5
486
100
AcDbEntity
  8
0
100
AcDbEllipse
 62
7
  6
CONTINUOUS
 10
493.0671461806
 20
393.2685765101
 30
0.0
 11
48.2092186521
 21
-0.0
 31
0.0
 40
0.1672984766
 41
1.5805914023
 42
1.5894190958
  0
ELLIPSE
  5
487
100
AcDbEntity
  8
0
100
AcDbEllipse
 62
7
  6
CONTINUOUS
 10
499.5202320465
 20
393.2685765101
 30
0.0
 11
26.9132471955
 21
0.0
 31
0.0
 40
0.3101067751
 41
1.8212384336
 42
1.8310431297
  0
ELLIPSE
  5
488
100
AcDbEntity
  8
0
100
AcDbEllipse
 62
7
  6
CONTINUOUS
 10
499.1460303871
 20
393.2685765101
 30
0.0
 11
18.0198509407
 21
0.0
 31
0.0
 40
0.4788844362
 41
1.9076169227
 42
1.9277053361
  0
ELLIPSE
  5
489
100
AcDbEntity
  8
0
100
AcDbEllipse
 62
7
  6
CONTINUOUS
 10
440.2533681507
 20
393.2685765101
 30
0.0
 11
0.0
 21
14.8150735538
 31
0.0
 40
0.1702383026
 41
0.1862133565
 42
0.2206699678
  0
ELLIPSE
  5
48A
100
AcDbEntity
  8
0
100
AcDbEllipse
 62
7
  6
CONTINUOUS
 10
497.0827540549
 20
393.2685765101
 30
0.0
 11
9.2244455585
 21
0.0
 31
0.0
 40
0.9738609147
 41
1.9760493053
 42
2.0063691338
  0
ELLIPSE
  5
48B
100
AcDbEntity
  8
0
100
AcDbEllipse
 62
7
  6
CONTINUOUS
 10
495.8534329123
 20
393.2685765101
 30
0.0
 11
0.0
 21
9.1395782946
 31
0.0
 40
0.6139624314
 41
0.3936126812
 42
0.4434161553
  0
ELLIPSE
  5
48C
100
AcDbEntity
  8
0
100
AcDbEllipse
 62
7
  6
CONTINUOUS
 10
494.3689057845
 20
393.2685765101
 30
0.0
 11
-0.0
 21
9.3071332509
 31
0.0
 40
0.1702383026
 41
0.3764533799
 42
0.4349209289
  0
ELLIPSE
  5
48D
100
AcDbEntity
  8
0
100
AcDbEllipse
 62
7
  6
CONTINUOUS
 10
489.1474800508
 20
393.2685765101
 30
0.0
 11
0.0
 21
9.8385758362
 31
0.0
 40
0.1702383175
 41
-0.4470393526
 42
-0.3914022463
  0
ELLIPSE
  5
48E
100
AcDbEntity
  8
0
100
AcDbEllipse
 62
7
  6
CONTINUOUS
 10
486.9848757345
 20
393.2685765101
 30
0.0
 11
0.0
 21
10.0406074881
 31
0.0
 40
0.6139624853
 41
5.7483670311
 42
5.7958563968
  0
ELLIPSE
  5
48F
100
AcDbEntity
  8
0
100
AcDbEllipse
 62
7
  6
CONTINUOUS
 10
484.4354226678
 20
393.2685765101
 30
0.0
 11
10.5392921425
 21
0.0
 31
0.0
 40
0.9738607998
 41
7.254462069
 42
7.2835202475
  0
ELLIPSE
  5
490
100
AcDbEntity
  8
0
100
AcDbEllipse
 62
7
  6
CONTINUOUS
 10
475.9295989469
 20
393.2685765101
 30
0.0
 11
22.8471118305
 21
-0.0
 31
0.0
 40
0.4788843486
 41
0.8665259504
 42
0.8859192529
  0
ELLIPSE
  5
491
100
AcDbEntity
  8
0
100
AcDbEllipse
 62
7
  6
CONTINUOUS
 10
463.7890878918
 20
393.2685765101
 30
0.0
 11
38.0573377646
 21
0.0
 31
0.0
 40
0.3101070959
 41
7.0581902228
 42
7.0677317342
  0
ELLIPSE
  5
492
100
AcDbEntity
  8
0
100
AcDbEllipse
 62
7
  6
CONTINUOUS
 10
420.8823499453
 20
393.2685765101
 30
0.0
 11
85.73143487
 21
0.0
 31
0.0
 40
0.1672984123
 41
6.8880454959
 42
6.8967198767
  0
ELLIPSE
  5
493
100
AcDbEntity
  8
0
100
AcDbEllipse
 62
7
  6
CONTINUOUS
 10
499.3245021886
 20
393.2685765101
 30
0.0
 11
17.1615004451
 21
0.0
 31
0.0
 40
0.4788844362
 41
1.936297347
 42
1.9576255681
  0
ELLIPSE
  5
494
100
AcDbEntity
  8
0
100
AcDbEllipse
 62
7
  6
CONTINUOUS
 10
416.1220697799
 20
393.2685765101
 30
0.0
 11
-0.0
 21
16.5950084751
 31
0.0
 40
0.8989956671
 41
6.0614361762
 42
6.1426389539
  0
ELLIPSE
  5
495
100
AcDbEntity
  8
0
100
AcDbEllipse
 62
7
  6
CONTINUOUS
 10
497.125909657
 20
393.2685765101
 30
0.0
 11
8.8093372722
 21
0.0
 31
0.0
 40
0.9738609147
 41
2.0017393351
 42
2.0338816075
  0
ELLIPSE
  5
496
100
AcDbEntity
  8
0
100
AcDbEllipse
 62
7
  6
CONTINUOUS
 10
495.8688610906
 20
393.2685765101
 30
0.0
 11
0.0
 21
8.7367266332
 31
0.0
 40
0.6139624314
 41
0.4159816493
 42
0.4686547652
  0
ELLIPSE
  5
497
100
AcDbEntity
  8
0
100
AcDbEllipse
 62
7
  6
CONTINUOUS
 10
494.3700919509
 20
393.2685765101
 30
0.0
 11
-0.0
 21
8.9050057214
 31
0.0
 40
0.1702383026
 41
0.3952164493
 42
0.4568771707
  0
ELLIPSE
  5
498
100
AcDbEntity
  8
0
100
AcDbEllipse
 62
7
  6
CONTINUOUS
 10
416.4057639728
 20
393.2685765101
 30
0.0
 11
0.0
 21
16.5920090478
 31
0.0
 40
0.2042583551
 41
-0.4472655597
 42
-0.4195938583
  0
ELLIPSE
  5
499
100
AcDbEntity
  8
0
100
AcDbEllipse
 62
7
  6
CONTINUOUS
 10
413.3595685061
 20
393.2685765101
 30
0.0
 11
-0.0
 21
16.673376148
 31
0.0
 40
0.6128518397
 41
-0.4853790337
 42
-0.4573335034
  0
ELLIPSE
  5
49A
100
AcDbEntity
  8
0
100
AcDbEllipse
 62
7
  6
CONTINUOUS
 10
407.0581774091
 20
393.2685765101
 30
0.0
 11
22.9424566149
 21
-0.0
 31
0.0
 40
0.7338637918
 41
1.0503214794
 42
1.067342227
  0
ELLIPSE
  5
49B
100
AcDbEntity
  8
0
100
AcDbEllipse
 62
7
  6
CONTINUOUS
 10
395.6148877554
 20
393.2685765101
 30
0.0
 11
43.8177388615
 21
-0.0
 31
0.0
 40
0.3907057603
 41
1.0107277093
 42
1.0221497483
  0
ELLIPSE
  5
49C
100
AcDbEntity
  8
0
100
AcDbEllipse
 62
7
  6
CONTINUOUS
 10
490.6129029573
 20
393.2685765101
 30
0.0
 11
11.5465816241
 21
0.0
 31
0.0
 40
0.8330891944
 41
7.636388618
 42
7.6889484007
  0
ELLIPSE
  5
49D
100
AcDbEntity
  8
0
100
AcDbEllipse
 62
7
  6
CONTINUOUS
 10
433.2121774038
 20
393.2685765101
 30
0.0
 11
0.0
 21
15.4689205263
 31
0.0
 40
0.9025081731
 41
-0.3564882377
 42
-0.21656032
  0
ELLIPSE
  5
49E
100
AcDbEntity
  8
0
100
AcDbEllipse
 62
7
  6
CONTINUOUS
 10
428.12183747
 20
393.2685765101
 30
0.0
 11
24.5907628879
 21
-0.0
 31
0.0
 40
0.644789244
 41
7.4254747977
 42
7.4368602017
  0
ELLIPSE
  5
49F
100
AcDbEntity
  8
0
100
AcDbEllipse
 62
7
  6
CONTINUOUS
 10
407.3510434688
 20
393.2685765101
 30
0.0
 11
74.2120674155
 21
0.0
 31
0.0
 40
0.2226238536
 41
1.3832103567
 42
1.3878774138
  0
ELLIPSE
  5
4A0
100
AcDbEntity
  8
0
100
AcDbEllipse
 62
7
  6
CONTINUOUS
 10
420.7618840715
 20
393.2685765101
 30
0.0
 11
-0.0
 21
16.7978288008
 31
0.0
 40
0.2042993056
 41
6.1077376721
 42
6.1328704277
  0
ELLIPSE
  5
4A1
100
AcDbEntity
  8
0
100
AcDbEllipse
 62
7
  6
CONTINUOUS
 10
423.6938114342
 20
393.2685765101
 30
0.0
 11
16.854143125
 21
0.0
 31
0.0
 40
0.9738599758
 41
1.6994697186
 42
1.7198647399
  0
ELLIPSE
  5
4A2
100
AcDbEntity
  8
0
100
AcDbEllipse
 62
7
  6
CONTINUOUS
 10
418.9993117582
 20
393.2685765101
 30
0.0
 11
0.0
 21
16.9400505805
 31
0.0
 40
0.682492174
 41
6.0849876156
 42
6.0999820133
  0
ELLIPSE
  5
4A3
100
AcDbEntity
  8
0
100
AcDbEllipse
 62
7
  6
CONTINUOUS
 10
413.990974442
 20
393.2685765101
 30
0.0
 11
26.7943863131
 21
0.0
 31
0.0
 40
0.644789244
 41
7.585232222
 42
7.5951025803
  0
ELLIPSE
  5
4A4
100
AcDbEntity
  8
0
100
AcDbEllipse
 62
7
  6
CONTINUOUS
 10
423.0487675344
 20
393.2685765101
 30
0.0
 11
0.0
 21
16.546264753
 31
0.0
 40
0.5113300093
 41
0.1599420254
 42
0.1803554315
  0
ELLIPSE
  5
4A5
100
AcDbEntity
  8
0
100
AcDbEllipse
 62
7
  6
CONTINUOUS
 10
422.2479624504
 20
393.2685765101
 30
0.0
 11
-0.0
 21
16.647684003
 31
0.0
 40
0.1702383026
 41
0.1635797205
 42
0.1940973107
  0
ELLIPSE
  5
4A6
100
AcDbEntity
  8
0
100
AcDbEllipse
 62
7
  6
CONTINUOUS
 10
441.9336399513
 20
393.2685765101
 30
0.0
 11
14.5472651105
 21
0.0
 31
0.0
 40
0.9738599758
 41
1.7367097689
 42
1.7391164681
  0
ELLIPSE
  5
4A7
100
AcDbEntity
  8
0
100
AcDbEllipse
 62
7
  6
CONTINUOUS
 10
441.1082373265
 20
393.2685765101
 30
0.0
 11
0.0
 21
14.3088374052
 31
0.0
 40
0.5113300093
 41
0.1934974424
 42
0.2172615342
  0
ELLIPSE
  5
4A8
100
AcDbEntity
  8
0
100
AcDbEllipse
 62
7
  6
CONTINUOUS
 10
422.2491486167
 20
393.2685765101
 30
0.0
 11
0.0
 21
16.2455564735
 31
0.0
 40
0.1702383026
 41
0.1681017322
 42
0.1994029717
  0
ELLIPSE
  5
4A9
100
AcDbEntity
  8
0
100
AcDbEllipse
 62
7
  6
CONTINUOUS
 10
423.0594687623
 20
393.2685765101
 30
0.0
 11
-0.0
 21
16.1436532878
 31
0.0
 40
0.5113300093
 41
0.1652806922
 42
0.1862237048
  0
ELLIPSE
  5
4AA
100
AcDbEntity
  8
0
100
AcDbEllipse
 62
7
  6
CONTINUOUS
 10
423.7369671196
 20
393.2685765101
 30
0.0
 11
16.4390344341
 21
0.0
 31
0.0
 40
0.9738599758
 41
1.7053863325
 42
1.7123589093
  0
ELLIPSE
  5
4AB
100
AcDbEntity
  8
0
100
AcDbEllipse
 62
7
  6
CONTINUOUS
 10
409.6731934978
 20
393.2685765101
 30
0.0
 11
27.4677183816
 21
-0.0
 31
0.0
 40
0.644789244
 41
7.4551673386
 42
7.4613613891
  0
ELLIPSE
  5
4AC
100
AcDbEntity
  8
0
100
AcDbEllipse
 62
7
  6
CONTINUOUS
 10
416.1132095446
 20
393.2685765101
 30
0.0
 11
-0.0
 21
16.9952799236
 31
0.0
 40
0.8989956671
 41
6.0654148812
 42
6.1453848458
  0
ELLIPSE
  5
4AD
100
AcDbEntity
  8
0
100
AcDbEllipse
 62
7
  6
CONTINUOUS
 10
365.1620378655
 20
393.2685765101
 30
0.0
 11
91.7561937088
 21
-0.0
 31
0.0
 40
0.2226238536
 41
0.9209550095
 42
0.9256066927
  0
ELLIPSE
  5
4AE
100
AcDbEntity
  8
0
100
AcDbEllipse
 62
7
  6
CONTINUOUS
 10
440.2545543171
 20
393.2685765101
 30
0.0
 11
0.0
 21
14.4129460244
 31
0.0
 40
0.1702383026
 41
0.1919647714
 42
0.2274293002
  0
ELLIPSE
  5
4AF
100
AcDbEntity
  8
0
100
AcDbEllipse
 62
7
  6
CONTINUOUS
 10
433.2455149277
 20
393.2685765101
 30
0.0
 11
-0.0
 21
15.0651601114
 31
0.0
 40
0.9025081731
 41
5.9193226713
 42
6.0617141669
  0
ELLIPSE
  5
4B0
100
AcDbEntity
  8
0
100
AcDbEllipse
 62
7
  6
CONTINUOUS
 10
432.4396786328
 20
393.2685765101
 30
0.0
 11
23.9172845722
 21
-0.0
 31
0.0
 40
0.6447930255
 41
7.5715347449
 42
7.5826326274
  0
ELLIPSE
  5
4B1
100
AcDbEntity
  8
0
100
AcDbEllipse
 62
7
  6
CONTINUOUS
 10
437.0861887821
 20
393.2685765101
 30
0.0
 11
-0.0
 21
15.103298833
 31
0.0
 40
0.682493482
 41
6.0691346444
 42
6.0860030064
  0
ELLIPSE
  5
4B2
100
AcDbEntity
  8
0
100
AcDbEllipse
 62
7
  6
CONTINUOUS
 10
263.548861795
 20
393.2685765101
 30
0.0
 11
198.555989881
 21
0.0
 31
0.0
 40
0.1275528179
 41
0.6584509544
 42
0.6605495735
  0
ELLIPSE
  5
4B3
100
AcDbEntity
  8
0
100
AcDbEllipse
 62
7
  6
CONTINUOUS
 10
384.8340027852
 20
393.2685765101
 30
0.0
 11
61.4499669489
 21
-0.0
 31
0.0
 40
0.3101107064
 41
0.9445506387
 42
0.9496692296
  0
ELLIPSE
  5
4B4
100
AcDbEntity
  8
0
100
AcDbEllipse
 62
7
  6
CONTINUOUS
 10
408.2015329986
 20
393.2685765101
 30
0.0
 11
27.0812800719
 21
-0.0
 31
0.0
 40
0.644789244
 41
7.3573199583
 42
7.3680126965
  0
ELLIPSE
  5
4B5
100
AcDbEntity
  8
0
100
AcDbEllipse
 62
7
  6
CONTINUOUS
 10
416.4528613464
 20
393.2685765101
 30
0.0
 11
-0.0
 21
16.7975464295
 31
0.0
 40
0.682492174
 41
5.8489738791
 42
5.8652790343
  0
ELLIPSE
  5
4B6
100
AcDbEntity
  8
0
100
AcDbEllipse
 62
7
  6
CONTINUOUS
 10
438.7696692968
 20
393.2685765101
 30
0.0
 11
-0.0
 21
14.9650972603
 31
0.0
 40
0.2042993056
 41
6.0885802898
 42
6.1168772743
  0
ELLIPSE
  5
4B7
100
AcDbEntity
  8
0
100
AcDbEllipse
 62
7
  6
CONTINUOUS
 10
429.8037837983
 20
393.2685765101
 30
0.0
 11
47.4245342432
 21
-0.0
 31
0.0
 40
0.3101110272
 41
1.7552520235
 42
1.7607314482
  0
ELLIPSE
  5
4B8
100
AcDbEntity
  8
0
100
AcDbEllipse
 62
7
  6
CONTINUOUS
 10
428.2202828827
 20
393.2685765101
 30
0.0
 11
23.9594759683
 21
-0.0
 31
0.0
 40
0.644789244
 41
1.1347574955
 42
1.146482045
  0
ELLIPSE
  5
4B9
100
AcDbEntity
  8
0
100
AcDbEllipse
 62
7
  6
CONTINUOUS
 10
437.6075350186
 20
393.2685765101
 30
0.0
 11
32.3560284935
 21
0.0
 31
0.0
 40
0.4550218504
 41
7.1972895851
 42
7.330351418
  0
ELLIPSE
  5
4BA
100
AcDbEntity
  8
0
100
AcDbEllipse
 62
7
  6
CONTINUOUS
 10
426.0984336575
 20
393.2685765101
 30
0.0
 11
25.0112380609
 21
0.0
 31
0.0
 40
0.6522000222
 41
1.8701479879
 42
1.8808491498
  0
ELLIPSE
  5
4BB
100
AcDbEntity
  8
0
100
AcDbEllipse
 62
7
  6
CONTINUOUS
 10
422.1166984041
 20
393.2685765101
 30
0.0
 11
-0.0
 21
16.4329452128
 31
0.0
 40
0.6809694651
 41
0.3321986622
 42
0.3483346678
  0
ELLIPSE
  5
4BC
100
AcDbEntity
  8
0
100
AcDbEllipse
 62
7
  6
CONTINUOUS
 10
437.8052167556
 20
393.2685765101
 30
0.0
 11
31.4505643598
 21
-0.0
 31
0.0
 40
0.4550218504
 41
0.8997687195
 42
1.0377753219
  0
ELLIPSE
  5
4BD
100
AcDbEntity
  8
0
100
AcDbEllipse
 62
7
  6
CONTINUOUS
 10
398.2425088496
 20
393.2685765101
 30
0.0
 11
52.3601397453
 21
0.0
 31
0.0
 40
0.3252393709
 41
1.1547593949
 42
1.1583066741
  0
ELLIPSE
  5
4BE
100
AcDbEntity
  8
0
100
AcDbEllipse
 62
7
  6
CONTINUOUS
 10
431.41214289
 20
393.2685765101
 30
0.0
 11
49.5758598092
 21
0.0
 31
0.0
 40
0.3252395238
 41
1.8243153601
 42
1.8296391798
  0
ELLIPSE
  5
4BF
100
AcDbEntity
  8
0
100
AcDbEllipse
 62
7
  6
CONTINUOUS
 10
395.5430702311
 20
393.2685765101
 30
0.0
 11
44.8444262817
 21
0.0
 31
0.0
 40
0.3907057603
 41
7.3063305498
 42
7.3174079367
  0
ELLIPSE
  5
4C0
100
AcDbEntity
  8
0
100
AcDbEllipse
 62
7
  6
CONTINUOUS
 10
407.0378210953
 20
393.2685765101
 30
0.0
 11
23.4881012629
 21
-0.0
 31
0.0
 40
0.7338637918
 41
7.3457806326
 42
7.3622956012
  0
ELLIPSE
  5
4C1
100
AcDbEntity
  8
0
100
AcDbEllipse
 62
7
  6
CONTINUOUS
 10
413.3554509355
 20
393.2685765101
 30
0.0
 11
0.0
 21
17.0735826429
 31
0.0
 40
0.6128518397
 41
5.8096882981
 42
5.8369189307
  0
ELLIPSE
  5
4C2
100
AcDbEntity
  8
0
100
AcDbEllipse
 62
7
  6
CONTINUOUS
 10
416.4053065795
 20
393.2685765101
 30
0.0
 11
0.0
 21
16.9921654073
 31
0.0
 40
0.2042583551
 41
-0.4361447819
 42
-0.4092567349
  0
ELLIPSE
  5
4C3
100
AcDbEntity
  8
0
100
AcDbEllipse
 62
7
  6
CONTINUOUS
 10
453.0676624742
 20
393.2685765101
 30
0.0
 11
16.1004202002
 21
-0.0
 31
0.0
 40
0.8330891944
 41
1.3172941477
 42
1.3553392902
  0
ELLIPSE
  5
4C4
100
AcDbEntity
  8
0
100
AcDbEllipse
 62
7
  6
CONTINUOUS
 10
469.2515701281
 20
393.2685765101
 30
0.0
 11
13.5434703856
 21
0.0
 31
0.0
 40
0.870162248
 41
1.1238226676
 42
1.2526109023
  0
ELLIPSE
  5
4C5
100
AcDbEntity
  8
0
100
AcDbEllipse
 62
7
  6
CONTINUOUS
 10
423.9652044122
 20
393.2685765101
 30
0.0
 11
0.0
 21
16.4432910401
 31
0.0
 40
0.6139610206
 41
0.3763810724
 42
0.3840488301
  0
ELLIPSE
  5
4C6
100
AcDbEntity
  8
0
100
AcDbEllipse
 62
7
  6
CONTINUOUS
 10
421.6303428514
 20
393.2685765101
 30
0.0
 11
0.0
 21
16.7094419294
 31
0.0
 40
0.2042993056
 41
0.3877401819
 42
0.414823001
  0
ELLIPSE
  5
4C7
100
AcDbEntity
  8
0
100
AcDbEllipse
 62
7
  6
CONTINUOUS
 10
423.9806325195
 20
393.2685765101
 30
0.0
 11
0.0
 21
16.0404393822
 31
0.0
 40
0.6139610206
 41
0.3880185172
 42
0.4003789019
  0
ELLIPSE
  5
4C8
100
AcDbEntity
  8
0
100
AcDbEllipse
 62
7
  6
CONTINUOUS
 10
421.6320511541
 20
393.2685765101
 30
0.0
 11
0.0
 21
16.307287829
 31
0.0
 40
0.2042993056
 41
0.3983893621
 42
0.4262725457
  0
ELLIPSE
  5
4C9
100
AcDbEntity
  8
0
100
AcDbEllipse
 62
7
  6
CONTINUOUS
 10
429.378188684
 20
393.2685765101
 30
0.0
 11
48.7891265374
 21
-0.0
 31
0.0
 40
0.3101110272
 41
1.7411779565
 42
1.7464904126
  0
ELLIPSE
  5
4CA
100
AcDbEntity
  8
0
100
AcDbEllipse
 62
7
  6
CONTINUOUS
 10
428.5230755064
 20
393.2685765101
 30
0.0
 11
21.8027543577
 21
-0.0
 31
0.0
 40
0.7272855427
 41
1.9013801146
 42
1.9179356184
  0
ELLIPSE
  5
4CB
100
AcDbEntity
  8
0
100
AcDbEllipse
 62
7
  6
CONTINUOUS
 10
425.3664083448
 20
393.2685765101
 30
0.0
 11
0.0
 21
16.3009311351
 31
0.0
 40
0.6139624314
 41
0.3749324199
 42
0.4025010494
  0
ELLIPSE
  5
4CC
100
AcDbEntity
  8
0
100
AcDbEllipse
 62
7
  6
CONTINUOUS
 10
423.0607486323
 20
393.2685765101
 30
0.0
 11
0.0
 21
16.563863239
 31
0.0
 40
0.2042993056
 41
0.3860944107
 42
0.4133975148
  0
ELLIPSE
  5
4CD
100
AcDbEntity
  8
0
100
AcDbEllipse
 62
7
  6
CONTINUOUS
 10
489.1486662174
 20
393.2685765101
 30
0.0
 11
-0.0
 21
9.4364483067
 31
0.0
 40
0.1702383175
 41
-0.4667445173
 42
-0.408249527
  0
ELLIPSE
  5
4CE
100
AcDbEntity
  8
0
100
AcDbEllipse
 62
7
  6
CONTINUOUS
 10
487.0003039155
 20
393.2685765101
 30
0.0
 11
0.0
 21
9.6377558265
 31
0.0
 40
0.6139624853
 41
-0.5566934865
 42
-0.5066300179
  0
ELLIPSE
  5
4CF
100
AcDbEntity
  8
0
100
AcDbEllipse
 62
7
  6
CONTINUOUS
 10
484.4785782802
 20
393.2685765101
 30
0.0
 11
10.1241838066
 21
-0.0
 31
0.0
 40
0.9738607998
 41
0.9482344849
 42
0.9789436393
  0
ELLIPSE
  5
4D0
100
AcDbEntity
  8
0
100
AcDbEllipse
 62
7
  6
CONTINUOUS
 10
261.0332076236
 20
393.2685765101
 30
0.0
 11
202.5889344527
 21
0.0
 31
0.0
 40
0.1275528179
 41
0.6638704693
 42
0.6671665028
  0
ELLIPSE
  5
4D1
100
AcDbEntity
  8
0
100
AcDbEllipse
 62
7
  6
CONTINUOUS
 10
384.4084067905
 20
393.2685765101
 30
0.0
 11
62.814560792
 21
0.0
 31
0.0
 40
0.3101107064
 41
0.9518837635
 42
0.9568652517
  0
ELLIPSE
  5
4D2
100
AcDbEntity
  8
0
100
AcDbEllipse
 62
7
  6
CONTINUOUS
 10
408.1030875858
 20
393.2685765101
 30
0.0
 11
27.7125669914
 21
-0.0
 31
0.0
 40
0.644789244
 41
7.3656069829
 42
7.3760111543
  0
ELLIPSE
  5
4D3
100
AcDbEntity
  8
0
100
AcDbEllipse
 62
7
  6
CONTINUOUS
 10
476.1080708138
 20
393.2685765101
 30
0.0
 11
21.988761171
 21
0.0
 31
0.0
 40
0.4788843486
 41
0.8437893379
 42
0.8643239072
  0
ELLIPSE
  5
4D4
100
AcDbEntity
  8
0
100
AcDbEllipse
 62
7
  6
CONTINUOUS
 10
416.4337968031
 20
393.2685765101
 30
0.0
 11
-0.0
 21
17.2005827726
 31
0.0
 40
0.682492174
 41
5.8580307366
 42
5.873890855
  0
ELLIPSE
  5
4D5
100
AcDbEntity
  8
0
100
AcDbEllipse
 62
7
  6
CONTINUOUS
 10
419.0613566142
 20
393.2685765101
 30
0.0
 11
-0.0
 21
16.9643731359
 31
0.0
 40
0.3406300851
 41
-0.4092731864
 42
-0.3932742249
  0
ELLIPSE
  5
4D6
100
AcDbEntity
  8
0
100
AcDbEllipse
 62
7
  6
CONTINUOUS
 10
464.214693797
 20
393.2685765101
 30
0.0
 11
36.6927264882
 21
-0.0
 31
0.0
 40
0.3101070959
 41
0.7533697514
 42
0.7634868225
  0
ELLIPSE
  5
4D7
100
AcDbEntity
  8
0
100
AcDbEllipse
 62
7
  6
CONTINUOUS
 10
422.3446867605
 20
393.2685765101
 30
0.0
 11
82.9182075699
 21
-0.0
 31
0.0
 40
0.1672984123
 41
0.5865520377
 42
0.5957603098
  0
ELLIPSE
  5
4D8
100
AcDbEntity
  8
0
100
AcDbEllipse
 62
7
  6
CONTINUOUS
 10
494.5294818731
 20
393.2685765101
 30
0.0
 11
45.3959927237
 21
-0.0
 31
0.0
 40
0.1672984766
 41
1.613424034
 42
1.6228083489
  0
ELLIPSE
  5
4D9
100
AcDbEntity
  8
0
100
AcDbEllipse
 62
7
  6
CONTINUOUS
 10
428.6004541555
 20
393.2685765101
 30
0.0
 11
21.2445327681
 21
0.0
 31
0.0
 40
0.7272855427
 41
1.914277137
 42
1.931348291
  0
ELLIPSE
  5
4DA
100
AcDbEntity
  8
0
100
AcDbEllipse
 62
7
  6
CONTINUOUS
 10
425.381836523
 20
393.2685765101
 30
0.0
 11
-0.0
 21
15.8980794736
 31
0.0
 40
0.6139624314
 41
0.3866306157
 42
0.4150409756
  0
ELLIPSE
  5
4DB
100
AcDbEntity
  8
0
100
AcDbEllipse
 62
7
  6
CONTINUOUS
 10
423.062456935
 20
393.2685765101
 30
0.0
 11
0.0
 21
16.1617091385
 31
0.0
 40
0.2042993056
 41
0.3967912797
 42
0.4249074501
  0
ELLIPSE
  5
4DC
100
AcDbEntity
  8
0
100
AcDbEllipse
 62
7
  6
CONTINUOUS
 10
499.9458388322
 20
393.2685765101
 30
0.0
 11
25.5486343703
 21
0.0
 31
0.0
 40
0.3101067751
 41
1.8522248912
 42
1.8626434801
  0
ELLIPSE
  5
4DD
100
AcDbEntity
  8
0
100
AcDbEllipse
 62
7
  6
CONTINUOUS
 10
398.1388697016
 20
393.2685765101
 30
0.0
 11
53.5948220578
 21
0.0
 31
0.0
 40
0.3252393709
 41
1.1625869198
 42
1.1662631243
  0
ELLIPSE
  5
4DE
100
AcDbEntity
  8
0
100
AcDbEllipse
 62
7
  6
CONTINUOUS
 10
431.3085038395
 20
393.2685765101
 30
0.0
 11
50.810541537
 21
-0.0
 31
0.0
 40
0.3252395238
 41
1.8159214176
 42
1.821104564
  0
ELLIPSE
  5
4DF
100
AcDbEntity
  8
0
100
AcDbEllipse
 62
7
  6
CONTINUOUS
 10
426.0726604517
 20
393.2685765101
 30
0.0
 11
25.6253180704
 21
0.0
 31
0.0
 40
0.6522000222
 41
1.8617104397
 42
1.8721274345
  0
ELLIPSE
  5
4E0
100
AcDbEntity
  8
0
100
AcDbEllipse
 62
7
  6
CONTINUOUS
 10
422.1116146406
 20
393.2685765101
 30
0.0
 11
-0.0
 21
16.8331649411
 31
0.0
 40
0.6809694651
 41
0.3235401289
 42
0.3392437598
  0
ELLIPSE
  5
4E1
100
AcDbEntity
  8
0
100
AcDbEllipse
 62
7
  6
CONTINUOUS
 10
420.2576358506
 20
393.2685765101
 30
0.0
 11
0.0
 21
16.8861537128
 31
0.0
 40
0.3404402987
 41
0.3480269561
 42
0.3638214154
  0
ELLIPSE
  5
4E2
100
AcDbEntity
  8
0
100
AcDbEllipse
 62
7
  6
CONTINUOUS
 10
472.7472426609
 20
393.2685765101
 30
0.0
 11
13.7134963115
 21
-0.0
 31
0.0
 40
0.8330891944
 41
1.3979652401
 42
1.441910073
  0
ELLIPSE
  5
4E3
100
AcDbEntity
  8
0
100
AcDbEllipse
 62
7
  6
CONTINUOUS
 10
459.0043191803
 20
393.2685765101
 30
0.0
 11
76.6355776828
 21
0.0
 31
0.0
 40
0.1275527691
 41
1.1330721059
 42
1.1404163628
  0
ENDSEC
  0
SECTION
  2
OBJECTS
  0
DICTIONARY
  5
C
100
AcDbDictionary
280
0
281
1
  3
ACAD_GROUP
350
D
  3
ACAD_MLINESTYLE
350
17
  3
ACAD_LAYOUT
350
1A
  3
ACAD_PLOTSETTINGS
350
19
  3
ACAD_PLOTSTYLENAME
350
E
  0
DICTIONARY
  5
D
102
{ACAD_REACTORS
330
C
102
}
100
AcDbDictionary
280
0
281
1
  0
ACDBDICTIONARYWDFLT
  5
E
102
{ACAD_REACTORS
330
C
102
}
100
AcDbDictionary
281
1
  3
Normal
350
F
100
AcDbDictionaryWithDefault
340
F
  0
DICTIONARY
  5
17
102
{ACAD_REACTORS
330
C
102
}
100
AcDbDictionary
280
0
281
1
  3
Standard
350
18
  0
DICTIONARY
  5
19
102
{ACAD_REACTORS
330
C
102
}
100
AcDbDictionary
281
1
  0
DICTIONARY
  5
1A
102
{ACAD_REACTORS
330
C
102
}
100
AcDbDictionary
281
1
  3
Model
350
4E4
  3
Layout1
350
4E5
  0
ACDBPLACEHOLDER
  5
F
102
{ACAD_REACTORS
330
E
102
}
  0
MLINESTYLE
  5
18
102
{ACAD_REACTORS
330
17
102
}
100
AcDbMlineStyle
  2
STANDARD
 70
0
  3

 62
256
 51
90.0
 52
90.0
 71
2
 49
0.5
 62
256
  6
BYLAYER
 49
-0.5
 62
256
  6
BYLAYER
  0
LAYOUT
  5
4E4
102
{ACAD_REACTORS
330
1A
102
}
100
AcDbPlotSettings
  1

  2
none_device
  4

  6

 40
0.0
 41
0.0
 42
0.0
 43
0.0
 44
210.0
 45
297.0
 46
0.0
 47
0.0
 48
0.0
 49
0.0
140
0.0
141
0.0
142
1.0
143
1.0
 70
1024
 72
1
 73
0
 74
0
  7

 75
0
147
1.0
148
0.0
149
0.0
100
AcDbLayout
  1
Model
 70
0
 71
0
 10
0.0
 20
0.0
 11
210.0
 21
297.0
 12
0.0
 22
0.0
 32
0.0
 14
0.0
 24
0.0
 34
0.0
 15
0.0
 25
0.0
 35
0.0
146
0.0
 13
0.0
 23
0.0
 33
0.0
 16
1.0
 26
0.0
 36
0.0
 17
0.0
 27
1.0
 37
0.0
 76
0
330
210
345
0
346
0
  0
LAYOUT
  5
4E5
102
{ACAD_REACTORS
330
1A
102
}
100
AcDbPlotSettings
  1

  2
none_device
  4

  6

 40
0.0
 41
0.0
 42
0.0
 43
0.0
 44
210.0
 45
297.0
 46
0.0
 47
0.0
 48
0.0
 49
0.0
140
0.0
141
0.0
142
1.0
143
1.0
 70
0
 72
1
 73
0
 74
0
  7

 75
0
147
1.0
148
0.0
149
0.0
100
AcDbLayout
  1
Layout1
 70
0
 71
1
 10
0.0
 20
0.0
 11
210.0
 21
297.0
 12
0.0
 22
0.0
 32
0.0
 14
0.0
 24
0.0
 34
0.0
 15
0.0
 25
0.0
 35
0.0
146
0.0
 13
0.0
 23
0.0
 33
0.0
 16
1.0
 26
0.0
 36
0.0
 17
0.0
 27
1.0
 37
0.0
 76
0
330
211
345
0
346
0
  0
ENDSEC
  0
EOF
