999
DXF file: C:\Users\sesa63760\Dev\_Creo\CAD\MCADFD0002484_3D-CAD\drw0001_3.dxf
999
Pro/ENGINEER 2019471 by Parametric Technology Corporation
  0
SECTION
  2
HEADER
  9
$ACADVER
  1
AC1024
  9
$DWGCODEPAGE
  3
ANSI_1252
  9
$EXTMAX
 10
108.9115201287
 20
154.0320070392
 30
0.0
  9
$EXTMIN
 10
0.0
 20
0.0
 30
0.0
  9
$LIMMIN
 10
0.0
 20
0.0
  9
$LIMMAX
 10
108.9115201287
 20
154.0320070392
  9
$VIEWCTR
 10
54.4557600644
 20
77.0160035196
  9
$VIEWSIZE
 40
154.0320070392
  9
$CLAYER
  8
0
  9
$LTSCALE
 40
10.0406049033
  9
$CELTYPE
  6
BYLAYER
  9
$DIMSCALE
 40
1.0
  9
$DIMASZ
 40
1.2965657158
  9
$DIMEXO
 40
1.0
  9
$DIMDLI
 40
6.9371452059
  9
$DIMEXE
 40
1.0
  9
$DIMCEN
 40
1.6430080751
  9
$DIMLFAC
 40
1.0
  9
$DIMBLK
  1
_FILLED
  9
$DIMALT
 70
0
  9
$DIMALTF
 40
0.0393700787
  9
$DIMTXT
 40
1.8151920021
  9
$DIMTOL
 70
1
  9
$DIMLIM
 70
0
  9
$DIMTFAC
 40
1.0
  9
$DIMTP
 40
0.01
  9
$DIMTM
 40
0.01
  9
$DIMGAP
 40
0.625
  9
$DIMDSEP
 70
46
  9
$AUNITS
 70
0
  9
$PDMODE
 70
3
  9
$PDSIZE
 40
0.3125
  9
$HANDSEED
  5
326
  9
$TILEMODE
 70
1
  9
$MEASUREMENT
 70
1
  9
$INSUNITS
 70
4
  0
ENDSEC
  0
SECTION
  2
CLASSES
  0
CLASS
  1
ACDBDICTIONARYWDFLT
  2
AcDbDictionaryWithDefault
  3
AutoCAD 2000
 90
0
 91
1
280
0
281
0
  0
CLASS
  1
ACDBPLACEHOLDER
  2
AcDbPlaceHolder
  3
AutoCAD 2000
 90
0
 91
1
280
0
281
0
  0
CLASS
  1
LAYOUT
  2
AcDbLayout
  3
AutoCAD 2000
 90
0
 91
0
280
0
281
0
  0
ENDSEC
  0
SECTION
  2
TABLES
  0
TABLE
  2
VPORT
  5
8
100
AcDbSymbolTable
 70
2
  0
VPORT
  5
1F4
100
AcDbSymbolTableRecord
100
AcDbViewportTableRecord
  2
*ACTIVE
 70
0
 10
0.0
 20
0.0
 11
1.0
 21
1.0
 12
54.4557600644
 22
77.0160035196
 13
0.0
 23
0.0
 14
1.0
 24
1.0
 15
0.0
 25
0.0
 16
0.0
 26
0.0
 36
1.0
 17
0.0
 27
0.0
 37
0.0
 40
154.0320070392
 41
0.7070707071
 42
50.0
 43
0.0
 44
0.0
 50
0.0
 51
0.0
 71
0
 72
100
 73
1
 74
1
 75
0
 76
0
 77
0
 78
0
  0
ENDTAB
  0
TABLE
  2
LTYPE
  5
5
100
AcDbSymbolTable
 70
6
  0
LTYPE
  5
14
100
AcDbSymbolTableRecord
100
AcDbLinetypeTableRecord
  2
BYBLOCK
 70
0
  3

 72
65
 73
0
 40
0.0
  0
LTYPE
  5
15
100
AcDbSymbolTableRecord
100
AcDbLinetypeTableRecord
  2
BYLAYER
 70
0
  3

 72
65
 73
0
 40
0.0
  0
LTYPE
  5
16
100
AcDbSymbolTableRecord
100
AcDbLinetypeTableRecord
  2
CONTINUOUS
 70
64
  3
Solid line
 72
65
 73
0
 40
0.0
  0
LTYPE
  5
1F5
100
AcDbSymbolTableRecord
100
AcDbLinetypeTableRecord
  2
CENTER
 70
64
  3
____ _ ____ _ ____ _ ____ _ ____ _ ____ _ ____
 72
65
 73
4
 40
0.6
 49
0.375
 74
0
 49
-0.075
 74
0
 49
0.075
 74
0
 49
-0.075
 74
0
  0
LTYPE
  5
1F6
100
AcDbSymbolTableRecord
100
AcDbLinetypeTableRecord
  2
HIDDEN
 70
64
  3
- - - - - - - - - - - - - - - - - - - -
 72
65
 73
2
 40
0.2
 49
0.1
 74
0
 49
-0.1
 74
0
  0
LTYPE
  5
1F7
100
AcDbSymbolTableRecord
100
AcDbLinetypeTableRecord
  2
PHANTOM
 70
64
  3
_____ _ _ _____ _ _ _____ _ _ _____
 72
65
 73
6
 40
0.8
 49
0.45
 74
0
 49
-0.05
 74
0
 49
0.1
 74
0
 49
-0.05
 74
0
 49
0.1
 74
0
 49
-0.05
 74
0
  0
LTYPE
  5
1F8
100
AcDbSymbolTableRecord
100
AcDbLinetypeTableRecord
  2
DOT
 70
64
  3
. . . . . . . . . . . . . . . . . . . .
 72
65
 73
2
 40
0.2
 49
0.1
 74
0
 49
-0.1
 74
0
  0
LTYPE
  5
1F9
100
AcDbSymbolTableRecord
100
AcDbLinetypeTableRecord
  2
DASHED
 70
64
  3
- - - - - - - - - - - - - - - - - - - -
 72
65
 73
2
 40
0.2
 49
0.1
 74
0
 49
-0.1
 74
0
  0
ENDTAB
  0
TABLE
  2
LAYER
  5
2
100
AcDbSymbolTable
 70
36
  0
LAYER
  5
10
100
AcDbSymbolTableRecord
100
AcDbLayerTableRecord
  2
0
 70
0
 62
7
  6
CONTINUOUS
370
-3
390
F
  0
LAYER
  5
1FA
100
AcDbSymbolTableRecord
100
AcDbLayerTableRecord
  2
DEFAULT_1
 70
0
 62
7
  6
CENTER
370
-3
390
F
  0
LAYER
  5
1FB
100
AcDbSymbolTableRecord
100
AcDbLayerTableRecord
  2
DEFAULT_2
 70
0
 62
8
  6
HIDDEN
370
-3
390
F
  0
LAYER
  5
1FC
100
AcDbSymbolTableRecord
100
AcDbLayerTableRecord
  2
DEFAULT_3
 70
0
 62
7
  6
PHANTOM
370
-3
390
F
  0
LAYER
  5
1FD
100
AcDbSymbolTableRecord
100
AcDbLayerTableRecord
  2
00_COMPONENTS
 70
0
 62
7
  6
CONTINUOUS
370
-3
390
F
  0
LAYER
  5
1FE
100
AcDbSymbolTableRecord
100
AcDbLayerTableRecord
  2
01_1_DEFAULT_DATUMS
 70
0
 62
7
  6
CONTINUOUS
370
-3
390
F
  0
LAYER
  5
1FF
100
AcDbSymbolTableRecord
100
AcDbLayerTableRecord
  2
01_PLANES
 70
0
 62
7
  6
CONTINUOUS
370
-3
390
F
  0
LAYER
  5
200
100
AcDbSymbolTableRecord
100
AcDbLayerTableRecord
  2
02_COORD_SYS
 70
0
 62
7
  6
CONTINUOUS
370
-3
390
F
  0
LAYER
  5
201
100
AcDbSymbolTableRecord
100
AcDbLayerTableRecord
  2
03_AXES
 70
0
 62
7
  6
CONTINUOUS
370
-3
390
F
  0
LAYER
  5
202
100
AcDbSymbolTableRecord
100
AcDbLayerTableRecord
  2
04_POINTS
 70
0
 62
7
  6
CONTINUOUS
370
-3
390
F
  0
LAYER
  5
203
100
AcDbSymbolTableRecord
100
AcDbLayerTableRecord
  2
05_CURVES
 70
0
 62
7
  6
CONTINUOUS
370
-3
390
F
  0
LAYER
  5
204
100
AcDbSymbolTableRecord
100
AcDbLayerTableRecord
  2
06_SURFS
 70
0
 62
7
  6
CONTINUOUS
370
-3
390
F
  0
LAYER
  5
205
100
AcDbSymbolTableRecord
100
AcDbLayerTableRecord
  2
07_COSMETICS
 70
0
 62
7
  6
CONTINUOUS
370
-3
390
F
  0
LAYER
  5
206
100
AcDbSymbolTableRecord
100
AcDbLayerTableRecord
  2
10_NOTES
 70
0
 62
7
  6
CONTINUOUS
370
-3
390
F
  0
LAYER
  5
207
100
AcDbSymbolTableRecord
100
AcDbLayerTableRecord
  2
11_NOTES_PUB
 70
0
 62
7
  6
CONTINUOUS
370
-3
390
F
  0
LAYER
  5
208
100
AcDbSymbolTableRecord
100
AcDbLayerTableRecord
  2
13_REF_GTOL
 70
0
 62
7
  6
CONTINUOUS
370
-3
390
F
  0
LAYER
  5
209
100
AcDbSymbolTableRecord
100
AcDbLayerTableRecord
  2
16_MISC
 70
0
 62
7
  6
CONTINUOUS
370
-3
390
F
  0
LAYER
  5
20A
100
AcDbSymbolTableRecord
100
AcDbLayerTableRecord
  2
17_NO_PRINT
 70
0
 62
7
  6
CONTINUOUS
370
-3
390
F
  0
LAYER
  5
20B
100
AcDbSymbolTableRecord
100
AcDbLayerTableRecord
  2
18_DATUM_CAMS_JOINTS
 70
0
 62
7
  6
CONTINUOUS
370
-3
390
F
  0
LAYER
  5
20C
100
AcDbSymbolTableRecord
100
AcDbLayerTableRecord
  2
19_DATUM_FUNCTIONAL
 70
0
 62
7
  6
CONTINUOUS
370
-3
390
F
  0
LAYER
  5
20D
100
AcDbSymbolTableRecord
100
AcDbLayerTableRecord
  2
20_DATUM_KINEMATIC_SCHEME
 70
0
 62
7
  6
CONTINUOUS
370
-3
390
F
  0
ENDTAB
  0
TABLE
  2
STYLE
  5
3
100
AcDbSymbolTable
 70
1
  0
STYLE
  5
11
100
AcDbSymbolTableRecord
100
AcDbTextStyleTableRecord
  2
STANDARD
 70
0
 40
0.0
 41
0.8
 50
0.0
 71
0
 42
0.2
  3
txt
  4

  0
STYLE
  5
20E
100
AcDbSymbolTableRecord
100
AcDbTextStyleTableRecord
  2
TEXTSTYLE_1
 70
0
 40
0.0
 41
0.8
 50
0.0
 71
0
 42
0.2
  3
gdt
  4

  0
ENDTAB
  0
TABLE
  2
VIEW
  5
6
100
AcDbSymbolTable
 70
0
  0
ENDTAB
  0
TABLE
  2
UCS
  5
7
100
AcDbSymbolTable
 70
0
  0
ENDTAB
  0
TABLE
  2
APPID
  5
9
100
AcDbSymbolTable
 70
1
  0
APPID
  5
20F
100
AcDbSymbolTableRecord
100
AcDbRegAppTableRecord
  2
ACAD
 70
0
  0
ENDTAB
  0
TABLE
  2
BLOCK_RECORD
  5
1
100
AcDbSymbolTable
 70
0
  0
BLOCK_RECORD
  5
210
100
AcDbSymbolTableRecord
100
AcDbBlockTableRecord
  2
*Model_Space
  0
BLOCK_RECORD
  5
211
100
AcDbSymbolTableRecord
100
AcDbBlockTableRecord
  2
*Paper_Space
  0
BLOCK_RECORD
  5
212
100
AcDbSymbolTableRecord
100
AcDbBlockTableRecord
  2
_FILLED
  0
ENDTAB
  0
TABLE
  2
DIMSTYLE
  5
A
100
AcDbSymbolTable
 70
1
100
AcDbDimStyleTable
 71
0
  0
DIMSTYLE
105
213
100
AcDbSymbolTableRecord
100
AcDbDimStyleTableRecord
  2
STANDARD
 70
0
  3

  4

 40
1.0
 41
1.2965657158
 42
1.0
 43
0.38
 44
1.0
 45
0.0
 46
0.0
 47
0.01
 48
0.01
140
1.8151920021
141
0.09
142
0.0
143
25.4
144
1.0
145
0.0
146
1.0
147
0.625
 71
1
 72
0
 73
0
 74
0
 75
0
 76
0
 77
1
 78
8
 79
2
170
0
171
1
172
0
173
0
174
0
175
0
176
0
177
0
178
0
270
2
179
2
271
2
272
2
273
2
274
2
275
0
280
0
281
0
282
0
283
1
284
8
285
0
286
0
287
3
288
0
340
11
278
46
341
212
342
212
343
212
344
212
  0
ENDTAB
  0
ENDSEC
  0
SECTION
  2
BLOCKS
  0
BLOCK
  5
20
100
AcDbEntity
  8
0
100
AcDbBlockBegin
  2
*Model_Space
 70
0
 10
0.0
 20
0.0
 30
0.0
  3
*Model_Space
  1

  0
ENDBLK
  5
21
100
AcDbEntity
  8
0
100
AcDbBlockEnd
  0
BLOCK
  5
1C
100
AcDbEntity
  8
0
100
AcDbBlockBegin
  2
*Paper_Space
 70
0
 10
0.0
 20
0.0
 30
0.0
  3
*Paper_Space
  1

  0
ENDBLK
  5
1D
100
AcDbEntity
  8
0
100
AcDbBlockEnd
  0
BLOCK
  5
214
100
AcDbEntity
  8
0
100
AcDbBlockBegin
  2
_FILLED
 70
64
 10
0.0
 20
0.0
  3
_FILLED
  1

  0
SOLID
  5
215
100
AcDbEntity
  8
0
  6
BYBLOCK
 62
0
100
AcDbTrace
 10
0.0
 20
0.0
 11
-1.0
 21
0.25
 12
-1.0
 22
-0.25
 13
-1.0
 23
-0.25
  0
ENDBLK
  5
216
100
AcDbEntity
  8
0
  6
BYBLOCK
 62
0
100
AcDbBlockEnd
  0
ENDSEC
  0
SECTION
  2
ENTITIES
  0
LINE
  5
217
100
AcDbEntity
  8
0
100
AcDbLine
 62
7
  6
CONTINUOUS
 10
12.8937871611
 20
50.2260113933
 11
12.8939058832
 21
50.1931274816
  0
LINE
  5
218
100
AcDbEntity
  8
0
100
AcDbLine
 62
7
  6
CONTINUOUS
 10
12.9633105612
 20
67.9238975491
 11
12.9634292834
 21
67.8910136374
  0
LINE
  5
219
100
AcDbEntity
  8
0
100
AcDbLine
 62
7
  6
CONTINUOUS
 10
13.0328339614
 20
85.6217837049
 11
13.0329526836
 21
85.5888997932
  0
LINE
  5
21A
100
AcDbEntity
  8
0
100
AcDbLine
 62
7
  6
CONTINUOUS
 10
13.1023573616
 20
103.3196698608
 11
13.1024760838
 21
103.286785949
  0
LINE
  5
21B
100
AcDbEntity
  8
0
100
AcDbLine
 62
7
  6
CONTINUOUS
 10
14.6258246048
 20
50.2192102702
 11
14.625943327
 21
50.1863263584
  0
LINE
  5
21C
100
AcDbEntity
  8
0
100
AcDbLine
 62
7
  6
CONTINUOUS
 10
14.6345675105
 20
52.4448055229
 11
14.6346862327
 21
52.4119216112
  0
LINE
  5
21D
100
AcDbEntity
  8
0
100
AcDbLine
 62
7
  6
CONTINUOUS
 10
14.695348005
 20
67.917096426
 11
14.6954667272
 21
67.8842125142
  0
LINE
  5
21E
100
AcDbEntity
  8
0
100
AcDbLine
 62
7
  6
CONTINUOUS
 10
14.7040909107
 20
70.1426916787
 11
14.7042096329
 21
70.109807767
  0
LINE
  5
21F
100
AcDbEntity
  8
0
100
AcDbLine
 62
7
  6
CONTINUOUS
 10
14.8762150113
 20
45.685811639
 11
14.8763930946
 21
45.6364857713
  0
LINE
  5
220
100
AcDbEntity
  8
0
100
AcDbLine
 62
7
  6
CONTINUOUS
 10
14.7648714052
 20
85.6149825818
 11
14.7649901274
 21
85.58209867
  0
LINE
  5
221
100
AcDbEntity
  8
0
100
AcDbLine
 62
7
  6
CONTINUOUS
 10
14.7736143109
 20
87.8405778345
 11
14.773733033
 21
87.8076939228
  0
LINE
  5
222
100
AcDbEntity
  8
0
100
AcDbLine
 62
7
  6
CONTINUOUS
 10
14.9457384115
 20
63.3836977948
 11
14.9459164947
 21
63.3343719271
  0
LINE
  5
223
100
AcDbEntity
  8
0
100
AcDbLine
 62
7
  6
CONTINUOUS
 10
14.8343948054
 20
103.3128687376
 11
14.8345135275
 21
103.2799848258
  0
LINE
  5
224
100
AcDbEntity
  8
0
100
AcDbLine
 62
7
  6
CONTINUOUS
 10
14.8431377111
 20
105.5384639903
 11
14.8432564332
 21
105.5055800786
  0
LINE
  5
225
100
AcDbEntity
  8
0
100
AcDbLine
 62
7
  6
CONTINUOUS
 10
15.0152618117
 20
81.0815839506
 11
15.0154398949
 21
81.032258083
  0
LINE
  5
226
100
AcDbEntity
  8
0
100
AcDbLine
 62
7
  6
CONTINUOUS
 10
15.0847852119
 20
98.7794701064
 11
15.0849632951
 21
98.7301442388
  0
LINE
  5
227
100
AcDbEntity
  8
0
100
AcDbLine
 62
7
  6
CONTINUOUS
 10
14.2986862039
 20
51.4703648281
 11
14.298712328
 21
51.458305871
  0
LINE
  5
228
100
AcDbEntity
  8
0
100
AcDbLine
 62
7
  6
CONTINUOUS
 10
14.3682096041
 20
69.1682509839
 11
14.3682357282
 21
69.1561920268
  0
LINE
  5
229
100
AcDbEntity
  8
0
100
AcDbLine
 62
7
  6
CONTINUOUS
 10
14.4377330042
 20
86.8661371397
 11
14.4377591284
 21
86.8540781826
  0
LINE
  5
22A
100
AcDbEntity
  8
0
100
AcDbLine
 62
7
  6
CONTINUOUS
 10
14.5072564044
 20
104.5640232956
 11
14.5072825286
 21
104.5519643385
  0
LINE
  5
22B
100
AcDbEntity
  8
0
100
AcDbLine
 62
7
  6
CONTINUOUS
 10
12.884113814
 20
47.6783523125
 11
12.8840861939
 21
47.6934260471
  0
LINE
  5
22C
100
AcDbEntity
  8
0
100
AcDbLine
 62
7
  6
CONTINUOUS
 10
12.9536372142
 20
65.3762384683
 11
12.9536095941
 21
65.3913122029
  0
LINE
  5
22D
100
AcDbEntity
  8
0
100
AcDbLine
 62
7
  6
CONTINUOUS
 10
13.0231606143
 20
83.0741246241
 11
13.0231329943
 21
83.0891983588
  0
LINE
  5
22E
100
AcDbEntity
  8
0
100
AcDbLine
 62
7
  6
CONTINUOUS
 10
13.0926840145
 20
100.7720107799
 11
13.0926563945
 21
100.7870845146
  0
LINE
  5
22F
100
AcDbEntity
  8
0
100
AcDbLine
 62
7
  6
CONTINUOUS
 10
13.1221154624
 20
108.2861888179
 11
13.1023573616
 21
103.3196698608
  0
LINE
  5
230
100
AcDbEntity
  8
0
100
AcDbLine
 62
7
  6
CONTINUOUS
 10
13.1024760838
 20
103.286785949
 11
13.0926563945
 21
100.7870845146
  0
LINE
  5
231
100
AcDbEntity
  8
0
100
AcDbLine
 62
7
  6
CONTINUOUS
 10
13.0525920622
 20
90.5883026621
 11
13.0328339614
 21
85.6217837049
  0
LINE
  5
232
100
AcDbEntity
  8
0
100
AcDbLine
 62
7
  6
CONTINUOUS
 10
13.0329526836
 20
85.5888997932
 11
13.0231329943
 21
83.0891983588
  0
LINE
  5
233
100
AcDbEntity
  8
0
100
AcDbLine
 62
7
  6
CONTINUOUS
 10
12.983068662
 20
72.8904165062
 11
12.9633105612
 21
67.9238975491
  0
LINE
  5
234
100
AcDbEntity
  8
0
100
AcDbLine
 62
7
  6
CONTINUOUS
 10
12.9634292834
 20
67.8910136374
 11
12.9536095941
 21
65.3913122029
  0
LINE
  5
235
100
AcDbEntity
  8
0
100
AcDbLine
 62
7
  6
CONTINUOUS
 10
12.9135452618
 20
55.1925303504
 11
12.8937871611
 21
50.2260113933
  0
LINE
  5
236
100
AcDbEntity
  8
0
100
AcDbLine
 62
7
  6
CONTINUOUS
 10
12.8939058832
 20
50.1931274816
 11
12.8840861939
 21
47.6934260471
  0
LINE
  5
237
100
AcDbEntity
  8
0
100
AcDbLine
 62
7
  6
CONTINUOUS
 10
14.8451964636
 20
106.0625403155
 11
14.8431377111
 21
105.5384639903
  0
LINE
  5
238
100
AcDbEntity
  8
0
100
AcDbLine
 62
7
  6
CONTINUOUS
 10
14.835471589
 20
103.5869749192
 11
14.8343948054
 21
103.3128687376
  0
LINE
  5
239
100
AcDbEntity
  8
0
100
AcDbLine
 62
7
  6
CONTINUOUS
 10
14.7756730634
 20
88.3646541596
 11
14.7736143109
 21
87.8405778345
  0
LINE
  5
23A
100
AcDbEntity
  8
0
100
AcDbLine
 62
7
  6
CONTINUOUS
 10
14.7659481888
 20
85.8890887634
 11
14.7648714052
 21
85.6149825818
  0
LINE
  5
23B
100
AcDbEntity
  8
0
100
AcDbLine
 62
7
  6
CONTINUOUS
 10
14.7061496632
 20
70.6667680038
 11
14.7040909107
 21
70.1426916787
  0
LINE
  5
23C
100
AcDbEntity
  8
0
100
AcDbLine
 62
7
  6
CONTINUOUS
 10
14.6964247886
 20
68.1912026076
 11
14.695348005
 21
67.917096426
  0
LINE
  5
23D
100
AcDbEntity
  8
0
100
AcDbLine
 62
7
  6
CONTINUOUS
 10
14.6366262631
 20
52.968881848
 11
14.6345675105
 21
52.4448055229
  0
LINE
  5
23E
100
AcDbEntity
  8
0
100
AcDbLine
 62
7
  6
CONTINUOUS
 10
14.6269013884
 20
50.4933164518
 11
14.6258246048
 21
50.2192102702
  0
LINE
  5
23F
100
AcDbEntity
  8
0
100
AcDbLine
 62
7
  6
CONTINUOUS
 10
15.9050771822
 20
53.0310072259
 11
15.9052552655
 21
52.9816813583
  0
LINE
  5
240
100
AcDbEntity
  8
0
100
AcDbLine
 62
7
  6
CONTINUOUS
 10
15.9746005824
 20
70.7288933817
 11
15.9747786657
 21
70.6795675141
  0
LINE
  5
241
100
AcDbEntity
  8
0
100
AcDbLine
 62
7
  6
CONTINUOUS
 10
16.0441239826
 20
88.4267795375
 11
16.0443020659
 21
88.3774536699
  0
LINE
  5
242
100
AcDbEntity
  8
0
100
AcDbLine
 62
7
  6
CONTINUOUS
 10
16.1136473828
 20
106.1246656934
 11
16.113825466
 21
106.0753398257
  0
LINE
  5
243
100
AcDbEntity
  8
0
100
AcDbLine
 62
7
  6
CONTINUOUS
 10
17.8761918645
 20
45.6740317481
 11
17.8763699478
 21
45.6247058804
  0
LINE
  5
244
100
AcDbEntity
  8
0
100
AcDbLine
 62
7
  6
CONTINUOUS
 10
17.9638959561
 20
42.6068932181
 11
17.9665024473
 21
41.8849418826
  0
LINE
  5
245
100
AcDbEntity
  8
0
100
AcDbLine
 62
7
  6
CONTINUOUS
 10
17.9457152647
 20
63.3719179039
 11
17.945893348
 21
63.3225920363
  0
LINE
  5
246
100
AcDbEntity
  8
0
100
AcDbLine
 62
7
  6
CONTINUOUS
 10
18.0152386649
 20
81.0698040597
 11
18.0154167482
 21
81.0204781921
  0
LINE
  5
247
100
AcDbEntity
  8
0
100
AcDbLine
 62
7
  6
CONTINUOUS
 10
18.0847620651
 20
98.7676902155
 11
18.0849401483
 21
98.7183643479
  0
LINE
  5
248
100
AcDbEntity
  8
0
100
AcDbLine
 62
7
  6
CONTINUOUS
 10
15.8879909229
 20
48.68152673
 11
15.8880165633
 21
48.6739899667
  0
LINE
  5
249
100
AcDbEntity
  8
0
100
AcDbLine
 62
7
  6
CONTINUOUS
 10
15.9575143231
 20
66.3794128858
 11
15.9575399635
 21
66.3718761225
  0
LINE
  5
24A
100
AcDbEntity
  8
0
100
AcDbLine
 62
7
  6
CONTINUOUS
 10
16.0270377232
 20
84.0772990416
 11
16.0270633637
 21
84.0697622783
  0
LINE
  5
24B
100
AcDbEntity
  8
0
100
AcDbLine
 62
7
  6
CONTINUOUS
 10
16.0965611234
 20
101.7751851974
 11
16.0965867639
 21
101.7676484341
  0
LINE
  5
24C
100
AcDbEntity
  8
0
100
AcDbLine
 62
7
  6
CONTINUOUS
 10
17.9095788081
 20
54.1730166252
 11
17.9095531677
 21
54.1805533885
  0
LINE
  5
24D
100
AcDbEntity
  8
0
100
AcDbLine
 62
7
  6
CONTINUOUS
 10
17.9791022083
 20
71.870902781
 11
17.9790765679
 21
71.8784395443
  0
LINE
  5
24E
100
AcDbEntity
  8
0
100
AcDbLine
 62
7
  6
CONTINUOUS
 10
18.0486256085
 20
89.5687889368
 11
18.0485999681
 21
89.5763257001
  0
LINE
  5
24F
100
AcDbEntity
  8
0
100
AcDbLine
 62
7
  6
CONTINUOUS
 10
18.1181490087
 20
107.2666750926
 11
18.1181233682
 21
107.2742118559
  0
LINE
  5
250
100
AcDbEntity
  8
0
100
AcDbLine
 62
7
  6
CONTINUOUS
 10
15.8879909229
 20
48.68152673
 11
15.89250798
 21
49.8313893899
  0
LINE
  5
251
100
AcDbEntity
  8
0
100
AcDbLine
 62
7
  6
CONTINUOUS
 10
15.9050771822
 20
53.0310072259
 11
15.9095942393
 21
54.1808698858
  0
LINE
  5
252
100
AcDbEntity
  8
0
100
AcDbLine
 62
7
  6
CONTINUOUS
 10
15.9575143231
 20
66.3794128858
 11
15.9620313801
 21
67.5292755457
  0
LINE
  5
253
100
AcDbEntity
  8
0
100
AcDbLine
 62
7
  6
CONTINUOUS
 10
15.9746005824
 20
70.7288933817
 11
15.9791176395
 21
71.8787560416
  0
LINE
  5
254
100
AcDbEntity
  8
0
100
AcDbLine
 62
7
  6
CONTINUOUS
 10
16.0270377232
 20
84.0772990416
 11
16.0315547803
 21
85.2271617015
  0
LINE
  5
255
100
AcDbEntity
  8
0
100
AcDbLine
 62
7
  6
CONTINUOUS
 10
16.0441239826
 20
88.4267795375
 11
16.0486410397
 21
89.5766421974
  0
LINE
  5
256
100
AcDbEntity
  8
0
100
AcDbLine
 62
7
  6
CONTINUOUS
 10
16.0965611234
 20
101.7751851974
 11
16.1010781805
 21
102.9250478573
  0
LINE
  5
257
100
AcDbEntity
  8
0
100
AcDbLine
 62
7
  6
CONTINUOUS
 10
16.1136473828
 20
106.1246656934
 11
16.1181644399
 21
107.2745283532
  0
LINE
  5
258
100
AcDbEntity
  8
0
100
AcDbLine
 62
7
  6
CONTINUOUS
 10
18.1181490087
 20
107.2666750926
 11
18.0965456922
 21
101.7673319368
  0
LINE
  5
259
100
AcDbEntity
  8
0
100
AcDbLine
 62
7
  6
CONTINUOUS
 10
18.0486256085
 20
89.5687889368
 11
18.0270222921
 21
84.069445781
  0
LINE
  5
25A
100
AcDbEntity
  8
0
100
AcDbLine
 62
7
  6
CONTINUOUS
 10
17.9791022083
 20
71.870902781
 11
17.9574988919
 21
66.3715596252
  0
LINE
  5
25B
100
AcDbEntity
  8
0
100
AcDbLine
 62
7
  6
CONTINUOUS
 10
17.9095788081
 20
54.1730166252
 11
17.8879754917
 21
48.6736734694
  0
LINE
  5
25C
100
AcDbEntity
  8
0
100
AcDbLine
 62
7
  6
CONTINUOUS
 10
17.9638959561
 20
42.6068932181
 11
18.2419895568
 21
113.3984378414
  0
LINE
  5
25D
100
AcDbEntity
  8
0
100
AcDbLine
 62
7
  6
CONTINUOUS
 10
73.263571099
 20
42.3615496383
 11
83.8633874987
 21
42.3481282814
  0
LINE
  5
25E
100
AcDbEntity
  8
0
100
AcDbLine
 62
7
  6
CONTINUOUS
 10
37.8672770985
 20
41.5497095386
 11
37.9672763269
 21
41.5493168756
  0
LINE
  5
25F
100
AcDbEntity
  8
0
100
AcDbLine
 62
7
  6
CONTINUOUS
 10
42.5672408352
 20
41.5312543762
 11
43.7606777708
 21
41.5265681544
  0
LINE
  5
260
100
AcDbEntity
  8
0
100
AcDbLine
 62
7
  6
CONTINUOUS
 10
55.9736912521
 20
41.4786117956
 11
78.8669607593
 21
41.3887176963
  0
LINE
  5
261
100
AcDbEntity
  8
0
100
AcDbLine
 62
7
  6
CONTINUOUS
 10
37.9672115694
 20
41.5672535547
 11
42.5671760777
 21
41.5491910553
  0
LINE
  5
262
100
AcDbEntity
  8
0
100
AcDbLine
 62
7
  6
CONTINUOUS
 10
18.9665486963
 20
41.8660680197
 11
35.8664183028
 21
41.7997079676
  0
LINE
  5
263
100
AcDbEntity
  8
0
100
AcDbLine
 62
7
  6
CONTINUOUS
 10
80.8660711013
 20
41.6230096041
 11
97.7659407078
 21
41.5566495521
  0
LINE
  5
264
100
AcDbEntity
  8
0
100
AcDbLine
 62
7
  6
CONTINUOUS
 10
75.8637460289
 20
42.2973315444
 11
39.8640237901
 21
42.4386902352
  0
LINE
  5
265
100
AcDbEntity
  8
0
100
AcDbLine
 62
7
  6
CONTINUOUS
 10
89.1221678305
 20
42.3274788359
 11
83.8633874987
 21
42.3481282814
  0
LINE
  5
266
100
AcDbEntity
  8
0
100
AcDbLine
 62
7
  6
CONTINUOUS
 10
37.3637462737
 20
42.5307165903
 11
17.9638959561
 21
42.6068932181
  0
LINE
  5
267
100
AcDbEntity
  8
0
100
AcDbLine
 62
7
  6
CONTINUOUS
 10
89.1221678305
 20
42.3274788359
 11
98.7633642763
 21
42.2642111944
  0
LINE
  5
268
100
AcDbEntity
  8
0
100
AcDbLine
 62
7
  6
CONTINUOUS
 10
75.8637028572
 20
42.3092893305
 11
73.2894828518
 21
42.3463384378
  0
LINE
  5
269
100
AcDbEntity
  8
0
100
AcDbLine
 62
7
  6
CONTINUOUS
 10
37.3637462737
 20
42.5307165903
 11
38.8638156472
 21
42.5024057959
  0
LINE
  5
26A
100
AcDbEntity
  8
0
100
AcDbLine
 62
7
  6
CONTINUOUS
 10
38.8638156472
 20
42.5024057959
 11
39.8639428432
 21
42.4611110841
  0
LINE
  5
26B
100
AcDbEntity
  8
0
100
AcDbLine
 62
7
  6
CONTINUOUS
 10
17.8763699478
 20
45.6247058804
 11
17.9757698896
 21
45.6295233272
  0
LINE
  5
26C
100
AcDbEntity
  8
0
100
AcDbLine
 62
7
  6
CONTINUOUS
 10
17.8761918645
 20
45.6740317481
 11
17.9762116781
 21
45.6788792371
  0
LINE
  5
26D
100
AcDbEntity
  8
0
100
AcDbLine
 62
7
  6
CONTINUOUS
 10
41.3800438732
 20
46.5524289499
 11
39.8800849088
 21
46.5501583737
  0
LINE
  5
26E
100
AcDbEntity
  8
0
100
AcDbLine
 62
7
  6
CONTINUOUS
 10
14.8763930946
 20
45.6364857713
 11
17.8763699478
 21
45.6247058804
  0
LINE
  5
26F
100
AcDbEntity
  8
0
100
AcDbLine
 62
7
  6
CONTINUOUS
 10
14.8762150113
 20
45.685811639
 11
17.8761918645
 21
45.6740317481
  0
LINE
  5
270
100
AcDbEntity
  8
0
100
AcDbLine
 62
7
  6
CONTINUOUS
 10
39.8799392044
 20
46.5905159018
 11
41.3800085779
 21
46.5622051074
  0
LINE
  5
271
100
AcDbEntity
  8
0
100
AcDbLine
 62
7
  6
CONTINUOUS
 10
14.625943327
 20
50.1863263584
 11
12.8939058832
 21
50.1931274816
  0
LINE
  5
272
100
AcDbEntity
  8
0
100
AcDbLine
 62
7
  6
CONTINUOUS
 10
12.8937871611
 20
50.2260113933
 11
14.6258246048
 21
50.2192102702
  0
LINE
  5
273
100
AcDbEntity
  8
0
100
AcDbLine
 62
7
  6
CONTINUOUS
 10
12.9045888193
 20
52.9756829712
 11
14.6366262631
 21
52.968881848
  0
LINE
  5
274
100
AcDbEntity
  8
0
100
AcDbLine
 62
7
  6
CONTINUOUS
 10
17.9213624353
 20
57.1726583465
 11
18.0213410786
 21
57.1670255314
  0
LINE
  5
275
100
AcDbEntity
  8
0
100
AcDbLine
 62
7
  6
CONTINUOUS
 10
35.8664183028
 20
41.7997079676
 11
35.8671846004
 21
41.5874572644
  0
LINE
  5
276
100
AcDbEntity
  8
0
100
AcDbLine
 62
7
  6
CONTINUOUS
 10
37.3637462737
 20
42.5307165903
 11
37.6418398744
 21
113.3222612135
  0
LINE
  5
277
100
AcDbEntity
  8
0
100
AcDbLine
 62
7
  6
CONTINUOUS
 10
17.9213624353
 20
57.1726583465
 11
14.9213855821
 21
57.1844382374
  0
LINE
  5
278
100
AcDbEntity
  8
0
100
AcDbLine
 62
7
  6
CONTINUOUS
 10
41.4173233972
 20
56.0610705583
 11
39.9172540237
 21
56.0893813527
  0
LINE
  5
279
100
AcDbEntity
  8
0
100
AcDbLine
 62
7
  6
CONTINUOUS
 10
73.2894828518
 20
42.3463384378
 11
73.263571099
 21
42.3615496383
  0
LINE
  5
27A
100
AcDbEntity
  8
0
100
AcDbLine
 62
7
  6
CONTINUOUS
 10
37.9672763269
 20
41.5493168756
 11
37.9672115694
 21
41.5672535547
  0
LINE
  5
27B
100
AcDbEntity
  8
0
100
AcDbLine
 62
7
  6
CONTINUOUS
 10
39.8640237901
 20
42.4386902352
 11
39.8639428432
 21
42.4611110841
  0
LINE
  5
27C
100
AcDbEntity
  8
0
100
AcDbLine
 62
7
  6
CONTINUOUS
 10
39.8740473908
 20
45.0906950411
 11
39.87415532
 21
45.0608005759
  0
LINE
  5
27D
100
AcDbEntity
  8
0
100
AcDbLine
 62
7
  6
CONTINUOUS
 10
39.943570791
 20
62.7885811969
 11
39.9436787202
 21
62.7586867317
  0
LINE
  5
27E
100
AcDbEntity
  8
0
100
AcDbLine
 62
7
  6
CONTINUOUS
 10
40.0130941912
 20
80.4864673527
 11
40.0132021204
 21
80.4565728875
  0
LINE
  5
27F
100
AcDbEntity
  8
0
100
AcDbLine
 62
7
  6
CONTINUOUS
 10
40.0826175913
 20
98.1843535086
 11
40.0827255206
 21
98.1544590433
  0
LINE
  5
280
100
AcDbEntity
  8
0
100
AcDbLine
 62
7
  6
CONTINUOUS
 10
41.3800085779
 20
46.5622051074
 11
41.3800438732
 21
46.5524289499
  0
LINE
  5
281
100
AcDbEntity
  8
0
100
AcDbLine
 62
7
  6
CONTINUOUS
 10
41.4495319781
 20
64.2600912632
 11
41.4495672734
 21
64.2503151057
  0
LINE
  5
282
100
AcDbEntity
  8
0
100
AcDbLine
 62
7
  6
CONTINUOUS
 10
38.8638156472
 20
42.5024057959
 11
38.9333390474
 21
60.2002919517
  0
LINE
  5
283
100
AcDbEntity
  8
0
100
AcDbLine
 62
7
  6
CONTINUOUS
 10
39.0723858478
 20
95.5960642634
 11
39.1419092479
 21
113.2939504192
  0
LINE
  5
284
100
AcDbEntity
  8
0
100
AcDbLine
 62
7
  6
CONTINUOUS
 10
39.8740473908
 20
45.0906950411
 11
39.8799392044
 21
46.5905159018
  0
LINE
  5
285
100
AcDbEntity
  8
0
100
AcDbLine
 62
7
  6
CONTINUOUS
 10
39.943570791
 20
62.7885811969
 11
39.9494626046
 21
64.2884020576
  0
LINE
  5
286
100
AcDbEntity
  8
0
100
AcDbLine
 62
7
  6
CONTINUOUS
 10
40.0130941912
 20
80.4864673527
 11
40.0189860047
 21
81.9862882134
  0
LINE
  5
287
100
AcDbEntity
  8
0
100
AcDbLine
 62
7
  6
CONTINUOUS
 10
40.0826175913
 20
98.1843535086
 11
40.0885094049
 21
99.6841743692
  0
LINE
  5
288
100
AcDbEntity
  8
0
100
AcDbLine
 62
7
  6
CONTINUOUS
 10
39.8639428432
 20
42.4611110841
 11
39.87415532
 21
45.0608005759
  0
LINE
  5
289
100
AcDbEntity
  8
0
100
AcDbLine
 62
7
  6
CONTINUOUS
 10
39.9172540237
 20
56.0893813527
 11
39.9436787202
 21
62.7586867317
  0
LINE
  5
28A
100
AcDbEntity
  8
0
100
AcDbLine
 62
7
  6
CONTINUOUS
 10
39.9867774239
 20
73.7872675085
 11
40.0132021204
 21
80.4565728875
  0
LINE
  5
28B
100
AcDbEntity
  8
0
100
AcDbLine
 62
7
  6
CONTINUOUS
 10
40.056300824
 20
91.4851536643
 11
40.0827255206
 21
98.1544590433
  0
LINE
  5
28C
100
AcDbEntity
  8
0
100
AcDbLine
 62
7
  6
CONTINUOUS
 10
40.1258242242
 20
109.1830398201
 11
40.1420364439
 21
113.2526557073
  0
LINE
  5
28D
100
AcDbEntity
  8
0
100
AcDbLine
 62
7
  6
CONTINUOUS
 10
83.9329108989
 20
60.0460144372
 11
73.3330944992
 21
60.0594357941
  0
LINE
  5
28E
100
AcDbEntity
  8
0
100
AcDbLine
 62
7
  6
CONTINUOUS
 10
73.332882431
 20
60.0054285373
 11
39.9335471903
 21
60.136576391
  0
LINE
  5
28F
100
AcDbEntity
  8
0
100
AcDbLine
 62
7
  6
CONTINUOUS
 10
89.1916912307
 20
60.0253649917
 11
83.9329108989
 21
60.0460144372
  0
LINE
  5
290
100
AcDbEntity
  8
0
100
AcDbLine
 62
7
  6
CONTINUOUS
 10
37.4332696738
 20
60.2286027461
 11
18.0334193563
 21
60.3047793739
  0
LINE
  5
291
100
AcDbEntity
  8
0
100
AcDbLine
 62
7
  6
CONTINUOUS
 10
98.8328876765
 20
59.9620973503
 11
89.1916912307
 21
60.0253649917
  0
LINE
  5
292
100
AcDbEntity
  8
0
100
AcDbLine
 62
7
  6
CONTINUOUS
 10
38.9333390474
 20
60.2002919517
 11
37.4332696738
 21
60.2286027461
  0
LINE
  5
293
100
AcDbEntity
  8
0
100
AcDbLine
 62
7
  6
CONTINUOUS
 10
39.9334662434
 20
60.1589972399
 11
38.9333390474
 21
60.2002919517
  0
LINE
  5
294
100
AcDbEntity
  8
0
100
AcDbLine
 62
7
  6
CONTINUOUS
 10
41.5190553783
 20
81.957977419
 11
41.5190906736
 21
81.9482012615
  0
LINE
  5
295
100
AcDbEntity
  8
0
100
AcDbLine
 62
7
  6
CONTINUOUS
 10
41.5885787785
 20
99.6558635748
 11
41.5886140737
 21
99.6460874173
  0
LINE
  5
296
100
AcDbEntity
  8
0
100
AcDbLine
 62
7
  6
CONTINUOUS
 10
42.5671760777
 20
41.5491910553
 11
42.5672408352
 21
41.5312543762
  0
LINE
  5
297
100
AcDbEntity
  8
0
100
AcDbLine
 62
7
  6
CONTINUOUS
 10
41.3800085779
 20
46.5622051074
 11
41.4173233972
 21
56.0610705583
  0
LINE
  5
298
100
AcDbEntity
  8
0
100
AcDbLine
 62
7
  6
CONTINUOUS
 10
41.4495319781
 20
64.2600912632
 11
41.4868467974
 21
73.7589567141
  0
LINE
  5
299
100
AcDbEntity
  8
0
100
AcDbLine
 62
7
  6
CONTINUOUS
 10
41.5190553783
 20
81.957977419
 11
41.5563701976
 21
91.4568428699
  0
LINE
  5
29A
100
AcDbEntity
  8
0
100
AcDbLine
 62
7
  6
CONTINUOUS
 10
41.5885787785
 20
99.6558635748
 11
41.6258935978
 21
109.1547290257
  0
LINE
  5
29B
100
AcDbEntity
  8
0
100
AcDbLine
 62
7
  6
CONTINUOUS
 10
17.945893348
 20
63.3225920363
 11
18.0452932898
 21
63.327409483
  0
LINE
  5
29C
100
AcDbEntity
  8
0
100
AcDbLine
 62
7
  6
CONTINUOUS
 10
17.9457152647
 20
63.3719179039
 11
18.0457350783
 21
63.3767653929
  0
LINE
  5
29D
100
AcDbEntity
  8
0
100
AcDbLine
 62
7
  6
CONTINUOUS
 10
41.4495672734
 20
64.2503151057
 11
39.949608309
 21
64.2480445295
  0
LINE
  5
29E
100
AcDbEntity
  8
0
100
AcDbLine
 62
7
  6
CONTINUOUS
 10
14.9459164947
 20
63.3343719271
 11
17.945893348
 21
63.3225920363
  0
LINE
  5
29F
100
AcDbEntity
  8
0
100
AcDbLine
 62
7
  6
CONTINUOUS
 10
14.9457384115
 20
63.3836977948
 11
17.9457152647
 21
63.3719179039
  0
LINE
  5
2A0
100
AcDbEntity
  8
0
100
AcDbLine
 62
7
  6
CONTINUOUS
 10
39.9494626046
 20
64.2884020576
 11
41.4495319781
 21
64.2600912632
  0
LINE
  5
2A1
100
AcDbEntity
  8
0
100
AcDbLine
 62
7
  6
CONTINUOUS
 10
14.6954667272
 20
67.8842125142
 11
12.9634292834
 21
67.8910136374
  0
LINE
  5
2A2
100
AcDbEntity
  8
0
100
AcDbLine
 62
7
  6
CONTINUOUS
 10
12.9633105612
 20
67.9238975491
 11
14.695348005
 21
67.917096426
  0
LINE
  5
2A3
100
AcDbEntity
  8
0
100
AcDbLine
 62
7
  6
CONTINUOUS
 10
12.9741122195
 20
70.673569127
 11
14.7061496632
 21
70.6667680038
  0
LINE
  5
2A4
100
AcDbEntity
  8
0
100
AcDbLine
 62
7
  6
CONTINUOUS
 10
41.4868467974
 20
73.7589567141
 11
39.9867774239
 21
73.7872675085
  0
LINE
  5
2A5
100
AcDbEntity
  8
0
100
AcDbLine
 62
7
  6
CONTINUOUS
 10
17.9908858355
 20
74.8705445023
 11
18.0908644788
 21
74.8649116872
  0
LINE
  5
2A6
100
AcDbEntity
  8
0
100
AcDbLine
 62
7
  6
CONTINUOUS
 10
84.0024342991
 20
77.743900593
 11
73.4026178993
 21
77.7573219499
  0
LINE
  5
2A7
100
AcDbEntity
  8
0
100
AcDbLine
 62
7
  6
CONTINUOUS
 10
17.9908858355
 20
74.8705445023
 11
14.9909089822
 21
74.8823243932
  0
LINE
  5
2A8
100
AcDbEntity
  8
0
100
AcDbLine
 62
7
  6
CONTINUOUS
 10
73.4024058312
 20
77.7033146931
 11
40.0030705905
 21
77.8344625468
  0
LINE
  5
2A9
100
AcDbEntity
  8
0
100
AcDbLine
 62
7
  6
CONTINUOUS
 10
89.2612146308
 20
77.7232511475
 11
84.0024342991
 21
77.743900593
  0
LINE
  5
2AA
100
AcDbEntity
  8
0
100
AcDbLine
 62
7
  6
CONTINUOUS
 10
37.502793074
 20
77.9264889019
 11
18.1029427565
 21
78.0026655297
  0
LINE
  5
2AB
100
AcDbEntity
  8
0
100
AcDbLine
 62
7
  6
CONTINUOUS
 10
39.0028624476
 20
77.8981781075
 11
37.502793074
 21
77.9264889019
  0
LINE
  5
2AC
100
AcDbEntity
  8
0
100
AcDbLine
 62
7
  6
CONTINUOUS
 10
40.0029896435
 20
77.8568833957
 11
39.0028624476
 21
77.8981781075
  0
LINE
  5
2AD
100
AcDbEntity
  8
0
100
AcDbLine
 62
7
  6
CONTINUOUS
 10
15.0154398949
 20
81.032258083
 11
18.0154167482
 21
81.0204781921
  0
LINE
  5
2AE
100
AcDbEntity
  8
0
100
AcDbLine
 62
7
  6
CONTINUOUS
 10
15.0152618117
 20
81.0815839506
 11
18.0152386649
 21
81.0698040597
  0
LINE
  5
2AF
100
AcDbEntity
  8
0
100
AcDbLine
 62
7
  6
CONTINUOUS
 10
98.9024110767
 20
77.6599835061
 11
89.2612146308
 21
77.7232511475
  0
LINE
  5
2B0
100
AcDbEntity
  8
0
100
AcDbLine
 62
7
  6
CONTINUOUS
 10
18.0154167482
 20
81.0204781921
 11
18.1148166899
 21
81.0252956388
  0
LINE
  5
2B1
100
AcDbEntity
  8
0
100
AcDbLine
 62
7
  6
CONTINUOUS
 10
18.0152386649
 20
81.0698040597
 11
18.1152584785
 21
81.0746515487
  0
LINE
  5
2B2
100
AcDbEntity
  8
0
100
AcDbLine
 62
7
  6
CONTINUOUS
 10
41.5190906736
 20
81.9482012615
 11
40.0191317092
 21
81.9459306853
  0
LINE
  5
2B3
100
AcDbEntity
  8
0
100
AcDbLine
 62
7
  6
CONTINUOUS
 10
40.0189860047
 20
81.9862882134
 11
41.5190553783
 21
81.957977419
  0
LINE
  5
2B4
100
AcDbEntity
  8
0
100
AcDbLine
 62
7
  6
CONTINUOUS
 10
14.7649901274
 20
85.58209867
 11
13.0329526836
 21
85.5888997932
  0
LINE
  5
2B5
100
AcDbEntity
  8
0
100
AcDbLine
 62
7
  6
CONTINUOUS
 10
13.0328339614
 20
85.6217837049
 11
14.7648714052
 21
85.6149825818
  0
LINE
  5
2B6
100
AcDbEntity
  8
0
100
AcDbLine
 62
7
  6
CONTINUOUS
 10
13.0436356196
 20
88.3714552828
 11
14.7756730634
 21
88.3646541596
  0
LINE
  5
2B7
100
AcDbEntity
  8
0
100
AcDbLine
 62
7
  6
CONTINUOUS
 10
18.0604092357
 20
92.5684306581
 11
15.0604323824
 21
92.580210549
  0
LINE
  5
2B8
100
AcDbEntity
  8
0
100
AcDbLine
 62
7
  6
CONTINUOUS
 10
41.5563701976
 20
91.4568428699
 11
40.056300824
 21
91.4851536643
  0
LINE
  5
2B9
100
AcDbEntity
  8
0
100
AcDbLine
 62
7
  6
CONTINUOUS
 10
18.0604092356
 20
92.5684306581
 11
18.160387879
 21
92.562797843
  0
LINE
  5
2BA
100
AcDbEntity
  8
0
100
AcDbLine
 62
7
  6
CONTINUOUS
 10
73.263571099
 20
42.3615496383
 11
73.5416646997
 21
113.1530942615
  0
LINE
  5
2BB
100
AcDbEntity
  8
0
100
AcDbLine
 62
7
  6
CONTINUOUS
 10
84.0719576993
 20
95.4417867488
 11
73.4721412995
 21
95.4552081057
  0
LINE
  5
2BC
100
AcDbEntity
  8
0
100
AcDbLine
 62
7
  6
CONTINUOUS
 10
73.4719292314
 20
95.4012008489
 11
40.0725939907
 21
95.5323487026
  0
LINE
  5
2BD
100
AcDbEntity
  8
0
100
AcDbLine
 62
7
  6
CONTINUOUS
 10
89.330738031
 20
95.4211373033
 11
84.0719576993
 21
95.4417867488
  0
LINE
  5
2BE
100
AcDbEntity
  8
0
100
AcDbLine
 62
7
  6
CONTINUOUS
 10
37.5723164742
 20
95.6243750577
 11
18.1724661567
 21
95.7005516855
  0
LINE
  5
2BF
100
AcDbEntity
  8
0
100
AcDbLine
 62
7
  6
CONTINUOUS
 10
98.9719344769
 20
95.3578696619
 11
89.330738031
 21
95.4211373033
  0
LINE
  5
2C0
100
AcDbEntity
  8
0
100
AcDbLine
 62
7
  6
CONTINUOUS
 10
39.0723858478
 20
95.5960642633
 11
37.5723164742
 21
95.6243750577
  0
LINE
  5
2C1
100
AcDbEntity
  8
0
100
AcDbLine
 62
7
  6
CONTINUOUS
 10
40.0725130437
 20
95.5547695515
 11
39.0723858478
 21
95.5960642633
  0
LINE
  5
2C2
100
AcDbEntity
  8
0
100
AcDbLine
 62
7
  6
CONTINUOUS
 10
75.8637028572
 20
42.3092893305
 11
75.8637460289
 21
42.2973315444
  0
LINE
  5
2C3
100
AcDbEntity
  8
0
100
AcDbLine
 62
7
  6
CONTINUOUS
 10
41.5886140737
 20
99.6460874173
 11
40.0886551094
 21
99.6438168411
  0
LINE
  5
2C4
100
AcDbEntity
  8
0
100
AcDbLine
 62
7
  6
CONTINUOUS
 10
15.0849632951
 20
98.7301442388
 11
18.0849401483
 21
98.7183643479
  0
LINE
  5
2C5
100
AcDbEntity
  8
0
100
AcDbLine
 62
7
  6
CONTINUOUS
 10
15.0847852119
 20
98.7794701064
 11
18.0847620651
 21
98.7676902155
  0
LINE
  5
2C6
100
AcDbEntity
  8
0
100
AcDbLine
 62
7
  6
CONTINUOUS
 10
40.0885094049
 20
99.6841743692
 11
41.5885787785
 21
99.6558635748
  0
LINE
  5
2C7
100
AcDbEntity
  8
0
100
AcDbLine
 62
7
  6
CONTINUOUS
 10
80.8668373989
 20
41.410758901
 11
80.8660711013
 21
41.6230096041
  0
LINE
  5
2C8
100
AcDbEntity
  8
0
100
AcDbLine
 62
7
  6
CONTINUOUS
 10
18.0849401483
 20
98.7183643479
 11
18.1843400901
 21
98.7231817946
  0
LINE
  5
2C9
100
AcDbEntity
  8
0
100
AcDbLine
 62
7
  6
CONTINUOUS
 10
18.0847620651
 20
98.7676902155
 11
18.1847818787
 21
98.7725377045
  0
LINE
  5
2CA
100
AcDbEntity
  8
0
100
AcDbLine
 62
7
  6
CONTINUOUS
 10
14.8345135275
 20
103.2799848258
 11
13.1024760838
 21
103.286785949
  0
LINE
  5
2CB
100
AcDbEntity
  8
0
100
AcDbLine
 62
7
  6
CONTINUOUS
 10
13.1023573616
 20
103.3196698608
 11
14.8343948054
 21
103.3128687376
  0
LINE
  5
2CC
100
AcDbEntity
  8
0
100
AcDbLine
 62
7
  6
CONTINUOUS
 10
83.8633874987
 20
42.3481282814
 11
84.1414810995
 21
113.1396729046
  0
LINE
  5
2CD
100
AcDbEntity
  8
0
100
AcDbLine
 62
7
  6
CONTINUOUS
 10
13.1131590198
 20
106.0693414386
 11
14.8451964636
 21
106.0625403155
  0
LINE
  5
2CE
100
AcDbEntity
  8
0
100
AcDbLine
 62
7
  6
CONTINUOUS
 10
89.1221678305
 20
42.3274788359
 11
89.4002614312
 21
113.1190234591
  0
LINE
  5
2CF
100
AcDbEntity
  8
0
100
AcDbLine
 62
7
  6
CONTINUOUS
 10
18.1299326358
 20
110.2663168139
 11
15.1299557826
 21
110.2780967048
  0
LINE
  5
2D0
100
AcDbEntity
  8
0
100
AcDbLine
 62
7
  6
CONTINUOUS
 10
41.6258935978
 20
109.1547290257
 11
40.1258242242
 21
109.1830398201
  0
LINE
  5
2D1
100
AcDbEntity
  8
0
100
AcDbLine
 62
7
  6
CONTINUOUS
 10
18.1299326358
 20
110.2663168139
 11
18.2299112792
 21
110.2606839988
  0
LINE
  5
2D2
100
AcDbEntity
  8
0
100
AcDbLine
 62
7
  6
CONTINUOUS
 10
84.1414810995
 20
113.1396729046
 11
73.5416646997
 21
113.1530942615
  0
LINE
  5
2D3
100
AcDbEntity
  8
0
100
AcDbLine
 62
7
  6
CONTINUOUS
 10
73.5414526315
 20
113.0990870048
 11
40.1421173908
 21
113.2302348584
  0
LINE
  5
2D4
100
AcDbEntity
  8
0
100
AcDbLine
 62
7
  6
CONTINUOUS
 10
89.4002614312
 20
113.1190234591
 11
84.1414810995
 21
113.1396729046
  0
LINE
  5
2D5
100
AcDbEntity
  8
0
100
AcDbLine
 62
7
  6
CONTINUOUS
 10
37.6418398744
 20
113.3222612135
 11
18.2419895568
 21
113.3984378414
  0
LINE
  5
2D6
100
AcDbEntity
  8
0
100
AcDbLine
 62
7
  6
CONTINUOUS
 10
99.041457877
 20
113.0557558177
 11
89.4002614312
 21
113.1190234591
  0
LINE
  5
2D7
100
AcDbEntity
  8
0
100
AcDbLine
 62
7
  6
CONTINUOUS
 10
39.1419092479
 20
113.2939504192
 11
37.6418398744
 21
113.3222612135
  0
LINE
  5
2D8
100
AcDbEntity
  8
0
100
AcDbLine
 62
7
  6
CONTINUOUS
 10
40.1420364439
 20
113.2526557073
 11
39.1419092479
 21
113.2939504192
  0
LINE
  5
2D9
100
AcDbEntity
  8
0
100
AcDbLine
 62
7
  6
CONTINUOUS
 10
98.7658790276
 20
41.5676701544
 11
98.7633642763
 21
42.2642111944
  0
LINE
  5
2DA
100
AcDbEntity
  8
0
100
AcDbLine
 62
7
  6
CONTINUOUS
 10
98.7633642763
 20
42.2642111944
 11
99.041457877
 21
113.0557558177
  0
ARC
  5
2DB
100
AcDbEntity
  8
0
100
AcDbCircle
 62
7
  6
CONTINUOUS
 10
14.9829404914
 20
72.8824268564
 40
1.9999006004
100
AcDbArc
 50
89.7717090648
 51
179.7710999395
  0
ARC
  5
2DC
100
AcDbEntity
  8
0
100
AcDbCircle
 62
7
  6
CONTINUOUS
 10
14.9134170912
 20
55.1845407006
 40
1.9999006004
100
AcDbArc
 50
89.7717090648
 51
179.7710999395
  0
ARC
  5
2DD
100
AcDbEntity
  8
0
100
AcDbCircle
 62
7
  6
CONTINUOUS
 10
14.9534759589
 20
65.3835905684
 40
1.9998951012
100
AcDbArc
 50
181.1590831738
 51
269.7783248176
  0
ARC
  5
2DE
100
AcDbEntity
  8
0
100
AcDbCircle
 62
7
  6
CONTINUOUS
 10
14.8839525587
 20
47.6857044126
 40
1.9998951012
100
AcDbArc
 50
181.1590831738
 51
269.7783248176
  0
ARC
  5
2DF
100
AcDbEntity
  8
0
100
AcDbCircle
 62
7
  6
CONTINUOUS
 10
14.9536531254
 20
65.3342636763
 40
1.9998941139
100
AcDbArc
 50
180.2106089136
 51
269.778350966
  0
ARC
  5
2E0
100
AcDbEntity
  8
0
100
AcDbCircle
 62
7
  6
CONTINUOUS
 10
14.8841297253
 20
47.6363775205
 40
1.9998941139
100
AcDbArc
 50
180.2106089131
 51
269.7783509654
  0
ARC
  5
2E1
100
AcDbEntity
  8
0
100
AcDbCircle
 62
7
  6
CONTINUOUS
 10
14.9455742244
 20
65.3835248465
 40
1.9919800104
100
AcDbArc
 50
180.2095833607
 51
181.1617906939
  0
ARC
  5
2E2
100
AcDbEntity
  8
0
100
AcDbCircle
 62
7
  6
CONTINUOUS
 10
14.8760508242
 20
47.6856386907
 40
1.9919800104
100
AcDbArc
 50
180.2095833607
 51
181.1617906939
  0
ARC
  5
2E3
100
AcDbEntity
  8
0
100
AcDbCircle
 62
7
  6
CONTINUOUS
 10
15.9683372852
 20
69.1287479769
 40
1.6001599837
100
AcDbArc
 50
89.7757337153
 51
141.4167871206
  0
ARC
  5
2E4
100
AcDbEntity
  8
0
100
AcDbCircle
 62
7
  6
CONTINUOUS
 10
15.898813885
 20
51.4308618211
 40
1.6001599837
100
AcDbArc
 50
89.7757337153
 51
141.4167871206
  0
ARC
  5
2E5
100
AcDbEntity
  8
0
100
AcDbCircle
 62
7
  6
CONTINUOUS
 10
15.9683331507
 20
69.1294130855
 40
1.6001522923
100
AcDbArc
 50
217.3640960719
 51
269.7743550281
  0
ARC
  5
2E6
100
AcDbEntity
  8
0
100
AcDbCircle
 62
7
  6
CONTINUOUS
 10
15.8988097505
 20
51.4315269297
 40
1.6001522923
100
AcDbArc
 50
217.3640960719
 51
269.7743550281
  0
ARC
  5
2E7
100
AcDbEntity
  8
0
100
AcDbCircle
 62
7
  6
CONTINUOUS
 10
15.9684710032
 20
69.0795155723
 40
1.60006199
100
AcDbArc
 50
89.7741319799
 51
140.1191191836
  0
ARC
  5
2E8
100
AcDbEntity
  8
0
100
AcDbCircle
 62
7
  6
CONTINUOUS
 10
15.8989476031
 20
51.3816294165
 40
1.60006199
100
AcDbArc
 50
89.7741319799
 51
140.1191191837
  0
ARC
  5
2E9
100
AcDbEntity
  8
0
100
AcDbCircle
 62
7
  6
CONTINUOUS
 10
15.9681485546
 20
69.0797741703
 40
1.5996433405
100
AcDbArc
 50
141.1902561907
 51
177.2861156234
  0
ARC
  5
2EA
100
AcDbEntity
  8
0
100
AcDbCircle
 62
7
  6
CONTINUOUS
 10
15.8986251544
 20
51.3818880145
 40
1.5996433405
100
AcDbArc
 50
141.1902561907
 51
177.2861156234
  0
ARC
  5
2EB
100
AcDbEntity
  8
0
100
AcDbCircle
 62
7
  6
CONTINUOUS
 10
15.9677974231
 20
69.1619948958
 40
1.599600053
100
AcDbArc
 50
142.1868242847
 51
179.7759137613
  0
ARC
  5
2EC
100
AcDbEntity
  8
0
100
AcDbCircle
 62
7
  6
CONTINUOUS
 10
15.898274023
 20
51.46410874
 40
1.599600053
100
AcDbArc
 50
142.1868242847
 51
179.7759137613
  0
ARC
  5
2ED
100
AcDbEntity
  8
0
100
AcDbCircle
 62
7
  6
CONTINUOUS
 10
15.9677878276
 20
69.1619365789
 40
1.5995900787
100
AcDbArc
 50
180.205768416
 51
217.3631087531
  0
ARC
  5
2EE
100
AcDbEntity
  8
0
100
AcDbCircle
 62
7
  6
CONTINUOUS
 10
15.8982644274
 20
51.4640504231
 40
1.5995900787
100
AcDbArc
 50
180.205768416
 51
217.3631087531
  0
ARC
  5
2EF
100
AcDbEntity
  8
0
100
AcDbCircle
 62
7
  6
CONTINUOUS
 10
15.9643991047
 20
69.082874941
 40
1.5947833047
100
AcDbArc
 50
140.1179348238
 51
140.9437642448
  0
ARC
  5
2F0
100
AcDbEntity
  8
0
100
AcDbCircle
 62
7
  6
CONTINUOUS
 10
15.8948757047
 20
51.3849887851
 40
1.5947833049
100
AcDbArc
 50
140.1179348239
 51
140.9437642448
  0
ARC
  5
2F1
100
AcDbEntity
  8
0
100
AcDbCircle
 62
7
  6
CONTINUOUS
 10
15.9632024783
 20
69.0838492427
 40
1.5932402001
100
AcDbArc
 50
140.943857697
 51
141.1929726923
  0
ARC
  5
2F2
100
AcDbEntity
  8
0
100
AcDbCircle
 62
7
  6
CONTINUOUS
 10
15.8936790766
 20
51.3859630881
 40
1.5932401981
100
AcDbArc
 50
140.9438576969
 51
141.1929726925
  0
ARC
  5
2F3
100
AcDbEntity
  8
0
100
AcDbCircle
 62
7
  6
CONTINUOUS
 10
15.9623851379
 20
69.1334621784
 40
1.5925628119
100
AcDbArc
 50
141.4158174053
 51
142.1884974441
  0
ARC
  5
2F4
100
AcDbEntity
  8
0
100
AcDbCircle
 62
7
  6
CONTINUOUS
 10
15.8928617374
 20
51.4355760228
 40
1.5925628115
100
AcDbArc
 50
141.4158174052
 51
142.1884974442
  0
ARC
  5
2F5
100
AcDbEntity
  8
0
100
AcDbCircle
 62
7
  6
CONTINUOUS
 10
15.1219872918
 20
108.278199168
 40
1.9999006004
100
AcDbArc
 50
89.7717090648
 51
179.7710999395
  0
ARC
  5
2F6
100
AcDbEntity
  8
0
100
AcDbCircle
 62
7
  6
CONTINUOUS
 10
15.0524638916
 20
90.5803130122
 40
1.9999006004
100
AcDbArc
 50
89.7717090648
 51
179.7710999395
  0
ARC
  5
2F7
100
AcDbEntity
  8
0
100
AcDbCircle
 62
7
  6
CONTINUOUS
 10
15.0925227592
 20
100.77936288
 40
1.9998951012
100
AcDbArc
 50
181.1590831738
 51
269.7783248176
  0
ARC
  5
2F8
100
AcDbEntity
  8
0
100
AcDbCircle
 62
7
  6
CONTINUOUS
 10
15.022999359
 20
83.0814767242
 40
1.9998951012
100
AcDbArc
 50
181.1590831738
 51
269.7783248176
  0
ARC
  5
2F9
100
AcDbEntity
  8
0
100
AcDbCircle
 62
7
  6
CONTINUOUS
 10
15.0926999258
 20
100.730035988
 40
1.9998941139
100
AcDbArc
 50
180.2106089136
 51
269.778350966
  0
ARC
  5
2FA
100
AcDbEntity
  8
0
100
AcDbCircle
 62
7
  6
CONTINUOUS
 10
15.0231765256
 20
83.0321498321
 40
1.9998941139
100
AcDbArc
 50
180.2106089131
 51
269.7783509654
  0
ARC
  5
2FB
100
AcDbEntity
  8
0
100
AcDbCircle
 62
7
  6
CONTINUOUS
 10
15.0846210247
 20
100.7792971582
 40
1.9919800104
100
AcDbArc
 50
180.2095833607
 51
181.1617906939
  0
ARC
  5
2FC
100
AcDbEntity
  8
0
100
AcDbCircle
 62
7
  6
CONTINUOUS
 10
15.0150976246
 20
83.0814110023
 40
1.9919800104
100
AcDbArc
 50
180.2095833607
 51
181.1617906939
  0
ARC
  5
2FD
100
AcDbEntity
  8
0
100
AcDbCircle
 62
7
  6
CONTINUOUS
 10
16.9792879948
 20
71.8253772204
 40
1.0000169035
100
AcDbArc
 50
2.909800387
 51
177.0801542716
  0
ARC
  5
2FE
100
AcDbEntity
  8
0
100
AcDbCircle
 62
7
  6
CONTINUOUS
 10
16.9097645947
 20
54.1274910646
 40
1.0000169035
100
AcDbArc
 50
2.9098003864
 51
177.0801542722
  0
ARC
  5
2FF
100
AcDbEntity
  8
0
100
AcDbCircle
 62
7
  6
CONTINUOUS
 10
16.9575050098
 20
66.3756099649
 40
1.0000148255
100
AcDbArc
 50
182.4957326314
 51
359.7679324825
  0
ARC
  5
300
100
AcDbEntity
  8
0
100
AcDbCircle
 62
7
  6
CONTINUOUS
 10
16.8879816096
 20
48.6777238091
 40
1.0000148255
100
AcDbArc
 50
182.4957326314
 51
359.7679324825
  0
ARC
  5
301
100
AcDbEntity
  8
0
100
AcDbCircle
 62
7
  6
CONTINUOUS
 10
16.979110563
 20
71.8747075421
 40
1.0000132726
100
AcDbArc
 50
0.2138341704
 51
179.7680376916
  0
ARC
  5
302
100
AcDbEntity
  8
0
100
AcDbCircle
 62
7
  6
CONTINUOUS
 10
16.9095871628
 20
54.1768213863
 40
1.0000132726
100
AcDbArc
 50
0.2138341705
 51
179.7680376915
  0
ARC
  5
303
100
AcDbEntity
  8
0
100
AcDbCircle
 62
7
  6
CONTINUOUS
 10
16.9530165734
 20
66.3755634875
 40
0.995510014
100
AcDbArc
 50
180.2122294409
 51
182.5043091022
  0
ARC
  5
304
100
AcDbEntity
  8
0
100
AcDbCircle
 62
7
  6
CONTINUOUS
 10
16.8834931733
 20
48.6776773317
 40
0.9955100141
100
AcDbArc
 50
180.2122294409
 51
182.5043091021
  0
ARC
  5
305
100
AcDbEntity
  8
0
100
AcDbCircle
 62
7
  6
CONTINUOUS
 10
16.1073840856
 20
104.5245202885
 40
1.6001599837
100
AcDbArc
 50
89.7757337153
 51
141.4167871206
  0
ARC
  5
306
100
AcDbEntity
  8
0
100
AcDbCircle
 62
7
  6
CONTINUOUS
 10
16.0378606854
 20
86.8266341327
 40
1.6001599837
100
AcDbArc
 50
89.7757337153
 51
141.4167871206
  0
ARC
  5
307
100
AcDbEntity
  8
0
100
AcDbCircle
 62
7
  6
CONTINUOUS
 10
16.1073799511
 20
104.5251853972
 40
1.6001522923
100
AcDbArc
 50
217.3640960719
 51
269.7743550281
  0
ARC
  5
308
100
AcDbEntity
  8
0
100
AcDbCircle
 62
7
  6
CONTINUOUS
 10
16.0378565509
 20
86.8272992414
 40
1.6001522923
100
AcDbArc
 50
217.3640960719
 51
269.7743550281
  0
ARC
  5
309
100
AcDbEntity
  8
0
100
AcDbCircle
 62
7
  6
CONTINUOUS
 10
16.1075178036
 20
104.4752878839
 40
1.60006199
100
AcDbArc
 50
89.7741319807
 51
140.1191191846
  0
ARC
  5
30A
100
AcDbEntity
  8
0
100
AcDbCircle
 62
7
  6
CONTINUOUS
 10
16.0379944034
 20
86.7774017281
 40
1.60006199
100
AcDbArc
 50
89.7741319807
 51
140.1191191846
  0
ARC
  5
30B
100
AcDbEntity
  8
0
100
AcDbCircle
 62
7
  6
CONTINUOUS
 10
16.107195355
 20
104.4755464819
 40
1.5996433405
100
AcDbArc
 50
141.1902561907
 51
177.2861156234
  0
ARC
  5
30C
100
AcDbEntity
  8
0
100
AcDbCircle
 62
7
  6
CONTINUOUS
 10
16.0376719548
 20
86.7776603261
 40
1.5996433405
100
AcDbArc
 50
141.1902561907
 51
177.2861156234
  0
ARC
  5
30D
100
AcDbEntity
  8
0
100
AcDbCircle
 62
7
  6
CONTINUOUS
 10
16.1068442235
 20
104.5577672074
 40
1.599600053
100
AcDbArc
 50
142.1868242847
 51
179.7759137613
  0
ARC
  5
30E
100
AcDbEntity
  8
0
100
AcDbCircle
 62
7
  6
CONTINUOUS
 10
16.0373208233
 20
86.8598810516
 40
1.599600053
100
AcDbArc
 50
142.1868242847
 51
179.7759137613
  0
ARC
  5
30F
100
AcDbEntity
  8
0
100
AcDbCircle
 62
7
  6
CONTINUOUS
 10
16.106834628
 20
104.5577088906
 40
1.5995900787
100
AcDbArc
 50
180.205768416
 51
217.3631087531
  0
ARC
  5
310
100
AcDbEntity
  8
0
100
AcDbCircle
 62
7
  6
CONTINUOUS
 10
16.0373112278
 20
86.8598227347
 40
1.5995900787
100
AcDbArc
 50
180.205768416
 51
217.3631087531
  0
ARC
  5
311
100
AcDbEntity
  8
0
100
AcDbCircle
 62
7
  6
CONTINUOUS
 10
16.1034459053
 20
104.4786472525
 40
1.594783305
100
AcDbArc
 50
140.1179348239
 51
140.9437642447
  0
ARC
  5
312
100
AcDbEntity
  8
0
100
AcDbCircle
 62
7
  6
CONTINUOUS
 10
16.033922505
 20
86.7807610967
 40
1.5947833048
100
AcDbArc
 50
140.1179348239
 51
140.9437642448
  0
ARC
  5
313
100
AcDbEntity
  8
0
100
AcDbCircle
 62
7
  6
CONTINUOUS
 10
16.0327258798
 20
86.7817353974
 40
1.5932402019
100
AcDbArc
 50
140.9438576972
 51
141.1929726922
  0
ARC
  5
314
100
AcDbEntity
  8
0
100
AcDbCircle
 62
7
  6
CONTINUOUS
 10
16.1022492765
 20
104.479621556
 40
1.5932401974
100
AcDbArc
 50
140.9438576969
 51
141.1929726926
  0
ARC
  5
315
100
AcDbEntity
  8
0
100
AcDbCircle
 62
7
  6
CONTINUOUS
 10
16.031908538
 20
86.8313483342
 40
1.5925628118
100
AcDbArc
 50
141.4158174053
 51
142.1884974441
  0
ARC
  5
316
100
AcDbEntity
  8
0
100
AcDbCircle
 62
7
  6
CONTINUOUS
 10
16.1014319377
 20
104.5292344904
 40
1.5925628112
100
AcDbArc
 50
141.4158174051
 51
142.1884974442
  0
ARC
  5
317
100
AcDbEntity
  8
0
100
AcDbCircle
 62
7
  6
CONTINUOUS
 10
17.1183347952
 20
107.221149532
 40
1.0000169035
100
AcDbArc
 50
2.9098003858
 51
177.0801542729
  0
ARC
  5
318
100
AcDbEntity
  8
0
100
AcDbCircle
 62
7
  6
CONTINUOUS
 10
17.048811395
 20
89.5232633762
 40
1.0000169035
100
AcDbArc
 50
2.909800387
 51
177.0801542716
  0
ARC
  5
319
100
AcDbEntity
  8
0
100
AcDbCircle
 62
7
  6
CONTINUOUS
 10
17.0965518102
 20
101.7713822765
 40
1.0000148255
100
AcDbArc
 50
182.4957326314
 51
359.7679324825
  0
ARC
  5
31A
100
AcDbEntity
  8
0
100
AcDbCircle
 62
7
  6
CONTINUOUS
 10
17.02702841
 20
84.0734961206
 40
1.0000148255
100
AcDbArc
 50
182.4957326299
 51
359.7679324839
  0
ARC
  5
31B
100
AcDbEntity
  8
0
100
AcDbCircle
 62
7
  6
CONTINUOUS
 10
17.1181573634
 20
107.2704798537
 40
1.0000132725
100
AcDbArc
 50
0.2138341681
 51
179.7680376939
  0
ARC
  5
31C
100
AcDbEntity
  8
0
100
AcDbCircle
 62
7
  6
CONTINUOUS
 10
17.0486339632
 20
89.5725936979
 40
1.0000132726
100
AcDbArc
 50
0.2138341706
 51
179.7680376913
  0
ARC
  5
31D
100
AcDbEntity
  8
0
100
AcDbCircle
 62
7
  6
CONTINUOUS
 10
17.0920633739
 20
101.7713357991
 40
0.9955100141
100
AcDbArc
 50
180.2122294409
 51
182.5043091021
  0
ARC
  5
31E
100
AcDbEntity
  8
0
100
AcDbCircle
 62
7
  6
CONTINUOUS
 10
17.0225399737
 20
84.0734496433
 40
0.9955100141
100
AcDbArc
 50
180.2122294409
 51
182.5043091021
  0
SPLINE
  5
31F
100
AcDbEntity
  8
0
100
AcDbSpline
 62
7
  6
CONTINUOUS
 70
0
 71
3
 72
23
 73
19
 74
0
 42
0.0000001
 43
0.0000001
 44
0.0000000001
 40
0.0
 40
0.0
 40
0.0
 40
0.0
 40
0.0014102705
 40
0.0051000285
 40
0.0111524389
 40
0.0195649221
 40
0.0303241055
 40
0.0434136203
 40
0.0764900832
 40
0.1184526216
 40
0.1688756371
 40
0.2273229343
 40
0.2932212192
 40
0.3658902853
 40
0.4446456427
 40
0.6174225618
 40
0.8051497251
 40
1.0
 40
1.0
 40
1.0
 40
1.0
 10
98.7658790276
 20
41.5676701544
 30
0.0
 10
98.7658807254
 20
41.5671998848
 30
0.0
 10
98.7635636191
 20
41.5667104999
 30
0.0
 10
98.7605079067
 20
41.5660554156
 30
0.0
 10
98.7541480058
 20
41.5654186416
 30
0.0
 10
98.7459111023
 20
41.5647459381
 30
0.0
 10
98.7351157599
 20
41.5640914163
 30
0.0
 10
98.7161830863
 20
41.5631555223
 30
0.0
 10
98.6867960574
 20
41.5620975821
 30
0.0
 10
98.644981639
 20
41.5609707139
 30
0.0
 10
98.5946921715
 20
41.5599366338
 30
0.0
 10
98.5364215208
 20
41.559007146
 30
0.0
 10
98.4707291044
 20
41.5581938319
 30
0.0
 10
98.3982633623
 20
41.557504095
 30
0.0
 10
98.2901568752
 20
41.5567389071
 30
0.0
 10
98.1436809247
 20
41.5561727131
 30
0.0
 10
97.9584906784
 20
41.5560791132
 30
0.0
 10
97.8309155181
 20
41.5563944181
 30
0.0
 10
97.7659407078
 20
41.5566495521
 30
0.0
  0
SPLINE
  5
320
100
AcDbEntity
  8
0
100
AcDbSpline
 62
7
  6
CONTINUOUS
 70
0
 71
3
 72
24
 73
20
 74
0
 42
0.0000001
 43
0.0000001
 44
0.0000000001
 40
0.0
 40
0.0
 40
0.0
 40
0.0
 40
0.0014082429
 40
0.0050919296
 40
0.0111380238
 40
0.019547386
 40
0.0303100288
 40
0.0434115669
 40
0.0588194474
 40
0.0764891503
 40
0.1184336187
 40
0.1688730106
 40
0.2273143762
 40
0.2931858055
 40
0.3658819986
 40
0.444670645
 40
0.6174426669
 40
0.8050488737
 40
1.0
 40
1.0
 40
1.0
 40
1.0
 10
80.8668373989
 20
41.410758901
 30
0.0
 10
80.8668407897
 20
41.4098197128
 30
0.0
 10
80.8622187917
 20
41.4088346382
 30
0.0
 10
80.8561118194
 20
41.4075277301
 30
0.0
 10
80.8434049706
 20
41.4062513666
 30
0.0
 10
80.8269344233
 20
41.4049070224
 30
0.0
 10
80.805334785
 20
41.4035987419
 30
0.0
 10
80.7792158221
 20
41.4023084821
 30
0.0
 10
80.7484290253
 20
41.4010544248
 30
0.0
 10
80.6984301894
 20
41.3993320024
 30
0.0
 10
80.6250545007
 20
41.3973623121
 30
0.0
 10
80.5244875636
 20
41.3952925997
 30
0.0
 10
80.4079547363
 20
41.3934330367
 30
0.0
 10
80.2765743068
 20
41.3918034796
 30
0.0
 10
80.1316200021
 20
41.3904269068
 30
0.0
 10
79.9153698294
 20
41.3888968435
 30
0.0
 10
79.622479262
 20
41.3877648586
 30
0.0
 10
79.2521150164
 20
41.3875745903
 30
0.0
 10
78.9969777962
 20
41.3882071635
 30
0.0
 10
78.8669607593
 20
41.3887176963
 30
0.0
  0
SPLINE
  5
321
100
AcDbEntity
  8
0
100
AcDbSpline
 62
7
  6
CONTINUOUS
 70
0
 71
3
 72
13
 73
9
 74
0
 42
0.0000001
 43
0.0000001
 44
0.0000000001
 40
0.0
 40
0.0
 40
0.0
 40
0.0
 40
0.0955737772
 40
0.2158219427
 40
0.4999695642
 40
0.7841333789
 40
0.9044008561
 40
1.0
 40
1.0
 40
1.0
 40
1.0
 10
55.9736912521
 20
41.4786117956
 30
0.0
 10
55.5846579865
 20
41.4712613652
 30
0.0
 10
54.7060509805
 20
41.4603244012
 30
0.0
 10
52.6705958675
 20
41.4475549317
 30
0.0
 10
49.8672820452
 20
41.4495417082
 30
0.0
 10
47.063960468
 20
41.4695713474
 30
0.0
 10
45.0284205631
 20
41.4983259377
 30
0.0
 10
44.1497446337
 20
41.516163085
 30
0.0
 10
43.7606777708
 20
41.5265681544
 30
0.0
  0
SPLINE
  5
322
100
AcDbEntity
  8
0
100
AcDbSpline
 62
7
  6
CONTINUOUS
 70
0
 71
3
 72
24
 73
20
 74
0
 42
0.0000001
 43
0.0000001
 44
0.0000000001
 40
0.0
 40
0.0
 40
0.0
 40
0.0
 40
0.1949118941
 40
0.3824889566
 40
0.5552432166
 40
0.6340274556
 40
0.7067222681
 40
0.7725953831
 40
0.831041478
 40
0.8814885726
 40
0.9234436689
 40
0.9411197469
 40
0.9565346868
 40
0.9696439508
 40
0.9804149694
 40
0.9888333223
 40
0.9948889686
 40
0.9985826362
 40
1.0
 40
1.0
 40
1.0
 40
1.0
 10
37.8672770985
 20
41.5497095386
 30
0.0
 10
37.7372572111
 20
41.5502200826
 30
0.0
 10
37.4821115542
 20
41.5515912414
 30
0.0
 10
37.1117350158
 20
41.5546901758
 30
0.0
 10
36.8188312234
 20
41.5581223823
 30
0.0
 10
36.6025671719
 20
41.561350753
 30
0.0
 10
36.4575985261
 20
41.5638657653
 30
0.0
 10
36.3262022531
 20
41.5665271747
 30
0.0
 10
36.2096521927
 20
41.569301992
 30
0.0
 10
36.1090667427
 20
41.5721616152
 30
0.0
 10
36.0356759638
 20
41.5747075619
 30
0.0
 10
35.9856648625
 20
41.5768227113
 30
0.0
 10
35.9548680702
 20
41.5783184333
 30
0.0
 10
35.9287380941
 20
41.5798144159
 30
0.0
 10
35.9071295303
 20
41.5812909753
 30
0.0
 10
35.890643974
 20
41.5827686014
 30
0.0
 10
35.8779350495
 20
41.5841364476
 30
0.0
 10
35.8718025591
 20
41.5855077415
 30
0.0
 10
35.8671880139
 20
41.5865117824
 30
0.0
 10
35.8671846004
 20
41.5874572644
 30
0.0
  0
SPLINE
  5
323
100
AcDbEntity
  8
0
100
AcDbSpline
 62
7
  6
CONTINUOUS
 70
0
 71
3
 72
23
 73
19
 74
0
 42
0.0000001
 43
0.0000001
 44
0.0000000001
 40
0.0
 40
0.0
 40
0.0
 40
0.0
 40
0.1948112344
 40
0.382509554
 40
0.5552687786
 40
0.6340197115
 40
0.7066873541
 40
0.7725872508
 40
0.8310392206
 40
0.8814698651
 40
0.9234429282
 40
0.9565327696
 40
0.9696299976
 40
0.9803975337
 40
0.9888189768
 40
0.9948809066
 40
0.9985806174
 40
1.0
 40
1.0
 40
1.0
 40
1.0
 10
18.9665486963
 20
41.8660680197
 30
0.0
 10
18.9015724034
 20
41.8663231596
 30
0.0
 10
18.7739928652
 20
41.8670097747
 30
0.0
 10
18.5887962698
 20
41.8685577721
 30
0.0
 10
18.442313583
 20
41.8702743219
 30
0.0
 10
18.3342001581
 20
41.871888518
 30
0.0
 10
18.2617273009
 20
41.8731473868
 30
0.0
 10
18.1960270137
 20
41.8744766413
 30
0.0
 10
18.1377477923
 20
41.8758638024
 30
0.0
 10
18.0874491931
 20
41.8772928451
 30
0.0
 10
18.045624931
 20
41.8787482557
 30
0.0
 10
18.0162302721
 20
41.8800368076
 30
0.0
 10
17.9972910391
 20
41.8811217045
 30
0.0
 10
17.9864912567
 20
41.8818603377
 30
0.0
 10
17.9782468719
 20
41.8825996845
 30
0.0
 10
17.9718859803
 20
41.8832822636
 30
0.0
 10
17.9688174876
 20
41.8839695395
 30
0.0
 10
17.9665041564
 20
41.8844684688
 30
0.0
 10
17.9665024473
 20
41.8849418826
 30
0.0
  0
ENDSEC
  0
SECTION
  2
OBJECTS
  0
DICTIONARY
  5
C
100
AcDbDictionary
280
0
281
1
  3
ACAD_GROUP
350
D
  3
ACAD_MLINESTYLE
350
17
  3
ACAD_LAYOUT
350
1A
  3
ACAD_PLOTSETTINGS
350
19
  3
ACAD_PLOTSTYLENAME
350
E
  0
DICTIONARY
  5
D
102
{ACAD_REACTORS
330
C
102
}
100
AcDbDictionary
280
0
281
1
  0
ACDBDICTIONARYWDFLT
  5
E
102
{ACAD_REACTORS
330
C
102
}
100
AcDbDictionary
281
1
  3
Normal
350
F
100
AcDbDictionaryWithDefault
340
F
  0
DICTIONARY
  5
17
102
{ACAD_REACTORS
330
C
102
}
100
AcDbDictionary
280
0
281
1
  3
Standard
350
18
  0
DICTIONARY
  5
19
102
{ACAD_REACTORS
330
C
102
}
100
AcDbDictionary
281
1
  0
DICTIONARY
  5
1A
102
{ACAD_REACTORS
330
C
102
}
100
AcDbDictionary
281
1
  3
Model
350
324
  3
Layout1
350
325
  0
ACDBPLACEHOLDER
  5
F
102
{ACAD_REACTORS
330
E
102
}
  0
MLINESTYLE
  5
18
102
{ACAD_REACTORS
330
17
102
}
100
AcDbMlineStyle
  2
STANDARD
 70
0
  3

 62
256
 51
90.0
 52
90.0
 71
2
 49
0.5
 62
256
  6
BYLAYER
 49
-0.5
 62
256
  6
BYLAYER
  0
LAYOUT
  5
324
102
{ACAD_REACTORS
330
1A
102
}
100
AcDbPlotSettings
  1

  2
none_device
  4

  6

 40
0.0
 41
0.0
 42
0.0
 43
0.0
 44
210.0
 45
297.0
 46
0.0
 47
0.0
 48
0.0
 49
0.0
140
0.0
141
0.0
142
1.0
143
1.0
 70
1024
 72
1
 73
0
 74
0
  7

 75
0
147
1.0
148
0.0
149
0.0
100
AcDbLayout
  1
Model
 70
0
 71
0
 10
0.0
 20
0.0
 11
210.0
 21
297.0
 12
0.0
 22
0.0
 32
0.0
 14
0.0
 24
0.0
 34
0.0
 15
0.0
 25
0.0
 35
0.0
146
0.0
 13
0.0
 23
0.0
 33
0.0
 16
1.0
 26
0.0
 36
0.0
 17
0.0
 27
1.0
 37
0.0
 76
0
330
210
345
0
346
0
  0
LAYOUT
  5
325
102
{ACAD_REACTORS
330
1A
102
}
100
AcDbPlotSettings
  1

  2
none_device
  4

  6

 40
0.0
 41
0.0
 42
0.0
 43
0.0
 44
210.0
 45
297.0
 46
0.0
 47
0.0
 48
0.0
 49
0.0
140
0.0
141
0.0
142
1.0
143
1.0
 70
0
 72
1
 73
0
 74
0
  7

 75
0
147
1.0
148
0.0
149
0.0
100
AcDbLayout
  1
Layout1
 70
0
 71
1
 10
0.0
 20
0.0
 11
210.0
 21
297.0
 12
0.0
 22
0.0
 32
0.0
 14
0.0
 24
0.0
 34
0.0
 15
0.0
 25
0.0
 35
0.0
146
0.0
 13
0.0
 23
0.0
 33
0.0
 16
1.0
 26
0.0
 36
0.0
 17
0.0
 27
1.0
 37
0.0
 76
0
330
211
345
0
346
0
  0
ENDSEC
  0
EOF
