999
DXF file: C:\Users\sesa63760\Dev\_Creo\CAD\MCADPD0004172_3D-CAD\drw0001_1.dxf
999
Pro/ENGINEER 2019471 by Parametric Technology Corporation
  0
SECTION
  2
HEADER
  9
$ACADVER
  1
AC1024
  9
$DWGCODEPAGE
  3
ANSI_1252
  9
$EXTMAX
 10
65.9266928733
 20
93.2391799208
 30
0.0
  9
$EXTMIN
 10
0.0
 20
0.0
 30
0.0
  9
$LIMMIN
 10
0.0
 20
0.0
  9
$LIMMAX
 10
65.9266928733
 20
93.2391799208
  9
$VIEWCTR
 10
32.9633464367
 20
46.6195899604
  9
$VIEWSIZE
 40
93.2391799208
  9
$CLAYER
  8
0
  9
$LTSCALE
 40
6.0778132097
  9
$CELTYPE
  6
BYLAYER
  9
$DIMSCALE
 40
1.0
  9
$DIMASZ
 40
0.7848415818
  9
$DIMEXO
 40
1.0
  9
$DIMDLI
 40
4.1992163994
  9
$DIMEXE
 40
1.0
  9
$DIMCEN
 40
0.9945512525
  9
$DIMLFAC
 40
1.0
  9
$DIMBLK
  1
_FILLED
  9
$DIMALT
 70
0
  9
$DIMALTF
 40
0.0393700787
  9
$DIMTXT
 40
1.0987782146
  9
$DIMTOL
 70
1
  9
$DIMLIM
 70
0
  9
$DIMTFAC
 40
1.0
  9
$DIMTP
 40
0.01
  9
$DIMTM
 40
0.01
  9
$DIMGAP
 40
0.625
  9
$DIMDSEP
 70
46
  9
$AUNITS
 70
0
  9
$PDMODE
 70
3
  9
$PDSIZE
 40
0.3125
  9
$HANDSEED
  5
42E
  9
$TILEMODE
 70
1
  9
$MEASUREMENT
 70
1
  9
$INSUNITS
 70
4
  0
ENDSEC
  0
SECTION
  2
CLASSES
  0
CLASS
  1
ACDBDICTIONARYWDFLT
  2
AcDbDictionaryWithDefault
  3
AutoCAD 2000
 90
0
 91
1
280
0
281
0
  0
CLASS
  1
ACDBPLACEHOLDER
  2
AcDbPlaceHolder
  3
AutoCAD 2000
 90
0
 91
1
280
0
281
0
  0
CLASS
  1
LAYOUT
  2
AcDbLayout
  3
AutoCAD 2000
 90
0
 91
0
280
0
281
0
  0
ENDSEC
  0
SECTION
  2
TABLES
  0
TABLE
  2
VPORT
  5
8
100
AcDbSymbolTable
 70
2
  0
VPORT
  5
1F4
100
AcDbSymbolTableRecord
100
AcDbViewportTableRecord
  2
*ACTIVE
 70
0
 10
0.0
 20
0.0
 11
1.0
 21
1.0
 12
32.9633464367
 22
46.6195899604
 13
0.0
 23
0.0
 14
1.0
 24
1.0
 15
0.0
 25
0.0
 16
0.0
 26
0.0
 36
1.0
 17
0.0
 27
0.0
 37
0.0
 40
93.2391799208
 41
0.7070707071
 42
50.0
 43
0.0
 44
0.0
 50
0.0
 51
0.0
 71
0
 72
100
 73
1
 74
1
 75
0
 76
0
 77
0
 78
0
  0
ENDTAB
  0
TABLE
  2
LTYPE
  5
5
100
AcDbSymbolTable
 70
6
  0
LTYPE
  5
14
100
AcDbSymbolTableRecord
100
AcDbLinetypeTableRecord
  2
BYBLOCK
 70
0
  3

 72
65
 73
0
 40
0.0
  0
LTYPE
  5
15
100
AcDbSymbolTableRecord
100
AcDbLinetypeTableRecord
  2
BYLAYER
 70
0
  3

 72
65
 73
0
 40
0.0
  0
LTYPE
  5
16
100
AcDbSymbolTableRecord
100
AcDbLinetypeTableRecord
  2
CONTINUOUS
 70
64
  3
Solid line
 72
65
 73
0
 40
0.0
  0
LTYPE
  5
1F5
100
AcDbSymbolTableRecord
100
AcDbLinetypeTableRecord
  2
CENTER
 70
64
  3
____ _ ____ _ ____ _ ____ _ ____ _ ____ _ ____
 72
65
 73
4
 40
0.6
 49
0.375
 74
0
 49
-0.075
 74
0
 49
0.075
 74
0
 49
-0.075
 74
0
  0
LTYPE
  5
1F6
100
AcDbSymbolTableRecord
100
AcDbLinetypeTableRecord
  2
HIDDEN
 70
64
  3
- - - - - - - - - - - - - - - - - - - -
 72
65
 73
2
 40
0.2
 49
0.1
 74
0
 49
-0.1
 74
0
  0
LTYPE
  5
1F7
100
AcDbSymbolTableRecord
100
AcDbLinetypeTableRecord
  2
PHANTOM
 70
64
  3
_____ _ _ _____ _ _ _____ _ _ _____
 72
65
 73
6
 40
0.8
 49
0.45
 74
0
 49
-0.05
 74
0
 49
0.1
 74
0
 49
-0.05
 74
0
 49
0.1
 74
0
 49
-0.05
 74
0
  0
LTYPE
  5
1F8
100
AcDbSymbolTableRecord
100
AcDbLinetypeTableRecord
  2
DOT
 70
64
  3
. . . . . . . . . . . . . . . . . . . .
 72
65
 73
2
 40
0.2
 49
0.1
 74
0
 49
-0.1
 74
0
  0
LTYPE
  5
1F9
100
AcDbSymbolTableRecord
100
AcDbLinetypeTableRecord
  2
DASHED
 70
64
  3
- - - - - - - - - - - - - - - - - - - -
 72
65
 73
2
 40
0.2
 49
0.1
 74
0
 49
-0.1
 74
0
  0
ENDTAB
  0
TABLE
  2
LAYER
  5
2
100
AcDbSymbolTable
 70
36
  0
LAYER
  5
10
100
AcDbSymbolTableRecord
100
AcDbLayerTableRecord
  2
0
 70
0
 62
7
  6
CONTINUOUS
370
-3
390
F
  0
LAYER
  5
1FA
100
AcDbSymbolTableRecord
100
AcDbLayerTableRecord
  2
DEFAULT_1
 70
0
 62
7
  6
CENTER
370
-3
390
F
  0
LAYER
  5
1FB
100
AcDbSymbolTableRecord
100
AcDbLayerTableRecord
  2
DEFAULT_2
 70
0
 62
7
  6
HIDDEN
370
-3
390
F
  0
LAYER
  5
1FC
100
AcDbSymbolTableRecord
100
AcDbLayerTableRecord
  2
DEFAULT_3
 70
0
 62
7
  6
PHANTOM
370
-3
390
F
  0
LAYER
  5
1FD
100
AcDbSymbolTableRecord
100
AcDbLayerTableRecord
  2
00_COMPONENTS
 70
0
 62
7
  6
CONTINUOUS
370
-3
390
F
  0
LAYER
  5
1FE
100
AcDbSymbolTableRecord
100
AcDbLayerTableRecord
  2
01_1_DEFAULT_DATUMS
 70
0
 62
7
  6
CONTINUOUS
370
-3
390
F
  0
LAYER
  5
1FF
100
AcDbSymbolTableRecord
100
AcDbLayerTableRecord
  2
01_PLANES
 70
0
 62
7
  6
CONTINUOUS
370
-3
390
F
  0
LAYER
  5
200
100
AcDbSymbolTableRecord
100
AcDbLayerTableRecord
  2
02_COORD_SYS
 70
0
 62
7
  6
CONTINUOUS
370
-3
390
F
  0
LAYER
  5
201
100
AcDbSymbolTableRecord
100
AcDbLayerTableRecord
  2
03_AXES
 70
0
 62
7
  6
CONTINUOUS
370
-3
390
F
  0
LAYER
  5
202
100
AcDbSymbolTableRecord
100
AcDbLayerTableRecord
  2
04_POINTS
 70
0
 62
7
  6
CONTINUOUS
370
-3
390
F
  0
LAYER
  5
203
100
AcDbSymbolTableRecord
100
AcDbLayerTableRecord
  2
05_CURVES
 70
0
 62
7
  6
CONTINUOUS
370
-3
390
F
  0
LAYER
  5
204
100
AcDbSymbolTableRecord
100
AcDbLayerTableRecord
  2
06_SURFS
 70
0
 62
7
  6
CONTINUOUS
370
-3
390
F
  0
LAYER
  5
205
100
AcDbSymbolTableRecord
100
AcDbLayerTableRecord
  2
07_COSMETICS
 70
0
 62
7
  6
CONTINUOUS
370
-3
390
F
  0
LAYER
  5
206
100
AcDbSymbolTableRecord
100
AcDbLayerTableRecord
  2
10_NOTES
 70
0
 62
7
  6
CONTINUOUS
370
-3
390
F
  0
LAYER
  5
207
100
AcDbSymbolTableRecord
100
AcDbLayerTableRecord
  2
11_NOTES_PUB
 70
0
 62
7
  6
CONTINUOUS
370
-3
390
F
  0
LAYER
  5
208
100
AcDbSymbolTableRecord
100
AcDbLayerTableRecord
  2
13_REF_GTOL
 70
0
 62
7
  6
CONTINUOUS
370
-3
390
F
  0
LAYER
  5
209
100
AcDbSymbolTableRecord
100
AcDbLayerTableRecord
  2
16_MISC
 70
0
 62
7
  6
CONTINUOUS
370
-3
390
F
  0
LAYER
  5
20A
100
AcDbSymbolTableRecord
100
AcDbLayerTableRecord
  2
17_NO_PRINT
 70
0
 62
7
  6
CONTINUOUS
370
-3
390
F
  0
LAYER
  5
20B
100
AcDbSymbolTableRecord
100
AcDbLayerTableRecord
  2
18_DATUM_CAMS_JOINTS
 70
0
 62
7
  6
CONTINUOUS
370
-3
390
F
  0
LAYER
  5
20C
100
AcDbSymbolTableRecord
100
AcDbLayerTableRecord
  2
19_DATUM_FUNCTIONAL
 70
0
 62
7
  6
CONTINUOUS
370
-3
390
F
  0
LAYER
  5
20D
100
AcDbSymbolTableRecord
100
AcDbLayerTableRecord
  2
20_DATUM_KINEMATIC_SCHEME
 70
0
 62
7
  6
CONTINUOUS
370
-3
390
F
  0
ENDTAB
  0
TABLE
  2
STYLE
  5
3
100
AcDbSymbolTable
 70
1
  0
STYLE
  5
11
100
AcDbSymbolTableRecord
100
AcDbTextStyleTableRecord
  2
STANDARD
 70
0
 40
0.0
 41
1.0
 50
0.0
 71
0
 42
0.2
  3
ARIAL.TTF
  4

  0
STYLE
  5
20E
100
AcDbSymbolTableRecord
100
AcDbTextStyleTableRecord
  2
TEXTSTYLE_1
 70
0
 40
0.0
 41
0.8
 50
0.0
 71
0
 42
0.2
  3
gdt
  4

  0
ENDTAB
  0
TABLE
  2
VIEW
  5
6
100
AcDbSymbolTable
 70
0
  0
ENDTAB
  0
TABLE
  2
UCS
  5
7
100
AcDbSymbolTable
 70
0
  0
ENDTAB
  0
TABLE
  2
APPID
  5
9
100
AcDbSymbolTable
 70
1
  0
APPID
  5
20F
100
AcDbSymbolTableRecord
100
AcDbRegAppTableRecord
  2
ACAD
 70
0
  0
ENDTAB
  0
TABLE
  2
BLOCK_RECORD
  5
1
100
AcDbSymbolTable
 70
0
  0
BLOCK_RECORD
  5
210
100
AcDbSymbolTableRecord
100
AcDbBlockTableRecord
  2
*Model_Space
  0
BLOCK_RECORD
  5
211
100
AcDbSymbolTableRecord
100
AcDbBlockTableRecord
  2
*Paper_Space
  0
BLOCK_RECORD
  5
212
100
AcDbSymbolTableRecord
100
AcDbBlockTableRecord
  2
_FILLED
  0
ENDTAB
  0
TABLE
  2
DIMSTYLE
  5
A
100
AcDbSymbolTable
 70
1
100
AcDbDimStyleTable
 71
0
  0
DIMSTYLE
105
213
100
AcDbSymbolTableRecord
100
AcDbDimStyleTableRecord
  2
STANDARD
 70
0
  3

  4

 40
1.0
 41
0.7848415818
 42
1.0
 43
0.38
 44
1.0
 45
0.0
 46
0.0
 47
0.01
 48
0.01
140
1.0987782146
141
0.09
142
0.0
143
25.4
144
1.0
145
0.0
146
1.0
147
0.625
 71
1
 72
0
 73
0
 74
0
 75
0
 76
0
 77
1
 78
8
 79
2
170
0
171
1
172
0
173
0
174
0
175
0
176
0
177
0
178
0
270
2
179
2
271
2
272
2
273
2
274
2
275
0
280
0
281
0
282
0
283
1
284
8
285
0
286
0
287
3
288
0
340
11
278
46
341
212
342
212
343
212
344
212
  0
ENDTAB
  0
ENDSEC
  0
SECTION
  2
BLOCKS
  0
BLOCK
  5
20
100
AcDbEntity
  8
0
100
AcDbBlockBegin
  2
*Model_Space
 70
0
 10
0.0
 20
0.0
 30
0.0
  3
*Model_Space
  1

  0
ENDBLK
  5
21
100
AcDbEntity
  8
0
100
AcDbBlockEnd
  0
BLOCK
  5
1C
100
AcDbEntity
  8
0
100
AcDbBlockBegin
  2
*Paper_Space
 70
0
 10
0.0
 20
0.0
 30
0.0
  3
*Paper_Space
  1

  0
ENDBLK
  5
1D
100
AcDbEntity
  8
0
100
AcDbBlockEnd
  0
BLOCK
  5
214
100
AcDbEntity
  8
0
100
AcDbBlockBegin
  2
_FILLED
 70
64
 10
0.0
 20
0.0
  3
_FILLED
  1

  0
SOLID
  5
215
100
AcDbEntity
  8
0
  6
BYBLOCK
 62
0
100
AcDbTrace
 10
0.0
 20
0.0
 11
-1.0
 21
0.25
 12
-1.0
 22
-0.25
 13
-1.0
 23
-0.25
  0
ENDBLK
  5
216
100
AcDbEntity
  8
0
  6
BYBLOCK
 62
0
100
AcDbBlockEnd
  0
ENDSEC
  0
SECTION
  2
ENTITIES
  0
LINE
  5
217
100
AcDbEntity
  8
0
100
AcDbLine
 62
7
  6
BYLAYER
 10
7.6482548779
 20
39.1194048823
 11
7.6482548779
 21
58.0622609597
  0
LINE
  5
218
100
AcDbEntity
  8
0
100
AcDbLine
 62
7
  6
BYLAYER
 10
7.6836106586
 20
59.3890787857
 11
7.6836106586
 21
58.5725763685
  0
LINE
  5
219
100
AcDbEntity
  8
0
100
AcDbLine
 62
7
  6
BYLAYER
 10
7.6836106586
 20
38.241666182
 11
7.6836106586
 21
37.4251637649
  0
LINE
  5
21A
100
AcDbEntity
  8
0
100
AcDbLine
 62
7
  6
BYLAYER
 10
7.7896824165
 20
44.5899898012
 11
7.7896824165
 21
50.8770584131
  0
LINE
  5
21B
100
AcDbEntity
  8
0
100
AcDbLine
 62
7
  6
BYLAYER
 10
8.7442752463
 20
60.7771485758
 11
8.7442752463
 21
58.7767176539
  0
LINE
  5
21C
100
AcDbEntity
  8
0
100
AcDbLine
 62
7
  6
BYLAYER
 10
8.7442752463
 20
36.8128026331
 11
8.7442752463
 21
34.8123717111
  0
LINE
  5
21D
100
AcDbEntity
  8
0
100
AcDbLine
 62
7
  6
BYLAYER
 10
26.5632919441
 20
71.0649012534
 11
8.7442752463
 21
60.7771485758
  0
LINE
  5
21E
100
AcDbEntity
  8
0
100
AcDbLine
 62
7
  6
BYLAYER
 10
9.4513849714
 20
37.2210642957
 11
9.4513849714
 21
34.4041309566
  0
LINE
  5
21F
100
AcDbEntity
  8
0
100
AcDbLine
 62
7
  6
BYLAYER
 10
9.4513849714
 20
57.5519744822
 11
9.4513849714
 21
60.3689078213
  0
LINE
  5
220
100
AcDbEntity
  8
0
100
AcDbLine
 62
7
  6
BYLAYER
 10
9.6281621083
 20
36.3025008145
 11
9.6281621083
 21
37.9763307696
  0
LINE
  5
221
100
AcDbEntity
  8
0
100
AcDbLine
 62
7
  6
BYLAYER
 10
9.6281621083
 20
56.919186847
 11
9.6281621083
 21
58.5930168021
  0
LINE
  5
222
100
AcDbEntity
  8
0
100
AcDbLine
 62
7
  6
BYLAYER
 10
10.3352718335
 20
36.1392107851
 11
10.3352718335
 21
35.89426006
  0
LINE
  5
223
100
AcDbEntity
  8
0
100
AcDbLine
 62
7
  6
BYLAYER
 10
10.3352718335
 20
57.9398253225
 11
10.3352718335
 21
58.1847760476
  0
LINE
  5
224
100
AcDbEntity
  8
0
100
AcDbLine
 62
7
  6
BYLAYER
 10
11.3959320053
 20
53.2245264131
 11
11.3959320053
 21
52.4080239959
  0
LINE
  5
225
100
AcDbEntity
  8
0
100
AcDbLine
 62
7
  6
BYLAYER
 10
11.3959320053
 20
41.6710172107
 11
11.3959320053
 21
40.8545147936
  0
LINE
  5
226
100
AcDbEntity
  8
0
100
AcDbLine
 62
7
  6
BYLAYER
 10
28.4724634727
 20
71.3914569095
 11
27.2350761201
 21
70.6770552528
  0
LINE
  5
227
100
AcDbEntity
  8
0
100
AcDbLine
 62
7
  6
BYLAYER
 10
8.7442752463
 20
60.0014501155
 11
7.6836106586
 21
59.3890787857
  0
LINE
  5
228
100
AcDbEntity
  8
0
100
AcDbLine
 62
7
  6
BYLAYER
 10
27.2704016692
 20
70.6566604989
 11
9.4513849714
 21
60.3689078213
  0
LINE
  5
229
100
AcDbEntity
  8
0
100
AcDbLine
 62
7
  6
BYLAYER
 10
31.8665618913
 20
73.2693786063
 11
29.6038296122
 21
71.962997314
  0
LINE
  5
22A
100
AcDbEntity
  8
0
100
AcDbLine
 62
7
  6
BYLAYER
 10
7.6482548779
 20
58.0622609597
 11
8.1078850471
 21
58.3276269776
  0
LINE
  5
22B
100
AcDbEntity
  8
0
100
AcDbLine
 62
7
  6
BYLAYER
 10
30.0280954473
 20
70.8607253233
 11
30.0028062398
 21
70.8461246797
  0
LINE
  5
22C
100
AcDbEntity
  8
0
100
AcDbLine
 62
7
  6
BYLAYER
 10
30.0888358811
 20
70.732510773
 11
30.9119826037
 21
71.2077519181
  0
LINE
  5
22D
100
AcDbEntity
  8
0
100
AcDbLine
 62
7
  6
BYLAYER
 10
12.6661690422
 20
60.5102981149
 11
12.1762731333
 21
60.2274582683
  0
LINE
  5
22E
100
AcDbEntity
  8
0
100
AcDbLine
 62
7
  6
BYLAYER
 10
9.6281621083
 20
58.5930168021
 11
12.2798014979
 21
60.1239323792
  0
LINE
  5
22F
100
AcDbEntity
  8
0
100
AcDbLine
 62
7
  6
BYLAYER
 10
30.2402377855
 20
70.3708550232
 11
27.2704016692
 21
68.6562295769
  0
LINE
  5
230
100
AcDbEntity
  8
0
100
AcDbLine
 62
7
  6
BYLAYER
 10
30.5487842261
 20
70.4673430887
 11
27.588598396
 21
68.7582892044
  0
LINE
  5
231
100
AcDbEntity
  8
0
100
AcDbLine
 62
7
  6
BYLAYER
 10
8.7442752463
 20
34.8123717111
 11
9.4513849714
 21
34.4041309566
  0
LINE
  5
232
100
AcDbEntity
  8
0
100
AcDbLine
 62
7
  6
BYLAYER
 10
14.8961298551
 20
31.2606771468
 11
15.6032395802
 21
30.8524363923
  0
LINE
  5
233
100
AcDbEntity
  8
0
100
AcDbLine
 62
7
  6
BYLAYER
 10
21.0479844639
 20
27.7089825825
 11
21.755094189
 21
27.3007418279
  0
LINE
  5
234
100
AcDbEntity
  8
0
100
AcDbLine
 62
7
  6
BYLAYER
 10
27.1998390726
 20
24.1572880181
 11
27.9069487978
 21
23.7490472636
  0
LINE
  5
235
100
AcDbEntity
  8
0
100
AcDbLine
 62
7
  6
BYLAYER
 10
33.3516936814
 20
20.6055934538
 11
34.0588034066
 21
20.1973526993
  0
LINE
  5
236
100
AcDbEntity
  8
0
100
AcDbLine
 62
7
  6
BYLAYER
 10
12.1762731333
 20
60.0641606068
 11
12.1762731333
 21
60.2274582683
  0
LINE
  5
237
100
AcDbEntity
  8
0
100
AcDbLine
 62
7
  6
BYLAYER
 10
12.456596593
 20
53.836918907
 11
12.456596593
 21
52.6121652813
  0
LINE
  5
238
100
AcDbEntity
  8
0
100
AcDbLine
 62
7
  6
BYLAYER
 10
12.456596593
 20
51.7956628642
 11
12.456596593
 21
50.5709092385
  0
LINE
  5
239
100
AcDbEntity
  8
0
100
AcDbLine
 62
7
  6
BYLAYER
 10
12.456596593
 20
41.8956066002
 11
12.456596593
 21
41.0586560789
  0
LINE
  5
23A
100
AcDbEntity
  8
0
100
AcDbLine
 62
7
  6
BYLAYER
 10
12.456596593
 20
40.2421536618
 11
12.456596593
 21
39.0174000361
  0
LINE
  5
23B
100
AcDbEntity
  8
0
100
AcDbLine
 62
7
  6
BYLAYER
 10
13.1637063181
 20
38.6091592816
 11
13.1637063181
 21
39.8339129073
  0
LINE
  5
23C
100
AcDbEntity
  8
0
100
AcDbLine
 62
7
  6
BYLAYER
 10
13.1637063181
 20
40.6504153244
 11
13.1637063181
 21
41.4873658456
  0
LINE
  5
23D
100
AcDbEntity
  8
0
100
AcDbLine
 62
7
  6
BYLAYER
 10
13.1637063181
 20
50.1626684839
 11
13.1637063181
 21
51.3874221096
  0
LINE
  5
23E
100
AcDbEntity
  8
0
100
AcDbLine
 62
7
  6
BYLAYER
 10
13.1637063181
 20
52.2039245268
 11
13.1637063181
 21
53.4286781525
  0
LINE
  5
23F
100
AcDbEntity
  8
0
100
AcDbLine
 62
7
  6
BYLAYER
 10
13.5525942928
 20
58.8737003673
 11
13.5525942928
 21
60.0422869477
  0
LINE
  5
240
100
AcDbEntity
  8
0
100
AcDbLine
 62
7
  6
BYLAYER
 10
20.0862310402
 20
63.8226198997
 11
20.729692647
 21
64.5941996848
  0
LINE
  5
241
100
AcDbEntity
  8
0
100
AcDbLine
 62
7
  6
BYLAYER
 10
20.729692647
 20
64.5941996848
 11
27.7653758273
 21
68.6562290158
  0
LINE
  5
242
100
AcDbEntity
  8
0
100
AcDbLine
 62
7
  6
BYLAYER
 10
32.3261964605
 20
71.166931072
 11
33.9171800942
 21
72.0854804182
  0
LINE
  5
243
100
AcDbEntity
  8
0
100
AcDbLine
 62
7
  6
BYLAYER
 10
13.5525942928
 20
60.0422869477
 11
10.3352718335
 21
58.1847760476
  0
LINE
  5
244
100
AcDbEntity
  8
0
100
AcDbLine
 62
7
  6
BYLAYER
 10
9.6281621083
 20
57.6540362006
 11
9.4513849714
 21
57.5519744822
  0
LINE
  5
245
100
AcDbEntity
  8
0
100
AcDbLine
 62
7
  6
BYLAYER
 10
34.1823471243
 20
71.7935873507
 11
32.7115715051
 21
70.9444397197
  0
LINE
  5
246
100
AcDbEntity
  8
0
100
AcDbLine
 62
7
  6
BYLAYER
 10
10.3352718335
 20
57.9398253225
 11
11.1484412463
 21
58.4093060994
  0
LINE
  5
247
100
AcDbEntity
  8
0
100
AcDbLine
 62
7
  6
BYLAYER
 10
18.7851556227
 20
62.5733712256
 11
19.8906223369
 21
63.2116089209
  0
LINE
  5
248
100
AcDbEntity
  8
0
100
AcDbLine
 62
7
  6
BYLAYER
 10
14.3016239665
 20
59.7806928643
 11
13.9267045902
 21
59.5642343536
  0
LINE
  5
249
100
AcDbEntity
  8
0
100
AcDbLine
 62
7
  6
BYLAYER
 10
11.5387917532
 20
58.1839422276
 11
12.0572877529
 21
58.4832942457
  0
LINE
  5
24A
100
AcDbEntity
  8
0
100
AcDbLine
 62
7
  6
BYLAYER
 10
33.1749159557
 20
22.708083689
 11
32.4678062306
 21
23.1163244435
  0
LINE
  5
24B
100
AcDbEntity
  8
0
100
AcDbLine
 62
7
  6
BYLAYER
 10
10.3352718335
 20
35.89426006
 11
9.6281621083
 21
36.3025008145
  0
LINE
  5
24C
100
AcDbEntity
  8
0
100
AcDbLine
 62
7
  6
BYLAYER
 10
7.6836106586
 20
37.4251637649
 11
8.7442752463
 21
36.8128026331
  0
LINE
  5
24D
100
AcDbEntity
  8
0
100
AcDbLine
 62
7
  6
BYLAYER
 10
34.0588034066
 20
22.1977836213
 11
35.1194679943
 21
21.5854224895
  0
LINE
  5
24E
100
AcDbEntity
  8
0
100
AcDbLine
 62
7
  6
BYLAYER
 10
10.3352718335
 20
36.1392107851
 11
14.8961298551
 21
33.5060577485
  0
LINE
  5
24F
100
AcDbEntity
  8
0
100
AcDbLine
 62
7
  6
BYLAYER
 10
15.6385947721
 20
33.0774051262
 11
21.0479844639
 21
29.9543631842
  0
LINE
  5
250
100
AcDbEntity
  8
0
100
AcDbLine
 62
7
  6
BYLAYER
 10
21.7904493809
 20
29.5257105619
 11
27.1998390726
 21
26.4026686198
  0
LINE
  5
251
100
AcDbEntity
  8
0
100
AcDbLine
 62
7
  6
BYLAYER
 10
27.9423039896
 20
25.9740159976
 11
32.4678062306
 21
23.3612751686
  0
LINE
  5
252
100
AcDbEntity
  8
0
100
AcDbLine
 62
7
  6
BYLAYER
 10
7.6836106586
 20
38.241666182
 11
9.4513849714
 21
37.2210642957
  0
LINE
  5
253
100
AcDbEntity
  8
0
100
AcDbLine
 62
7
  6
BYLAYER
 10
14.8961298551
 20
34.0776104859
 11
15.6032395802
 21
33.6693697314
  0
LINE
  5
254
100
AcDbEntity
  8
0
100
AcDbLine
 62
7
  6
BYLAYER
 10
21.0479844639
 20
30.5259159216
 11
21.755094189
 21
30.117675167
  0
LINE
  5
255
100
AcDbEntity
  8
0
100
AcDbLine
 62
7
  6
BYLAYER
 10
27.1998390726
 20
26.9742213572
 11
27.9069487978
 21
26.5659806027
  0
LINE
  5
256
100
AcDbEntity
  8
0
100
AcDbLine
 62
7
  6
BYLAYER
 10
33.3516936814
 20
23.4225267929
 11
35.1194679943
 21
22.4019249066
  0
LINE
  5
257
100
AcDbEntity
  8
0
100
AcDbLine
 62
7
  6
BYLAYER
 10
27.9423039896
 20
26.5863928104
 11
27.2351942645
 21
26.9946335649
  0
LINE
  5
258
100
AcDbEntity
  8
0
100
AcDbLine
 62
7
  6
BYLAYER
 10
21.7904493809
 20
30.1380873747
 11
21.0833396557
 21
30.5463281293
  0
LINE
  5
259
100
AcDbEntity
  8
0
100
AcDbLine
 62
7
  6
BYLAYER
 10
15.6385947721
 20
33.6897819391
 11
14.9314850469
 21
34.0980226936
  0
LINE
  5
25A
100
AcDbEntity
  8
0
100
AcDbLine
 62
7
  6
BYLAYER
 10
35.1548231861
 20
23.2388395314
 11
33.1749159557
 21
24.3819136441
  0
LINE
  5
25B
100
AcDbEntity
  8
0
100
AcDbLine
 62
7
  6
BYLAYER
 10
9.6281621083
 20
37.9763307696
 11
7.6482548779
 21
39.1194048823
  0
LINE
  5
25C
100
AcDbEntity
  8
0
100
AcDbLine
 62
7
  6
BYLAYER
 10
14.2243709058
 20
39.2215517755
 11
14.2243709058
 21
40.0380541926
  0
LINE
  5
25D
100
AcDbEntity
  8
0
100
AcDbLine
 62
7
  6
BYLAYER
 10
14.2243709058
 20
50.7750609779
 11
14.2243709058
 21
51.591563395
  0
LINE
  5
25E
100
AcDbEntity
  8
0
100
AcDbLine
 62
7
  6
BYLAYER
 10
14.8961298551
 20
34.0776104859
 11
14.8961298551
 21
31.2606771468
  0
LINE
  5
25F
100
AcDbEntity
  8
0
100
AcDbLine
 62
7
  6
BYLAYER
 10
14.8961298551
 20
54.4085206724
 11
14.8961298551
 21
57.2254540115
  0
LINE
  5
260
100
AcDbEntity
  8
0
100
AcDbLine
 62
7
  6
BYLAYER
 10
15.6032395802
 20
33.6693697314
 11
15.6032395802
 21
30.8524363923
  0
LINE
  5
261
100
AcDbEntity
  8
0
100
AcDbLine
 62
7
  6
BYLAYER
 10
15.6032395802
 20
54.0002799179
 11
15.6032395802
 21
56.817213257
  0
LINE
  5
262
100
AcDbEntity
  8
0
100
AcDbLine
 62
7
  6
BYLAYER
 10
15.6385947721
 20
33.6897819391
 11
15.6385947721
 21
33.0774051262
  0
LINE
  5
263
100
AcDbEntity
  8
0
100
AcDbLine
 62
7
  6
BYLAYER
 10
15.6385947721
 20
54.0206921256
 11
15.6385947721
 21
54.8780196636
  0
LINE
  5
264
100
AcDbEntity
  8
0
100
AcDbLine
 62
7
  6
BYLAYER
 10
20.0862310402
 20
63.8226198997
 11
19.8104617802
 21
62.9612162778
  0
LINE
  5
265
100
AcDbEntity
  8
0
100
AcDbLine
 62
7
  6
BYLAYER
 10
28.4725235296
 20
65.0637417658
 11
14.8961298551
 21
57.2254540115
  0
LINE
  5
266
100
AcDbEntity
  8
0
100
AcDbLine
 62
7
  6
BYLAYER
 10
29.1796332547
 20
64.6555010113
 11
15.6032395802
 21
56.817213257
  0
LINE
  5
267
100
AcDbEntity
  8
0
100
AcDbLine
 62
7
  6
BYLAYER
 10
35.9679925989
 20
22.8918178913
 11
35.2608706546
 21
23.3000657004
  0
LINE
  5
268
100
AcDbEntity
  8
0
100
AcDbLine
 62
7
  6
BYLAYER
 10
12.456596593
 20
39.0174000361
 11
13.1637063181
 21
38.6091592816
  0
LINE
  5
269
100
AcDbEntity
  8
0
100
AcDbLine
 62
7
  6
BYLAYER
 10
18.5377402292
 20
35.5065295472
 11
19.2448499544
 21
35.0982887927
  0
LINE
  5
26A
100
AcDbEntity
  8
0
100
AcDbLine
 62
7
  6
BYLAYER
 10
24.6188838655
 20
31.9956590583
 11
25.3259935906
 21
31.5874183038
  0
LINE
  5
26B
100
AcDbEntity
  8
0
100
AcDbLine
 62
7
  6
BYLAYER
 10
30.7000275018
 20
28.4847885695
 11
31.4071372269
 21
28.0765478149
  0
LINE
  5
26C
100
AcDbEntity
  8
0
100
AcDbLine
 62
7
  6
BYLAYER
 10
17.4770756415
 20
49.7136559242
 11
17.4770756415
 21
48.8971535071
  0
LINE
  5
26D
100
AcDbEntity
  8
0
100
AcDbLine
 62
7
  6
BYLAYER
 10
17.4770756415
 20
38.1601467218
 11
17.4770756415
 21
37.3436443047
  0
LINE
  5
26E
100
AcDbEntity
  8
0
100
AcDbLine
 62
7
  6
BYLAYER
 10
18.5377402292
 20
50.3260484181
 11
18.5377402292
 21
49.1012947924
  0
LINE
  5
26F
100
AcDbEntity
  8
0
100
AcDbLine
 62
7
  6
BYLAYER
 10
18.5377402292
 20
48.2847923753
 11
18.5377402292
 21
47.0600387496
  0
LINE
  5
270
100
AcDbEntity
  8
0
100
AcDbLine
 62
7
  6
BYLAYER
 10
18.5377402292
 20
38.3847361113
 11
18.5377402292
 21
37.54778559
  0
LINE
  5
271
100
AcDbEntity
  8
0
100
AcDbLine
 62
7
  6
BYLAYER
 10
18.5377402292
 20
36.7312831729
 11
18.5377402292
 21
35.5065295472
  0
LINE
  5
272
100
AcDbEntity
  8
0
100
AcDbLine
 62
7
  6
BYLAYER
 10
18.7851556227
 20
59.4707706826
 11
18.7851556227
 21
62.5733712256
  0
LINE
  5
273
100
AcDbEntity
  8
0
100
AcDbLine
 62
7
  6
BYLAYER
 10
32.8565658483
 20
65.7168955833
 11
32.4554016038
 21
65.4852846813
  0
LINE
  5
274
100
AcDbEntity
  8
0
100
AcDbLine
 62
7
  6
BYLAYER
 10
7.7896824165
 20
50.8770584131
 11
8.4614310618
 21
51.2648903592
  0
LINE
  5
275
100
AcDbEntity
  8
0
100
AcDbLine
 62
7
  6
BYLAYER
 10
16.4517641849
 20
55.3475004405
 11
15.6385947721
 21
54.8780196636
  0
LINE
  5
276
100
AcDbEntity
  8
0
100
AcDbLine
 62
7
  6
BYLAYER
 10
12.1030539496
 20
52.8162786039
 11
11.3959320053
 21
52.4080239959
  0
LINE
  5
277
100
AcDbEntity
  8
0
100
AcDbLine
 62
7
  6
BYLAYER
 10
33.917230436
 20
65.1045344515
 11
25.8916018837
 21
60.470963305
  0
LINE
  5
278
100
AcDbEntity
  8
0
100
AcDbLine
 62
7
  6
BYLAYER
 10
13.1637063181
 20
53.0204128345
 11
12.456596593
 21
52.6121652813
  0
LINE
  5
279
100
AcDbEntity
  8
0
100
AcDbLine
 62
7
  6
BYLAYER
 10
41.0106612566
 20
68.8529707425
 11
36.0609343961
 21
65.9952616654
  0
LINE
  5
27A
100
AcDbEntity
  8
0
100
AcDbLine
 62
7
  6
BYLAYER
 10
15.6385947721
 20
54.0206921256
 11
15.6032395802
 21
54.0002799179
  0
LINE
  5
27B
100
AcDbEntity
  8
0
100
AcDbLine
 62
7
  6
BYLAYER
 10
24.9370102314
 20
59.0216766613
 11
25.5026987334
 21
59.3482751206
  0
LINE
  5
27C
100
AcDbEntity
  8
0
100
AcDbLine
 62
7
  6
BYLAYER
 10
13.1637124276
 20
52.2039139447
 11
12.456596593
 21
51.7956628642
  0
LINE
  5
27D
100
AcDbEntity
  8
0
100
AcDbLine
 62
7
  6
BYLAYER
 10
11.3959320053
 20
40.8545147936
 11
12.456596593
 21
40.2421536618
  0
LINE
  5
27E
100
AcDbEntity
  8
0
100
AcDbLine
 62
7
  6
BYLAYER
 10
13.1637063181
 20
39.8339129073
 11
14.2243709058
 21
39.2215517755
  0
LINE
  5
27F
100
AcDbEntity
  8
0
100
AcDbLine
 62
7
  6
BYLAYER
 10
17.4770756415
 20
37.3436443047
 11
18.5377402292
 21
36.7312831729
  0
LINE
  5
280
100
AcDbEntity
  8
0
100
AcDbLine
 62
7
  6
BYLAYER
 10
19.2448499544
 20
36.3230424184
 11
20.3055145421
 21
35.7106812866
  0
LINE
  5
281
100
AcDbEntity
  8
0
100
AcDbLine
 62
7
  6
BYLAYER
 10
23.5582192778
 20
33.8327738158
 11
24.6188838655
 21
33.220412684
  0
LINE
  5
282
100
AcDbEntity
  8
0
100
AcDbLine
 62
7
  6
BYLAYER
 10
25.3259935906
 20
32.8121719295
 11
26.3866581784
 21
32.1998107977
  0
LINE
  5
283
100
AcDbEntity
  8
0
100
AcDbLine
 62
7
  6
BYLAYER
 10
29.639362914
 20
30.3219033269
 11
30.7000275018
 21
29.7095421952
  0
LINE
  5
284
100
AcDbEntity
  8
0
100
AcDbLine
 62
7
  6
BYLAYER
 10
31.4071372269
 20
29.3013014406
 11
32.4678018146
 21
28.6889403089
  0
LINE
  5
285
100
AcDbEntity
  8
0
100
AcDbLine
 62
7
  6
BYLAYER
 10
32.4678018146
 20
29.505442726
 11
31.4071372269
 21
30.1178038578
  0
LINE
  5
286
100
AcDbEntity
  8
0
100
AcDbLine
 62
7
  6
BYLAYER
 10
30.7000275018
 20
30.5260446123
 11
29.639362914
 21
31.1384057441
  0
LINE
  5
287
100
AcDbEntity
  8
0
100
AcDbLine
 62
7
  6
BYLAYER
 10
26.3866581784
 20
33.0163132149
 11
25.3259935906
 21
33.6286743466
  0
LINE
  5
288
100
AcDbEntity
  8
0
100
AcDbLine
 62
7
  6
BYLAYER
 10
24.6188838655
 20
34.0369151012
 11
23.5582192778
 21
34.6492762329
  0
LINE
  5
289
100
AcDbEntity
  8
0
100
AcDbLine
 62
7
  6
BYLAYER
 10
20.3055145421
 20
36.5271837037
 11
19.2448499544
 21
37.1395448355
  0
LINE
  5
28A
100
AcDbEntity
  8
0
100
AcDbLine
 62
7
  6
BYLAYER
 10
18.5377402292
 20
37.54778559
 11
17.4770756415
 21
38.1601467218
  0
LINE
  5
28B
100
AcDbEntity
  8
0
100
AcDbLine
 62
7
  6
BYLAYER
 10
14.2243709058
 20
40.0380541926
 11
13.1637063181
 21
40.6504153244
  0
LINE
  5
28C
100
AcDbEntity
  8
0
100
AcDbLine
 62
7
  6
BYLAYER
 10
12.456596593
 20
41.0586560789
 11
11.3959320053
 21
41.6710172107
  0
LINE
  5
28D
100
AcDbEntity
  8
0
100
AcDbLine
 62
7
  6
BYLAYER
 10
19.5984148264
 20
37.7723692007
 11
7.7896824165
 21
44.5899898012
  0
LINE
  5
28E
100
AcDbEntity
  8
0
100
AcDbLine
 62
7
  6
BYLAYER
 10
19.2448499544
 20
35.0982887927
 11
19.2448499544
 21
36.3230424184
  0
LINE
  5
28F
100
AcDbEntity
  8
0
100
AcDbLine
 62
7
  6
BYLAYER
 10
19.2448499544
 20
37.1395448355
 11
19.2448499544
 21
37.9764953568
  0
LINE
  5
290
100
AcDbEntity
  8
0
100
AcDbLine
 62
7
  6
BYLAYER
 10
19.2448499544
 20
46.6517979951
 11
19.2448499544
 21
47.8765516208
  0
LINE
  5
291
100
AcDbEntity
  8
0
100
AcDbLine
 62
7
  6
BYLAYER
 10
19.2448499544
 20
48.6930540379
 11
19.2448499544
 21
49.9178076636
  0
LINE
  5
292
100
AcDbEntity
  8
0
100
AcDbLine
 62
7
  6
BYLAYER
 10
19.5984148264
 20
44.0594378126
 11
19.5984148264
 21
37.7723692007
  0
LINE
  5
293
100
AcDbEntity
  8
0
100
AcDbLine
 62
7
  6
BYLAYER
 10
19.8104617802
 20
62.9612162778
 11
19.8104617802
 21
62.6346153109
  0
LINE
  5
294
100
AcDbEntity
  8
0
100
AcDbLine
 62
7
  6
BYLAYER
 10
20.2701634718
 20
44.4472697587
 11
20.2701634718
 21
38.1602011468
  0
LINE
  5
295
100
AcDbEntity
  8
0
100
AcDbLine
 62
7
  6
BYLAYER
 10
20.3055145421
 20
35.7106812866
 11
20.3055145421
 21
36.5271837037
  0
LINE
  5
296
100
AcDbEntity
  8
0
100
AcDbLine
 62
7
  6
BYLAYER
 10
20.3055145421
 20
47.264190489
 11
20.3055145421
 21
48.0806929061
  0
LINE
  5
297
100
AcDbEntity
  8
0
100
AcDbLine
 62
7
  6
BYLAYER
 10
21.0479844639
 20
30.5259159216
 11
21.0479844639
 21
27.7089825825
  0
LINE
  5
298
100
AcDbEntity
  8
0
100
AcDbLine
 62
7
  6
BYLAYER
 10
21.0479844639
 20
50.8568261081
 11
21.0479844639
 21
53.6737594472
  0
LINE
  5
299
100
AcDbEntity
  8
0
100
AcDbLine
 62
7
  6
BYLAYER
 10
25.8916018837
 20
60.470963305
 11
25.4673395813
 21
59.6952902416
  0
LINE
  5
29A
100
AcDbEntity
  8
0
100
AcDbLine
 62
7
  6
BYLAYER
 10
13.8708282625
 20
51.7956767176
 11
13.1637063181
 21
51.3874221096
  0
LINE
  5
29B
100
AcDbEntity
  8
0
100
AcDbLine
 62
7
  6
BYLAYER
 10
42.3895252206
 20
68.0569012712
 11
37.4397983601
 21
65.1991921941
  0
LINE
  5
29C
100
AcDbEntity
  8
0
100
AcDbLine
 62
7
  6
BYLAYER
 10
13.1637063181
 20
50.9791567917
 11
12.456596593
 21
50.5709092385
  0
LINE
  5
29D
100
AcDbEntity
  8
0
100
AcDbLine
 62
7
  6
BYLAYER
 10
37.4397983601
 20
63.4437119972
 11
40.6924760113
 21
65.321635105
  0
LINE
  5
29E
100
AcDbEntity
  8
0
100
AcDbLine
 62
7
  6
BYLAYER
 10
34.6243781384
 20
61.5120472015
 11
21.0479844639
 21
53.6737594472
  0
LINE
  5
29F
100
AcDbEntity
  8
0
100
AcDbLine
 62
7
  6
BYLAYER
 10
31.4071372269
 20
31.3425574835
 11
30.7000275018
 21
31.750798238
  0
LINE
  5
2A0
100
AcDbEntity
  8
0
100
AcDbLine
 62
7
  6
BYLAYER
 10
25.3259935906
 20
34.8534279723
 11
24.6188838655
 21
35.2616687269
  0
LINE
  5
2A1
100
AcDbEntity
  8
0
100
AcDbLine
 62
7
  6
BYLAYER
 10
33.2497266379
 20
32.3746948123
 11
32.1852586863
 21
32.9892517676
  0
LINE
  5
2A2
100
AcDbEntity
  8
0
100
AcDbLine
 62
7
  6
BYLAYER
 10
21.755094189
 20
30.117675167
 11
21.755094189
 21
27.3007418279
  0
LINE
  5
2A3
100
AcDbEntity
  8
0
100
AcDbLine
 62
7
  6
BYLAYER
 10
21.755094189
 20
50.4485853536
 11
21.755094189
 21
53.2655186927
  0
LINE
  5
2A4
100
AcDbEntity
  8
0
100
AcDbLine
 62
7
  6
BYLAYER
 10
21.7904493809
 20
30.1380873747
 11
21.7904493809
 21
29.5257105619
  0
LINE
  5
2A5
100
AcDbEntity
  8
0
100
AcDbLine
 62
7
  6
BYLAYER
 10
21.7904493809
 20
50.4689975613
 11
21.7904493809
 21
51.3263250993
  0
LINE
  5
2A6
100
AcDbEntity
  8
0
100
AcDbLine
 62
7
  6
BYLAYER
 10
23.5582192778
 20
46.2027854353
 11
23.5582192778
 21
45.3862830182
  0
LINE
  5
2A7
100
AcDbEntity
  8
0
100
AcDbLine
 62
7
  6
BYLAYER
 10
23.5582192778
 20
34.6492762329
 11
23.5582192778
 21
33.8327738158
  0
LINE
  5
2A8
100
AcDbEntity
  8
0
100
AcDbLine
 62
7
  6
BYLAYER
 10
38.0538202674
 20
63.0020957555
 11
41.3064979186
 21
64.8800188633
  0
LINE
  5
2A9
100
AcDbEntity
  8
0
100
AcDbLine
 62
7
  6
BYLAYER
 10
35.3314878635
 20
61.103806447
 11
21.755094189
 21
53.2655186927
  0
LINE
  5
2AA
100
AcDbEntity
  8
0
100
AcDbLine
 62
7
  6
BYLAYER
 10
38.478093434
 20
62.75714707
 11
41.3064979186
 21
64.390117413
  0
LINE
  5
2AB
100
AcDbEntity
  8
0
100
AcDbLine
 62
7
  6
BYLAYER
 10
42.8091060845
 20
64.0125072599
 11
44.4354449101
 21
64.9514688138
  0
LINE
  5
2AC
100
AcDbEntity
  8
0
100
AcDbLine
 62
7
  6
BYLAYER
 10
42.9682057727
 20
63.9206530902
 11
39.7155281215
 21
62.0427299824
  0
LINE
  5
2AD
100
AcDbEntity
  8
0
100
AcDbLine
 62
7
  6
BYLAYER
 10
18.1841975859
 20
49.3054081151
 11
17.4770756415
 21
48.8971535071
  0
LINE
  5
2AE
100
AcDbEntity
  8
0
100
AcDbLine
 62
7
  6
BYLAYER
 10
22.6036187937
 20
51.7958058762
 11
21.7904493809
 21
51.3263250993
  0
LINE
  5
2AF
100
AcDbEntity
  8
0
100
AcDbLine
 62
7
  6
BYLAYER
 10
39.5741108868
 20
61.4711902066
 11
38.483992471
 21
60.8418138026
  0
LINE
  5
2B0
100
AcDbEntity
  8
0
100
AcDbLine
 62
7
  6
BYLAYER
 10
39.2205533746
 20
62.0427287926
 11
38.9668557898
 21
61.9034314106
  0
LINE
  5
2B1
100
AcDbEntity
  8
0
100
AcDbLine
 62
7
  6
BYLAYER
 10
34.0941585984
 20
32.5469514056
 11
33.8211198209
 21
32.7045868512
  0
LINE
  5
2B2
100
AcDbEntity
  8
0
100
AcDbLine
 62
7
  6
BYLAYER
 10
32.1852586863
 20
33.6490303514
 11
29.5686563575
 21
35.1596922346
  0
LINE
  5
2B3
100
AcDbEntity
  8
0
100
AcDbLine
 62
7
  6
BYLAYER
 10
32.1852586863
 20
34.2183971527
 11
33.2497266379
 21
33.6038401974
  0
LINE
  5
2B4
100
AcDbEntity
  8
0
100
AcDbLine
 62
7
  6
BYLAYER
 10
32.5053349359
 20
34.4031921585
 11
30.3818257703
 21
35.6291730115
  0
LINE
  5
2B5
100
AcDbEntity
  8
0
100
AcDbLine
 62
7
  6
BYLAYER
 10
29.5686563575
 20
36.7110468271
 11
34.0941585984
 21
34.0983059982
  0
LINE
  5
2B6
100
AcDbEntity
  8
0
100
AcDbLine
 62
7
  6
BYLAYER
 10
24.6188838655
 20
46.8151779292
 11
24.6188838655
 21
45.5904243035
  0
LINE
  5
2B7
100
AcDbEntity
  8
0
100
AcDbLine
 62
7
  6
BYLAYER
 10
24.6188838655
 20
44.7739218864
 11
24.6188838655
 21
43.5491682607
  0
LINE
  5
2B8
100
AcDbEntity
  8
0
100
AcDbLine
 62
7
  6
BYLAYER
 10
24.6188838655
 20
35.2616687269
 11
24.6188838655
 21
34.0369151012
  0
LINE
  5
2B9
100
AcDbEntity
  8
0
100
AcDbLine
 62
7
  6
BYLAYER
 10
24.6188838655
 20
33.220412684
 11
24.6188838655
 21
31.9956590583
  0
LINE
  5
2BA
100
AcDbEntity
  8
0
100
AcDbLine
 62
7
  6
BYLAYER
 10
24.9370102314
 20
55.9190761183
 11
24.9370102314
 21
59.0216766613
  0
LINE
  5
2BB
100
AcDbEntity
  8
0
100
AcDbLine
 62
7
  6
BYLAYER
 10
25.3259935906
 20
31.5874183038
 11
25.3259935906
 21
32.8121719295
  0
LINE
  5
2BC
100
AcDbEntity
  8
0
100
AcDbLine
 62
7
  6
BYLAYER
 10
25.3259935906
 20
33.6286743466
 11
25.3259935906
 21
34.8534279723
  0
LINE
  5
2BD
100
AcDbEntity
  8
0
100
AcDbLine
 62
7
  6
BYLAYER
 10
25.3259935906
 20
43.1409275062
 11
25.3259935906
 21
44.3656811319
  0
LINE
  5
2BE
100
AcDbEntity
  8
0
100
AcDbLine
 62
7
  6
BYLAYER
 10
25.3259935906
 20
45.182183549
 11
25.3259935906
 21
46.4069371747
  0
LINE
  5
2BF
100
AcDbEntity
  8
0
100
AcDbLine
 62
7
  6
BYLAYER
 10
25.4673395813
 20
59.6952902416
 11
25.4673395813
 21
59.3686892747
  0
LINE
  5
2C0
100
AcDbEntity
  8
0
100
AcDbLine
 62
7
  6
BYLAYER
 10
26.3866581784
 20
32.1998107977
 11
26.3866581784
 21
33.0163132149
  0
LINE
  5
2C1
100
AcDbEntity
  8
0
100
AcDbLine
 62
7
  6
BYLAYER
 10
26.3866581784
 20
43.7533200001
 11
26.3866581784
 21
44.5698224172
  0
LINE
  5
2C2
100
AcDbEntity
  8
0
100
AcDbLine
 62
7
  6
BYLAYER
 10
32.0328054673
 20
56.9254179738
 11
38.483992471
 21
60.8418138026
  0
LINE
  5
2C3
100
AcDbEntity
  8
0
100
AcDbLine
 62
7
  6
BYLAYER
 10
39.5741108868
 20
61.5036044489
 11
39.8569521273
 21
61.6753121135
  0
LINE
  5
2C4
100
AcDbEntity
  8
0
100
AcDbLine
 62
7
  6
BYLAYER
 10
19.2448499544
 20
49.5095423457
 11
18.5377402292
 21
49.1012947924
  0
LINE
  5
2C5
100
AcDbEntity
  8
0
100
AcDbLine
 62
7
  6
BYLAYER
 10
44.8597163387
 20
63.9145336498
 11
43.9192685974
 21
63.3715691342
  0
LINE
  5
2C6
100
AcDbEntity
  8
0
100
AcDbLine
 62
7
  6
BYLAYER
 10
21.7904493809
 20
50.4689975613
 11
21.755094189
 21
50.4485853536
  0
LINE
  5
2C7
100
AcDbEntity
  8
0
100
AcDbLine
 62
7
  6
BYLAYER
 10
44.0642258466
 20
63.2878799207
 11
45.0188160269
 21
63.8390095284
  0
LINE
  5
2C8
100
AcDbEntity
  8
0
100
AcDbLine
 62
7
  6
BYLAYER
 10
19.2448560639
 20
48.6930434558
 11
18.5377402292
 21
48.2847923753
  0
LINE
  5
2C9
100
AcDbEntity
  8
0
100
AcDbLine
 62
7
  6
BYLAYER
 10
31.0888648402
 20
55.469982097
 11
31.6545533421
 21
55.7965805563
  0
LINE
  5
2CA
100
AcDbEntity
  8
0
100
AcDbLine
 62
7
  6
BYLAYER
 10
19.9519718988
 20
48.2848062288
 11
19.2448499544
 21
47.8765516208
  0
LINE
  5
2CB
100
AcDbEntity
  8
0
100
AcDbLine
 62
7
  6
BYLAYER
 10
19.2448499544
 20
47.4682863028
 11
18.5377402292
 21
47.0600387496
  0
LINE
  5
2CC
100
AcDbEntity
  8
0
100
AcDbLine
 62
7
  6
BYLAYER
 10
7.7896824165
 20
50.8770584131
 11
19.5984148264
 21
44.0594378126
  0
LINE
  5
2CD
100
AcDbEntity
  8
0
100
AcDbLine
 62
7
  6
BYLAYER
 10
8.4614310618
 20
51.2648903592
 11
20.2701634718
 21
44.4472697587
  0
LINE
  5
2CE
100
AcDbEntity
  8
0
100
AcDbLine
 62
7
  6
BYLAYER
 10
12.456596593
 20
50.5709092385
 11
13.1637063181
 21
50.1626684839
  0
LINE
  5
2CF
100
AcDbEntity
  8
0
100
AcDbLine
 62
7
  6
BYLAYER
 10
18.5377402292
 20
47.0600387496
 11
19.2448499544
 21
46.6517979951
  0
LINE
  5
2D0
100
AcDbEntity
  8
0
100
AcDbLine
 62
7
  6
BYLAYER
 10
24.6188838655
 20
43.5491682607
 11
25.3259935906
 21
43.1409275062
  0
LINE
  5
2D1
100
AcDbEntity
  8
0
100
AcDbLine
 62
7
  6
BYLAYER
 10
30.7000275018
 20
40.0382977718
 11
31.4071372269
 21
39.6300570173
  0
LINE
  5
2D2
100
AcDbEntity
  8
0
100
AcDbLine
 62
7
  6
BYLAYER
 10
27.1998390726
 20
26.9742213572
 11
27.1998390726
 21
24.1572880181
  0
LINE
  5
2D3
100
AcDbEntity
  8
0
100
AcDbLine
 62
7
  6
BYLAYER
 10
27.1998390726
 20
47.3051315438
 11
27.1998390726
 21
50.1220648829
  0
LINE
  5
2D4
100
AcDbEntity
  8
0
100
AcDbLine
 62
7
  6
BYLAYER
 10
27.2704016692
 20
68.6562295769
 11
27.2704016692
 21
70.6566604989
  0
LINE
  5
2D5
100
AcDbEntity
  8
0
100
AcDbLine
 62
7
  6
BYLAYER
 10
27.588598396
 20
68.7582892044
 11
27.588598396
 21
68.5541671275
  0
LINE
  5
2D6
100
AcDbEntity
  8
0
100
AcDbLine
 62
7
  6
BYLAYER
 10
27.9069487978
 20
26.5659806027
 11
27.9069487978
 21
23.7490472636
  0
LINE
  5
2D7
100
AcDbEntity
  8
0
100
AcDbLine
 62
7
  6
BYLAYER
 10
27.9069487978
 20
46.8968907892
 11
27.9069487978
 21
49.7138241283
  0
LINE
  5
2D8
100
AcDbEntity
  8
0
100
AcDbLine
 62
7
  6
BYLAYER
 10
27.9423039896
 20
26.5863928104
 11
27.9423039896
 21
25.9740159976
  0
LINE
  5
2D9
100
AcDbEntity
  8
0
100
AcDbLine
 62
7
  6
BYLAYER
 10
27.9423039896
 20
46.9173029969
 11
27.9423039896
 21
47.7746305349
  0
LINE
  5
2DA
100
AcDbEntity
  8
0
100
AcDbLine
 62
7
  6
BYLAYER
 10
32.0328054673
 20
56.9254179738
 11
31.6191941901
 21
56.1435956773
  0
LINE
  5
2DB
100
AcDbEntity
  8
0
100
AcDbLine
 62
7
  6
BYLAYER
 10
40.7762327471
 20
57.9603526372
 11
27.1998390726
 21
50.1220648829
  0
LINE
  5
2DC
100
AcDbEntity
  8
0
100
AcDbLine
 62
7
  6
BYLAYER
 10
12.1030539496
 20
41.2627694015
 11
11.3959320053
 21
40.8545147936
  0
LINE
  5
2DD
100
AcDbEntity
  8
0
100
AcDbLine
 62
7
  6
BYLAYER
 10
13.1637063181
 20
41.4669036322
 11
12.456596593
 21
41.0586560789
  0
LINE
  5
2DE
100
AcDbEntity
  8
0
100
AcDbLine
 62
7
  6
BYLAYER
 10
8.4260877948
 20
38.6703329977
 11
7.6836106586
 21
38.241666182
  0
LINE
  5
2DF
100
AcDbEntity
  8
0
100
AcDbLine
 62
7
  6
BYLAYER
 10
41.4833424723
 20
57.5521118827
 11
27.9069487978
 21
49.7138241283
  0
LINE
  5
2E0
100
AcDbEntity
  8
0
100
AcDbLine
 62
7
  6
BYLAYER
 10
13.1637124276
 20
40.6504047423
 11
12.456596593
 21
40.2421536618
  0
LINE
  5
2E1
100
AcDbEntity
  8
0
100
AcDbLine
 62
7
  6
BYLAYER
 10
19.5984148264
 20
44.0594378126
 11
20.2701634718
 21
44.4472697587
  0
LINE
  5
2E2
100
AcDbEntity
  8
0
100
AcDbLine
 62
7
  6
BYLAYER
 10
11.3959320053
 20
52.4080239959
 11
12.456596593
 21
51.7956628642
  0
LINE
  5
2E3
100
AcDbEntity
  8
0
100
AcDbLine
 62
7
  6
BYLAYER
 10
13.1637063181
 20
51.3874221096
 11
14.2243709058
 21
50.7750609779
  0
LINE
  5
2E4
100
AcDbEntity
  8
0
100
AcDbLine
 62
7
  6
BYLAYER
 10
17.4770756415
 20
48.8971535071
 11
18.5377402292
 21
48.2847923753
  0
LINE
  5
2E5
100
AcDbEntity
  8
0
100
AcDbLine
 62
7
  6
BYLAYER
 10
19.2448499544
 20
47.8765516208
 11
20.3055145421
 21
47.264190489
  0
LINE
  5
2E6
100
AcDbEntity
  8
0
100
AcDbLine
 62
7
  6
BYLAYER
 10
23.5582192778
 20
45.3862830182
 11
24.6188838655
 21
44.7739218864
  0
LINE
  5
2E7
100
AcDbEntity
  8
0
100
AcDbLine
 62
7
  6
BYLAYER
 10
25.3259935906
 20
44.3656811319
 11
26.3866581784
 21
43.7533200001
  0
LINE
  5
2E8
100
AcDbEntity
  8
0
100
AcDbLine
 62
7
  6
BYLAYER
 10
29.639362914
 20
41.8754125293
 11
30.7000275018
 21
41.2630513975
  0
LINE
  5
2E9
100
AcDbEntity
  8
0
100
AcDbLine
 62
7
  6
BYLAYER
 10
31.4071372269
 20
40.854810643
 11
32.4678018146
 21
40.2424495112
  0
LINE
  5
2EA
100
AcDbEntity
  8
0
100
AcDbLine
 62
7
  6
BYLAYER
 10
32.4678018146
 20
41.0589519284
 11
31.4071372269
 21
41.6713130601
  0
LINE
  5
2EB
100
AcDbEntity
  8
0
100
AcDbLine
 62
7
  6
BYLAYER
 10
30.7000275018
 20
42.0795538147
 11
29.639362914
 21
42.6919149464
  0
LINE
  5
2EC
100
AcDbEntity
  8
0
100
AcDbLine
 62
7
  6
BYLAYER
 10
26.3866581784
 20
44.5698224172
 11
25.3259935906
 21
45.182183549
  0
LINE
  5
2ED
100
AcDbEntity
  8
0
100
AcDbLine
 62
7
  6
BYLAYER
 10
24.6188838655
 20
45.5904243035
 11
23.5582192778
 21
46.2027854353
  0
LINE
  5
2EE
100
AcDbEntity
  8
0
100
AcDbLine
 62
7
  6
BYLAYER
 10
20.3055145421
 20
48.0806929061
 11
19.2448499544
 21
48.6930540379
  0
LINE
  5
2EF
100
AcDbEntity
  8
0
100
AcDbLine
 62
7
  6
BYLAYER
 10
18.5377402292
 20
49.1012947924
 11
17.4770756415
 21
49.7136559242
  0
LINE
  5
2F0
100
AcDbEntity
  8
0
100
AcDbLine
 62
7
  6
BYLAYER
 10
14.2243709058
 20
51.591563395
 11
13.1637063181
 21
52.2039245268
  0
LINE
  5
2F1
100
AcDbEntity
  8
0
100
AcDbLine
 62
7
  6
BYLAYER
 10
12.456596593
 20
52.6121652813
 11
11.3959320053
 21
53.2245264131
  0
LINE
  5
2F2
100
AcDbEntity
  8
0
100
AcDbLine
 62
7
  6
BYLAYER
 10
29.5686563575
 20
35.1596922346
 11
29.5686563575
 21
36.7110468271
  0
LINE
  5
2F3
100
AcDbEntity
  8
0
100
AcDbLine
 62
7
  6
BYLAYER
 10
29.6038296122
 20
71.0764687319
 11
29.6038296122
 21
71.962997314
  0
LINE
  5
2F4
100
AcDbEntity
  8
0
100
AcDbLine
 62
7
  6
BYLAYER
 10
29.639362914
 20
42.6919149464
 11
29.639362914
 21
41.8754125293
  0
LINE
  5
2F5
100
AcDbEntity
  8
0
100
AcDbLine
 62
7
  6
BYLAYER
 10
29.639362914
 20
31.1384057441
 11
29.639362914
 21
30.3219033269
  0
LINE
  5
2F6
100
AcDbEntity
  8
0
100
AcDbLine
 62
7
  6
BYLAYER
 10
30.3818257703
 20
36.2415738686
 11
30.3818257703
 21
35.6291730115
  0
LINE
  5
2F7
100
AcDbEntity
  8
0
100
AcDbLine
 62
7
  6
BYLAYER
 10
30.7000275018
 20
43.3043074404
 11
30.7000275018
 21
42.0795538147
  0
LINE
  5
2F8
100
AcDbEntity
  8
0
100
AcDbLine
 62
7
  6
BYLAYER
 10
30.7000275018
 20
41.2630513975
 11
30.7000275018
 21
40.0382977718
  0
LINE
  5
2F9
100
AcDbEntity
  8
0
100
AcDbLine
 62
7
  6
BYLAYER
 10
30.7000275018
 20
31.750798238
 11
30.7000275018
 21
30.5260446123
  0
LINE
  5
2FA
100
AcDbEntity
  8
0
100
AcDbLine
 62
7
  6
BYLAYER
 10
30.7000275018
 20
29.7095421952
 11
30.7000275018
 21
28.4847885695
  0
LINE
  5
2FB
100
AcDbEntity
  8
0
100
AcDbLine
 62
7
  6
BYLAYER
 10
31.0888648402
 20
52.3673815539
 11
31.0888648402
 21
55.469982097
  0
LINE
  5
2FC
100
AcDbEntity
  8
0
100
AcDbLine
 62
7
  6
BYLAYER
 10
45.1602750659
 20
58.6135064546
 11
44.7591108214
 21
58.3818955526
  0
LINE
  5
2FD
100
AcDbEntity
  8
0
100
AcDbLine
 62
7
  6
BYLAYER
 10
13.8708282625
 20
40.2421675152
 11
13.1637063181
 21
39.8339129073
  0
LINE
  5
2FE
100
AcDbEntity
  8
0
100
AcDbLine
 62
7
  6
BYLAYER
 10
13.1637063181
 20
39.4256475893
 11
12.456596593
 21
39.0174000361
  0
LINE
  5
2FF
100
AcDbEntity
  8
0
100
AcDbLine
 62
7
  6
BYLAYER
 10
24.2653412222
 20
45.7945376262
 11
23.5582192778
 21
45.3862830182
  0
LINE
  5
300
100
AcDbEntity
  8
0
100
AcDbLine
 62
7
  6
BYLAYER
 10
9.4513849714
 20
37.2210642957
 11
9.6281621083
 21
37.323126014
  0
LINE
  5
301
100
AcDbEntity
  8
0
100
AcDbLine
 62
7
  6
BYLAYER
 10
28.7554734024
 20
48.2441113119
 11
27.9423039896
 21
47.7746305349
  0
LINE
  5
302
100
AcDbEntity
  8
0
100
AcDbLine
 62
7
  6
BYLAYER
 10
25.3259935906
 20
45.9986718568
 11
24.6188838655
 21
45.5904243035
  0
LINE
  5
303
100
AcDbEntity
  8
0
100
AcDbLine
 62
7
  6
BYLAYER
 10
46.2209396536
 20
58.0011453228
 11
38.1953111012
 21
53.3675741764
  0
LINE
  5
304
100
AcDbEntity
  8
0
100
AcDbLine
 62
7
  6
BYLAYER
 10
27.9423039896
 20
46.9173029969
 11
27.9069487978
 21
46.8968907892
  0
LINE
  5
305
100
AcDbEntity
  8
0
100
AcDbLine
 62
7
  6
BYLAYER
 10
25.3259997002
 20
45.182172967
 11
24.6188838655
 21
44.7739218864
  0
LINE
  5
306
100
AcDbEntity
  8
0
100
AcDbLine
 62
7
  6
BYLAYER
 10
37.240719449
 20
51.9182875326
 11
37.8064079509
 21
52.244885992
  0
LINE
  5
307
100
AcDbEntity
  8
0
100
AcDbLine
 62
7
  6
BYLAYER
 10
10.3352718335
 20
35.89426006
 11
10.5474084168
 21
36.0167364424
  0
LINE
  5
308
100
AcDbEntity
  8
0
100
AcDbLine
 62
7
  6
BYLAYER
 10
31.4071372269
 20
42.8960666858
 11
30.7000275018
 21
43.3043074404
  0
LINE
  5
309
100
AcDbEntity
  8
0
100
AcDbLine
 62
7
  6
BYLAYER
 10
25.3259935906
 20
46.4069371747
 11
24.6188838655
 21
46.8151779292
  0
LINE
  5
30A
100
AcDbEntity
  8
0
100
AcDbLine
 62
7
  6
BYLAYER
 10
19.2448499544
 20
49.9178076636
 11
18.5377402292
 21
50.3260484181
  0
LINE
  5
30B
100
AcDbEntity
  8
0
100
AcDbLine
 62
7
  6
BYLAYER
 10
13.1637063181
 20
53.4286781525
 11
12.456596593
 21
53.836918907
  0
LINE
  5
30C
100
AcDbEntity
  8
0
100
AcDbLine
 62
7
  6
BYLAYER
 10
7.6482548779
 20
58.0622609597
 11
9.6281621083
 21
56.919186847
  0
LINE
  5
30D
100
AcDbEntity
  8
0
100
AcDbLine
 62
7
  6
BYLAYER
 10
33.1749159557
 20
43.3247697215
 11
35.1548231861
 21
42.1816956088
  0
LINE
  5
30E
100
AcDbEntity
  8
0
100
AcDbLine
 62
7
  6
BYLAYER
 10
7.6836106586
 20
58.5725763685
 11
9.4513849714
 21
57.5519744822
  0
LINE
  5
30F
100
AcDbEntity
  8
0
100
AcDbLine
 62
7
  6
BYLAYER
 10
14.8961298551
 20
54.4085206724
 11
15.6032395802
 21
54.0002799179
  0
LINE
  5
310
100
AcDbEntity
  8
0
100
AcDbLine
 62
7
  6
BYLAYER
 10
21.0479844639
 20
50.8568261081
 11
21.755094189
 21
50.4485853536
  0
LINE
  5
311
100
AcDbEntity
  8
0
100
AcDbLine
 62
7
  6
BYLAYER
 10
27.1998390726
 20
47.3051315438
 11
27.9069487978
 21
46.8968907892
  0
LINE
  5
312
100
AcDbEntity
  8
0
100
AcDbLine
 62
7
  6
BYLAYER
 10
33.3516936814
 20
43.7534369794
 11
35.1194679943
 21
42.7328350931
  0
LINE
  5
313
100
AcDbEntity
  8
0
100
AcDbLine
 62
7
  6
BYLAYER
 10
35.9679925989
 20
42.6511763858
 11
35.4730072379
 21
42.9369498522
  0
LINE
  5
314
100
AcDbEntity
  8
0
100
AcDbLine
 62
7
  6
BYLAYER
 10
31.4071372269
 20
28.0765478149
 11
31.4071372269
 21
29.3013014406
  0
LINE
  5
315
100
AcDbEntity
  8
0
100
AcDbLine
 62
7
  6
BYLAYER
 10
31.4071372269
 20
30.1178038578
 11
31.4071372269
 21
31.3425574835
  0
LINE
  5
316
100
AcDbEntity
  8
0
100
AcDbLine
 62
7
  6
BYLAYER
 10
31.4071372269
 20
39.6300570173
 11
31.4071372269
 21
40.854810643
  0
LINE
  5
317
100
AcDbEntity
  8
0
100
AcDbLine
 62
7
  6
BYLAYER
 10
31.4071372269
 20
41.6713130601
 11
31.4071372269
 21
42.8960666858
  0
LINE
  5
318
100
AcDbEntity
  8
0
100
AcDbLine
 62
7
  6
BYLAYER
 10
31.6191941901
 20
56.1435956773
 11
31.6191941901
 21
55.8169947104
  0
LINE
  5
319
100
AcDbEntity
  8
0
100
AcDbLine
 62
7
  6
BYLAYER
 10
32.1852586863
 20
32.9892517676
 11
32.1852586863
 21
34.2183971527
  0
LINE
  5
31A
100
AcDbEntity
  8
0
100
AcDbLine
 62
7
  6
BYLAYER
 10
32.4678018146
 20
28.6889403089
 11
32.4678018146
 21
29.505442726
  0
LINE
  5
31B
100
AcDbEntity
  8
0
100
AcDbLine
 62
7
  6
BYLAYER
 10
32.4678018146
 20
40.2424495112
 11
32.4678018146
 21
41.0589519284
  0
LINE
  5
31C
100
AcDbEntity
  8
0
100
AcDbLine
 62
7
  6
BYLAYER
 10
32.4678062306
 20
23.3612751686
 11
32.4678062306
 21
23.1163244435
  0
LINE
  5
31D
100
AcDbEntity
  8
0
100
AcDbLine
 62
7
  6
BYLAYER
 10
32.4678062306
 20
45.161889706
 11
32.4678062306
 21
45.4068404311
  0
LINE
  5
31E
100
AcDbEntity
  8
0
100
AcDbLine
 62
7
  6
BYLAYER
 10
32.8565658483
 20
65.7168955833
 11
32.8565658483
 21
65.4311291459
  0
LINE
  5
31F
100
AcDbEntity
  8
0
100
AcDbLine
 62
7
  6
BYLAYER
 10
33.1749159557
 20
44.9985996766
 11
33.1749159557
 21
43.3247697215
  0
LINE
  5
320
100
AcDbEntity
  8
0
100
AcDbLine
 62
7
  6
BYLAYER
 10
33.1749159557
 20
24.3819136441
 11
33.1749159557
 21
22.708083689
  0
LINE
  5
321
100
AcDbEntity
  8
0
100
AcDbLine
 62
7
  6
BYLAYER
 10
33.2497266379
 20
33.6038401974
 11
33.2497266379
 21
32.3746948123
  0
LINE
  5
322
100
AcDbEntity
  8
0
100
AcDbLine
 62
7
  6
BYLAYER
 10
33.3516936814
 20
23.4225267929
 11
33.3516936814
 21
20.6055934538
  0
LINE
  5
323
100
AcDbEntity
  8
0
100
AcDbLine
 62
7
  6
BYLAYER
 10
33.3516936814
 20
43.7534369794
 11
33.3516936814
 21
46.5703703185
  0
LINE
  5
324
100
AcDbEntity
  8
0
100
AcDbLine
 62
7
  6
BYLAYER
 10
33.422256278
 20
64.8187626939
 11
33.422256278
 21
65.1045350126
  0
LINE
  5
325
100
AcDbEntity
  8
0
100
AcDbLine
 62
7
  6
BYLAYER
 10
26.033115535
 20
44.7739357399
 11
25.3259935906
 21
44.3656811319
  0
LINE
  5
326
100
AcDbEntity
  8
0
100
AcDbLine
 62
7
  6
BYLAYER
 10
25.3259935906
 20
43.957415814
 11
24.6188838655
 21
43.5491682607
  0
LINE
  5
327
100
AcDbEntity
  8
0
100
AcDbLine
 62
7
  6
BYLAYER
 10
9.4513849714
 20
34.4041309566
 11
11.3959694131
 21
35.5268306059
  0
LINE
  5
328
100
AcDbEntity
  8
0
100
AcDbLine
 62
7
  6
BYLAYER
 10
54.9360175574
 20
59.8117212055
 11
53.4652419381
 21
58.9625735746
  0
LINE
  5
329
100
AcDbEntity
  8
0
100
AcDbLine
 62
7
  6
BYLAYER
 10
53.9283985637
 20
58.6951760214
 11
55.5193821975
 21
59.6137253676
  0
LINE
  5
32A
100
AcDbEntity
  8
0
100
AcDbLine
 62
7
  6
BYLAYER
 10
51.1707103792
 20
56.8581229961
 11
33.3516936814
 21
46.5703703185
  0
LINE
  5
32B
100
AcDbEntity
  8
0
100
AcDbLine
 62
7
  6
BYLAYER
 10
18.1841975859
 20
37.7518989127
 11
17.4770756415
 21
37.3436443047
  0
LINE
  5
32C
100
AcDbEntity
  8
0
100
AcDbLine
 62
7
  6
BYLAYER
 10
7.6836106586
 20
59.3890787857
 11
8.7442752463
 21
58.7767176539
  0
LINE
  5
32D
100
AcDbEntity
  8
0
100
AcDbLine
 62
7
  6
BYLAYER
 10
34.0588034066
 20
44.161698642
 11
35.1194679943
 21
43.5493375103
  0
LINE
  5
32E
100
AcDbEntity
  8
0
100
AcDbLine
 62
7
  6
BYLAYER
 10
32.4678062306
 20
45.161889706
 11
27.9423039896
 21
47.7746305349
  0
LINE
  5
32F
100
AcDbEntity
  8
0
100
AcDbLine
 62
7
  6
BYLAYER
 10
27.1998390726
 20
48.2032831572
 11
21.7904493809
 21
51.3263250993
  0
LINE
  5
330
100
AcDbEntity
  8
0
100
AcDbLine
 62
7
  6
BYLAYER
 10
21.0479844639
 20
51.7549777215
 11
15.6385947721
 21
54.8780196636
  0
LINE
  5
331
100
AcDbEntity
  8
0
100
AcDbLine
 62
7
  6
BYLAYER
 10
14.8961298551
 20
55.3066722859
 11
10.3352718335
 21
57.9398253225
  0
LINE
  5
332
100
AcDbEntity
  8
0
100
AcDbLine
 62
7
  6
BYLAYER
 10
9.6281621083
 20
58.5930168021
 11
10.3352718335
 21
58.1847760476
  0
LINE
  5
333
100
AcDbEntity
  8
0
100
AcDbLine
 62
7
  6
BYLAYER
 10
32.4678062306
 20
45.4068404311
 11
33.1749159557
 21
44.9985996766
  0
LINE
  5
334
100
AcDbEntity
  8
0
100
AcDbLine
 62
7
  6
BYLAYER
 10
11.1484412463
 20
58.4093060994
 11
14.8961298551
 21
56.2456260213
  0
LINE
  5
335
100
AcDbEntity
  8
0
100
AcDbLine
 62
7
  6
BYLAYER
 10
16.4517641849
 20
55.3475004405
 11
21.0479844639
 21
52.693931457
  0
LINE
  5
336
100
AcDbEntity
  8
0
100
AcDbLine
 62
7
  6
BYLAYER
 10
22.6036187937
 20
51.7958058762
 11
27.1998390726
 21
49.1422368926
  0
LINE
  5
337
100
AcDbEntity
  8
0
100
AcDbLine
 62
7
  6
BYLAYER
 10
28.7554734024
 20
48.2441113119
 11
33.0688390601
 21
45.7538448257
  0
LINE
  5
338
100
AcDbEntity
  8
0
100
AcDbLine
 62
7
  6
BYLAYER
 10
8.7442752463
 20
60.7771485758
 11
9.4513849714
 21
60.3689078213
  0
LINE
  5
339
100
AcDbEntity
  8
0
100
AcDbLine
 62
7
  6
BYLAYER
 10
14.8961298551
 20
57.2254540115
 11
15.6032395802
 21
56.817213257
  0
LINE
  5
33A
100
AcDbEntity
  8
0
100
AcDbLine
 62
7
  6
BYLAYER
 10
21.0479844639
 20
53.6737594472
 11
21.755094189
 21
53.2655186927
  0
LINE
  5
33B
100
AcDbEntity
  8
0
100
AcDbLine
 62
7
  6
BYLAYER
 10
27.1998390726
 20
50.1220648829
 11
27.9069487978
 21
49.7138241283
  0
LINE
  5
33C
100
AcDbEntity
  8
0
100
AcDbLine
 62
7
  6
BYLAYER
 10
33.3516936814
 20
46.5703703185
 11
34.0588034066
 21
46.162129564
  0
LINE
  5
33D
100
AcDbEntity
  8
0
100
AcDbLine
 62
7
  6
BYLAYER
 10
33.9171800942
 20
71.6404940083
 11
33.9171800942
 21
72.0854804182
  0
LINE
  5
33E
100
AcDbEntity
  8
0
100
AcDbLine
 62
7
  6
BYLAYER
 10
34.0588034066
 20
46.162129564
 11
34.0588034066
 21
44.161698642
  0
LINE
  5
33F
100
AcDbEntity
  8
0
100
AcDbLine
 62
7
  6
BYLAYER
 10
34.0588034066
 20
22.1977836213
 11
34.0588034066
 21
20.1973526993
  0
LINE
  5
340
100
AcDbEntity
  8
0
100
AcDbLine
 62
7
  6
BYLAYER
 10
34.0941585984
 20
34.0983059982
 11
34.0941585984
 21
32.5469514056
  0
LINE
  5
341
100
AcDbEntity
  8
0
100
AcDbLine
 62
7
  6
BYLAYER
 10
35.1194679943
 20
43.5493375103
 11
35.1194679943
 21
42.7328350931
  0
LINE
  5
342
100
AcDbEntity
  8
0
100
AcDbLine
 62
7
  6
BYLAYER
 10
35.1194679943
 20
22.4019249066
 11
35.1194679943
 21
21.5854224895
  0
LINE
  5
343
100
AcDbEntity
  8
0
100
AcDbLine
 62
7
  6
BYLAYER
 10
35.1548231861
 20
42.1816956088
 11
35.1548231861
 21
23.2388395314
  0
LINE
  5
344
100
AcDbEntity
  8
0
100
AcDbLine
 62
7
  6
BYLAYER
 10
35.9679925989
 20
22.8918178913
 11
35.9679925989
 21
23.7083203084
  0
LINE
  5
345
100
AcDbEntity
  8
0
100
AcDbLine
 62
7
  6
BYLAYER
 10
35.9679925989
 20
42.6511763858
 11
35.9679925989
 21
43.2227280778
  0
LINE
  5
346
100
AcDbEntity
  8
0
100
AcDbLine
 62
7
  6
BYLAYER
 10
36.0609343961
 20
65.9952616654
 11
36.0609343961
 21
64.2397814685
  0
LINE
  5
347
100
AcDbEntity
  8
0
100
AcDbLine
 62
7
  6
BYLAYER
 10
38.1953111012
 20
53.3675741764
 11
37.7710487989
 21
52.5919011129
  0
LINE
  5
348
100
AcDbEntity
  8
0
100
AcDbLine
 62
7
  6
BYLAYER
 10
19.2448499544
 20
37.9560331433
 11
18.5377402292
 21
37.54778559
  0
LINE
  5
349
100
AcDbEntity
  8
0
100
AcDbLine
 62
7
  6
BYLAYER
 10
32.4678062306
 20
45.4068404311
 11
33.3516936814
 21
45.9171500427
  0
LINE
  5
34A
100
AcDbEntity
  8
0
100
AcDbLine
 62
7
  6
BYLAYER
 10
51.8778201043
 20
56.4498822416
 11
34.0588034066
 21
46.162129564
  0
LINE
  5
34B
100
AcDbEntity
  8
0
100
AcDbLine
 62
7
  6
BYLAYER
 10
19.5984148264
 20
37.7723692007
 11
20.2701634718
 21
38.1602011468
  0
LINE
  5
34C
100
AcDbEntity
  8
0
100
AcDbLine
 62
7
  6
BYLAYER
 10
19.2448560639
 20
37.1395342535
 11
18.5377402292
 21
36.7312831729
  0
LINE
  5
34D
100
AcDbEntity
  8
0
100
AcDbLine
 62
7
  6
BYLAYER
 10
33.3516936814
 20
45.1006617349
 11
33.1749159557
 21
44.9985996766
  0
LINE
  5
34E
100
AcDbEntity
  8
0
100
AcDbLine
 62
7
  6
BYLAYER
 10
14.8961298551
 20
34.0776104859
 11
14.9314850469
 21
34.0980226936
  0
LINE
  5
34F
100
AcDbEntity
  8
0
100
AcDbLine
 62
7
  6
BYLAYER
 10
54.1420990872
 20
56.5732139043
 11
51.8778201043
 21
55.2659396274
  0
LINE
  5
350
100
AcDbEntity
  8
0
100
AcDbLine
 62
7
  6
BYLAYER
 10
19.9519718988
 20
36.7312970264
 11
19.2448499544
 21
36.3230424184
  0
LINE
  5
351
100
AcDbEntity
  8
0
100
AcDbLine
 62
7
  6
BYLAYER
 10
19.2448499544
 20
35.9147771005
 11
18.5377402292
 21
35.5065295472
  0
LINE
  5
352
100
AcDbEntity
  8
0
100
AcDbLine
 62
7
  6
BYLAYER
 10
30.3464848584
 20
42.2836671373
 11
29.639362914
 21
41.8754125293
  0
LINE
  5
353
100
AcDbEntity
  8
0
100
AcDbLine
 62
7
  6
BYLAYER
 10
55.7315339564
 20
56.8785014344
 11
54.9083872337
 21
56.4032602893
  0
LINE
  5
354
100
AcDbEntity
  8
0
100
AcDbLine
 62
7
  6
BYLAYER
 10
15.6032395802
 20
33.6693697314
 11
15.6385947721
 21
33.6897819391
  0
LINE
  5
355
100
AcDbEntity
  8
0
100
AcDbLine
 62
7
  6
BYLAYER
 10
51.8778201043
 20
54.4494513196
 11
34.0588034066
 21
44.161698642
  0
LINE
  5
356
100
AcDbEntity
  8
0
100
AcDbLine
 62
7
  6
BYLAYER
 10
31.4071372269
 20
42.4878013679
 11
30.7000275018
 21
42.0795538147
  0
LINE
  5
357
100
AcDbEntity
  8
0
100
AcDbLine
 62
7
  6
BYLAYER
 10
34.3769494971
 20
49.4892231641
 11
29.0209549321
 21
48.0908389467
  0
LINE
  5
358
100
AcDbEntity
  8
0
100
AcDbLine
 62
7
  6
BYLAYER
 10
13.5525942928
 20
60.0422869477
 11
12.8454845677
 21
60.4505277023
  0
LINE
  5
359
100
AcDbEntity
  8
0
100
AcDbLine
 62
7
  6
BYLAYER
 10
14.3016239665
 20
59.7806928643
 11
14.4430459115
 21
59.6990447134
  0
LINE
  5
35A
100
AcDbEntity
  8
0
100
AcDbLine
 62
7
  6
BYLAYER
 10
37.240719449
 20
48.8156869896
 11
37.240719449
 21
51.9182875326
  0
LINE
  5
35B
100
AcDbEntity
  8
0
100
AcDbLine
 62
7
  6
BYLAYER
 10
37.4397983601
 20
65.1991921941
 11
37.4397983601
 21
63.4437119972
  0
LINE
  5
35C
100
AcDbEntity
  8
0
100
AcDbLine
 62
7
  6
BYLAYER
 10
37.7710487989
 20
52.5919011129
 11
37.7710487989
 21
52.2653001461
  0
LINE
  5
35D
100
AcDbEntity
  8
0
100
AcDbLine
 62
7
  6
BYLAYER
 10
33.6345461249
 20
43.5901357394
 11
33.1749159557
 21
43.3247697215
  0
LINE
  5
35E
100
AcDbEntity
  8
0
100
AcDbLine
 62
7
  6
BYLAYER
 10
55.7315339564
 20
56.0211738964
 11
55.7062447489
 21
56.0065732528
  0
LINE
  5
35F
100
AcDbEntity
  8
0
100
AcDbLine
 62
7
  6
BYLAYER
 10
31.4071433364
 20
41.6713024781
 11
30.7000275018
 21
41.2630513975
  0
LINE
  5
360
100
AcDbEntity
  8
0
100
AcDbLine
 62
7
  6
BYLAYER
 10
55.9083208084
 20
55.5517156341
 11
35.1194679943
 21
43.5493375103
  0
LINE
  5
361
100
AcDbEntity
  8
0
100
AcDbLine
 62
7
  6
BYLAYER
 10
59.302419227
 20
57.429637331
 11
57.0396869479
 21
56.1232560386
  0
LINE
  5
362
100
AcDbEntity
  8
0
100
AcDbLine
 62
7
  6
BYLAYER
 10
56.6154211128
 20
55.5108729533
 11
56.5300601426
 21
55.4615900684
  0
LINE
  5
363
100
AcDbEntity
  8
0
100
AcDbLine
 62
7
  6
BYLAYER
 10
32.1142591713
 20
41.263065251
 11
31.4071372269
 21
40.854810643
  0
LINE
  5
364
100
AcDbEntity
  8
0
100
AcDbLine
 62
7
  6
BYLAYER
 10
35.9679925989
 20
43.2227280778
 11
35.1194679943
 21
42.7328350931
  0
LINE
  5
365
100
AcDbEntity
  8
0
100
AcDbLine
 62
7
  6
BYLAYER
 10
31.4071372269
 20
40.4465453251
 11
30.7000275018
 21
40.0382977718
  0
LINE
  5
366
100
AcDbEntity
  8
0
100
AcDbLine
 62
7
  6
BYLAYER
 10
35.1548231861
 20
42.1816956088
 11
35.9679925989
 21
42.6511763858
  0
LINE
  5
367
100
AcDbEntity
  8
0
100
AcDbLine
 62
7
  6
BYLAYER
 10
15.6032395802
 20
30.8524363923
 11
17.5478240219
 21
31.9751360415
  0
LINE
  5
368
100
AcDbEntity
  8
0
100
AcDbLine
 62
7
  6
BYLAYER
 10
36.3921541724
 20
48.3257705231
 11
34.3769494971
 21
49.4892231641
  0
LINE
  5
369
100
AcDbEntity
  8
0
100
AcDbLine
 62
7
  6
BYLAYER
 10
17.936590346
 20
58.9808542161
 11
15.8506746982
 21
60.1851309325
  0
LINE
  5
36A
100
AcDbEntity
  8
0
100
AcDbLine
 62
7
  6
BYLAYER
 10
22.0732402795
 20
56.5926122927
 11
24.0884449548
 21
55.4291596518
  0
LINE
  5
36B
100
AcDbEntity
  8
0
100
AcDbLine
 62
7
  6
BYLAYER
 10
28.2250948883
 20
53.0409177284
 11
30.2402995636
 21
51.8774650875
  0
LINE
  5
36C
100
AcDbEntity
  8
0
100
AcDbLine
 62
7
  6
BYLAYER
 10
39.2205533746
 20
62.0427287926
 11
39.2205533746
 21
61.7569623552
  0
LINE
  5
36D
100
AcDbEntity
  8
0
100
AcDbLine
 62
7
  6
BYLAYER
 10
39.5741108868
 20
61.4711902065
 11
39.5741108868
 21
61.5528404483
  0
LINE
  5
36E
100
AcDbEntity
  8
0
100
AcDbLine
 62
7
  6
BYLAYER
 10
24.2653412222
 20
34.2410284238
 11
23.5582192778
 21
33.8327738158
  0
LINE
  5
36F
100
AcDbEntity
  8
0
100
AcDbLine
 62
7
  6
BYLAYER
 10
25.3259935906
 20
34.4451626544
 11
24.6188838655
 21
34.0369151012
  0
LINE
  5
370
100
AcDbEntity
  8
0
100
AcDbLine
 62
7
  6
BYLAYER
 10
25.3259997002
 20
33.6286637646
 11
24.6188838655
 21
33.220412684
  0
LINE
  5
371
100
AcDbEntity
  8
0
100
AcDbLine
 62
7
  6
BYLAYER
 10
28.2250948883
 20
53.0409177284
 11
22.8691003234
 21
51.642533511
  0
LINE
  5
372
100
AcDbEntity
  8
0
100
AcDbLine
 62
7
  6
BYLAYER
 10
18.7851556227
 20
62.5733712256
 11
21.4721249232
 21
61.0220838715
  0
LINE
  5
373
100
AcDbEntity
  8
0
100
AcDbLine
 62
7
  6
BYLAYER
 10
24.9370102314
 20
59.0216766613
 11
27.623979532
 21
57.4703893071
  0
LINE
  5
374
100
AcDbEntity
  8
0
100
AcDbLine
 62
7
  6
BYLAYER
 10
31.0888648402
 20
55.469982097
 11
33.7758341408
 21
53.9186947428
  0
LINE
  5
375
100
AcDbEntity
  8
0
100
AcDbLine
 62
7
  6
BYLAYER
 10
37.240719449
 20
51.9182875326
 11
39.9276887495
 21
50.3670001785
  0
LINE
  5
376
100
AcDbEntity
  8
0
100
AcDbLine
 62
7
  6
BYLAYER
 10
40.4933772515
 20
50.6935986378
 11
37.7710487989
 21
52.2653001461
  0
LINE
  5
377
100
AcDbEntity
  8
0
100
AcDbLine
 62
7
  6
BYLAYER
 10
34.3415226427
 20
54.2452932021
 11
31.6191941901
 21
55.8169947104
  0
LINE
  5
378
100
AcDbEntity
  8
0
100
AcDbLine
 62
7
  6
BYLAYER
 10
28.1896680339
 20
57.7969877665
 11
25.4673395813
 21
59.3686892747
  0
LINE
  5
379
100
AcDbEntity
  8
0
100
AcDbLine
 62
7
  6
BYLAYER
 10
22.0378134251
 20
61.3486823308
 11
19.8104617802
 21
62.6346153109
  0
LINE
  5
37A
100
AcDbEntity
  8
0
100
AcDbLine
 62
7
  6
BYLAYER
 10
40.7762260292
 20
50.856900481
 11
37.7710487989
 21
52.5919011129
  0
LINE
  5
37B
100
AcDbEntity
  8
0
100
AcDbLine
 62
7
  6
BYLAYER
 10
34.6243714204
 20
54.4085950453
 11
31.6191941901
 21
56.1435956773
  0
LINE
  5
37C
100
AcDbEntity
  8
0
100
AcDbLine
 62
7
  6
BYLAYER
 10
28.4725168117
 20
57.9602896097
 11
25.4673395813
 21
59.6952902416
  0
LINE
  5
37D
100
AcDbEntity
  8
0
100
AcDbLine
 62
7
  6
BYLAYER
 10
22.3206622029
 20
61.511984174
 11
19.8104617802
 21
62.9612162778
  0
LINE
  5
37E
100
AcDbEntity
  8
0
100
AcDbLine
 62
7
  6
BYLAYER
 10
41.3064979186
 20
64.390117413
 11
41.3064979186
 21
64.8800188633
  0
LINE
  5
37F
100
AcDbEntity
  8
0
100
AcDbLine
 62
7
  6
BYLAYER
 10
41.4302421205
 20
65.3776051611
 11
41.4302421205
 21
64.8085767312
  0
LINE
  5
380
100
AcDbEntity
  8
0
100
AcDbLine
 62
7
  6
BYLAYER
 10
42.8091060845
 20
65.4822116108
 11
42.8091060845
 21
64.0125072599
  0
LINE
  5
381
100
AcDbEntity
  8
0
100
AcDbLine
 62
7
  6
BYLAYER
 10
21.0479844639
 20
30.5259159216
 11
21.0833396557
 21
30.5463281293
  0
LINE
  5
382
100
AcDbEntity
  8
0
100
AcDbLine
 62
7
  6
BYLAYER
 10
26.033115535
 20
33.2204265375
 11
25.3259935906
 21
32.8121719295
  0
LINE
  5
383
100
AcDbEntity
  8
0
100
AcDbLine
 62
7
  6
BYLAYER
 10
30.3818257703
 20
35.6291730115
 11
29.5686563575
 21
35.1596922346
  0
LINE
  5
384
100
AcDbEntity
  8
0
100
AcDbLine
 62
7
  6
BYLAYER
 10
25.3259935906
 20
32.4039066116
 11
24.6188838655
 21
31.9956590583
  0
LINE
  5
385
100
AcDbEntity
  8
0
100
AcDbLine
 62
7
  6
BYLAYER
 10
21.755094189
 20
30.117675167
 11
21.7904493809
 21
30.1380873747
  0
LINE
  5
386
100
AcDbEntity
  8
0
100
AcDbLine
 62
7
  6
BYLAYER
 10
32.1852586863
 20
34.2183971527
 11
33.0356972175
 21
34.7093951367
  0
LINE
  5
387
100
AcDbEntity
  8
0
100
AcDbLine
 62
7
  6
BYLAYER
 10
41.4833424723
 20
57.5521118827
 11
45.7259654956
 21
58.0011458839
  0
LINE
  5
388
100
AcDbEntity
  8
0
100
AcDbLine
 62
7
  6
BYLAYER
 10
41.6601175954
 20
51.3672124685
 11
38.1953111012
 21
53.3675741764
  0
LINE
  5
389
100
AcDbEntity
  8
0
100
AcDbLine
 62
7
  6
BYLAYER
 10
35.5082629866
 20
54.9189070329
 11
32.0328054673
 21
56.9254179738
  0
LINE
  5
38A
100
AcDbEntity
  8
0
100
AcDbLine
 62
7
  6
BYLAYER
 10
29.3564083778
 20
58.4706015972
 11
25.8916018837
 21
60.470963305
  0
LINE
  5
38B
100
AcDbEntity
  8
0
100
AcDbLine
 62
7
  6
BYLAYER
 10
23.2045537691
 20
62.0222961615
 11
20.0862310402
 21
63.8226198997
  0
LINE
  5
38C
100
AcDbEntity
  8
0
100
AcDbLine
 62
7
  6
BYLAYER
 10
44.8597163387
 20
63.7471538289
 11
44.8597163387
 21
63.9145336498
  0
LINE
  5
38D
100
AcDbEntity
  8
0
100
AcDbLine
 62
7
  6
BYLAYER
 10
45.1602750659
 20
58.6135064546
 11
45.1602750659
 21
58.3277400172
  0
LINE
  5
38E
100
AcDbEntity
  8
0
100
AcDbLine
 62
7
  6
BYLAYER
 10
45.7259654956
 20
57.7153735653
 11
45.7259654956
 21
58.0011458839
  0
LINE
  5
38F
100
AcDbEntity
  8
0
100
AcDbLine
 62
7
  6
BYLAYER
 10
21.755094189
 20
27.3007418279
 11
23.6996786307
 21
28.4234414772
  0
LINE
  5
390
100
AcDbEntity
  8
0
100
AcDbLine
 62
7
  6
BYLAYER
 10
33.2497266379
 20
33.6038401974
 11
34.0971618318
 21
34.0931042143
  0
LINE
  5
391
100
AcDbEntity
  8
0
100
AcDbLine
 62
7
  6
BYLAYER
 10
30.3464848584
 20
30.7301579349
 11
29.639362914
 21
30.3219033269
  0
LINE
  5
392
100
AcDbEntity
  8
0
100
AcDbLine
 62
7
  6
BYLAYER
 10
33.2497266379
 20
32.3746948123
 11
34.0941585984
 21
32.8622249219
  0
LINE
  5
393
100
AcDbEntity
  8
0
100
AcDbLine
 62
7
  6
BYLAYER
 10
31.4071372269
 20
30.9342921655
 11
30.7000275018
 21
30.5260446123
  0
LINE
  5
394
100
AcDbEntity
  8
0
100
AcDbLine
 62
7
  6
BYLAYER
 10
22.0732402795
 20
56.5926122927
 11
16.7172457146
 21
55.1942280754
  0
LINE
  5
395
100
AcDbEntity
  8
0
100
AcDbLine
 62
7
  6
BYLAYER
 10
45.0188557704
 20
58.4093866385
 11
40.7762327471
 21
57.9603526372
  0
LINE
  5
396
100
AcDbEntity
  8
0
100
AcDbLine
 62
7
  6
BYLAYER
 10
31.4071433364
 20
30.1177932757
 11
30.7000275018
 21
29.7095421952
  0
LINE
  5
397
100
AcDbEntity
  8
0
100
AcDbLine
 62
7
  6
BYLAYER
 10
27.1998390726
 20
26.9742213572
 11
27.2351942645
 21
26.9946335649
  0
LINE
  5
398
100
AcDbEntity
  8
0
100
AcDbLine
 62
7
  6
BYLAYER
 10
32.1142591713
 20
29.7095560486
 11
31.4071372269
 21
29.3013014406
  0
LINE
  5
399
100
AcDbEntity
  8
0
100
AcDbLine
 62
7
  6
BYLAYER
 10
31.4071372269
 20
28.8930361227
 11
30.7000275018
 21
28.4847885695
  0
LINE
  5
39A
100
AcDbEntity
  8
0
100
AcDbLine
 62
7
  6
BYLAYER
 10
27.9069487978
 20
26.5659806027
 11
27.9423039896
 21
26.5863928104
  0
LINE
  5
39B
100
AcDbEntity
  8
0
100
AcDbLine
 62
7
  6
BYLAYER
 10
35.3314878635
 20
61.103806447
 11
39.5741108868
 21
61.5528404483
  0
LINE
  5
39C
100
AcDbEntity
  8
0
100
AcDbLine
 62
7
  6
BYLAYER
 10
38.8670011616
 20
61.9610812028
 11
34.6243781384
 21
61.5120472015
  0
LINE
  5
39D
100
AcDbEntity
  8
0
100
AcDbLine
 62
7
  6
BYLAYER
 10
55.1001545096
 20
56.3564805699
 11
54.9083872337
 21
56.4032602893
  0
LINE
  5
39E
100
AcDbEntity
  8
0
100
AcDbLine
 62
7
  6
BYLAYER
 10
41.4833424723
 20
57.5521118827
 11
40.7762327471
 21
57.9603526372
  0
LINE
  5
39F
100
AcDbEntity
  8
0
100
AcDbLine
 62
7
  6
BYLAYER
 10
35.3314878635
 20
61.103806447
 11
34.6243781384
 21
61.5120472015
  0
LINE
  5
3A0
100
AcDbEntity
  8
0
100
AcDbLine
 62
7
  6
BYLAYER
 10
29.1796332547
 20
64.6555010113
 11
28.4725235296
 21
65.0637417658
  0
LINE
  5
3A1
100
AcDbEntity
  8
0
100
AcDbLine
 62
7
  6
BYLAYER
 10
27.9069487978
 20
23.7490472636
 11
29.8515332395
 21
24.8717469129
  0
LINE
  5
3A2
100
AcDbEntity
  8
0
100
AcDbLine
 62
7
  6
BYLAYER
 10
13.5525942928
 20
58.8737003673
 11
12.0572877529
 21
58.4832942457
  0
LINE
  5
3A3
100
AcDbEntity
  8
0
100
AcDbLine
 62
7
  6
BYLAYER
 10
14.4430459115
 20
59.6990447134
 11
13.5525942928
 21
59.4665587624
  0
LINE
  5
3A4
100
AcDbEntity
  8
0
100
AcDbLine
 62
7
  6
BYLAYER
 10
15.8506746982
 20
60.1851309325
 11
14.3016239665
 21
59.7806928643
  0
LINE
  5
3A5
100
AcDbEntity
  8
0
100
AcDbLine
 62
7
  6
BYLAYER
 10
32.7151465529
 20
65.5127757671
 11
33.422256278
 21
65.1045350126
  0
LINE
  5
3A6
100
AcDbEntity
  8
0
100
AcDbLine
 62
7
  6
BYLAYER
 10
38.8670011616
 20
61.9610812028
 11
39.5741108868
 21
61.5528404483
  0
LINE
  5
3A7
100
AcDbEntity
  8
0
100
AcDbLine
 62
7
  6
BYLAYER
 10
45.0188557704
 20
58.4093866385
 11
45.7259654956
 21
58.0011458839
  0
LINE
  5
3A8
100
AcDbEntity
  8
0
100
AcDbLine
 62
7
  6
BYLAYER
 10
46.2209396536
 20
58.0011453228
 11
45.1602750659
 21
58.6135064546
  0
LINE
  5
3A9
100
AcDbEntity
  8
0
100
AcDbLine
 62
7
  6
BYLAYER
 10
39.8569521273
 20
61.6753121135
 11
39.2205533746
 21
62.0427287926
  0
LINE
  5
3AA
100
AcDbEntity
  8
0
100
AcDbLine
 62
7
  6
BYLAYER
 10
33.917230436
 20
65.1045344515
 11
32.8565658483
 21
65.7168955833
  0
LINE
  5
3AB
100
AcDbEntity
  8
0
100
AcDbLine
 62
7
  6
BYLAYER
 10
27.7653758273
 20
68.6562290158
 11
27.588598396
 21
68.7582892044
  0
LINE
  5
3AC
100
AcDbEntity
  8
0
100
AcDbLine
 62
7
  6
BYLAYER
 10
39.7155281215
 20
62.0427299824
 11
38.0538202674
 21
63.0020957555
  0
LINE
  5
3AD
100
AcDbEntity
  8
0
100
AcDbLine
 62
7
  6
BYLAYER
 10
36.0609343961
 20
64.2397814685
 11
37.4397983601
 21
63.4437119972
  0
LINE
  5
3AE
100
AcDbEntity
  8
0
100
AcDbLine
 62
7
  6
BYLAYER
 10
56.6154246456
 20
52.530649636
 11
57.0396869479
 21
52.2856946781
  0
LINE
  5
3AF
100
AcDbEntity
  8
0
100
AcDbLine
 62
7
  6
BYLAYER
 10
51.8778201043
 20
30.4851053769
 11
51.8778201043
 21
31.2608038372
  0
LINE
  5
3B0
100
AcDbEntity
  8
0
100
AcDbLine
 62
7
  6
BYLAYER
 10
51.8778201043
 20
54.4494513196
 11
51.8778201043
 21
56.4498822416
  0
LINE
  5
3B1
100
AcDbEntity
  8
0
100
AcDbLine
 62
7
  6
BYLAYER
 10
29.1796332547
 20
64.6555010113
 11
33.422256278
 21
65.1045350126
  0
LINE
  5
3B2
100
AcDbEntity
  8
0
100
AcDbLine
 62
7
  6
BYLAYER
 10
32.7151465529
 20
65.5127757671
 11
28.4725235296
 21
65.0637417658
  0
LINE
  5
3B3
100
AcDbEntity
  8
0
100
AcDbLine
 62
7
  6
BYLAYER
 10
42.8091060845
 20
65.4822116108
 11
40.6924760113
 21
65.321635105
  0
LINE
  5
3B4
100
AcDbEntity
  8
0
100
AcDbLine
 62
7
  6
BYLAYER
 10
30.5485662103
 20
70.4672172179
 11
30.0888358811
 21
70.732510773
  0
LINE
  5
3B5
100
AcDbEntity
  8
0
100
AcDbLine
 62
7
  6
BYLAYER
 10
26.5632919441
 20
71.0649012534
 11
27.2704016692
 21
70.6566604989
  0
LINE
  5
3B6
100
AcDbEntity
  8
0
100
AcDbLine
 62
7
  6
BYLAYER
 10
51.1707103792
 20
56.8581229961
 11
51.8778201043
 21
56.4498822416
  0
LINE
  5
3B7
100
AcDbEntity
  8
0
100
AcDbLine
 62
7
  6
BYLAYER
 10
36.0609343961
 20
65.9952616654
 11
37.4397983601
 21
65.1991921941
  0
LINE
  5
3B8
100
AcDbEntity
  8
0
100
AcDbLine
 62
7
  6
BYLAYER
 10
30.2402377855
 20
70.3708550232
 11
28.4724634727
 21
71.3914569095
  0
LINE
  5
3B9
100
AcDbEntity
  8
0
100
AcDbLine
 62
7
  6
BYLAYER
 10
54.4487659124
 20
56.6686167798
 11
54.9083872337
 21
56.4032602893
  0
LINE
  5
3BA
100
AcDbEntity
  8
0
100
AcDbLine
 62
7
  6
BYLAYER
 10
56.4083123249
 20
55.6012435186
 11
55.1001593333
 21
56.3564889145
  0
LINE
  5
3BB
100
AcDbEntity
  8
0
100
AcDbLine
 62
7
  6
BYLAYER
 10
30.1442153546
 20
70.7644839361
 11
28.9724549891
 21
71.440984794
  0
LINE
  5
3BC
100
AcDbEntity
  8
0
100
AcDbLine
 62
7
  6
BYLAYER
 10
56.6154211128
 20
55.5108729533
 11
55.7315339564
 21
56.0211738964
  0
LINE
  5
3BD
100
AcDbEntity
  8
0
100
AcDbLine
 62
7
  6
BYLAYER
 10
30.1695045621
 20
70.7790845797
 11
30.0280954473
 21
70.8607253233
  0
LINE
  5
3BE
100
AcDbEntity
  8
0
100
AcDbLine
 62
7
  6
BYLAYER
 10
42.543932606
 20
63.6757003254
 11
41.3064979186
 21
64.390117413
  0
LINE
  5
3BF
100
AcDbEntity
  8
0
100
AcDbLine
 62
7
  6
BYLAYER
 10
42.9540633338
 20
63.912487998
 11
41.3064979186
 21
64.8636888149
  0
LINE
  5
3C0
100
AcDbEntity
  8
0
100
AcDbLine
 62
7
  6
BYLAYER
 10
42.8091060845
 20
64.0125072599
 11
41.4302421205
 21
64.8085767312
  0
LINE
  5
3C1
100
AcDbEntity
  8
0
100
AcDbLine
 62
7
  6
BYLAYER
 10
40.6170280569
 20
65.2780754683
 11
41.3064979186
 21
64.8800188633
  0
LINE
  5
3C2
100
AcDbEntity
  8
0
100
AcDbLine
 62
7
  6
BYLAYER
 10
42.9682057727
 20
63.9206530902
 11
44.0642258466
 21
63.2878799207
  0
LINE
  5
3C3
100
AcDbEntity
  8
0
100
AcDbLine
 62
7
  6
BYLAYER
 10
29.6038296122
 20
71.962997314
 11
30.9119826037
 21
71.2077519181
  0
LINE
  5
3C4
100
AcDbEntity
  8
0
100
AcDbLine
 62
7
  6
BYLAYER
 10
55.7315339564
 20
56.8785014344
 11
57.0396869479
 21
56.1232560386
  0
LINE
  5
3C5
100
AcDbEntity
  8
0
100
AcDbLine
 62
7
  6
BYLAYER
 10
55.9083208084
 20
55.5517156341
 11
54.1410640261
 21
56.572616315
  0
LINE
  5
3C6
100
AcDbEntity
  8
0
100
AcDbLine
 62
7
  6
BYLAYER
 10
42.3895252206
 20
68.0569012712
 11
44.4354449101
 21
64.9514688138
  0
LINE
  5
3C7
100
AcDbEntity
  8
0
100
AcDbLine
 62
7
  6
BYLAYER
 10
54.9360175574
 20
59.2769216461
 11
54.9360175574
 21
59.8117212055
  0
LINE
  5
3C8
100
AcDbEntity
  8
0
100
AcDbLine
 62
7
  6
BYLAYER
 10
55.7315339564
 20
56.0211738964
 11
55.7315339564
 21
56.8785014344
  0
LINE
  5
3C9
100
AcDbEntity
  8
0
100
AcDbLine
 62
7
  6
BYLAYER
 10
33.3516936814
 20
23.4225267929
 11
34.0941708177
 21
23.8511936086
  0
LINE
  5
3CA
100
AcDbEntity
  8
0
100
AcDbLine
 62
7
  6
BYLAYER
 10
33.1749159557
 20
22.708083689
 11
33.3516936814
 21
22.8101457473
  0
LINE
  5
3CB
100
AcDbEntity
  8
0
100
AcDbLine
 62
7
  6
BYLAYER
 10
35.1548231861
 20
23.2388395314
 11
35.9679925989
 21
23.7083203084
  0
LINE
  5
3CC
100
AcDbEntity
  8
0
100
AcDbLine
 62
7
  6
BYLAYER
 10
35.9679925989
 20
22.8918178913
 11
35.1194679943
 21
22.4019249066
  0
LINE
  5
3CD
100
AcDbEntity
  8
0
100
AcDbLine
 62
7
  6
BYLAYER
 10
44.8597163387
 20
63.9145336498
 11
45.004673588
 21
63.8308444362
  0
LINE
  5
3CE
100
AcDbEntity
  8
0
100
AcDbLine
 62
7
  6
BYLAYER
 10
32.3261964605
 20
71.166931072
 11
38.6724420927
 21
67.503007337
  0
LINE
  5
3CF
100
AcDbEntity
  8
0
100
AcDbLine
 62
7
  6
BYLAYER
 10
45.0188160269
 20
63.8390095284
 11
53.9283985637
 21
58.6951760214
  0
LINE
  5
3D0
100
AcDbEntity
  8
0
100
AcDbLine
 62
7
  6
BYLAYER
 10
34.1823471243
 20
71.7935873507
 11
40.1432177119
 21
68.3521549679
  0
LINE
  5
3D1
100
AcDbEntity
  8
0
100
AcDbLine
 62
7
  6
BYLAYER
 10
43.4544824507
 20
66.4404386285
 11
54.9360175574
 21
59.8117212055
  0
LINE
  5
3D2
100
AcDbEntity
  8
0
100
AcDbLine
 62
7
  6
BYLAYER
 10
31.8665618913
 20
73.2693786063
 11
33.9171800942
 21
72.0854804182
  0
LINE
  5
3D3
100
AcDbEntity
  8
0
100
AcDbLine
 62
7
  6
BYLAYER
 10
55.5193821975
 20
59.6137253676
 11
59.302419227
 21
57.429637331
  0
LINE
  5
3D4
100
AcDbEntity
  8
0
100
AcDbLine
 62
7
  6
BYLAYER
 10
56.6154211128
 20
55.5108729533
 11
56.6154246456
 21
52.530649636
  0
LINE
  5
3D5
100
AcDbEntity
  8
0
100
AcDbLine
 62
7
  6
BYLAYER
 10
57.0396869479
 20
52.2856946781
 11
57.0396869479
 21
56.1232560386
  0
LINE
  5
3D6
100
AcDbEntity
  8
0
100
AcDbLine
 62
7
  6
BYLAYER
 10
35.1194679943
 20
21.5854224895
 11
58.4538946223
 21
35.0574795672
  0
LINE
  5
3D7
100
AcDbEntity
  8
0
100
AcDbLine
 62
7
  6
BYLAYER
 10
34.0588034066
 20
20.1973526993
 11
51.8778201043
 21
30.4851053769
  0
LINE
  5
3D8
100
AcDbEntity
  8
0
100
AcDbLine
 62
7
  6
BYLAYER
 10
41.0106612566
 20
68.8529707425
 11
42.3895252206
 21
68.0569012712
  0
LINE
  5
3D9
100
AcDbEntity
  8
0
100
AcDbLine
 62
7
  6
BYLAYER
 10
59.302419227
 20
38.4459561327
 11
59.302419227
 21
57.429637331
  0
LINE
  5
3DA
100
AcDbEntity
  8
0
100
AcDbLine
 62
7
  6
BYLAYER
 10
59.302419227
 20
38.4459561327
 11
58.4538946223
 21
35.0574795672
  0
ARC
  5
3DB
100
AcDbEntity
  8
0
100
AcDbCircle
 62
7
  6
BYLAYER
 10
11.9541886857
 20
42.1185890362
 40
1.3665590129
100
AcDbArc
 50
147.252200034
 51
148.9244241886
  0
ARC
  5
3DC
100
AcDbEntity
  8
0
100
AcDbCircle
 62
7
  6
BYLAYER
 10
18.035332322
 20
38.6077185473
 40
1.366559013
100
AcDbArc
 50
147.252200034
 51
148.9244241886
  0
SPLINE
  5
3DD
100
AcDbEntity
  8
0
100
AcDbSpline
 62
7
  6
BYLAYER
 70
0
 71
3
 72
14
 73
10
 74
0
 42
0.0000001
 43
0.0000001
 44
0.0000000001
 40
0.0
 40
0.0
 40
0.0
 40
0.0
 40
0.1080446434
 40
0.2181346916
 40
0.3321081795
 40
0.451484779
 40
0.5774341989
 40
0.7107579721
 40
1.0
 40
1.0
 40
1.0
 40
1.0
 10
26.0545917314
 20
30.3254449224
 30
0.0
 10
26.1074664658
 20
30.3559703808
 30
0.0
 10
26.2091505512
 20
30.4268804822
 30
0.0
 10
26.3434329991
 20
30.5591238805
 30
0.0
 10
26.4589806637
 20
30.7159932963
 30
0.0
 10
26.55463569
 20
30.8958098687
 30
0.0
 10
26.6296975089
 20
31.0967868203
 30
0.0
 10
26.7034267011
 20
31.3983888273
 30
0.0
 10
26.7225397138
 20
31.6383398168
 30
0.0
 10
26.7225397138
 20
31.8017839666
 30
0.0
  0
SPLINE
  5
3DE
100
AcDbEntity
  8
0
100
AcDbSpline
 62
7
  6
BYLAYER
 70
0
 71
3
 72
14
 73
10
 74
0
 42
0.0000001
 43
0.0000001
 44
0.0000000001
 40
0.0
 40
0.0
 40
0.0
 40
0.0
 40
0.1080446434
 40
0.2181346916
 40
0.3321081795
 40
0.451484779
 40
0.5774341989
 40
0.7107579721
 40
1.0
 40
1.0
 40
1.0
 40
1.0
 10
32.1357353677
 20
26.8145744335
 30
0.0
 10
32.188610102
 20
26.845099892
 30
0.0
 10
32.2902941875
 20
26.9160099933
 30
0.0
 10
32.4245766354
 20
27.0482533916
 30
0.0
 10
32.5401243
 20
27.2051228075
 30
0.0
 10
32.6357793263
 20
27.3849393799
 30
0.0
 10
32.7108411451
 20
27.5859163315
 30
0.0
 10
32.7845703374
 20
27.8875183384
 30
0.0
 10
32.80368335
 20
28.1274693279
 30
0.0
 10
32.80368335
 20
28.2909134777
 30
0.0
  0
SPLINE
  5
3DF
100
AcDbEntity
  8
0
100
AcDbSpline
 62
7
  6
BYLAYER
 70
0
 71
3
 72
10
 73
6
 74
0
 42
0.0000001
 43
0.0000001
 44
0.0000000001
 40
0.0
 40
0.0
 40
0.0
 40
0.0
 40
0.2268456574
 40
0.5951236117
 40
1.0
 40
1.0
 40
1.0
 40
1.0
 10
54.4487659124
 20
56.6686167798
 30
0.0
 10
54.4242608127
 20
56.6681733967
 30
0.0
 10
54.3600037973
 20
56.6617061623
 30
0.0
 10
54.2555093293
 20
56.6316930618
 30
0.0
 10
54.1799965107
 20
56.5950618328
 30
0.0
 10
54.1420990872
 20
56.5732139043
 30
0.0
  0
SPLINE
  5
3E0
100
AcDbEntity
  8
0
100
AcDbSpline
 62
7
  6
BYLAYER
 70
0
 71
3
 72
14
 73
10
 74
0
 42
0.0000001
 43
0.0000001
 44
0.0000000001
 40
0.0
 40
0.0
 40
0.0
 40
0.0
 40
0.1080446434
 40
0.2181346916
 40
0.3321081795
 40
0.451484779
 40
0.5774341989
 40
0.7107579721
 40
1.0
 40
1.0
 40
1.0
 40
1.0
 10
26.0545917314
 20
41.8789541247
 30
0.0
 10
26.1074664658
 20
41.9094795832
 30
0.0
 10
26.2091505512
 20
41.9803896846
 30
0.0
 10
26.3434329991
 20
42.1126330828
 30
0.0
 10
26.4589806637
 20
42.2695024987
 30
0.0
 10
26.55463569
 20
42.4493190711
 30
0.0
 10
26.6296975089
 20
42.6502960227
 30
0.0
 10
26.7034267011
 20
42.9518980297
 30
0.0
 10
26.7225397138
 20
43.1918490192
 30
0.0
 10
26.7225397138
 20
43.355293169
 30
0.0
  0
SPLINE
  5
3E1
100
AcDbEntity
  8
0
100
AcDbSpline
 62
7
  6
BYLAYER
 70
0
 71
3
 72
14
 73
10
 74
0
 42
0.0000001
 43
0.0000001
 44
0.0000000001
 40
0.0
 40
0.0
 40
0.0
 40
0.0
 40
0.1080446434
 40
0.2181346916
 40
0.3321081795
 40
0.451484779
 40
0.5774341989
 40
0.7107579721
 40
1.0
 40
1.0
 40
1.0
 40
1.0
 10
32.1357353677
 20
38.3680836359
 30
0.0
 10
32.188610102
 20
38.3986090943
 30
0.0
 10
32.2902941875
 20
38.4695191957
 30
0.0
 10
32.4245766354
 20
38.601762594
 30
0.0
 10
32.5401243
 20
38.7586320099
 30
0.0
 10
32.6357793263
 20
38.9384485822
 30
0.0
 10
32.7108411451
 20
39.1394255338
 30
0.0
 10
32.7845703374
 20
39.4410275408
 30
0.0
 10
32.80368335
 20
39.6809785303
 30
0.0
 10
32.80368335
 20
39.8444226801
 30
0.0
  0
SPLINE
  5
3E2
100
AcDbEntity
  8
0
100
AcDbSpline
 62
7
  6
BYLAYER
 70
0
 71
3
 72
14
 73
10
 74
0
 42
0.0000001
 43
0.0000001
 44
0.0000000001
 40
0.0
 40
0.0
 40
0.0
 40
0.0
 40
0.1080456362
 40
0.2181349707
 40
0.332107362
 40
0.4514818058
 40
0.577428993
 40
0.7107525123
 40
1.0
 40
1.0
 40
1.0
 40
1.0
 10
19.9734481418
 20
45.3898245264
 30
0.0
 10
20.0263226066
 20
45.4203514325
 30
0.0
 10
20.1280049682
 20
45.4912636125
 30
0.0
 10
20.2622885257
 20
45.6235049598
 30
0.0
 10
20.3778320771
 20
45.7803743419
 30
0.0
 10
20.4734888624
 20
45.960185946
 30
0.0
 10
20.5485506557
 20
46.1611600279
 30
0.0
 10
20.6222811104
 20
46.4627629863
 30
0.0
 10
20.6413960775
 20
46.7027166121
 30
0.0
 10
20.6413960775
 20
46.8661636579
 30
0.0
  0
SPLINE
  5
3E3
100
AcDbEntity
  8
0
100
AcDbSpline
 62
7
  6
BYLAYER
 70
0
 71
3
 72
14
 73
10
 74
0
 42
0.0000001
 43
0.0000001
 44
0.0000000001
 40
0.0
 40
0.0
 40
0.0
 40
0.0
 40
0.1080446434
 40
0.2181346916
 40
0.3321081795
 40
0.451484779
 40
0.5774341989
 40
0.7107579721
 40
1.0
 40
1.0
 40
1.0
 40
1.0
 10
19.9734480952
 20
33.8363154112
 30
0.0
 10
20.0263228295
 20
33.8668408697
 30
0.0
 10
20.1280069149
 20
33.9377509711
 30
0.0
 10
20.2622893629
 20
34.0699943693
 30
0.0
 10
20.3778370275
 20
34.2268637852
 30
0.0
 10
20.4734920537
 20
34.4066803576
 30
0.0
 10
20.5485538726
 20
34.6076573092
 30
0.0
 10
20.6222830648
 20
34.9092593162
 30
0.0
 10
20.6413960775
 20
35.1492103057
 30
0.0
 10
20.6413960775
 20
35.3126544555
 30
0.0
  0
SPLINE
  5
3E4
100
AcDbEntity
  8
0
100
AcDbSpline
 62
7
  6
BYLAYER
 70
0
 71
3
 72
14
 73
10
 74
0
 42
0.0000001
 43
0.0000001
 44
0.0000000001
 40
0.0
 40
0.0
 40
0.0
 40
0.0
 40
0.1080446434
 40
0.2181346916
 40
0.3321081795
 40
0.451484779
 40
0.5774341989
 40
0.7107579721
 40
1.0
 40
1.0
 40
1.0
 40
1.0
 10
13.8923044589
 20
37.3471859001
 30
0.0
 10
13.9451791932
 20
37.3777113586
 30
0.0
 10
14.0468632787
 20
37.44862146
 30
0.0
 10
14.1811457266
 20
37.5808648582
 30
0.0
 10
14.2966933912
 20
37.7377342741
 30
0.0
 10
14.3923484175
 20
37.9175508465
 30
0.0
 10
14.4674102363
 20
38.1185277981
 30
0.0
 10
14.5411394286
 20
38.4201298051
 30
0.0
 10
14.5602524412
 20
38.6600807945
 30
0.0
 10
14.5602524412
 20
38.8235249443
 30
0.0
  0
SPLINE
  5
3E5
100
AcDbEntity
  8
0
100
AcDbSpline
 62
7
  6
BYLAYER
 70
0
 71
3
 72
14
 73
10
 74
0
 42
0.0000001
 43
0.0000001
 44
0.0000000001
 40
0.0
 40
0.0
 40
0.0
 40
0.0
 40
0.1080456362
 40
0.2181349707
 40
0.332107362
 40
0.4514818058
 40
0.577428993
 40
0.7107525123
 40
1.0
 40
1.0
 40
1.0
 40
1.0
 10
13.8923045056
 20
48.9006950153
 30
0.0
 10
13.9451789703
 20
48.9312219214
 30
0.0
 10
14.046861332
 20
49.0021341014
 30
0.0
 10
14.1811448894
 20
49.1343754487
 30
0.0
 10
14.2966884408
 20
49.2912448308
 30
0.0
 10
14.3923452261
 20
49.4710564349
 30
0.0
 10
14.4674070195
 20
49.6720305167
 30
0.0
 10
14.5411374742
 20
49.9736334752
 30
0.0
 10
14.5602524412
 20
50.213587101
 30
0.0
 10
14.5602524412
 20
50.3770341467
 30
0.0
  0
SPLINE
  5
3E6
100
AcDbEntity
  8
0
100
AcDbSpline
 62
7
  6
BYLAYER
 70
0
 71
3
 72
10
 73
6
 74
0
 42
0.0000001
 43
0.0000001
 44
0.0000000001
 40
0.0
 40
0.0
 40
0.0
 40
0.0
 40
0.2337140329
 40
0.4795102992
 40
1.0
 40
1.0
 40
1.0
 40
1.0
 10
14.5602524412
 20
50.3770341467
 30
0.0
 10
14.5602524412
 20
50.4781776077
 30
0.0
 10
14.5498719137
 20
50.6858000004
 30
0.0
 10
14.4909039395
 20
51.1148865107
 30
0.0
 10
14.4059779945
 20
51.4371676258
 30
0.0
 10
14.3341694303
 20
51.6506651132
 30
0.0
  0
SPLINE
  5
3E7
100
AcDbEntity
  8
0
100
AcDbSpline
 62
7
  6
BYLAYER
 70
0
 71
3
 72
11
 73
7
 74
0
 42
0.0000001
 43
0.0000001
 44
0.0000000001
 40
0.0
 40
0.0
 40
0.0
 40
0.0
 40
0.2478238988
 40
0.5003608681
 40
0.7527095904
 40
1.0
 40
1.0
 40
1.0
 40
1.0
 10
14.3341694303
 20
51.6506651132
 30
0.0
 10
14.2767365509
 20
51.8214215626
 30
0.0
 10
14.1421162552
 20
52.1601512724
 30
0.0
 10
13.8899243204
 20
52.6467112135
 30
0.0
 10
13.5914966927
 20
53.1059025182
 30
0.0
 10
13.3636363485
 20
53.3897388555
 30
0.0
 10
13.2436559977
 20
53.5236097988
 30
0.0
  0
SPLINE
  5
3E8
100
AcDbEntity
  8
0
100
AcDbSpline
 62
7
  6
BYLAYER
 70
0
 71
3
 72
16
 73
12
 74
0
 42
0.0000001
 43
0.0000001
 44
0.0000000001
 40
0.0
 40
0.0
 40
0.0
 40
0.0
 40
0.1568408784
 40
0.3059209108
 40
0.4455902251
 40
0.5748001044
 40
0.6933335056
 40
0.8020459026
 40
0.9030608426
 40
0.9518076226
 40
1.0
 40
1.0
 40
1.0
 40
1.0
 10
13.2436559977
 20
53.5236097988
 30
0.0
 10
13.1405908835
 20
53.6386071626
 30
0.0
 10
12.9289348147
 20
53.8537231437
 30
0.0
 10
12.5899444268
 20
54.1335413086
 30
0.0
 10
12.2435189821
 20
54.357624885
 30
0.0
 10
11.8972408197
 20
54.5207371707
 30
0.0
 10
11.5584476957
 20
54.6188706476
 30
0.0
 10
11.2344387323
 20
54.6491222436
 30
0.0
 10
10.9794606589
 20
54.6150935627
 30
0.0
 10
10.7943767665
 20
54.5525396366
 30
0.0
 10
10.7084360153
 20
54.5102499102
 30
0.0
 10
10.6673426964
 20
54.4865260576
 30
0.0
  0
SPLINE
  5
3E9
100
AcDbEntity
  8
0
100
AcDbSpline
 62
7
  6
BYLAYER
 70
0
 71
3
 72
11
 73
7
 74
0
 42
0.0000001
 43
0.0000001
 44
0.0000000001
 40
0.0
 40
0.0
 40
0.0
 40
0.0
 40
0.2282654415
 40
0.4746733399
 40
0.7339882537
 40
1.0
 40
1.0
 40
1.0
 40
1.0
 10
14.5602524412
 20
38.8235249443
 30
0.0
 10
14.5602524412
 20
39.0047088966
 30
0.0
 10
14.5268718814
 20
39.3818250205
 30
0.0
 10
14.3939852858
 20
39.9506551879
 30
0.0
 10
14.1811274947
 20
40.5265661854
 30
0.0
 10
13.9920017218
 20
40.8993675903
 30
0.0
 10
13.8860181913
 20
41.0819863603
 30
0.0
  0
SPLINE
  5
3EA
100
AcDbEntity
  8
0
100
AcDbSpline
 62
7
  6
BYLAYER
 70
0
 71
3
 72
12
 73
8
 74
0
 42
0.0000001
 43
0.0000001
 44
0.0000000001
 40
0.0
 40
0.0
 40
0.0
 40
0.0
 40
0.1110801953
 40
0.2279187456
 40
0.4753482347
 40
0.7355139016
 40
1.0
 40
1.0
 40
1.0
 40
1.0
 10
20.6413960775
 20
35.3126544555
 30
0.0
 10
20.6413960775
 20
35.4141192311
 30
0.0
 10
20.6309507969
 20
35.6224074784
 30
0.0
 10
20.571596227
 20
36.0529511884
 30
0.0
 10
20.4252965046
 20
36.6067150313
 30
0.0
 10
20.1525702654
 20
37.2590943424
 30
0.0
 10
19.9114665794
 20
37.6751267147
 30
0.0
 10
19.7769557221
 20
37.8758086663
 30
0.0
  0
SPLINE
  5
3EB
100
AcDbEntity
  8
0
100
AcDbSpline
 62
7
  6
BYLAYER
 70
0
 71
3
 72
10
 73
6
 74
0
 42
0.0000001
 43
0.0000001
 44
0.0000000001
 40
0.0
 40
0.0
 40
0.0
 40
0.0
 40
0.2337140329
 40
0.4795102992
 40
1.0
 40
1.0
 40
1.0
 40
1.0
 10
20.6413960775
 20
46.8661636579
 30
0.0
 10
20.6413960775
 20
46.9673071189
 30
0.0
 10
20.63101555
 20
47.1749295115
 30
0.0
 10
20.5720475757
 20
47.6040160219
 30
0.0
 10
20.4871216307
 20
47.9262971369
 30
0.0
 10
20.4153130666
 20
48.1397946243
 30
0.0
  0
SPLINE
  5
3EC
100
AcDbEntity
  8
0
100
AcDbSpline
 62
7
  6
BYLAYER
 70
0
 71
3
 72
11
 73
7
 74
0
 42
0.0000001
 43
0.0000001
 44
0.0000000001
 40
0.0
 40
0.0
 40
0.0
 40
0.0
 40
0.2478238988
 40
0.5003608681
 40
0.7527095904
 40
1.0
 40
1.0
 40
1.0
 40
1.0
 10
20.4153130666
 20
48.1397946243
 30
0.0
 10
20.3578801872
 20
48.3105510737
 30
0.0
 10
20.2232598914
 20
48.6492807835
 30
0.0
 10
19.9710679567
 20
49.1358407246
 30
0.0
 10
19.672640329
 20
49.5950320293
 30
0.0
 10
19.4447799848
 20
49.8788683666
 30
0.0
 10
19.3247996339
 20
50.0127393099
 30
0.0
  0
SPLINE
  5
3ED
100
AcDbEntity
  8
0
100
AcDbSpline
 62
7
  6
BYLAYER
 70
0
 71
3
 72
16
 73
12
 74
0
 42
0.0000001
 43
0.0000001
 44
0.0000000001
 40
0.0
 40
0.0
 40
0.0
 40
0.0
 40
0.1568408784
 40
0.3059209108
 40
0.4455902251
 40
0.5748001044
 40
0.6933335056
 40
0.8020459026
 40
0.9030608426
 40
0.9518076226
 40
1.0
 40
1.0
 40
1.0
 40
1.0
 10
19.3247996339
 20
50.0127393099
 30
0.0
 10
19.2217345198
 20
50.1277366738
 30
0.0
 10
19.010078451
 20
50.3428526548
 30
0.0
 10
18.6710880631
 20
50.6226708197
 30
0.0
 10
18.3246626184
 20
50.8467543961
 30
0.0
 10
17.9783844559
 20
51.0098666818
 30
0.0
 10
17.639591332
 20
51.1080001588
 30
0.0
 10
17.3155823686
 20
51.1382517547
 30
0.0
 10
17.0606042952
 20
51.1042230738
 30
0.0
 10
16.8755204028
 20
51.0416691477
 30
0.0
 10
16.7895796516
 20
50.9993794213
 30
0.0
 10
16.7484863326
 20
50.9756555688
 30
0.0
  0
SPLINE
  5
3EE
100
AcDbEntity
  8
0
100
AcDbSpline
 62
7
  6
BYLAYER
 70
0
 71
3
 72
10
 73
6
 74
0
 42
0.0000001
 43
0.0000001
 44
0.0000000001
 40
0.0
 40
0.0
 40
0.0
 40
0.0
 40
0.2337140329
 40
0.4795102992
 40
1.0
 40
1.0
 40
1.0
 40
1.0
 10
32.80368335
 20
39.8444226801
 30
0.0
 10
32.80368335
 20
39.9455661411
 30
0.0
 10
32.7933028225
 20
40.1531885338
 30
0.0
 10
32.7343348483
 20
40.5822750441
 30
0.0
 10
32.6494089032
 20
40.9045561592
 30
0.0
 10
32.5776003391
 20
41.1180536466
 30
0.0
  0
SPLINE
  5
3EF
100
AcDbEntity
  8
0
100
AcDbSpline
 62
7
  6
BYLAYER
 70
0
 71
3
 72
11
 73
7
 74
0
 42
0.0000001
 43
0.0000001
 44
0.0000000001
 40
0.0
 40
0.0
 40
0.0
 40
0.0
 40
0.2478238988
 40
0.5003608681
 40
0.7527095904
 40
1.0
 40
1.0
 40
1.0
 40
1.0
 10
32.5776003391
 20
41.1180536466
 30
0.0
 10
32.5201674597
 20
41.288810096
 30
0.0
 10
32.385547164
 20
41.6275398058
 30
0.0
 10
32.1333552292
 20
42.1140997469
 30
0.0
 10
31.8349276015
 20
42.5732910515
 30
0.0
 10
31.6070672573
 20
42.8571273889
 30
0.0
 10
31.4870869065
 20
42.9909983322
 30
0.0
  0
SPLINE
  5
3F0
100
AcDbEntity
  8
0
100
AcDbSpline
 62
7
  6
BYLAYER
 70
0
 71
3
 72
16
 73
12
 74
0
 42
0.0000001
 43
0.0000001
 44
0.0000000001
 40
0.0
 40
0.0
 40
0.0
 40
0.0
 40
0.1568408784
 40
0.3059209108
 40
0.4455902251
 40
0.5748001044
 40
0.6933335056
 40
0.8020459026
 40
0.9030608426
 40
0.9518076226
 40
1.0
 40
1.0
 40
1.0
 40
1.0
 10
31.4870869065
 20
42.9909983322
 30
0.0
 10
31.3840217923
 20
43.105995696
 30
0.0
 10
31.1723657235
 20
43.3211116771
 30
0.0
 10
30.8333753356
 20
43.6009298419
 30
0.0
 10
30.4869498909
 20
43.8250134184
 30
0.0
 10
30.1406717284
 20
43.9881257041
 30
0.0
 10
29.8018786045
 20
44.086259181
 30
0.0
 10
29.4778696411
 20
44.116510777
 30
0.0
 10
29.2228915677
 20
44.0824820961
 30
0.0
 10
29.0378076753
 20
44.0199281699
 30
0.0
 10
28.9518669241
 20
43.9776384436
 30
0.0
 10
28.9107736051
 20
43.953914591
 30
0.0
  0
SPLINE
  5
3F1
100
AcDbEntity
  8
0
100
AcDbSpline
 62
7
  6
BYLAYER
 70
0
 71
3
 72
10
 73
6
 74
0
 42
0.0000001
 43
0.0000001
 44
0.0000000001
 40
0.0
 40
0.0
 40
0.0
 40
0.0
 40
0.2337140329
 40
0.4795102992
 40
1.0
 40
1.0
 40
1.0
 40
1.0
 10
26.7225397138
 20
43.355293169
 30
0.0
 10
26.7225397138
 20
43.45643663
 30
0.0
 10
26.7121591863
 20
43.6640590226
 30
0.0
 10
26.653191212
 20
44.093145533
 30
0.0
 10
26.568265267
 20
44.415426648
 30
0.0
 10
26.4964567028
 20
44.6289241354
 30
0.0
  0
SPLINE
  5
3F2
100
AcDbEntity
  8
0
100
AcDbSpline
 62
7
  6
BYLAYER
 70
0
 71
3
 72
11
 73
7
 74
0
 42
0.0000001
 43
0.0000001
 44
0.0000000001
 40
0.0
 40
0.0
 40
0.0
 40
0.0
 40
0.2478238988
 40
0.5003608681
 40
0.7527095904
 40
1.0
 40
1.0
 40
1.0
 40
1.0
 10
26.4964567028
 20
44.6289241354
 30
0.0
 10
26.4390238234
 20
44.7996805848
 30
0.0
 10
26.3044035277
 20
45.1384102947
 30
0.0
 10
26.052211593
 20
45.6249702358
 30
0.0
 10
25.7537839652
 20
46.0841615404
 30
0.0
 10
25.525923621
 20
46.3679978778
 30
0.0
 10
25.4059432702
 20
46.5018688211
 30
0.0
  0
SPLINE
  5
3F3
100
AcDbEntity
  8
0
100
AcDbSpline
 62
7
  6
BYLAYER
 70
0
 71
3
 72
16
 73
12
 74
0
 42
0.0000001
 43
0.0000001
 44
0.0000000001
 40
0.0
 40
0.0
 40
0.0
 40
0.0
 40
0.1568408784
 40
0.3059209108
 40
0.4455902251
 40
0.5748001044
 40
0.6933335056
 40
0.8020459026
 40
0.9030608426
 40
0.9518076226
 40
1.0
 40
1.0
 40
1.0
 40
1.0
 10
25.4059432702
 20
46.5018688211
 30
0.0
 10
25.302878156
 20
46.6168661849
 30
0.0
 10
25.0912220872
 20
46.831982166
 30
0.0
 10
24.7522316993
 20
47.1118003308
 30
0.0
 10
24.4058062547
 20
47.3358839072
 30
0.0
 10
24.0595280922
 20
47.4989961929
 30
0.0
 10
23.7207349683
 20
47.5971296699
 30
0.0
 10
23.3967260048
 20
47.6273812658
 30
0.0
 10
23.1417479314
 20
47.5933525849
 30
0.0
 10
22.956664039
 20
47.5307986588
 30
0.0
 10
22.8707232878
 20
47.4885089324
 30
0.0
 10
22.8296299689
 20
47.4647850799
 30
0.0
  0
SPLINE
  5
3F4
100
AcDbEntity
  8
0
100
AcDbSpline
 62
7
  6
BYLAYER
 70
0
 71
3
 72
10
 73
6
 74
0
 42
0.0000001
 43
0.0000001
 44
0.0000000001
 40
0.0
 40
0.0
 40
0.0
 40
0.0
 40
0.2337140329
 40
0.4795102992
 40
1.0
 40
1.0
 40
1.0
 40
1.0
 10
32.80368335
 20
28.2909134777
 30
0.0
 10
32.80368335
 20
28.3920569387
 30
0.0
 10
32.7933028225
 20
28.5996793314
 30
0.0
 10
32.7343348483
 20
29.0287658417
 30
0.0
 10
32.6494089032
 20
29.3510469568
 30
0.0
 10
32.5776003391
 20
29.5645444442
 30
0.0
  0
SPLINE
  5
3F5
100
AcDbEntity
  8
0
100
AcDbSpline
 62
7
  6
BYLAYER
 70
0
 71
3
 72
11
 73
7
 74
0
 42
0.0000001
 43
0.0000001
 44
0.0000000001
 40
0.0
 40
0.0
 40
0.0
 40
0.0
 40
0.2478238988
 40
0.5003608681
 40
0.7527095904
 40
1.0
 40
1.0
 40
1.0
 40
1.0
 10
32.5776003391
 20
29.5645444442
 30
0.0
 10
32.5201674597
 20
29.7353008936
 30
0.0
 10
32.385547164
 20
30.0740306034
 30
0.0
 10
32.1333552292
 20
30.5605905445
 30
0.0
 10
31.8349276015
 20
31.0197818491
 30
0.0
 10
31.6070672573
 20
31.3036181865
 30
0.0
 10
31.4870869065
 20
31.4374891298
 30
0.0
  0
SPLINE
  5
3F6
100
AcDbEntity
  8
0
100
AcDbSpline
 62
7
  6
BYLAYER
 70
0
 71
3
 72
16
 73
12
 74
0
 42
0.0000001
 43
0.0000001
 44
0.0000000001
 40
0.0
 40
0.0
 40
0.0
 40
0.0
 40
0.1568408784
 40
0.3059209108
 40
0.4455902251
 40
0.5748001044
 40
0.6933335056
 40
0.8020459026
 40
0.9030608426
 40
0.9518076226
 40
1.0
 40
1.0
 40
1.0
 40
1.0
 10
31.4870869065
 20
31.4374891298
 30
0.0
 10
31.3840217923
 20
31.5524864936
 30
0.0
 10
31.1723657235
 20
31.7676024747
 30
0.0
 10
30.8333753356
 20
32.0474206395
 30
0.0
 10
30.4869498909
 20
32.271504216
 30
0.0
 10
30.1406717284
 20
32.4346165017
 30
0.0
 10
29.8018786045
 20
32.5327499786
 30
0.0
 10
29.4778696411
 20
32.5630015746
 30
0.0
 10
29.2228915677
 20
32.5289728937
 30
0.0
 10
29.0378076753
 20
32.4664189676
 30
0.0
 10
28.9518669241
 20
32.4241292412
 30
0.0
 10
28.9107736051
 20
32.4004053886
 30
0.0
  0
SPLINE
  5
3F7
100
AcDbEntity
  8
0
100
AcDbSpline
 62
7
  6
BYLAYER
 70
0
 71
3
 72
10
 73
6
 74
0
 42
0.0000001
 43
0.0000001
 44
0.0000000001
 40
0.0
 40
0.0
 40
0.0
 40
0.0
 40
0.2337140329
 40
0.4795102992
 40
1.0
 40
1.0
 40
1.0
 40
1.0
 10
26.7225397138
 20
31.8017839666
 30
0.0
 10
26.7225397138
 20
31.9029274276
 30
0.0
 10
26.7121591863
 20
32.1105498203
 30
0.0
 10
26.653191212
 20
32.5396363306
 30
0.0
 10
26.568265267
 20
32.8619174456
 30
0.0
 10
26.4964567028
 20
33.0754149331
 30
0.0
  0
SPLINE
  5
3F8
100
AcDbEntity
  8
0
100
AcDbSpline
 62
7
  6
BYLAYER
 70
0
 71
3
 72
11
 73
7
 74
0
 42
0.0000001
 43
0.0000001
 44
0.0000000001
 40
0.0
 40
0.0
 40
0.0
 40
0.0
 40
0.2478238988
 40
0.5003608681
 40
0.7527095904
 40
1.0
 40
1.0
 40
1.0
 40
1.0
 10
26.4964567028
 20
33.0754149331
 30
0.0
 10
26.4390238234
 20
33.2461713825
 30
0.0
 10
26.3044035277
 20
33.5849010923
 30
0.0
 10
26.052211593
 20
34.0714610334
 30
0.0
 10
25.7537839652
 20
34.530652338
 30
0.0
 10
25.525923621
 20
34.8144886754
 30
0.0
 10
25.4059432702
 20
34.9483596187
 30
0.0
  0
SPLINE
  5
3F9
100
AcDbEntity
  8
0
100
AcDbSpline
 62
7
  6
BYLAYER
 70
0
 71
3
 72
16
 73
12
 74
0
 42
0.0000001
 43
0.0000001
 44
0.0000000001
 40
0.0
 40
0.0
 40
0.0
 40
0.0
 40
0.1568408784
 40
0.3059209108
 40
0.4455902251
 40
0.5748001044
 40
0.6933335056
 40
0.8020459026
 40
0.9030608426
 40
0.9518076226
 40
1.0
 40
1.0
 40
1.0
 40
1.0
 10
25.4059432702
 20
34.9483596187
 30
0.0
 10
25.302878156
 20
35.0633569825
 30
0.0
 10
25.0912220872
 20
35.2784729636
 30
0.0
 10
24.7522316993
 20
35.5582911284
 30
0.0
 10
24.4058062547
 20
35.7823747049
 30
0.0
 10
24.0595280922
 20
35.9454869905
 30
0.0
 10
23.7207349683
 20
36.0436204675
 30
0.0
 10
23.3967260048
 20
36.0738720635
 30
0.0
 10
23.1417479314
 20
36.0398433826
 30
0.0
 10
22.956664039
 20
35.9772894564
 30
0.0
 10
22.8707232878
 20
35.9349997301
 30
0.0
 10
22.8296299689
 20
35.9112758775
 30
0.0
  0
SPLINE
  5
3FA
100
AcDbEntity
  8
0
100
AcDbSpline
 62
7
  6
BYLAYER
 70
0
 71
3
 72
11
 73
7
 74
0
 42
0.0000001
 43
0.0000001
 44
0.0000000001
 40
0.0
 40
0.0
 40
0.0
 40
0.0
 40
0.2177825102
 40
0.4509091639
 40
0.7102957096
 40
1.0
 40
1.0
 40
1.0
 40
1.0
 10
56.40830983
 20
55.6012391973
 30
0.0
 10
56.4412964713
 20
55.582194778
 30
0.0
 10
56.5030132068
 20
55.5303101247
 30
0.0
 10
56.5687178991
 20
55.4228801796
 30
0.0
 10
56.6077426001
 20
55.2904861602
 30
0.0
 10
56.6154246456
 20
55.1941257439
 30
0.0
 10
56.6154246456
 20
55.1434573708
 30
0.0
  0
SPLINE
  5
3FB
100
AcDbEntity
  8
0
100
AcDbSpline
 62
7
  6
BYLAYER
 70
0
 71
3
 72
11
 73
7
 74
0
 42
0.0000001
 43
0.0000001
 44
0.0000000001
 40
0.0
 40
0.0
 40
0.0
 40
0.0
 40
0.2177839237
 40
0.4509111717
 40
0.7102971901
 40
1.0
 40
1.0
 40
1.0
 40
1.0
 10
28.9724524943
 20
71.4409804727
 30
0.0
 10
28.9394669367
 20
71.4600242457
 30
0.0
 10
28.8636775484
 20
71.4875281681
 30
0.0
 10
28.7377929254
 20
71.4907144666
 30
0.0
 10
28.6036295714
 20
71.4583152192
 30
0.0
 10
28.516341674
 20
71.4167898496
 30
0.0
 10
28.4724634727
 20
71.3914569095
 30
0.0
  0
SPLINE
  5
3FC
100
AcDbEntity
  8
0
100
AcDbSpline
 62
7
  6
BYLAYER
 70
0
 71
3
 72
9
 73
5
 74
0
 42
0.0000001
 43
0.0000001
 44
0.0000000001
 40
0.0
 40
0.0
 40
0.0
 40
0.0
 40
0.5226156136
 40
1.0
 40
1.0
 40
1.0
 40
1.0
 10
12.6661690422
 20
60.5102981149
 30
0.0
 10
12.6988447001
 20
60.5052433295
 30
0.0
 10
12.7607511963
 20
60.4908227409
 30
0.0
 10
12.8193281323
 20
60.4656287856
 30
0.0
 10
12.8454845677
 20
60.4505277023
 30
0.0
  0
SPLINE
  5
3FD
100
AcDbEntity
  8
0
100
AcDbSpline
 62
7
  6
BYLAYER
 70
0
 71
3
 72
21
 73
17
 74
0
 42
0.0000001
 43
0.0000001
 44
0.0000000001
 40
0.0
 40
0.0
 40
0.0
 40
0.0
 40
0.043869488
 40
0.0907433408
 40
0.1413654868
 40
0.196088449
 40
0.2549127307
 40
0.3175686532
 40
0.3835734345
 40
0.4522786809
 40
0.5945550577
 40
0.7377029863
 40
0.8074569397
 40
0.8748718511
 40
0.9392747825
 40
1.0
 40
1.0
 40
1.0
 40
1.0
 10
32.3649315149
 20
27.0023098696
 30
0.0
 10
32.2779616306
 20
26.981947012
 30
0.0
 10
32.092776188
 20
26.9604675738
 30
0.0
 10
31.8044519166
 20
26.9851478962
 30
0.0
 10
31.5033986321
 20
27.0641585491
 30
0.0
 10
31.195022323
 20
27.1957374154
 30
0.0
 10
30.8845598489
 20
27.3771549889
 30
0.0
 10
30.5774779372
 20
27.6050523659
 30
0.0
 10
30.2792829336
 20
27.8753212264
 30
0.0
 10
29.8963853328
 20
28.290221721
 30
0.0
 10
29.4756489351
 20
28.8798185924
 30
0.0
 10
29.1496489466
 20
29.5289042153
 30
0.0
 10
28.9572872336
 20
30.066869181
 30
0.0
 10
28.852717587
 20
30.4643386377
 30
0.0
 10
28.788682478
 20
30.8516871101
 30
0.0
 10
28.7731535007
 20
31.1066078647
 30
0.0
 10
28.7731535007
 20
31.2302494598
 30
0.0
  0
SPLINE
  5
3FE
100
AcDbEntity
  8
0
100
AcDbSpline
 62
7
  6
BYLAYER
 70
0
 71
3
 72
14
 73
10
 74
0
 42
0.0000001
 43
0.0000001
 44
0.0000000001
 40
0.0
 40
0.0
 40
0.0
 40
0.0
 40
0.1080446434
 40
0.2181346916
 40
0.3321081795
 40
0.451484779
 40
0.5774341989
 40
0.7107579721
 40
1.0
 40
1.0
 40
1.0
 40
1.0
 10
10.6673426964
 20
54.4865260576
 30
0.0
 10
10.614467962
 20
54.4560005992
 30
0.0
 10
10.5127838766
 20
54.3850904978
 30
0.0
 10
10.3785014287
 20
54.2528470995
 30
0.0
 10
10.2629537641
 20
54.0959776836
 30
0.0
 10
10.1672987378
 20
53.9161611113
 30
0.0
 10
10.0922369189
 20
53.7151841597
 30
0.0
 10
10.0185077267
 20
53.4135821527
 30
0.0
 10
9.999394714
 20
53.1736311632
 30
0.0
 10
9.999394714
 20
53.0101870134
 30
0.0
  0
SPLINE
  5
3FF
100
AcDbEntity
  8
0
100
AcDbSpline
 62
7
  6
BYLAYER
 70
0
 71
3
 72
10
 73
6
 74
0
 42
0.0000001
 43
0.0000001
 44
0.0000000001
 40
0.0
 40
0.0
 40
0.0
 40
0.0
 40
0.2755640545
 40
0.6563609078
 40
1.0
 40
1.0
 40
1.0
 40
1.0
 10
10.5297225919
 20
41.7628609264
 30
0.0
 10
10.5297225919
 20
41.8641408755
 30
0.0
 10
10.5418350276
 20
42.10554456
 30
0.0
 10
10.6122011791
 20
42.4683999611
 30
0.0
 10
10.7185493066
 20
42.715793301
 30
0.0
 10
10.7837483886
 20
42.8239634381
 30
0.0
  0
SPLINE
  5
400
100
AcDbEntity
  8
0
100
AcDbSpline
 62
7
  6
BYLAYER
 70
0
 71
3
 72
21
 73
17
 74
0
 42
0.0000001
 43
0.0000001
 44
0.0000000001
 40
0.0
 40
0.0
 40
0.0
 40
0.0
 40
0.043869488
 40
0.0907433408
 40
0.1413654868
 40
0.196088449
 40
0.2549127307
 40
0.3175686532
 40
0.3835734345
 40
0.4522786809
 40
0.5945550577
 40
0.7377029863
 40
0.8074569397
 40
0.8748718511
 40
0.9392747825
 40
1.0
 40
1.0
 40
1.0
 40
1.0
 10
32.3649315149
 20
38.555819072
 30
0.0
 10
32.2779616306
 20
38.5354562144
 30
0.0
 10
32.092776188
 20
38.5139767762
 30
0.0
 10
31.8044519166
 20
38.5386570986
 30
0.0
 10
31.5033986321
 20
38.6176677514
 30
0.0
 10
31.195022323
 20
38.7492466178
 30
0.0
 10
30.8845598489
 20
38.9306641913
 30
0.0
 10
30.5774779372
 20
39.1585615683
 30
0.0
 10
30.2792829336
 20
39.4288304288
 30
0.0
 10
29.8963853328
 20
39.8437309234
 30
0.0
 10
29.4756489351
 20
40.4333277948
 30
0.0
 10
29.1496489466
 20
41.0824134177
 30
0.0
 10
28.9572872336
 20
41.6203783834
 30
0.0
 10
28.852717587
 20
42.01784784
 30
0.0
 10
28.788682478
 20
42.4051963125
 30
0.0
 10
28.7731535007
 20
42.6601170671
 30
0.0
 10
28.7731535007
 20
42.7837586622
 30
0.0
  0
SPLINE
  5
401
100
AcDbEntity
  8
0
100
AcDbSpline
 62
7
  6
BYLAYER
 70
0
 71
3
 72
14
 73
10
 74
0
 42
0.0000001
 43
0.0000001
 44
0.0000000001
 40
0.0
 40
0.0
 40
0.0
 40
0.0
 40
0.1080446434
 40
0.2181346916
 40
0.3321081795
 40
0.451484779
 40
0.5774341989
 40
0.7107579721
 40
1.0
 40
1.0
 40
1.0
 40
1.0
 10
28.9107736051
 20
43.953914591
 30
0.0
 10
28.8578988708
 20
43.9233891325
 30
0.0
 10
28.7562147854
 20
43.8524790312
 30
0.0
 10
28.6219323375
 20
43.7202356329
 30
0.0
 10
28.5063846729
 20
43.563366217
 30
0.0
 10
28.4107296466
 20
43.3835496446
 30
0.0
 10
28.3356678277
 20
43.182572693
 30
0.0
 10
28.2619386355
 20
42.8809706861
 30
0.0
 10
28.2428256228
 20
42.6410196966
 30
0.0
 10
28.2428256228
 20
42.4775755468
 30
0.0
  0
SPLINE
  5
402
100
AcDbEntity
  8
0
100
AcDbSpline
 62
7
  6
BYLAYER
 70
0
 71
3
 72
10
 73
6
 74
0
 42
0.0000001
 43
0.0000001
 44
0.0000000001
 40
0.0
 40
0.0
 40
0.0
 40
0.0
 40
0.2755651971
 40
0.6563621578
 40
1.0
 40
1.0
 40
1.0
 40
1.0
 10
10.5297225919
 20
53.3163701288
 30
0.0
 10
10.5297225919
 20
53.4176542207
 30
0.0
 10
10.5418359859
 20
53.6590672526
 30
0.0
 10
10.6122078627
 20
54.0219355994
 30
0.0
 10
10.7185650156
 20
54.2693357686
 30
0.0
 10
10.7837694421
 20
54.3775075686
 30
0.0
  0
SPLINE
  5
403
100
AcDbEntity
  8
0
100
AcDbSpline
 62
7
  6
BYLAYER
 70
0
 71
3
 72
9
 73
5
 74
0
 42
0.0000001
 43
0.0000001
 44
0.0000000001
 40
0.0
 40
0.0
 40
0.0
 40
0.0
 40
0.2561011668
 40
1.0
 40
1.0
 40
1.0
 40
1.0
 10
10.7837694421
 20
54.3775075686
 30
0.0
 10
10.7966247845
 20
54.3988341197
 30
0.0
 10
10.8490431909
 20
54.4807362306
 30
0.0
 10
10.9106422116
 20
54.5568570569
 30
0.0
 10
10.9612155682
 20
54.6085693769
 30
0.0
  0
SPLINE
  5
404
100
AcDbEntity
  8
0
100
AcDbSpline
 62
7
  6
BYLAYER
 70
0
 71
3
 72
14
 73
10
 74
0
 42
0.0000001
 43
0.0000001
 44
0.0000000001
 40
0.0
 40
0.0
 40
0.0
 40
0.0
 40
0.1080446434
 40
0.2181346916
 40
0.3321081795
 40
0.451484779
 40
0.5774341989
 40
0.7107579721
 40
1.0
 40
1.0
 40
1.0
 40
1.0
 10
16.7484863326
 20
50.9756555688
 30
0.0
 10
16.6956115983
 20
50.9451301103
 30
0.0
 10
16.5939275129
 20
50.8742200089
 30
0.0
 10
16.4596450649
 20
50.7419766106
 30
0.0
 10
16.3440974003
 20
50.5851071948
 30
0.0
 10
16.2484423741
 20
50.4052906224
 30
0.0
 10
16.1733805552
 20
50.2043136708
 30
0.0
 10
16.099651363
 20
49.9027116638
 30
0.0
 10
16.0805383503
 20
49.6627606743
 30
0.0
 10
16.0805383503
 20
49.4993165245
 30
0.0
  0
SPLINE
  5
405
100
AcDbEntity
  8
0
100
AcDbSpline
 62
7
  6
BYLAYER
 70
0
 71
3
 72
10
 73
6
 74
0
 42
0.0000001
 43
0.0000001
 44
0.0000000001
 40
0.0
 40
0.0
 40
0.0
 40
0.0
 40
0.2755651971
 40
0.6563621578
 40
1.0
 40
1.0
 40
1.0
 40
1.0
 10
22.6920098645
 20
34.7411199487
 30
0.0
 10
22.6920098645
 20
34.8424040406
 30
0.0
 10
22.7041232585
 20
35.0838170725
 30
0.0
 10
22.7744951353
 20
35.4466854193
 30
0.0
 10
22.8808522881
 20
35.6940855885
 30
0.0
 10
22.9460567146
 20
35.8022573885
 30
0.0
  0
SPLINE
  5
406
100
AcDbEntity
  8
0
100
AcDbSpline
 62
7
  6
BYLAYER
 70
0
 71
3
 72
9
 73
5
 74
0
 42
0.0000001
 43
0.0000001
 44
0.0000000001
 40
0.0
 40
0.0
 40
0.0
 40
0.0
 40
0.2561011668
 40
1.0
 40
1.0
 40
1.0
 40
1.0
 10
22.9460567146
 20
35.8022573885
 30
0.0
 10
22.9589120571
 20
35.8235839396
 30
0.0
 10
23.0113304634
 20
35.9054860505
 30
0.0
 10
23.0729294842
 20
35.9816068768
 30
0.0
 10
23.1235028407
 20
36.0333191967
 30
0.0
  0
SPLINE
  5
407
100
AcDbEntity
  8
0
100
AcDbSpline
 62
7
  6
BYLAYER
 70
0
 71
3
 72
21
 73
17
 74
0
 42
0.0000001
 43
0.0000001
 44
0.0000000001
 40
0.0
 40
0.0
 40
0.0
 40
0.0
 40
0.0438024734
 40
0.090579837
 40
0.1410979292
 40
0.1957256018
 40
0.2544738071
 40
0.3170794882
 40
0.3830617224
 40
0.4517719246
 40
0.5941279474
 40
0.7374172722
 40
0.807251064
 40
0.8747433559
 40
0.9392162979
 40
1.0
 40
1.0
 40
1.0
 40
1.0
 10
20.2138489282
 20
45.5802417102
 30
0.0
 10
20.1270537821
 20
45.5590156532
 30
0.0
 10
19.9420333292
 20
45.5358450193
 30
0.0
 10
19.6535112517
 20
45.5583877427
 30
0.0
 10
19.351997171
 20
45.6356278162
 30
0.0
 10
19.042939485
 20
45.7658096078
 30
0.0
 10
18.731605373
 20
45.9461933722
 30
0.0
 10
18.4235097286
 20
46.1734301833
 30
0.0
 10
18.124196628
 20
46.4433910852
 30
0.0
 10
17.7396570839
 20
46.858397383
 30
0.0
 10
17.316964771
 20
47.4488654021
 30
0.0
 10
16.9893707154
 20
48.0993819573
 30
0.0
 10
16.796004188
 20
48.6387766829
 30
0.0
 10
16.6908710636
 20
49.0373782446
 30
0.0
 10
16.6264837323
 20
49.4258444119
 30
0.0
 10
16.6108662282
 20
49.6815066239
 30
0.0
 10
16.6108662282
 20
49.8054996399
 30
0.0
  0
SPLINE
  5
408
100
AcDbEntity
  8
0
100
AcDbSpline
 62
7
  6
BYLAYER
 70
0
 71
3
 72
15
 73
11
 74
0
 42
0.0000001
 43
0.0000001
 44
0.0000000001
 40
0.0
 40
0.0
 40
0.0
 40
0.0
 40
0.1141474765
 40
0.2373368178
 40
0.3669776594
 40
0.5000010819
 40
0.633024354
 40
0.7626647561
 40
0.8858534048
 40
1.0
 40
1.0
 40
1.0
 40
1.0
 10
9.999394714
 20
53.0101870134
 30
0.0
 10
9.999394714
 20
52.8299352575
 30
0.0
 10
10.0324341678
 20
52.4548065618
 30
0.0
 10
10.1640267172
 20
51.8888924414
 30
0.0
 10
10.3749301683
 20
51.3156794402
 30
0.0
 10
10.6571043061
 20
50.7567067972
 30
0.0
 10
11.0001038523
 20
50.2328527081
 30
0.0
 10
11.391070326
 20
49.7636020589
 30
0.0
 10
11.8153702702
 20
49.3666873578
 30
0.0
 10
12.1237213003
 20
49.1505139378
 30
0.0
 10
12.2798235776
 20
49.0603902848
 30
0.0
  0
SPLINE
  5
409
100
AcDbEntity
  8
0
100
AcDbSpline
 62
7
  6
BYLAYER
 70
0
 71
3
 72
23
 73
19
 74
0
 42
0.0000001
 43
0.0000001
 44
0.0000000001
 40
0.0
 40
0.0
 40
0.0
 40
0.0
 40
0.0623730049
 40
0.1287527367
 40
0.1983490928
 40
0.2703360697
 40
0.3437253507
 40
0.4174667346
 40
0.4905021758
 40
0.5618007419
 40
0.6304103616
 40
0.6955075686
 40
0.7564653471
 40
0.8129126368
 40
0.8648205583
 40
0.9126039311
 40
0.957186533
 40
1.0
 40
1.0
 40
1.0
 40
1.0
 10
9.999394714
 20
41.456677811
 30
0.0
 10
9.999394714
 20
41.3229288316
 30
0.0
 10
10.0175692681
 20
41.0466593567
 30
0.0
 10
10.0920833807
 20
40.6271907471
 30
0.0
 10
10.2133752551
 20
40.1973443201
 30
0.0
 10
10.3787371088
 20
39.7664090128
 30
0.0
 10
10.5846232399
 20
39.3434197365
 30
0.0
 10
10.8266900455
 20
38.9374324902
 30
0.0
 10
11.0997897119
 20
38.5571234625
 30
0.0
 10
11.3980565877
 20
38.2105552163
 30
0.0
 10
11.7151844948
 20
37.9051157307
 30
0.0
 10
12.0445235004
 20
37.6473148794
 30
0.0
 10
12.3791871345
 20
37.4425561415
 30
0.0
 10
12.7124058399
 20
37.2952746807
 30
0.0
 10
13.0375535322
 20
37.208916718
 30
0.0
 10
13.348223947
 20
37.1860287926
 30
0.0
 10
13.6375410424
 20
37.2284225296
 30
0.0
 10
13.8127963942
 20
37.3012845796
 30
0.0
 10
13.8923044589
 20
37.3471859001
 30
0.0
  0
SPLINE
  5
40A
100
AcDbEntity
  8
0
100
AcDbSpline
 62
7
  6
BYLAYER
 70
0
 71
3
 72
21
 73
17
 74
0
 42
0.0000001
 43
0.0000001
 44
0.0000000001
 40
0.0
 40
0.0
 40
0.0
 40
0.0
 40
0.043869488
 40
0.0907433408
 40
0.1413654868
 40
0.196088449
 40
0.2549127307
 40
0.3175686532
 40
0.3835734345
 40
0.4522786809
 40
0.5945550577
 40
0.7377029863
 40
0.8074569397
 40
0.8748718511
 40
0.9392747825
 40
1.0
 40
1.0
 40
1.0
 40
1.0
 10
20.2026442423
 20
34.0240508473
 30
0.0
 10
20.1156743581
 20
34.0036879897
 30
0.0
 10
19.9304889155
 20
33.9822085516
 30
0.0
 10
19.6421646441
 20
34.006888874
 30
0.0
 10
19.3411113596
 20
34.0858995268
 30
0.0
 10
19.0327350505
 20
34.2174783932
 30
0.0
 10
18.7222725764
 20
34.3988959666
 30
0.0
 10
18.4151906647
 20
34.6267933437
 30
0.0
 10
18.116995661
 20
34.8970622042
 30
0.0
 10
17.7340980602
 20
35.3119626988
 30
0.0
 10
17.3133616626
 20
35.9015595701
 30
0.0
 10
16.9873616741
 20
36.5506451931
 30
0.0
 10
16.7949999611
 20
37.0886101588
 30
0.0
 10
16.6904303145
 20
37.4860796154
 30
0.0
 10
16.6263952055
 20
37.8734280878
 30
0.0
 10
16.6108662282
 20
38.1283488424
 30
0.0
 10
16.6108662282
 20
38.2519904375
 30
0.0
  0
SPLINE
  5
40B
100
AcDbEntity
  8
0
100
AcDbSpline
 62
7
  6
BYLAYER
 70
0
 71
3
 72
10
 73
6
 74
0
 42
0.0000001
 43
0.0000001
 44
0.0000000001
 40
0.0
 40
0.0
 40
0.0
 40
0.0
 40
0.2755651971
 40
0.6563621578
 40
1.0
 40
1.0
 40
1.0
 40
1.0
 10
28.7731535007
 20
31.2302494598
 30
0.0
 10
28.7731535007
 20
31.3315335517
 30
0.0
 10
28.7852668947
 20
31.5729465836
 30
0.0
 10
28.8556387715
 20
31.9358149304
 30
0.0
 10
28.9619959244
 20
32.1832150996
 30
0.0
 10
29.0272003509
 20
32.2913868996
 30
0.0
  0
SPLINE
  5
40C
100
AcDbEntity
  8
0
100
AcDbSpline
 62
7
  6
BYLAYER
 70
0
 71
3
 72
9
 73
5
 74
0
 42
0.0000001
 43
0.0000001
 44
0.0000000001
 40
0.0
 40
0.0
 40
0.0
 40
0.0
 40
0.2561011668
 40
1.0
 40
1.0
 40
1.0
 40
1.0
 10
29.0272003509
 20
32.2913868996
 30
0.0
 10
29.0400556933
 20
32.3127134507
 30
0.0
 10
29.0924740996
 20
32.3946155616
 30
0.0
 10
29.1540731204
 20
32.4707363879
 30
0.0
 10
29.204646477
 20
32.5224487079
 30
0.0
  0
SPLINE
  5
40D
100
AcDbEntity
  8
0
100
AcDbSpline
 62
7
  6
BYLAYER
 70
0
 71
3
 72
14
 73
10
 74
0
 42
0.0000001
 43
0.0000001
 44
0.0000000001
 40
0.0
 40
0.0
 40
0.0
 40
0.0
 40
0.1080446434
 40
0.2181346916
 40
0.3321081795
 40
0.451484779
 40
0.5774341989
 40
0.7107579721
 40
1.0
 40
1.0
 40
1.0
 40
1.0
 10
28.9107736051
 20
32.4004053886
 30
0.0
 10
28.8578988708
 20
32.3698799301
 30
0.0
 10
28.7562147854
 20
32.2989698288
 30
0.0
 10
28.6219323375
 20
32.1667264305
 30
0.0
 10
28.5063846729
 20
32.0098570146
 30
0.0
 10
28.4107296466
 20
31.8300404423
 30
0.0
 10
28.3356678277
 20
31.6290634907
 30
0.0
 10
28.2619386355
 20
31.3274614837
 30
0.0
 10
28.2428256228
 20
31.0875104942
 30
0.0
 10
28.2428256228
 20
30.9240663444
 30
0.0
  0
SPLINE
  5
40E
100
AcDbEntity
  8
0
100
AcDbSpline
 62
7
  6
BYLAYER
 70
0
 71
3
 72
23
 73
19
 74
0
 42
0.0000001
 43
0.0000001
 44
0.0000000001
 40
0.0
 40
0.0
 40
0.0
 40
0.0
 40
0.0623730049
 40
0.1287527367
 40
0.1983490928
 40
0.2703360697
 40
0.3437253507
 40
0.4174667346
 40
0.4905021758
 40
0.5618007419
 40
0.6304103616
 40
0.6955075686
 40
0.7564653471
 40
0.8129126368
 40
0.8648205583
 40
0.9126039311
 40
0.957186533
 40
1.0
 40
1.0
 40
1.0
 40
1.0
 10
16.0805383503
 20
37.9458073221
 30
0.0
 10
16.0805383503
 20
37.8120583427
 30
0.0
 10
16.0987129044
 20
37.5357888678
 30
0.0
 10
16.173227017
 20
37.1163202583
 30
0.0
 10
16.2945188914
 20
36.6864738312
 30
0.0
 10
16.4598807451
 20
36.255538524
 30
0.0
 10
16.6657668761
 20
35.8325492476
 30
0.0
 10
16.9078336817
 20
35.4265620013
 30
0.0
 10
17.1809333482
 20
35.0462529736
 30
0.0
 10
17.479200224
 20
34.6996847274
 30
0.0
 10
17.796328131
 20
34.3942452418
 30
0.0
 10
18.1256671367
 20
34.1364443905
 30
0.0
 10
18.4603307708
 20
33.9316856526
 30
0.0
 10
18.7935494761
 20
33.7844041918
 30
0.0
 10
19.1186971685
 20
33.6980462291
 30
0.0
 10
19.4293675832
 20
33.6751583037
 30
0.0
 10
19.7186846787
 20
33.7175520407
 30
0.0
 10
19.8939400305
 20
33.7904140907
 30
0.0
 10
19.9734480952
 20
33.8363154112
 30
0.0
  0
SPLINE
  5
40F
100
AcDbEntity
  8
0
100
AcDbSpline
 62
7
  6
BYLAYER
 70
0
 71
3
 72
14
 73
10
 74
0
 42
0.0000001
 43
0.0000001
 44
0.0000000001
 40
0.0
 40
0.0
 40
0.0
 40
0.0
 40
0.1080253167
 40
0.2181265988
 40
0.3321266764
 40
0.451530545
 40
0.5774971317
 40
0.7108218491
 40
1.0
 40
1.0
 40
1.0
 40
1.0
 10
16.7449414129
 20
39.4200908302
 30
0.0
 10
16.6923204002
 20
39.3894426992
 30
0.0
 10
16.5911446337
 20
39.3183431687
 30
0.0
 10
16.4575752651
 20
39.1860180261
 30
0.0
 10
16.342654329
 20
39.0292324719
 30
0.0
 10
16.2475214217
 20
38.849654844
 30
0.0
 10
16.1728716132
 20
38.6490529325
 30
0.0
 10
16.0995554931
 20
38.3481506817
 30
0.0
 10
16.0805383503
 20
38.1088217801
 30
0.0
 10
16.0805383503
 20
37.9458073221
 30
0.0
  0
SPLINE
  5
410
100
AcDbEntity
  8
0
100
AcDbSpline
 62
7
  6
BYLAYER
 70
0
 71
3
 72
14
 73
10
 74
0
 42
0.0000001
 43
0.0000001
 44
0.0000000001
 40
0.0
 40
0.0
 40
0.0
 40
0.0
 40
0.2892465103
 40
0.4225697622
 40
0.5485168638
 40
0.6678914139
 40
0.7818640907
 40
0.891953856
 40
1.0
 40
1.0
 40
1.0
 40
1.0
 10
18.3609672139
 20
45.5495197959
 30
0.0
 10
18.502513038
 20
45.467800125
 30
0.0
 10
18.7198709601
 20
45.36438252
 30
0.0
 10
19.0179240216
 20
45.2774385201
 30
0.0
 10
19.2294980204
 20
45.2419594239
 30
0.0
 10
19.4330425729
 20
45.2348961541
 30
0.0
 10
19.6266623942
 20
45.2565252531
 30
0.0
 10
19.8083242945
 20
45.3066964379
 30
0.0
 10
19.920574845
 20
45.3592982946
 30
0.0
 10
19.9734481418
 20
45.3898245264
 30
0.0
  0
SPLINE
  5
411
100
AcDbEntity
  8
0
100
AcDbSpline
 62
7
  6
BYLAYER
 70
0
 71
3
 72
21
 73
17
 74
0
 42
0.0000001
 43
0.0000001
 44
0.0000000001
 40
0.0
 40
0.0
 40
0.0
 40
0.0
 40
0.043869488
 40
0.0907433408
 40
0.1413654868
 40
0.196088449
 40
0.2549127307
 40
0.3175686532
 40
0.3835734345
 40
0.4522786809
 40
0.5945550577
 40
0.7377029863
 40
0.8074569397
 40
0.8748718511
 40
0.9392747825
 40
1.0
 40
1.0
 40
1.0
 40
1.0
 10
26.2837878786
 20
30.5131803585
 30
0.0
 10
26.1968179944
 20
30.4928175009
 30
0.0
 10
26.0116325517
 20
30.4713380627
 30
0.0
 10
25.7233082804
 20
30.4960183851
 30
0.0
 10
25.4222549958
 20
30.5750290379
 30
0.0
 10
25.1138786867
 20
30.7066079043
 30
0.0
 10
24.8034162127
 20
30.8880254778
 30
0.0
 10
24.4963343009
 20
31.1159228548
 30
0.0
 10
24.1981392973
 20
31.3861917153
 30
0.0
 10
23.8152416965
 20
31.8010922099
 30
0.0
 10
23.3945052989
 20
32.3906890812
 30
0.0
 10
23.0685053103
 20
33.0397747042
 30
0.0
 10
22.8761435974
 20
33.5777396699
 30
0.0
 10
22.7715739507
 20
33.9752091265
 30
0.0
 10
22.7075388417
 20
34.362557599
 30
0.0
 10
22.6920098645
 20
34.6174783535
 30
0.0
 10
22.6920098645
 20
34.7411199487
 30
0.0
  0
SPLINE
  5
412
100
AcDbEntity
  8
0
100
AcDbSpline
 62
7
  6
BYLAYER
 70
0
 71
3
 72
15
 73
11
 74
0
 42
0.0000001
 43
0.0000001
 44
0.0000000001
 40
0.0
 40
0.0
 40
0.0
 40
0.0
 40
0.1141474765
 40
0.2373368178
 40
0.3669776594
 40
0.5000010819
 40
0.633024354
 40
0.7626647561
 40
0.8858534048
 40
1.0
 40
1.0
 40
1.0
 40
1.0
 10
16.0805383503
 20
49.4993165245
 30
0.0
 10
16.0805383503
 20
49.3190647687
 30
0.0
 10
16.1135778041
 20
48.9439360729
 30
0.0
 10
16.2451703535
 20
48.3780219525
 30
0.0
 10
16.4560738045
 20
47.8048089513
 30
0.0
 10
16.7382479424
 20
47.2458363083
 30
0.0
 10
17.0812474886
 20
46.7219822192
 30
0.0
 10
17.4722139623
 20
46.2527315701
 30
0.0
 10
17.8965139064
 20
45.855816869
 30
0.0
 10
18.2048649366
 20
45.6396434489
 30
0.0
 10
18.3609672139
 20
45.5495197959
 30
0.0
  0
SPLINE
  5
413
100
AcDbEntity
  8
0
100
AcDbSpline
 62
7
  6
BYLAYER
 70
0
 71
3
 72
14
 73
10
 74
0
 42
0.0000001
 43
0.0000001
 44
0.0000000001
 40
0.0
 40
0.0
 40
0.0
 40
0.0
 40
0.2892465103
 40
0.4225697622
 40
0.5485168638
 40
0.6678914139
 40
0.7818640907
 40
0.891953856
 40
1.0
 40
1.0
 40
1.0
 40
1.0
 10
12.2798235776
 20
49.0603902848
 30
0.0
 10
12.4213694018
 20
48.9786706139
 30
0.0
 10
12.6387273238
 20
48.8752530089
 30
0.0
 10
12.9367803853
 20
48.788309009
 30
0.0
 10
13.1483543841
 20
48.7528299127
 30
0.0
 10
13.3518989366
 20
48.745766643
 30
0.0
 10
13.5455187579
 20
48.767395742
 30
0.0
 10
13.7271806583
 20
48.8175669268
 30
0.0
 10
13.8394312088
 20
48.8701687835
 30
0.0
 10
13.8923045056
 20
48.9006950153
 30
0.0
  0
SPLINE
  5
414
100
AcDbEntity
  8
0
100
AcDbSpline
 62
7
  6
BYLAYER
 70
0
 71
3
 72
21
 73
17
 74
0
 42
0.0000001
 43
0.0000001
 44
0.0000000001
 40
0.0
 40
0.0
 40
0.0
 40
0.0
 40
0.043869488
 40
0.0907433408
 40
0.1413654868
 40
0.196088449
 40
0.2549127307
 40
0.3175686532
 40
0.3835734345
 40
0.4522786809
 40
0.5945550577
 40
0.7377029863
 40
0.8074569397
 40
0.8748718511
 40
0.9392747825
 40
1.0
 40
1.0
 40
1.0
 40
1.0
 10
14.1215006061
 20
37.5349213362
 30
0.0
 10
14.0345307218
 20
37.5145584786
 30
0.0
 10
13.8493452792
 20
37.4930790405
 30
0.0
 10
13.5610210078
 20
37.5177593629
 30
0.0
 10
13.2599677233
 20
37.5967700157
 30
0.0
 10
12.9515914142
 20
37.728348882
 30
0.0
 10
12.6411289401
 20
37.9097664555
 30
0.0
 10
12.3340470284
 20
38.1376638326
 30
0.0
 10
12.0358520248
 20
38.4079326931
 30
0.0
 10
11.652954424
 20
38.8228331876
 30
0.0
 10
11.2322180264
 20
39.412430059
 30
0.0
 10
10.9062180378
 20
40.061515682
 30
0.0
 10
10.7138563248
 20
40.5994806476
 30
0.0
 10
10.6092866782
 20
40.9969501043
 30
0.0
 10
10.5452515692
 20
41.3842985767
 30
0.0
 10
10.5297225919
 20
41.6392193313
 30
0.0
 10
10.5297225919
 20
41.7628609264
 30
0.0
  0
SPLINE
  5
415
100
AcDbEntity
  8
0
100
AcDbSpline
 62
7
  6
BYLAYER
 70
0
 71
3
 72
10
 73
6
 74
0
 42
0.0000001
 43
0.0000001
 44
0.0000000001
 40
0.0
 40
0.0
 40
0.0
 40
0.0
 40
0.2755651971
 40
0.6563621578
 40
1.0
 40
1.0
 40
1.0
 40
1.0
 10
22.6920098645
 20
46.294629151
 30
0.0
 10
22.6920098645
 20
46.395913243
 30
0.0
 10
22.7041232585
 20
46.6373262749
 30
0.0
 10
22.7744951353
 20
47.0001946217
 30
0.0
 10
22.8808522881
 20
47.2475947908
 30
0.0
 10
22.9460567146
 20
47.3557665908
 30
0.0
  0
SPLINE
  5
416
100
AcDbEntity
  8
0
100
AcDbSpline
 62
7
  6
BYLAYER
 70
0
 71
3
 72
9
 73
5
 74
0
 42
0.0000001
 43
0.0000001
 44
0.0000000001
 40
0.0
 40
0.0
 40
0.0
 40
0.0
 40
0.2561011668
 40
1.0
 40
1.0
 40
1.0
 40
1.0
 10
22.9460567146
 20
47.3557665908
 30
0.0
 10
22.9589120571
 20
47.3770931419
 30
0.0
 10
23.0113304634
 20
47.4589952529
 30
0.0
 10
23.0729294842
 20
47.5351160791
 30
0.0
 10
23.1235028407
 20
47.5868283991
 30
0.0
  0
SPLINE
  5
417
100
AcDbEntity
  8
0
100
AcDbSpline
 62
7
  6
BYLAYER
 70
0
 71
3
 72
23
 73
19
 74
0
 42
0.0000001
 43
0.0000001
 44
0.0000000001
 40
0.0
 40
0.0
 40
0.0
 40
0.0
 40
0.0623730049
 40
0.1287527367
 40
0.1983490928
 40
0.2703360697
 40
0.3437253507
 40
0.4174667346
 40
0.4905021758
 40
0.5618007419
 40
0.6304103616
 40
0.6955075686
 40
0.7564653471
 40
0.8129126368
 40
0.8648205583
 40
0.9126039311
 40
0.957186533
 40
1.0
 40
1.0
 40
1.0
 40
1.0
 10
28.2428256228
 20
42.4775755468
 30
0.0
 10
28.2428256228
 20
42.3438265674
 30
0.0
 10
28.2610001769
 20
42.0675570924
 30
0.0
 10
28.3355142895
 20
41.6480884829
 30
0.0
 10
28.4568061639
 20
41.2182420558
 30
0.0
 10
28.6221680176
 20
40.7873067486
 30
0.0
 10
28.8280541487
 20
40.3643174722
 30
0.0
 10
29.0701209543
 20
39.9583302259
 30
0.0
 10
29.3432206207
 20
39.5780211982
 30
0.0
 10
29.6414874965
 20
39.231452952
 30
0.0
 10
29.9586154035
 20
38.9260134665
 30
0.0
 10
30.2879544092
 20
38.6682126151
 30
0.0
 10
30.6226180433
 20
38.4634538773
 30
0.0
 10
30.9558367486
 20
38.3161724164
 30
0.0
 10
31.280984441
 20
38.2298144537
 30
0.0
 10
31.5916548558
 20
38.2069265284
 30
0.0
 10
31.8809719512
 20
38.2493202653
 30
0.0
 10
32.056227303
 20
38.3221823153
 30
0.0
 10
32.1357353677
 20
38.3680836359
 30
0.0
  0
SPLINE
  5
418
100
AcDbEntity
  8
0
100
AcDbSpline
 62
7
  6
BYLAYER
 70
0
 71
3
 72
14
 73
10
 74
0
 42
0.0000001
 43
0.0000001
 44
0.0000000001
 40
0.0
 40
0.0
 40
0.0
 40
0.0
 40
0.1080253167
 40
0.2181265988
 40
0.3321266764
 40
0.451530545
 40
0.5774971317
 40
0.7108218491
 40
1.0
 40
1.0
 40
1.0
 40
1.0
 10
10.6637977767
 20
42.930961319
 30
0.0
 10
10.6111767639
 20
42.900313188
 30
0.0
 10
10.5100009974
 20
42.8292136576
 30
0.0
 10
10.3764316288
 20
42.696888515
 30
0.0
 10
10.2615106927
 20
42.5401029608
 30
0.0
 10
10.1663777854
 20
42.3605253329
 30
0.0
 10
10.0917279769
 20
42.1599234214
 30
0.0
 10
10.0184118569
 20
41.8590211706
 30
0.0
 10
9.999394714
 20
41.6196922689
 30
0.0
 10
9.999394714
 20
41.456677811
 30
0.0
  0
SPLINE
  5
419
100
AcDbEntity
  8
0
100
AcDbSpline
 62
7
  6
BYLAYER
 70
0
 71
3
 72
23
 73
19
 74
0
 42
0.0000001
 43
0.0000001
 44
0.0000000001
 40
0.0
 40
0.0
 40
0.0
 40
0.0
 40
0.0623730049
 40
0.1287527367
 40
0.1983490928
 40
0.2703360697
 40
0.3437253507
 40
0.4174667346
 40
0.4905021758
 40
0.5618007419
 40
0.6304103616
 40
0.6955075686
 40
0.7564653471
 40
0.8129126368
 40
0.8648205583
 40
0.9126039311
 40
0.957186533
 40
1.0
 40
1.0
 40
1.0
 40
1.0
 10
22.1616819866
 20
45.9884460356
 30
0.0
 10
22.1616819866
 20
45.8546970562
 30
0.0
 10
22.1798565407
 20
45.5784275813
 30
0.0
 10
22.2543706532
 20
45.1589589718
 30
0.0
 10
22.3756625276
 20
44.7291125447
 30
0.0
 10
22.5410243814
 20
44.2981772375
 30
0.0
 10
22.7469105124
 20
43.8751879611
 30
0.0
 10
22.988977318
 20
43.4692007148
 30
0.0
 10
23.2620769845
 20
43.0888916871
 30
0.0
 10
23.5603438602
 20
42.7423234409
 30
0.0
 10
23.8774717673
 20
42.4368839553
 30
0.0
 10
24.2068107729
 20
42.179083104
 30
0.0
 10
24.5414744071
 20
41.9743243661
 30
0.0
 10
24.8746931124
 20
41.8270429053
 30
0.0
 10
25.1998408048
 20
41.7406849426
 30
0.0
 10
25.5105112195
 20
41.7177970173
 30
0.0
 10
25.7998283149
 20
41.7601907542
 30
0.0
 10
25.9750836667
 20
41.8330528042
 30
0.0
 10
26.0545917314
 20
41.8789541247
 30
0.0
  0
SPLINE
  5
41A
100
AcDbEntity
  8
0
100
AcDbSpline
 62
7
  6
BYLAYER
 70
0
 71
3
 72
14
 73
10
 74
0
 42
0.0000001
 43
0.0000001
 44
0.0000000001
 40
0.0
 40
0.0
 40
0.0
 40
0.0
 40
0.1080446434
 40
0.2181346916
 40
0.3321081795
 40
0.451484779
 40
0.5774341989
 40
0.7107579721
 40
1.0
 40
1.0
 40
1.0
 40
1.0
 10
22.8296299689
 20
35.9112758775
 30
0.0
 10
22.7767552346
 20
35.880750419
 30
0.0
 10
22.6750711491
 20
35.8098403176
 30
0.0
 10
22.5407887012
 20
35.6775969194
 30
0.0
 10
22.4252410366
 20
35.5207275035
 30
0.0
 10
22.3295860103
 20
35.3409109311
 30
0.0
 10
22.2545241915
 20
35.1399339795
 30
0.0
 10
22.1807949992
 20
34.8383319725
 30
0.0
 10
22.1616819866
 20
34.5983809831
 30
0.0
 10
22.1616819866
 20
34.4349368333
 30
0.0
  0
SPLINE
  5
41B
100
AcDbEntity
  8
0
100
AcDbSpline
 62
7
  6
BYLAYER
 70
0
 71
3
 72
23
 73
19
 74
0
 42
0.0000001
 43
0.0000001
 44
0.0000000001
 40
0.0
 40
0.0
 40
0.0
 40
0.0
 40
0.0623730049
 40
0.1287527367
 40
0.1983490928
 40
0.2703360697
 40
0.3437253507
 40
0.4174667346
 40
0.4905021758
 40
0.5618007419
 40
0.6304103616
 40
0.6955075686
 40
0.7564653471
 40
0.8129126368
 40
0.8648205583
 40
0.9126039311
 40
0.957186533
 40
1.0
 40
1.0
 40
1.0
 40
1.0
 10
28.2428256228
 20
30.9240663444
 30
0.0
 10
28.2428256228
 20
30.790317365
 30
0.0
 10
28.2610001769
 20
30.5140478901
 30
0.0
 10
28.3355142895
 20
30.0945792805
 30
0.0
 10
28.4568061639
 20
29.6647328534
 30
0.0
 10
28.6221680176
 20
29.2337975462
 30
0.0
 10
28.8280541487
 20
28.8108082698
 30
0.0
 10
29.0701209543
 20
28.4048210236
 30
0.0
 10
29.3432206207
 20
28.0245119959
 30
0.0
 10
29.6414874965
 20
27.6779437497
 30
0.0
 10
29.9586154035
 20
27.3725042641
 30
0.0
 10
30.2879544092
 20
27.1147034127
 30
0.0
 10
30.6226180433
 20
26.9099446749
 30
0.0
 10
30.9558367486
 20
26.762663214
 30
0.0
 10
31.280984441
 20
26.6763052514
 30
0.0
 10
31.5916548558
 20
26.653417326
 30
0.0
 10
31.8809719512
 20
26.6958110629
 30
0.0
 10
32.056227303
 20
26.768673113
 30
0.0
 10
32.1357353677
 20
26.8145744335
 30
0.0
  0
SPLINE
  5
41C
100
AcDbEntity
  8
0
100
AcDbSpline
 62
7
  6
BYLAYER
 70
0
 71
3
 72
23
 73
19
 74
0
 42
0.0000001
 43
0.0000001
 44
0.0000000001
 40
0.0
 40
0.0
 40
0.0
 40
0.0
 40
0.0623730049
 40
0.1287527367
 40
0.1983490928
 40
0.2703360697
 40
0.3437253507
 40
0.4174667346
 40
0.4905021758
 40
0.5618007419
 40
0.6304103616
 40
0.6955075686
 40
0.7564653471
 40
0.8129126368
 40
0.8648205583
 40
0.9126039311
 40
0.957186533
 40
1.0
 40
1.0
 40
1.0
 40
1.0
 10
22.1616819866
 20
34.4349368333
 30
0.0
 10
22.1616819866
 20
34.3011878538
 30
0.0
 10
22.1798565407
 20
34.0249183789
 30
0.0
 10
22.2543706532
 20
33.6054497694
 30
0.0
 10
22.3756625276
 20
33.1756033423
 30
0.0
 10
22.5410243814
 20
32.7446680351
 30
0.0
 10
22.7469105124
 20
32.3216787587
 30
0.0
 10
22.988977318
 20
31.9156915124
 30
0.0
 10
23.2620769845
 20
31.5353824847
 30
0.0
 10
23.5603438602
 20
31.1888142385
 30
0.0
 10
23.8774717673
 20
30.883374753
 30
0.0
 10
24.2068107729
 20
30.6255739016
 30
0.0
 10
24.5414744071
 20
30.4208151638
 30
0.0
 10
24.8746931124
 20
30.2735337029
 30
0.0
 10
25.1998408048
 20
30.1871757402
 30
0.0
 10
25.5105112195
 20
30.1642878149
 30
0.0
 10
25.7998283149
 20
30.2066815518
 30
0.0
 10
25.9750836667
 20
30.2795436018
 30
0.0
 10
26.0545917314
 20
30.3254449224
 30
0.0
  0
SPLINE
  5
41D
100
AcDbEntity
  8
0
100
AcDbSpline
 62
7
  6
BYLAYER
 70
0
 71
3
 72
10
 73
6
 74
0
 42
0.0000001
 43
0.0000001
 44
0.0000000001
 40
0.0
 40
0.0
 40
0.0
 40
0.0
 40
0.2755651971
 40
0.6563621578
 40
1.0
 40
1.0
 40
1.0
 40
1.0
 10
28.7731535007
 20
42.7837586622
 30
0.0
 10
28.7731535007
 20
42.8850427541
 30
0.0
 10
28.7852668947
 20
43.126455786
 30
0.0
 10
28.8556387715
 20
43.4893241328
 30
0.0
 10
28.9619959244
 20
43.736724302
 30
0.0
 10
29.0272003509
 20
43.844896102
 30
0.0
  0
SPLINE
  5
41E
100
AcDbEntity
  8
0
100
AcDbSpline
 62
7
  6
BYLAYER
 70
0
 71
3
 72
9
 73
5
 74
0
 42
0.0000001
 43
0.0000001
 44
0.0000000001
 40
0.0
 40
0.0
 40
0.0
 40
0.0
 40
0.2561011668
 40
1.0
 40
1.0
 40
1.0
 40
1.0
 10
29.0272003509
 20
43.844896102
 30
0.0
 10
29.0400556933
 20
43.8662226531
 30
0.0
 10
29.0924740996
 20
43.948124764
 30
0.0
 10
29.1540731204
 20
44.0242455903
 30
0.0
 10
29.204646477
 20
44.0759579102
 30
0.0
  0
SPLINE
  5
41F
100
AcDbEntity
  8
0
100
AcDbSpline
 62
7
  6
BYLAYER
 70
0
 71
3
 72
21
 73
17
 74
0
 42
0.0000001
 43
0.0000001
 44
0.0000000001
 40
0.0
 40
0.0
 40
0.0
 40
0.0
 40
0.0438024734
 40
0.090579837
 40
0.1410979292
 40
0.1957256018
 40
0.2544738071
 40
0.3170794882
 40
0.3830617224
 40
0.4517719246
 40
0.5941279474
 40
0.7374172722
 40
0.807251064
 40
0.8747433559
 40
0.9392162979
 40
1.0
 40
1.0
 40
1.0
 40
1.0
 10
14.1327052919
 20
49.0911121991
 30
0.0
 10
14.0459101458
 20
49.0698861421
 30
0.0
 10
13.860889693
 20
49.0467155082
 30
0.0
 10
13.5723676155
 20
49.0692582316
 30
0.0
 10
13.2708535347
 20
49.146498305
 30
0.0
 10
12.9617958488
 20
49.2766800966
 30
0.0
 10
12.6504617368
 20
49.4570638611
 30
0.0
 10
12.3423660924
 20
49.6843006722
 30
0.0
 10
12.0430529918
 20
49.9542615741
 30
0.0
 10
11.6585134476
 20
50.3692678719
 30
0.0
 10
11.2358211348
 20
50.959735891
 30
0.0
 10
10.9082270791
 20
51.6102524462
 30
0.0
 10
10.7148605518
 20
52.1496471717
 30
0.0
 10
10.6097274274
 20
52.5482487335
 30
0.0
 10
10.545340096
 20
52.9367149007
 30
0.0
 10
10.5297225919
 20
53.1923771128
 30
0.0
 10
10.5297225919
 20
53.3163701288
 30
0.0
  0
SPLINE
  5
420
100
AcDbEntity
  8
0
100
AcDbSpline
 62
7
  6
BYLAYER
 70
0
 71
3
 72
9
 73
5
 74
0
 42
0.0000001
 43
0.0000001
 44
0.0000000001
 40
0.0
 40
0.0
 40
0.0
 40
0.0
 40
0.2798205437
 40
1.0
 40
1.0
 40
1.0
 40
1.0
 10
12.2798014979
 20
60.1239323792
 30
0.0
 10
12.2678798568
 20
60.1308151862
 30
0.0
 10
12.2267758304
 20
60.1575507516
 30
0.0
 10
12.1911883766
 20
60.1953213801
 30
0.0
 10
12.1762731333
 20
60.2274582683
 30
0.0
  0
SPLINE
  5
421
100
AcDbEntity
  8
0
100
AcDbSpline
 62
7
  6
BYLAYER
 70
0
 71
3
 72
21
 73
17
 74
0
 42
0.0000001
 43
0.0000001
 44
0.0000000001
 40
0.0
 40
0.0
 40
0.0
 40
0.0
 40
0.043869488
 40
0.0907433408
 40
0.1413654868
 40
0.196088449
 40
0.2549127307
 40
0.3175686532
 40
0.3835734345
 40
0.4522786809
 40
0.5945550577
 40
0.7377029863
 40
0.8074569397
 40
0.8748718511
 40
0.9392747825
 40
1.0
 40
1.0
 40
1.0
 40
1.0
 10
26.2837878786
 20
42.0666895608
 30
0.0
 10
26.1968179944
 20
42.0463267033
 30
0.0
 10
26.0116325517
 20
42.0248472651
 30
0.0
 10
25.7233082804
 20
42.0495275875
 30
0.0
 10
25.4222549958
 20
42.1285382403
 30
0.0
 10
25.1138786867
 20
42.2601171067
 30
0.0
 10
24.8034162127
 20
42.4415346802
 30
0.0
 10
24.4963343009
 20
42.6694320572
 30
0.0
 10
24.1981392973
 20
42.9397009177
 30
0.0
 10
23.8152416965
 20
43.3546014123
 30
0.0
 10
23.3945052989
 20
43.9441982836
 30
0.0
 10
23.0685053103
 20
44.5932839066
 30
0.0
 10
22.8761435974
 20
45.1312488723
 30
0.0
 10
22.7715739507
 20
45.5287183289
 30
0.0
 10
22.7075388417
 20
45.9160668014
 30
0.0
 10
22.6920098645
 20
46.1709875559
 30
0.0
 10
22.6920098645
 20
46.294629151
 30
0.0
  0
SPLINE
  5
422
100
AcDbEntity
  8
0
100
AcDbSpline
 62
7
  6
BYLAYER
 70
0
 71
3
 72
10
 73
6
 74
0
 42
0.0000001
 43
0.0000001
 44
0.0000000001
 40
0.0
 40
0.0
 40
0.0
 40
0.0
 40
0.2755651971
 40
0.6563621578
 40
1.0
 40
1.0
 40
1.0
 40
1.0
 10
16.6108662282
 20
49.8054996399
 30
0.0
 10
16.6108662282
 20
49.9067837319
 30
0.0
 10
16.6229796222
 20
50.1481967637
 30
0.0
 10
16.693351499
 20
50.5110651105
 30
0.0
 10
16.7997086519
 20
50.7584652797
 30
0.0
 10
16.8649130784
 20
50.8666370797
 30
0.0
  0
SPLINE
  5
423
100
AcDbEntity
  8
0
100
AcDbSpline
 62
7
  6
BYLAYER
 70
0
 71
3
 72
9
 73
5
 74
0
 42
0.0000001
 43
0.0000001
 44
0.0000000001
 40
0.0
 40
0.0
 40
0.0
 40
0.0
 40
0.2561011668
 40
1.0
 40
1.0
 40
1.0
 40
1.0
 10
16.8649130784
 20
50.8666370797
 30
0.0
 10
16.8777684208
 20
50.8879636308
 30
0.0
 10
16.9301868271
 20
50.9698657418
 30
0.0
 10
16.9917858479
 20
51.045986568
 30
0.0
 10
17.0423592044
 20
51.097698888
 30
0.0
  0
SPLINE
  5
424
100
AcDbEntity
  8
0
100
AcDbSpline
 62
7
  6
BYLAYER
 70
0
 71
3
 72
11
 73
7
 74
0
 42
0.0000001
 43
0.0000001
 44
0.0000000001
 40
0.0
 40
0.0
 40
0.0
 40
0.0
 40
0.289702809
 40
0.549088757
 40
0.7822160314
 40
1.0
 40
1.0
 40
1.0
 40
1.0
 10
55.9083208084
 20
55.5517156341
 30
0.0
 10
55.9521990097
 20
55.5770485742
 30
0.0
 10
56.0394868891
 20
55.6185739533
 30
0.0
 10
56.1736502414
 20
55.6509731883
 30
0.0
 10
56.2995348577
 20
55.6477868886
 30
0.0
 10
56.3753242743
 20
55.6202829897
 30
0.0
 10
56.40830983
 20
55.6012391973
 30
0.0
  0
SPLINE
  5
425
100
AcDbEntity
  8
0
100
AcDbSpline
 62
7
  6
BYLAYER
 70
0
 71
3
 72
9
 73
5
 74
0
 42
0.0000001
 43
0.0000001
 44
0.0000000001
 40
0.0
 40
0.0
 40
0.0
 40
0.0
 40
0.5319278375
 40
1.0
 40
1.0
 40
1.0
 40
1.0
 10
30.2402377855
 20
70.3708550232
 30
0.0
 10
30.2902662734
 20
70.3997388117
 30
0.0
 10
30.3895902556
 20
70.4456952186
 30
0.0
 10
30.4979594015
 20
70.4664285159
 30
0.0
 10
30.5487842261
 20
70.4673430887
 30
0.0
  0
SPLINE
  5
426
100
AcDbEntity
  8
0
100
AcDbSpline
 62
7
  6
BYLAYER
 70
0
 71
3
 72
10
 73
6
 74
0
 42
0.0000001
 43
0.0000001
 44
0.0000000001
 40
0.0
 40
0.0
 40
0.0
 40
0.0
 40
0.2755640545
 40
0.6563609078
 40
1.0
 40
1.0
 40
1.0
 40
1.0
 10
16.6108662282
 20
38.2519904375
 30
0.0
 10
16.6108662282
 20
38.3532703866
 30
0.0
 10
16.6229786638
 20
38.5946740712
 30
0.0
 10
16.6933448153
 20
38.9575294722
 30
0.0
 10
16.7996929428
 20
39.2049228121
 30
0.0
 10
16.8648920249
 20
39.3130929492
 30
0.0
  0
SPLINE
  5
427
100
AcDbEntity
  8
0
100
AcDbSpline
 62
7
  6
BYLAYER
 70
0
 71
3
 72
14
 73
10
 74
0
 42
0.0000001
 43
0.0000001
 44
0.0000000001
 40
0.0
 40
0.0
 40
0.0
 40
0.0
 40
0.1080446434
 40
0.2181346916
 40
0.3321081795
 40
0.451484779
 40
0.5774341989
 40
0.7107579721
 40
1.0
 40
1.0
 40
1.0
 40
1.0
 10
22.8296299689
 20
47.4647850799
 30
0.0
 10
22.7767552346
 20
47.4342596214
 30
0.0
 10
22.6750711491
 20
47.36334952
 30
0.0
 10
22.5407887012
 20
47.2311061218
 30
0.0
 10
22.4252410366
 20
47.0742367059
 30
0.0
 10
22.3295860103
 20
46.8944201335
 30
0.0
 10
22.2545241915
 20
46.6934431819
 30
0.0
 10
22.1807949992
 20
46.3918411749
 30
0.0
 10
22.1616819866
 20
46.1518901855
 30
0.0
 10
22.1616819866
 20
45.9884460356
 30
0.0
  0
ELLIPSE
  5
428
100
AcDbEntity
  8
0
100
AcDbEllipse
 62
7
  6
BYLAYER
 10
18.2015671094
 20
48.2599649313
 30
0.0
 11
11.0506647366
 21
2.3410977035
 31
0.0
 40
0.2048200145
 41
0.2358098913
 42
1.0475923699
  0
ELLIPSE
  5
429
100
AcDbEntity
  8
0
100
AcDbEllipse
 62
7
  6
BYLAYER
 10
12.1204234732
 20
51.7708354202
 30
0.0
 11
11.0506647366
 21
2.3410977035
 31
0.0
 40
0.2048200145
 41
0.2593010451
 42
1.0475923699
  0
ELLIPSE
  5
42A
100
AcDbEntity
  8
0
100
AcDbEllipse
 62
7
  6
BYLAYER
 10
6.0392798369
 20
55.2817059091
 30
0.0
 11
11.0506647366
 21
2.3410977035
 31
0.0
 40
0.2048200145
 41
0.2826895454
 42
0.9521501805
  0
ELLIPSE
  5
42B
100
AcDbEntity
  8
0
100
AcDbEllipse
 62
7
  6
BYLAYER
 10
24.2827107457
 20
44.7490944425
 30
0.0
 11
11.0506647366
 21
2.3410977035
 31
0.0
 40
0.2048200145
 41
0.2114632509
 42
1.0475884135
  0
ENDSEC
  0
SECTION
  2
OBJECTS
  0
DICTIONARY
  5
C
100
AcDbDictionary
280
0
281
1
  3
ACAD_GROUP
350
D
  3
ACAD_MLINESTYLE
350
17
  3
ACAD_LAYOUT
350
1A
  3
ACAD_PLOTSETTINGS
350
19
  3
ACAD_PLOTSTYLENAME
350
E
  0
DICTIONARY
  5
D
102
{ACAD_REACTORS
330
C
102
}
100
AcDbDictionary
280
0
281
1
  0
ACDBDICTIONARYWDFLT
  5
E
102
{ACAD_REACTORS
330
C
102
}
100
AcDbDictionary
281
1
  3
Normal
350
F
100
AcDbDictionaryWithDefault
340
F
  0
DICTIONARY
  5
17
102
{ACAD_REACTORS
330
C
102
}
100
AcDbDictionary
280
0
281
1
  3
Standard
350
18
  0
DICTIONARY
  5
19
102
{ACAD_REACTORS
330
C
102
}
100
AcDbDictionary
281
1
  0
DICTIONARY
  5
1A
102
{ACAD_REACTORS
330
C
102
}
100
AcDbDictionary
281
1
  3
Model
350
42C
  3
Layout1
350
42D
  0
ACDBPLACEHOLDER
  5
F
102
{ACAD_REACTORS
330
E
102
}
  0
MLINESTYLE
  5
18
102
{ACAD_REACTORS
330
17
102
}
100
AcDbMlineStyle
  2
STANDARD
 70
0
  3

 62
256
 51
90.0
 52
90.0
 71
2
 49
0.5
 62
256
  6
BYLAYER
 49
-0.5
 62
256
  6
BYLAYER
  0
LAYOUT
  5
42C
102
{ACAD_REACTORS
330
1A
102
}
100
AcDbPlotSettings
  1

  2
none_device
  4

  6

 40
0.0
 41
0.0
 42
0.0
 43
0.0
 44
210.0
 45
297.0
 46
0.0
 47
0.0
 48
0.0
 49
0.0
140
0.0
141
0.0
142
1.0
143
1.0
 70
1024
 72
1
 73
0
 74
0
  7

 75
0
147
1.0
148
0.0
149
0.0
100
AcDbLayout
  1
Model
 70
0
 71
0
 10
0.0
 20
0.0
 11
210.0
 21
297.0
 12
0.0
 22
0.0
 32
0.0
 14
0.0
 24
0.0
 34
0.0
 15
0.0
 25
0.0
 35
0.0
146
0.0
 13
0.0
 23
0.0
 33
0.0
 16
1.0
 26
0.0
 36
0.0
 17
0.0
 27
1.0
 37
0.0
 76
0
330
210
345
0
346
0
  0
LAYOUT
  5
42D
102
{ACAD_REACTORS
330
1A
102
}
100
AcDbPlotSettings
  1

  2
none_device
  4

  6

 40
0.0
 41
0.0
 42
0.0
 43
0.0
 44
210.0
 45
297.0
 46
0.0
 47
0.0
 48
0.0
 49
0.0
140
0.0
141
0.0
142
1.0
143
1.0
 70
0
 72
1
 73
0
 74
0
  7

 75
0
147
1.0
148
0.0
149
0.0
100
AcDbLayout
  1
Layout1
 70
0
 71
1
 10
0.0
 20
0.0
 11
210.0
 21
297.0
 12
0.0
 22
0.0
 32
0.0
 14
0.0
 24
0.0
 34
0.0
 15
0.0
 25
0.0
 35
0.0
146
0.0
 13
0.0
 23
0.0
 33
0.0
 16
1.0
 26
0.0
 36
0.0
 17
0.0
 27
1.0
 37
0.0
 76
0
330
211
345
0
346
0
  0
ENDSEC
  0
EOF
