999
DXF file: C:\Users\sesa63760\Dev\_Creo\CAD\MCADID0003472_3D-CAD\drw0001_1.dxf
999
Pro/ENGINEER 2019471 by Parametric Technology Corporation
  0
SECTION
  2
HEADER
  9
$ACADVER
  1
AC1024
  9
$DWGCODEPAGE
  3
ANSI_1252
  9
$EXTMAX
 10
96.494225962
 20
136.4704052891
 30
0.0
  9
$EXTMIN
 10
-0.0
 20
0.0
 30
0.0
  9
$LIMMIN
 10
-0.0
 20
0.0
  9
$LIMMAX
 10
96.494225962
 20
136.4704052891
  9
$VIEWCTR
 10
48.247112981
 20
68.2352026446
  9
$VIEWSIZE
 40
136.4704052891
  9
$CLAYER
  8
0
  9
$LTSCALE
 40
8.8958486411
  9
$CELTYPE
  6
BYLAYER
  9
$DIMSCALE
 40
1.0
  9
$DIMASZ
 40
1.1487407853
  9
$DIMEXO
 40
1.0
  9
$DIMDLI
 40
6.1462226975
  9
$DIMEXE
 40
1.0
  9
$DIMCEN
 40
1.4556843231
  9
$DIMLFAC
 40
1.0
  9
$DIMBLK
  1
_FILLED
  9
$DIMALT
 70
0
  9
$DIMALTF
 40
0.0393700787
  9
$DIMTXT
 40
1.6082370994
  9
$DIMTOL
 70
1
  9
$DIMLIM
 70
0
  9
$DIMTFAC
 40
1.0
  9
$DIMTP
 40
0.01
  9
$DIMTM
 40
0.01
  9
$DIMGAP
 40
0.625
  9
$DIMDSEP
 70
46
  9
$AUNITS
 70
0
  9
$PDMODE
 70
3
  9
$PDSIZE
 40
0.3125
  9
$HANDSEED
  5
364
  9
$TILEMODE
 70
1
  9
$MEASUREMENT
 70
1
  9
$INSUNITS
 70
4
  0
ENDSEC
  0
SECTION
  2
CLASSES
  0
CLASS
  1
ACDBDICTIONARYWDFLT
  2
AcDbDictionaryWithDefault
  3
AutoCAD 2000
 90
0
 91
1
280
0
281
0
  0
CLASS
  1
ACDBPLACEHOLDER
  2
AcDbPlaceHolder
  3
AutoCAD 2000
 90
0
 91
1
280
0
281
0
  0
CLASS
  1
LAYOUT
  2
AcDbLayout
  3
AutoCAD 2000
 90
0
 91
0
280
0
281
0
  0
ENDSEC
  0
SECTION
  2
TABLES
  0
TABLE
  2
VPORT
  5
8
100
AcDbSymbolTable
 70
2
  0
VPORT
  5
1F4
100
AcDbSymbolTableRecord
100
AcDbViewportTableRecord
  2
*ACTIVE
 70
0
 10
0.0
 20
0.0
 11
1.0
 21
1.0
 12
48.247112981
 22
68.2352026446
 13
0.0
 23
0.0
 14
1.0
 24
1.0
 15
0.0
 25
0.0
 16
0.0
 26
0.0
 36
1.0
 17
0.0
 27
0.0
 37
0.0
 40
136.4704052891
 41
0.7070707071
 42
50.0
 43
0.0
 44
0.0
 50
0.0
 51
0.0
 71
0
 72
100
 73
1
 74
1
 75
0
 76
0
 77
0
 78
0
  0
ENDTAB
  0
TABLE
  2
LTYPE
  5
5
100
AcDbSymbolTable
 70
6
  0
LTYPE
  5
14
100
AcDbSymbolTableRecord
100
AcDbLinetypeTableRecord
  2
BYBLOCK
 70
0
  3

 72
65
 73
0
 40
0.0
  0
LTYPE
  5
15
100
AcDbSymbolTableRecord
100
AcDbLinetypeTableRecord
  2
BYLAYER
 70
0
  3

 72
65
 73
0
 40
0.0
  0
LTYPE
  5
16
100
AcDbSymbolTableRecord
100
AcDbLinetypeTableRecord
  2
CONTINUOUS
 70
64
  3
Solid line
 72
65
 73
0
 40
0.0
  0
LTYPE
  5
1F5
100
AcDbSymbolTableRecord
100
AcDbLinetypeTableRecord
  2
CENTER
 70
64
  3
____ _ ____ _ ____ _ ____ _ ____ _ ____ _ ____
 72
65
 73
4
 40
0.6
 49
0.375
 74
0
 49
-0.075
 74
0
 49
0.075
 74
0
 49
-0.075
 74
0
  0
LTYPE
  5
1F6
100
AcDbSymbolTableRecord
100
AcDbLinetypeTableRecord
  2
HIDDEN
 70
64
  3
- - - - - - - - - - - - - - - - - - - -
 72
65
 73
2
 40
0.2
 49
0.1
 74
0
 49
-0.1
 74
0
  0
LTYPE
  5
1F7
100
AcDbSymbolTableRecord
100
AcDbLinetypeTableRecord
  2
PHANTOM
 70
64
  3
_____ _ _ _____ _ _ _____ _ _ _____
 72
65
 73
6
 40
0.8
 49
0.45
 74
0
 49
-0.05
 74
0
 49
0.1
 74
0
 49
-0.05
 74
0
 49
0.1
 74
0
 49
-0.05
 74
0
  0
LTYPE
  5
1F8
100
AcDbSymbolTableRecord
100
AcDbLinetypeTableRecord
  2
DOT
 70
64
  3
. . . . . . . . . . . . . . . . . . . .
 72
65
 73
2
 40
0.2
 49
0.1
 74
0
 49
-0.1
 74
0
  0
LTYPE
  5
1F9
100
AcDbSymbolTableRecord
100
AcDbLinetypeTableRecord
  2
DASHED
 70
64
  3
- - - - - - - - - - - - - - - - - - - -
 72
65
 73
2
 40
0.2
 49
0.1
 74
0
 49
-0.1
 74
0
  0
ENDTAB
  0
TABLE
  2
LAYER
  5
2
100
AcDbSymbolTable
 70
36
  0
LAYER
  5
10
100
AcDbSymbolTableRecord
100
AcDbLayerTableRecord
  2
0
 70
0
 62
7
  6
CONTINUOUS
370
-3
390
F
  0
LAYER
  5
1FA
100
AcDbSymbolTableRecord
100
AcDbLayerTableRecord
  2
DEFAULT_1
 70
0
 62
7
  6
CENTER
370
-3
390
F
  0
LAYER
  5
1FB
100
AcDbSymbolTableRecord
100
AcDbLayerTableRecord
  2
DEFAULT_2
 70
0
 62
7
  6
HIDDEN
370
-3
390
F
  0
LAYER
  5
1FC
100
AcDbSymbolTableRecord
100
AcDbLayerTableRecord
  2
DEFAULT_3
 70
0
 62
7
  6
PHANTOM
370
-3
390
F
  0
LAYER
  5
1FD
100
AcDbSymbolTableRecord
100
AcDbLayerTableRecord
  2
00_COMPONENTS
 70
0
 62
7
  6
CONTINUOUS
370
-3
390
F
  0
LAYER
  5
1FE
100
AcDbSymbolTableRecord
100
AcDbLayerTableRecord
  2
01_1_DEFAULT_DATUMS
 70
0
 62
7
  6
CONTINUOUS
370
-3
390
F
  0
LAYER
  5
1FF
100
AcDbSymbolTableRecord
100
AcDbLayerTableRecord
  2
01_PLANES
 70
0
 62
7
  6
CONTINUOUS
370
-3
390
F
  0
LAYER
  5
200
100
AcDbSymbolTableRecord
100
AcDbLayerTableRecord
  2
02_COORD_SYS
 70
0
 62
7
  6
CONTINUOUS
370
-3
390
F
  0
LAYER
  5
201
100
AcDbSymbolTableRecord
100
AcDbLayerTableRecord
  2
03_AXES
 70
0
 62
7
  6
CONTINUOUS
370
-3
390
F
  0
LAYER
  5
202
100
AcDbSymbolTableRecord
100
AcDbLayerTableRecord
  2
04_POINTS
 70
0
 62
7
  6
CONTINUOUS
370
-3
390
F
  0
LAYER
  5
203
100
AcDbSymbolTableRecord
100
AcDbLayerTableRecord
  2
05_CURVES
 70
0
 62
7
  6
CONTINUOUS
370
-3
390
F
  0
LAYER
  5
204
100
AcDbSymbolTableRecord
100
AcDbLayerTableRecord
  2
06_SURFS
 70
0
 62
7
  6
CONTINUOUS
370
-3
390
F
  0
LAYER
  5
205
100
AcDbSymbolTableRecord
100
AcDbLayerTableRecord
  2
07_COSMETICS
 70
0
 62
7
  6
CONTINUOUS
370
-3
390
F
  0
LAYER
  5
206
100
AcDbSymbolTableRecord
100
AcDbLayerTableRecord
  2
10_NOTES
 70
0
 62
7
  6
CONTINUOUS
370
-3
390
F
  0
LAYER
  5
207
100
AcDbSymbolTableRecord
100
AcDbLayerTableRecord
  2
11_NOTES_PUB
 70
0
 62
7
  6
CONTINUOUS
370
-3
390
F
  0
LAYER
  5
208
100
AcDbSymbolTableRecord
100
AcDbLayerTableRecord
  2
13_REF_GTOL
 70
0
 62
7
  6
CONTINUOUS
370
-3
390
F
  0
LAYER
  5
209
100
AcDbSymbolTableRecord
100
AcDbLayerTableRecord
  2
16_MISC
 70
0
 62
7
  6
CONTINUOUS
370
-3
390
F
  0
LAYER
  5
20A
100
AcDbSymbolTableRecord
100
AcDbLayerTableRecord
  2
17_NO_PRINT
 70
0
 62
7
  6
CONTINUOUS
370
-3
390
F
  0
LAYER
  5
20B
100
AcDbSymbolTableRecord
100
AcDbLayerTableRecord
  2
18_DATUM_CAMS_JOINTS
 70
0
 62
7
  6
CONTINUOUS
370
-3
390
F
  0
LAYER
  5
20C
100
AcDbSymbolTableRecord
100
AcDbLayerTableRecord
  2
19_DATUM_FUNCTIONAL
 70
0
 62
7
  6
CONTINUOUS
370
-3
390
F
  0
LAYER
  5
20D
100
AcDbSymbolTableRecord
100
AcDbLayerTableRecord
  2
20_DATUM_KINEMATIC_SCHEME
 70
0
 62
7
  6
CONTINUOUS
370
-3
390
F
  0
ENDTAB
  0
TABLE
  2
STYLE
  5
3
100
AcDbSymbolTable
 70
1
  0
STYLE
  5
11
100
AcDbSymbolTableRecord
100
AcDbTextStyleTableRecord
  2
STANDARD
 70
0
 40
0.0
 41
1.0
 50
0.0
 71
0
 42
0.2
  3
ARIAL.TTF
  4

  0
STYLE
  5
20E
100
AcDbSymbolTableRecord
100
AcDbTextStyleTableRecord
  2
TEXTSTYLE_1
 70
0
 40
0.0
 41
0.8
 50
0.0
 71
0
 42
0.2
  3
gdt
  4

  0
ENDTAB
  0
TABLE
  2
VIEW
  5
6
100
AcDbSymbolTable
 70
0
  0
ENDTAB
  0
TABLE
  2
UCS
  5
7
100
AcDbSymbolTable
 70
0
  0
ENDTAB
  0
TABLE
  2
APPID
  5
9
100
AcDbSymbolTable
 70
1
  0
APPID
  5
20F
100
AcDbSymbolTableRecord
100
AcDbRegAppTableRecord
  2
ACAD
 70
0
  0
ENDTAB
  0
TABLE
  2
BLOCK_RECORD
  5
1
100
AcDbSymbolTable
 70
0
  0
BLOCK_RECORD
  5
210
100
AcDbSymbolTableRecord
100
AcDbBlockTableRecord
  2
*Model_Space
  0
BLOCK_RECORD
  5
211
100
AcDbSymbolTableRecord
100
AcDbBlockTableRecord
  2
*Paper_Space
  0
BLOCK_RECORD
  5
212
100
AcDbSymbolTableRecord
100
AcDbBlockTableRecord
  2
_FILLED
  0
ENDTAB
  0
TABLE
  2
DIMSTYLE
  5
A
100
AcDbSymbolTable
 70
1
100
AcDbDimStyleTable
 71
0
  0
DIMSTYLE
105
213
100
AcDbSymbolTableRecord
100
AcDbDimStyleTableRecord
  2
STANDARD
 70
0
  3

  4

 40
1.0
 41
1.1487407853
 42
1.0
 43
0.38
 44
1.0
 45
0.0
 46
0.0
 47
0.01
 48
0.01
140
1.6082370994
141
0.09
142
0.0
143
25.4
144
1.0
145
0.0
146
1.0
147
0.625
 71
1
 72
0
 73
0
 74
0
 75
0
 76
0
 77
1
 78
8
 79
2
170
0
171
1
172
0
173
0
174
0
175
0
176
0
177
0
178
0
270
2
179
2
271
2
272
2
273
2
274
2
275
0
280
0
281
0
282
0
283
1
284
8
285
0
286
0
287
3
288
0
340
11
278
46
341
212
342
212
343
212
344
212
  0
ENDTAB
  0
ENDSEC
  0
SECTION
  2
BLOCKS
  0
BLOCK
  5
20
100
AcDbEntity
  8
0
100
AcDbBlockBegin
  2
*Model_Space
 70
0
 10
0.0
 20
0.0
 30
0.0
  3
*Model_Space
  1

  0
ENDBLK
  5
21
100
AcDbEntity
  8
0
100
AcDbBlockEnd
  0
BLOCK
  5
1C
100
AcDbEntity
  8
0
100
AcDbBlockBegin
  2
*Paper_Space
 70
0
 10
0.0
 20
0.0
 30
0.0
  3
*Paper_Space
  1

  0
ENDBLK
  5
1D
100
AcDbEntity
  8
0
100
AcDbBlockEnd
  0
BLOCK
  5
214
100
AcDbEntity
  8
0
100
AcDbBlockBegin
  2
_FILLED
 70
64
 10
0.0
 20
0.0
  3
_FILLED
  1

  0
SOLID
  5
215
100
AcDbEntity
  8
0
  6
BYBLOCK
 62
0
100
AcDbTrace
 10
0.0
 20
0.0
 11
-1.0
 21
0.25
 12
-1.0
 22
-0.25
 13
-1.0
 23
-0.25
  0
ENDBLK
  5
216
100
AcDbEntity
  8
0
  6
BYBLOCK
 62
0
100
AcDbBlockEnd
  0
ENDSEC
  0
SECTION
  2
ENTITIES
  0
LINE
  5
217
100
AcDbEntity
  8
0
100
AcDbLine
 62
7
  6
BYLAYER
 10
31.934324405
 20
120.7188786663
 11
21.8227395328
 21
114.8809872659
  0
LINE
  5
218
100
AcDbEntity
  8
0
100
AcDbLine
 62
7
  6
BYLAYER
 10
19.8049869469
 20
113.4347430391
 11
21.9262984586
 21
114.6594755007
  0
LINE
  5
219
100
AcDbEntity
  8
0
100
AcDbLine
 62
7
  6
BYLAYER
 10
32.7589773883
 20
120.9136882642
 11
34.8662986796
 21
122.1303435166
  0
LINE
  5
21A
100
AcDbEntity
  8
0
100
AcDbLine
 62
7
  6
BYLAYER
 10
23.4471545787
 20
115.2615952394
 11
33.3466082997
 21
120.9770133936
  0
LINE
  5
21B
100
AcDbEntity
  8
0
100
AcDbLine
 62
7
  6
BYLAYER
 10
21.1473119275
 20
113.7858908543
 11
23.2686234391
 21
115.0106233159
  0
LINE
  5
21C
100
AcDbEntity
  8
0
100
AcDbLine
 62
7
  6
BYLAYER
 10
34.0873121485
 20
121.2567588701
 11
36.2086236601
 21
122.4814913318
  0
LINE
  5
21D
100
AcDbEntity
  8
0
100
AcDbLine
 62
7
  6
BYLAYER
 10
42.3420275924
 20
122.7460529586
 11
47.2917544529
 21
125.6037620357
  0
LINE
  5
21E
100
AcDbEntity
  8
0
100
AcDbLine
 62
7
  6
BYLAYER
 10
29.3319616682
 20
115.0774040663
 11
27.2106501565
 21
113.8526716047
  0
LINE
  5
21F
100
AcDbEntity
  8
0
100
AcDbLine
 62
7
  6
BYLAYER
 10
40.1506503776
 20
121.3235396205
 11
41.728396552
 21
122.2344463617
  0
LINE
  5
220
100
AcDbEntity
  8
0
100
AcDbLine
 62
7
  6
BYLAYER
 10
30.8530480105
 20
114.1992243241
 11
28.7317364989
 21
112.9744918625
  0
LINE
  5
221
100
AcDbEntity
  8
0
100
AcDbLine
 62
7
  6
BYLAYER
 10
51.8272691621
 20
125.9129294127
 11
51.2247005373
 21
125.5650383316
  0
LINE
  5
222
100
AcDbEntity
  8
0
100
AcDbLine
 62
7
  6
BYLAYER
 10
42.7763400458
 20
120.6874042432
 11
39.8065039295
 21
118.9727787969
  0
LINE
  5
223
100
AcDbEntity
  8
0
100
AcDbLine
 62
7
  6
BYLAYER
 10
29.9918152557
 20
111.3553653576
 11
32.1131267674
 21
112.5800978192
  0
LINE
  5
224
100
AcDbEntity
  8
0
100
AcDbLine
 62
7
  6
BYLAYER
 10
27.444073647
 20
108.4016638801
 11
27.5854968139
 21
108.4833140962
  0
LINE
  5
225
100
AcDbEntity
  8
0
100
AcDbLine
 62
7
  6
BYLAYER
 10
27.7838769137
 20
107.944323962
 11
28.5190779216
 21
108.3687899281
  0
LINE
  5
226
100
AcDbEntity
  8
0
100
AcDbLine
 62
7
  6
BYLAYER
 10
33.1536824564
 20
109.6212034439
 11
31.0323709447
 21
108.3964709823
  0
LINE
  5
227
100
AcDbEntity
  8
0
100
AcDbLine
 62
7
  6
BYLAYER
 10
18.1455963643
 20
35.027396015
 11
60.5721798731
 21
10.5329507438
  0
LINE
  5
228
100
AcDbEntity
  8
0
100
AcDbLine
 62
7
  6
BYLAYER
 10
31.3477064018
 20
107.6846653356
 11
33.8932802157
 21
109.1543442895
  0
LINE
  5
229
100
AcDbEntity
  8
0
100
AcDbLine
 62
7
  6
BYLAYER
 10
31.7554785808
 20
106.8449986198
 11
34.1763709101
 21
108.2426931147
  0
LINE
  5
22A
100
AcDbEntity
  8
0
100
AcDbLine
 62
7
  6
BYLAYER
 10
31.9452014352
 20
104.4013055312
 11
33.9920493105
 21
105.583046649
  0
LINE
  5
22B
100
AcDbEntity
  8
0
100
AcDbLine
 62
7
  6
BYLAYER
 10
32.0279948939
 20
103.9440958673
 11
33.7957544869
 21
104.964706252
  0
LINE
  5
22C
100
AcDbEntity
  8
0
100
AcDbLine
 62
7
  6
BYLAYER
 10
18.0240821371
 20
39.8833401756
 11
60.4493080605
 21
15.7815873083
  0
LINE
  5
22D
100
AcDbEntity
  8
0
100
AcDbLine
 62
7
  6
BYLAYER
 10
21.6104340175
 20
35.4765235693
 11
28.8583087003
 21
31.2920558354
  0
LINE
  5
22E
100
AcDbEntity
  8
0
100
AcDbLine
 62
7
  6
BYLAYER
 10
49.8594675371
 20
19.1673054262
 11
57.1073422199
 21
14.9828376923
  0
LINE
  5
22F
100
AcDbEntity
  8
0
100
AcDbLine
 62
7
  6
BYLAYER
 10
23.2367728431
 20
36.4154851232
 11
28.8583087003
 21
33.1699633063
  0
LINE
  5
230
100
AcDbEntity
  8
0
100
AcDbLine
 62
7
  6
BYLAYER
 10
51.4858063627
 20
20.1062669801
 11
57.1073422199
 21
16.8607451632
  0
LINE
  5
231
100
AcDbEntity
  8
0
100
AcDbLine
 62
7
  6
BYLAYER
 10
27.444073647
 20
108.4016638801
 11
27.485498209
 21
108.4932173111
  0
LINE
  5
232
100
AcDbEntity
  8
0
100
AcDbLine
 62
7
  6
BYLAYER
 10
30.2724889958
 20
99.8373382284
 11
30.0250026528
 21
99.6944527746
  0
LINE
  5
233
100
AcDbEntity
  8
0
100
AcDbLine
 62
7
  6
BYLAYER
 10
35.0158962335
 20
101.0354225319
 11
40.7353950211
 21
104.3375569854
  0
LINE
  5
234
100
AcDbEntity
  8
0
100
AcDbLine
 62
7
  6
BYLAYER
 10
33.4596916544
 20
99.3335309155
 11
35.2274512474
 21
100.3541413002
  0
LINE
  5
235
100
AcDbEntity
  8
0
100
AcDbLine
 62
7
  6
BYLAYER
 10
41.5913857824
 20
104.028338685
 11
41.6085656651
 21
104.0382574357
  0
LINE
  5
236
100
AcDbEntity
  8
0
100
AcDbLine
 62
7
  6
BYLAYER
 10
61.503975074
 20
17.2618141279
 11
62.1985186987
 21
16.8608282508
  0
LINE
  5
237
100
AcDbEntity
  8
0
100
AcDbLine
 62
7
  6
BYLAYER
 10
65.6409690869
 20
18.6590316314
 11
66.3480774198
 21
18.2507916806
  0
LINE
  5
238
100
AcDbEntity
  8
0
100
AcDbLine
 62
7
  6
BYLAYER
 10
17.7633084151
 20
77.6734515313
 11
18.0240821371
 21
39.8833401756
  0
LINE
  5
239
100
AcDbEntity
  8
0
100
AcDbLine
 62
7
  6
BYLAYER
 10
18.1455963643
 20
39.8143079946
 11
18.1455963643
 21
35.027396015
  0
LINE
  5
23A
100
AcDbEntity
  8
0
100
AcDbLine
 62
7
  6
BYLAYER
 10
18.25164722
 20
110.0013484769
 11
18.25164722
 21
104.3279938388
  0
LINE
  5
23B
100
AcDbEntity
  8
0
100
AcDbLine
 62
7
  6
BYLAYER
 10
18.8527002015
 20
78.3020170682
 11
18.8527002015
 21
78.2694928353
  0
LINE
  5
23C
100
AcDbEntity
  8
0
100
AcDbLine
 62
7
  6
BYLAYER
 10
38.2314999626
 20
115.8099003875
 11
37.3180142184
 21
114.2509721517
  0
LINE
  5
23D
100
AcDbEntity
  8
0
100
AcDbLine
 62
7
  6
BYLAYER
 10
50.0187679622
 20
106.9842998557
 11
51.9279483226
 21
108.086559071
  0
LINE
  5
23E
100
AcDbEntity
  8
0
100
AcDbLine
 62
7
  6
BYLAYER
 10
59.3321697239
 20
112.3613627731
 11
59.9182216832
 21
112.6997180099
  0
LINE
  5
23F
100
AcDbEntity
  8
0
100
AcDbLine
 62
7
  6
BYLAYER
 10
29.7421967399
 20
94.8363721424
 11
43.1142631881
 21
102.5566922218
  0
LINE
  5
240
100
AcDbEntity
  8
0
100
AcDbLine
 62
7
  6
BYLAYER
 10
59.8272333471
 20
112.0565022744
 11
59.4935279501
 21
111.8638385237
  0
LINE
  5
241
100
AcDbEntity
  8
0
100
AcDbLine
 62
7
  6
BYLAYER
 10
48.8671238702
 20
105.7287178894
 11
47.8064681144
 21
105.1163516586
  0
LINE
  5
242
100
AcDbEntity
  8
0
100
AcDbLine
 62
7
  6
BYLAYER
 10
52.3419828236
 20
105.4255190357
 11
57.2917096841
 21
108.2832281128
  0
LINE
  5
243
100
AcDbEntity
  8
0
100
AcDbLine
 62
7
  6
BYLAYER
 10
49.6382816341
 20
103.5800517557
 11
55.7193746341
 21
107.090951479
  0
LINE
  5
244
100
AcDbEntity
  8
0
100
AcDbLine
 62
7
  6
BYLAYER
 10
21.6104340175
 20
37.8459351922
 11
21.6104340175
 21
35.4765235693
  0
LINE
  5
245
100
AcDbEntity
  8
0
100
AcDbLine
 62
7
  6
BYLAYER
 10
47.0566817165
 20
101.1543406735
 11
56.9561354375
 21
106.8697588277
  0
LINE
  5
246
100
AcDbEntity
  8
0
100
AcDbLine
 62
7
  6
BYLAYER
 10
26.4894775788
 20
73.9746443997
 11
26.4894775788
 21
74.9544473003
  0
LINE
  5
247
100
AcDbEntity
  8
0
100
AcDbLine
 62
7
  6
BYLAYER
 10
27.444073647
 20
99.0208640301
 11
27.444073647
 21
108.4016638801
  0
LINE
  5
248
100
AcDbEntity
  8
0
100
AcDbLine
 62
7
  6
BYLAYER
 10
29.6714860618
 20
85.4465941754
 11
29.7421967399
 21
85.4874187608
  0
LINE
  5
249
100
AcDbEntity
  8
0
100
AcDbLine
 62
7
  6
BYLAYER
 10
18.823964171
 20
78.2858177621
 11
17.7633084151
 21
77.6734515313
  0
LINE
  5
24A
100
AcDbEntity
  8
0
100
AcDbLine
 62
7
  6
BYLAYER
 10
18.8527002015
 20
78.3020170682
 11
29.6714860618
 21
84.5482087122
  0
LINE
  5
24B
100
AcDbEntity
  8
0
100
AcDbLine
 62
7
  6
BYLAYER
 10
71.9212082363
 20
27.0874590407
 11
70.8605253197
 21
27.6998307545
  0
LINE
  5
24C
100
AcDbEntity
  8
0
100
AcDbLine
 62
7
  6
BYLAYER
 10
72.9818639921
 20
27.6998252716
 11
71.9211946562
 21
28.3121891446
  0
LINE
  5
24D
100
AcDbEntity
  8
0
100
AcDbLine
 62
7
  6
BYLAYER
 10
72.9818639921
 20
28.9245788972
 11
71.9212082363
 21
29.53693493
  0
LINE
  5
24E
100
AcDbEntity
  8
0
100
AcDbLine
 62
7
  6
BYLAYER
 10
28.8583087003
 20
31.2920558354
 11
28.8583087003
 21
33.7284206566
  0
LINE
  5
24F
100
AcDbEntity
  8
0
100
AcDbLine
 62
7
  6
BYLAYER
 10
29.4593549106
 20
80.0168552179
 11
29.4593549106
 21
71.4435798381
  0
LINE
  5
250
100
AcDbEntity
  8
0
100
AcDbLine
 62
7
  6
BYLAYER
 10
29.5653851586
 20
100.2455964917
 11
29.5653851586
 21
104.5746976162
  0
LINE
  5
251
100
AcDbEntity
  8
0
100
AcDbLine
 62
7
  6
BYLAYER
 10
29.6714860618
 20
71.2802772382
 11
29.6714860618
 21
71.3211086315
  0
LINE
  5
252
100
AcDbEntity
  8
0
100
AcDbLine
 62
7
  6
BYLAYER
 10
29.6714860618
 20
80.1393284641
 11
29.6714860618
 21
85.4465941754
  0
LINE
  5
253
100
AcDbEntity
  8
0
100
AcDbLine
 62
7
  6
BYLAYER
 10
29.7421967399
 20
80.7108803261
 11
29.7421967399
 21
94.8363721424
  0
LINE
  5
254
100
AcDbEntity
  8
0
100
AcDbLine
 62
7
  6
BYLAYER
 10
30.0250026528
 20
99.6944527746
 11
30.0250026528
 21
97.2449455232
  0
LINE
  5
255
100
AcDbEntity
  8
0
100
AcDbLine
 62
7
  6
BYLAYER
 10
30.3785957869
 20
91.7336732414
 11
30.3785957869
 21
94.1831804928
  0
LINE
  5
256
100
AcDbEntity
  8
0
100
AcDbLine
 62
7
  6
BYLAYER
 10
34.1763709101
 20
108.2426931147
 11
33.9920493105
 21
105.583046649
  0
LINE
  5
257
100
AcDbEntity
  8
0
100
AcDbLine
 62
7
  6
BYLAYER
 10
29.4593549106
 20
80.0168552179
 11
29.6714860618
 21
80.1393284641
  0
LINE
  5
258
100
AcDbEntity
  8
0
100
AcDbLine
 62
7
  6
BYLAYER
 10
31.7554785808
 20
106.8449986198
 11
31.9452014352
 21
104.4013055312
  0
LINE
  5
259
100
AcDbEntity
  8
0
100
AcDbLine
 62
7
  6
BYLAYER
 10
32.8534415534
 20
98.0614897565
 11
32.8534415534
 21
96.6326394507
  0
LINE
  5
25A
100
AcDbEntity
  8
0
100
AcDbLine
 62
7
  6
BYLAYER
 10
47.0566817165
 20
101.1543406735
 11
50.0187679625
 21
106.9842998562
  0
LINE
  5
25B
100
AcDbEntity
  8
0
100
AcDbLine
 62
7
  6
BYLAYER
 10
51.9279483229
 20
108.0865590717
 11
49.6382816341
 21
103.5800517557
  0
LINE
  5
25C
100
AcDbEntity
  8
0
100
AcDbLine
 62
7
  6
BYLAYER
 10
26.4894775788
 20
74.9544473003
 11
25.5960228896
 21
74.4386140741
  0
LINE
  5
25D
100
AcDbEntity
  8
0
100
AcDbLine
 62
7
  6
BYLAYER
 10
29.4593549106
 20
75.8526082344
 11
27.1965873039
 21
74.5462065458
  0
LINE
  5
25E
100
AcDbEntity
  8
0
100
AcDbLine
 62
7
  6
BYLAYER
 10
26.4894775788
 20
73.9746443997
 11
26.4514124576
 21
73.952667623
  0
LINE
  5
25F
100
AcDbEntity
  8
0
100
AcDbLine
 62
7
  6
BYLAYER
 10
67.7845415674
 20
94.8364635849
 11
48.7634483464
 21
83.8546958458
  0
LINE
  5
260
100
AcDbEntity
  8
0
100
AcDbLine
 62
7
  6
BYLAYER
 10
49.470552478
 20
83.9771650291
 11
54.7738312571
 21
87.0389961831
  0
LINE
  5
261
100
AcDbEntity
  8
0
100
AcDbLine
 62
7
  6
BYLAYER
 10
61.8448696292
 20
91.1214377219
 11
67.1481484083
 21
94.1832688759
  0
LINE
  5
262
100
AcDbEntity
  8
0
100
AcDbLine
 62
7
  6
BYLAYER
 10
55.1273861196
 20
86.8348758059
 11
62.1984244918
 21
90.9173173446
  0
LINE
  5
263
100
AcDbEntity
  8
0
100
AcDbLine
 62
7
  6
BYLAYER
 10
55.7193746341
 20
107.090951479
 11
55.9239219599
 21
107.4935402158
  0
LINE
  5
264
100
AcDbEntity
  8
0
100
AcDbLine
 62
7
  6
BYLAYER
 10
59.9182216835
 20
112.6997180104
 11
59.0998857191
 21
111.0890744053
  0
LINE
  5
265
100
AcDbEntity
  8
0
100
AcDbLine
 62
7
  6
BYLAYER
 10
57.9910303307
 20
108.90663233
 11
56.9561354375
 21
106.8697588277
  0
LINE
  5
266
100
AcDbEntity
  8
0
100
AcDbLine
 62
7
  6
BYLAYER
 10
49.470552478
 20
81.5276577777
 11
54.7738312571
 21
84.5894889318
  0
LINE
  5
267
100
AcDbEntity
  8
0
100
AcDbLine
 62
7
  6
BYLAYER
 10
62.1984244918
 20
88.8760542471
 11
67.1481484083
 21
91.7337616245
  0
LINE
  5
268
100
AcDbEntity
  8
0
100
AcDbLine
 62
7
  6
BYLAYER
 10
55.1273861196
 20
84.3853685545
 11
62.1984244918
 21
88.4678100932
  0
LINE
  5
269
100
AcDbEntity
  8
0
100
AcDbLine
 62
7
  6
BYLAYER
 10
77.140773966
 20
38.5777285702
 11
77.847882299
 21
38.1694886195
  0
LINE
  5
26A
100
AcDbEntity
  8
0
100
AcDbLine
 62
7
  6
BYLAYER
 10
61.4206997674
 20
48.0512143383
 11
61.2909935814
 21
48.1260985456
  0
LINE
  5
26B
100
AcDbEntity
  8
0
100
AcDbLine
 62
7
  6
BYLAYER
 10
61.6328309186
 20
48.1736875844
 11
61.3146162682
 21
48.3574047422
  0
LINE
  5
26C
100
AcDbEntity
  8
0
100
AcDbLine
 62
7
  6
BYLAYER
 10
67.8552522455
 20
85.4466859579
 11
48.7634486407
 21
74.4240938034
  0
LINE
  5
26D
100
AcDbEntity
  8
0
100
AcDbLine
 62
7
  6
BYLAYER
 10
60.1885343384
 20
53.5716986641
 11
17.7633084151
 21
77.6734515313
  0
LINE
  5
26E
100
AcDbEntity
  8
0
100
AcDbLine
 62
7
  6
BYLAYER
 10
61.2491900943
 20
54.1840648949
 11
49.6534356867
 21
60.7716080596
  0
LINE
  5
26F
100
AcDbEntity
  8
0
100
AcDbLine
 62
7
  6
BYLAYER
 10
29.4593549106
 20
72.2438567902
 11
18.823964171
 21
78.2858177621
  0
LINE
  5
270
100
AcDbEntity
  8
0
100
AcDbLine
 62
7
  6
BYLAYER
 10
48.5336371777
 20
60.3904555747
 11
29.6714860618
 21
71.2802772382
  0
LINE
  5
271
100
AcDbEntity
  8
0
100
AcDbLine
 62
7
  6
BYLAYER
 10
29.4593549106
 20
71.4435798381
 11
48.5513174896
 21
60.421079466
  0
LINE
  5
272
100
AcDbEntity
  8
0
100
AcDbLine
 62
7
  6
BYLAYER
 10
61.2792837103
 20
53.807571797
 11
61.2516781358
 21
53.8235095223
  0
LINE
  5
273
100
AcDbEntity
  8
0
100
AcDbLine
 62
7
  6
BYLAYER
 10
23.4135617083
 20
75.6688620194
 11
18.8527002015
 21
78.3020170682
  0
LINE
  5
274
100
AcDbEntity
  8
0
100
AcDbLine
 62
7
  6
BYLAYER
 10
50.7802798783
 20
60.2772613851
 11
49.7887301922
 21
60.8497199125
  0
LINE
  5
275
100
AcDbEntity
  8
0
100
AcDbLine
 62
7
  6
BYLAYER
 10
26.4894775788
 20
74.9544473003
 11
27.1965873039
 21
74.5462065458
  0
LINE
  5
276
100
AcDbEntity
  8
0
100
AcDbLine
 62
7
  6
BYLAYER
 10
54.7738665847
 20
58.6248171195
 11
55.4809763098
 21
58.2165763649
  0
LINE
  5
277
100
AcDbEntity
  8
0
100
AcDbLine
 62
7
  6
BYLAYER
 10
52.0498875494
 20
61.3405749546
 11
50.5312082338
 21
62.2173650306
  0
LINE
  5
278
100
AcDbEntity
  8
0
100
AcDbLine
 62
7
  6
BYLAYER
 10
33.4596916544
 20
99.3335309155
 11
32.0279948939
 21
103.9440958673
  0
LINE
  5
279
100
AcDbEntity
  8
0
100
AcDbLine
 62
7
  6
BYLAYER
 10
46.100128399
 20
111.2160093254
 11
46.1399434582
 21
110.697395862
  0
LINE
  5
27A
100
AcDbEntity
  8
0
100
AcDbLine
 62
7
  6
BYLAYER
 10
48.0563389156
 20
83.9771616298
 11
48.0563389156
 21
81.5276543784
  0
LINE
  5
27B
100
AcDbEntity
  8
0
100
AcDbLine
 62
7
  6
BYLAYER
 10
48.5513174896
 20
60.421079466
 11
48.5513174896
 21
68.9943548459
  0
LINE
  5
27C
100
AcDbEntity
  8
0
100
AcDbLine
 62
7
  6
BYLAYER
 10
48.7634486407
 20
60.2577768662
 11
48.7634483464
 21
83.8546958458
  0
LINE
  5
27D
100
AcDbEntity
  8
0
100
AcDbLine
 62
7
  6
BYLAYER
 10
49.470552478
 20
81.5276577777
 11
49.470552478
 21
83.9771650291
  0
LINE
  5
27E
100
AcDbEntity
  8
0
100
AcDbLine
 62
7
  6
BYLAYER
 10
50.6195852575
 20
70.8008387779
 11
48.7634483464
 21
69.7292040295
  0
LINE
  5
27F
100
AcDbEntity
  8
0
100
AcDbLine
 62
7
  6
BYLAYER
 10
68.2088041641
 20
80.3435423235
 11
48.5513174896
 21
68.9943548459
  0
LINE
  5
280
100
AcDbEntity
  8
0
100
AcDbLine
 62
7
  6
BYLAYER
 10
68.2088041641
 20
80.2618920818
 11
65.0268368967
 21
78.4247933894
  0
LINE
  5
281
100
AcDbEntity
  8
0
100
AcDbLine
 62
7
  6
BYLAYER
 10
53.5010355182
 20
65.1567178394
 11
49.7533940128
 21
65.7364620548
  0
LINE
  5
282
100
AcDbEntity
  8
0
100
AcDbLine
 62
7
  6
BYLAYER
 10
56.0803794215
 20
63.6675666316
 11
53.5010355182
 21
65.1567178394
  0
LINE
  5
283
100
AcDbEntity
  8
0
100
AcDbLine
 62
7
  6
BYLAYER
 10
48.5513174896
 20
68.9943548459
 11
29.4593549106
 21
80.0168552179
  0
LINE
  5
284
100
AcDbEntity
  8
0
100
AcDbLine
 62
7
  6
BYLAYER
 10
57.2498683633
 20
50.8947957357
 11
57.089217461
 21
51.1174369443
  0
LINE
  5
285
100
AcDbEntity
  8
0
100
AcDbLine
 62
7
  6
BYLAYER
 10
50.7802798783
 20
60.2772613851
 11
50.9585855405
 21
60.0301529807
  0
LINE
  5
286
100
AcDbEntity
  8
0
100
AcDbLine
 62
7
  6
BYLAYER
 10
56.6769150067
 20
52.105293768
 11
57.4619995145
 21
51.0172689819
  0
LINE
  5
287
100
AcDbEntity
  8
0
100
AcDbLine
 62
7
  6
BYLAYER
 10
29.4149656298
 20
104.5856570991
 11
27.7838769137
 21
107.944323962
  0
LINE
  5
288
100
AcDbEntity
  8
0
100
AcDbLine
 62
7
  6
BYLAYER
 10
31.0323709447
 20
108.3964709823
 11
29.9918152557
 21
111.3553653577
  0
LINE
  5
289
100
AcDbEntity
  8
0
100
AcDbLine
 62
7
  6
BYLAYER
 10
32.1131267673
 20
112.5800978193
 11
33.1536824564
 21
109.6212034439
  0
LINE
  5
28A
100
AcDbEntity
  8
0
100
AcDbLine
 62
7
  6
BYLAYER
 10
33.7957544869
 20
104.964706252
 11
35.2274512474
 21
100.3541413002
  0
LINE
  5
28B
100
AcDbEntity
  8
0
100
AcDbLine
 62
7
  6
BYLAYER
 10
33.8932802157
 20
109.1543442895
 11
34.1763709101
 21
108.2426931147
  0
LINE
  5
28C
100
AcDbEntity
  8
0
100
AcDbLine
 62
7
  6
BYLAYER
 10
49.7533940128
 20
61.7682964613
 11
49.7533940128
 21
66.1774095138
  0
LINE
  5
28D
100
AcDbEntity
  8
0
100
AcDbLine
 62
7
  6
BYLAYER
 10
49.8594675371
 20
21.7976712217
 11
49.8594675371
 21
19.1673054262
  0
LINE
  5
28E
100
AcDbEntity
  8
0
100
AcDbLine
 62
7
  6
BYLAYER
 10
50.5312082338
 20
62.2173650306
 11
50.5312082338
 21
61.5641630969
  0
LINE
  5
28F
100
AcDbEntity
  8
0
100
AcDbLine
 62
7
  6
BYLAYER
 10
53.5010355182
 20
65.1567178394
 11
53.5010355182
 21
68.3410984303
  0
LINE
  5
290
100
AcDbEntity
  8
0
100
AcDbLine
 62
7
  6
BYLAYER
 10
54.5617001059
 20
68.9534697601
 11
49.7533940128
 21
66.1774095138
  0
LINE
  5
291
100
AcDbEntity
  8
0
100
AcDbLine
 62
7
  6
BYLAYER
 10
65.0268368967
 20
74.3422813037
 11
54.5617001059
 21
68.3002678264
  0
LINE
  5
292
100
AcDbEntity
  8
0
100
AcDbLine
 62
7
  6
BYLAYER
 10
68.4266319215
 20
74.169244095
 11
68.7828663641
 21
74.2966920221
  0
LINE
  5
293
100
AcDbEntity
  8
0
100
AcDbLine
 62
7
  6
BYLAYER
 10
48.7634483464
 20
69.7292040295
 11
29.7421967399
 21
80.7108803261
  0
LINE
  5
294
100
AcDbEntity
  8
0
100
AcDbLine
 62
7
  6
BYLAYER
 10
31.3477064018
 20
107.6846653356
 11
31.7554785808
 21
106.8449986198
  0
LINE
  5
295
100
AcDbEntity
  8
0
100
AcDbLine
 62
7
  6
BYLAYER
 10
40.5868950489
 20
104.8157789011
 11
40.7353950211
 21
104.3375569854
  0
LINE
  5
296
100
AcDbEntity
  8
0
100
AcDbLine
 62
7
  6
BYLAYER
 10
41.5913857824
 20
104.028338685
 11
41.5793917047
 21
104.0669638154
  0
LINE
  5
297
100
AcDbEntity
  8
0
100
AcDbLine
 62
7
  6
BYLAYER
 10
54.5617001059
 20
68.3002678264
 11
54.5617001059
 21
68.9534697601
  0
LINE
  5
298
100
AcDbEntity
  8
0
100
AcDbLine
 62
7
  6
BYLAYER
 10
54.7738312571
 20
87.0389961831
 11
54.7738312571
 21
84.5894889318
  0
LINE
  5
299
100
AcDbEntity
  8
0
100
AcDbLine
 62
7
  6
BYLAYER
 10
55.1273861196
 20
86.8348758059
 11
55.1273861196
 21
84.3853685545
  0
LINE
  5
29A
100
AcDbEntity
  8
0
100
AcDbLine
 62
7
  6
BYLAYER
 10
57.1073422199
 20
14.9828376923
 11
57.1073422199
 21
17.680156686
  0
LINE
  5
29B
100
AcDbEntity
  8
0
100
AcDbLine
 62
7
  6
BYLAYER
 10
50.5312082338
 20
62.2173650306
 11
49.7533940128
 21
61.7682964613
  0
LINE
  5
29C
100
AcDbEntity
  8
0
100
AcDbLine
 62
7
  6
BYLAYER
 10
50.5312082338
 20
61.5641630969
 11
48.5513174896
 21
60.421079466
  0
LINE
  5
29D
100
AcDbEntity
  8
0
100
AcDbLine
 62
7
  6
BYLAYER
 10
56.0803794215
 20
63.6675666316
 11
52.0498875494
 21
61.3405749546
  0
LINE
  5
29E
100
AcDbEntity
  8
0
100
AcDbLine
 62
7
  6
BYLAYER
 10
50.7802798783
 20
60.2772613851
 11
50.6529818805
 21
60.2037662905
  0
LINE
  5
29F
100
AcDbEntity
  8
0
100
AcDbLine
 62
7
  6
BYLAYER
 10
68.7828663641
 20
70.050879453
 11
71.7898158396
 21
71.7869321793
  0
LINE
  5
2A0
100
AcDbEntity
  8
0
100
AcDbLine
 62
7
  6
BYLAYER
 10
71.5265780239
 20
68.7999479492
 11
71.1703435813
 21
68.6725000221
  0
LINE
  5
2A1
100
AcDbEntity
  8
0
100
AcDbLine
 62
7
  6
BYLAYER
 10
48.7634486407
 20
74.4240938034
 11
29.6714860618
 21
85.4465941754
  0
LINE
  5
2A2
100
AcDbEntity
  8
0
100
AcDbLine
 62
7
  6
BYLAYER
 10
69.2694952475
 20
66.9938222738
 11
76.6941473616
 21
62.7072943514
  0
LINE
  5
2A3
100
AcDbEntity
  8
0
100
AcDbLine
 62
7
  6
BYLAYER
 10
60.4493080605
 20
15.7815873083
 11
60.1885343384
 21
53.5716986641
  0
LINE
  5
2A4
100
AcDbEntity
  8
0
100
AcDbLine
 62
7
  6
BYLAYER
 10
61.5099638163
 20
16.3939535391
 11
61.2491900943
 21
54.1840648949
  0
LINE
  5
2A5
100
AcDbEntity
  8
0
100
AcDbLine
 62
7
  6
BYLAYER
 10
60.5721798731
 20
10.5329507438
 11
60.5721798731
 21
15.852526959
  0
LINE
  5
2A6
100
AcDbEntity
  8
0
100
AcDbLine
 62
7
  6
BYLAYER
 10
61.2792837103
 20
48.3370056022
 11
61.2792837103
 21
53.807571797
  0
LINE
  5
2A7
100
AcDbEntity
  8
0
100
AcDbLine
 62
7
  6
BYLAYER
 10
61.4206997674
 20
29.3296831064
 11
61.4206997674
 21
48.0512143383
  0
LINE
  5
2A8
100
AcDbEntity
  8
0
100
AcDbLine
 62
7
  6
BYLAYER
 10
61.6328309186
 20
18.0855735132
 11
61.6328309186
 21
48.1736875844
  0
LINE
  5
2A9
100
AcDbEntity
  8
0
100
AcDbLine
 62
7
  6
BYLAYER
 10
62.1984244918
 20
90.9173173446
 11
62.1984244918
 21
88.4678100932
  0
LINE
  5
2AA
100
AcDbEntity
  8
0
100
AcDbLine
 62
7
  6
BYLAYER
 10
62.1985186987
 20
48.8677230022
 11
62.1985186987
 21
16.8608282508
  0
LINE
  5
2AB
100
AcDbEntity
  8
0
100
AcDbLine
 62
7
  6
BYLAYER
 10
71.7264045241
 20
68.9935400408
 11
71.1703435813
 21
68.6725000221
  0
LINE
  5
2AC
100
AcDbEntity
  8
0
100
AcDbLine
 62
7
  6
BYLAYER
 10
79.8761146291
 20
73.5259196322
 11
76.6941473616
 21
71.6888209398
  0
LINE
  5
2AD
100
AcDbEntity
  8
0
100
AcDbLine
 62
7
  6
BYLAYER
 10
54.7738665847
 20
58.6248171195
 11
69.2694952475
 21
66.9938222738
  0
LINE
  5
2AE
100
AcDbEntity
  8
0
100
AcDbLine
 62
7
  6
BYLAYER
 10
55.4809763098
 20
58.2165763649
 11
54.8213281025
 21
57.8357305682
  0
LINE
  5
2AF
100
AcDbEntity
  8
0
100
AcDbLine
 62
7
  6
BYLAYER
 10
30.3785957869
 20
91.7336732414
 11
48.0563389156
 21
81.5276543784
  0
LINE
  5
2B0
100
AcDbEntity
  8
0
100
AcDbLine
 62
7
  6
BYLAYER
 10
68.7828663641
 20
70.050879453
 11
71.1703435813
 21
68.6725000221
  0
LINE
  5
2B1
100
AcDbEntity
  8
0
100
AcDbLine
 62
7
  6
BYLAYER
 10
30.3785957869
 20
94.1831804928
 11
48.0563389156
 21
83.9771616298
  0
LINE
  5
2B2
100
AcDbEntity
  8
0
100
AcDbLine
 62
7
  6
BYLAYER
 10
48.7634483464
 20
83.8546958458
 11
29.7421967399
 21
94.8363721424
  0
LINE
  5
2B3
100
AcDbEntity
  8
0
100
AcDbLine
 62
7
  6
BYLAYER
 10
65.0268368967
 20
78.4247933894
 11
65.0268368967
 21
74.3422813037
  0
LINE
  5
2B4
100
AcDbEntity
  8
0
100
AcDbLine
 62
7
  6
BYLAYER
 10
21.6104340175
 20
35.4765235693
 11
23.2367728431
 21
36.4154851232
  0
LINE
  5
2B5
100
AcDbEntity
  8
0
100
AcDbLine
 62
7
  6
BYLAYER
 10
25.3581386763
 20
35.1907416957
 11
25.8174566055
 21
35.4559274429
  0
LINE
  5
2B6
100
AcDbEntity
  8
0
100
AcDbLine
 62
7
  6
BYLAYER
 10
28.2725229299
 20
97.1897194388
 11
19.080096503
 21
102.4968492476
  0
LINE
  5
2B7
100
AcDbEntity
  8
0
100
AcDbLine
 62
7
  6
BYLAYER
 10
71.1703435813
 20
72.9183125912
 11
68.7828663641
 21
74.2966920221
  0
LINE
  5
2B8
100
AcDbEntity
  8
0
100
AcDbLine
 62
7
  6
BYLAYER
 10
30.0250026528
 20
97.2449455232
 11
31.9695140735
 21
96.1223067285
  0
LINE
  5
2B9
100
AcDbEntity
  8
0
100
AcDbLine
 62
7
  6
BYLAYER
 10
27.444073647
 20
99.0208640301
 11
18.25164722
 21
104.3279938388
  0
LINE
  5
2BA
100
AcDbEntity
  8
0
100
AcDbLine
 62
7
  6
BYLAYER
 10
76.6941473616
 20
71.6888209398
 11
65.0268368967
 21
78.4247933894
  0
LINE
  5
2BB
100
AcDbEntity
  8
0
100
AcDbLine
 62
7
  6
BYLAYER
 10
54.7738312571
 20
84.5894889318
 11
55.1273861196
 21
84.3853685545
  0
LINE
  5
2BC
100
AcDbEntity
  8
0
100
AcDbLine
 62
7
  6
BYLAYER
 10
30.0250026528
 20
99.6944527746
 11
32.8534415534
 21
98.0614897565
  0
LINE
  5
2BD
100
AcDbEntity
  8
0
100
AcDbLine
 62
7
  6
BYLAYER
 10
30.2724889958
 20
99.8373382284
 11
29.5653761052
 21
100.2455808105
  0
LINE
  5
2BE
100
AcDbEntity
  8
0
100
AcDbLine
 62
7
  6
BYLAYER
 10
67.1481484083
 20
94.1832688759
 11
67.1481484083
 21
91.7337616245
  0
LINE
  5
2BF
100
AcDbEntity
  8
0
100
AcDbLine
 62
7
  6
BYLAYER
 10
67.7845415674
 20
85.4875098634
 11
67.7845415674
 21
94.8364635849
  0
LINE
  5
2C0
100
AcDbEntity
  8
0
100
AcDbLine
 62
7
  6
BYLAYER
 10
68.2088041641
 20
80.3435423235
 11
68.2088041641
 21
80.2618920818
  0
LINE
  5
2C1
100
AcDbEntity
  8
0
100
AcDbLine
 62
7
  6
BYLAYER
 10
61.2491900943
 20
54.1840648949
 11
60.1885343384
 21
53.5716986641
  0
LINE
  5
2C2
100
AcDbEntity
  8
0
100
AcDbLine
 62
7
  6
BYLAYER
 10
76.6941473616
 20
62.7072943514
 11
61.2792837103
 21
53.807571797
  0
LINE
  5
2C3
100
AcDbEntity
  8
0
100
AcDbLine
 62
7
  6
BYLAYER
 10
57.4619995144
 20
51.0172689819
 11
57.2498683633
 21
50.8947957358
  0
LINE
  5
2C4
100
AcDbEntity
  8
0
100
AcDbLine
 62
7
  6
BYLAYER
 10
28.2725655872
 20
97.1897933294
 11
28.8879523158
 21
97.0065293321
  0
LINE
  5
2C5
100
AcDbEntity
  8
0
100
AcDbLine
 62
7
  6
BYLAYER
 10
54.7738312571
 20
87.0389961831
 11
55.1273861196
 21
86.8348758059
  0
LINE
  5
2C6
100
AcDbEntity
  8
0
100
AcDbLine
 62
7
  6
BYLAYER
 10
79.8761146291
 20
73.5259196322
 11
68.2088041641
 21
80.2618920818
  0
LINE
  5
2C7
100
AcDbEntity
  8
0
100
AcDbLine
 62
7
  6
BYLAYER
 10
68.2088041641
 20
80.3435423235
 11
67.8552522455
 21
80.5476610011
  0
LINE
  5
2C8
100
AcDbEntity
  8
0
100
AcDbLine
 62
7
  6
BYLAYER
 10
41.5730361161
 20
104.0732175409
 11
43.2606899504
 21
102.4126122893
  0
LINE
  5
2C9
100
AcDbEntity
  8
0
100
AcDbLine
 62
7
  6
BYLAYER
 10
71.9212082363
 20
23.0007139351
 11
71.9212082363
 21
27.0874590407
  0
LINE
  5
2CA
100
AcDbEntity
  8
0
100
AcDbLine
 62
7
  6
BYLAYER
 10
71.9212082363
 20
28.3122126664
 11
71.9212082363
 21
32.3989577721
  0
LINE
  5
2CB
100
AcDbEntity
  8
0
100
AcDbLine
 62
7
  6
BYLAYER
 10
72.9818639921
 20
33.0113240029
 11
72.9818639921
 21
28.9245788972
  0
LINE
  5
2CC
100
AcDbEntity
  8
0
100
AcDbLine
 62
7
  6
BYLAYER
 10
72.9818639921
 20
27.6998252716
 11
72.9818639921
 21
23.6130801659
  0
LINE
  5
2CD
100
AcDbEntity
  8
0
100
AcDbLine
 62
7
  6
BYLAYER
 10
62.1985186987
 20
48.8677230022
 11
61.2792837103
 21
48.3370056022
  0
LINE
  5
2CE
100
AcDbEntity
  8
0
100
AcDbLine
 62
7
  6
BYLAYER
 10
61.6328309186
 20
48.1736875844
 11
61.4206997674
 21
48.0512143383
  0
LINE
  5
2CF
100
AcDbEntity
  8
0
100
AcDbLine
 62
7
  6
BYLAYER
 10
29.9263548262
 20
99.7420128161
 11
29.7724957594
 21
99.7878073626
  0
LINE
  5
2D0
100
AcDbEntity
  8
0
100
AcDbLine
 62
7
  6
BYLAYER
 10
33.4596916544
 20
99.3335309155
 11
29.8930634826
 21
100.6219405006
  0
LINE
  5
2D1
100
AcDbEntity
  8
0
100
AcDbLine
 62
7
  6
BYLAYER
 10
27.585495592
 20
108.4833162126
 11
27.7976285095
 21
108.3608439863
  0
LINE
  5
2D2
100
AcDbEntity
  8
0
100
AcDbLine
 62
7
  6
BYLAYER
 10
67.7845415674
 20
85.4875098634
 11
67.8552522455
 21
85.4466859579
  0
LINE
  5
2D3
100
AcDbEntity
  8
0
100
AcDbLine
 62
7
  6
BYLAYER
 10
62.1984244918
 20
90.9173173446
 11
61.8448696292
 21
91.1214377219
  0
LINE
  5
2D4
100
AcDbEntity
  8
0
100
AcDbLine
 62
7
  6
BYLAYER
 10
76.6941473616
 20
71.6888209398
 11
76.6941473616
 21
62.7072943514
  0
LINE
  5
2D5
100
AcDbEntity
  8
0
100
AcDbLine
 62
7
  6
BYLAYER
 10
79.8761146291
 20
21.6780161445
 11
79.8761146291
 21
29.9129197653
  0
LINE
  5
2D6
100
AcDbEntity
  8
0
100
AcDbLine
 62
7
  6
BYLAYER
 10
79.8761146291
 20
35.1243577448
 11
79.8761146291
 21
73.5259196322
  0
LINE
  5
2D7
100
AcDbEntity
  8
0
100
AcDbLine
 62
7
  6
BYLAYER
 10
80.2296769918
 20
32.4967042907
 11
80.2296739873
 21
32.9049475046
  0
LINE
  5
2D8
100
AcDbEntity
  8
0
100
AcDbLine
 62
7
  6
BYLAYER
 10
41.5913857824
 20
104.028338685
 11
40.7353950211
 21
104.3375569854
  0
LINE
  5
2D9
100
AcDbEntity
  8
0
100
AcDbLine
 62
7
  6
BYLAYER
 10
28.7317364989
 20
112.9744918625
 11
27.2106501566
 21
113.8526716047
  0
LINE
  5
2DA
100
AcDbEntity
  8
0
100
AcDbLine
 62
7
  6
BYLAYER
 10
30.8530480105
 20
114.1992243241
 11
29.3319616682
 21
115.0774040663
  0
LINE
  5
2DB
100
AcDbEntity
  8
0
100
AcDbLine
 62
7
  6
BYLAYER
 10
29.4149656298
 20
104.5856570991
 11
31.9452014352
 21
104.4013055312
  0
LINE
  5
2DC
100
AcDbEntity
  8
0
100
AcDbLine
 62
7
  6
BYLAYER
 10
44.9535175133
 20
101.4557504234
 11
47.0566817165
 21
101.1543406735
  0
LINE
  5
2DD
100
AcDbEntity
  8
0
100
AcDbLine
 62
7
  6
BYLAYER
 10
51.949005067
 20
103.9789080165
 11
67.7845415674
 21
94.8364635849
  0
LINE
  5
2DE
100
AcDbEntity
  8
0
100
AcDbLine
 62
7
  6
BYLAYER
 10
33.9920493105
 20
105.583046649
 11
39.5011758719
 21
105.181654764
  0
LINE
  5
2DF
100
AcDbEntity
  8
0
100
AcDbLine
 62
7
  6
BYLAYER
 10
31.3477064018
 20
107.6846653356
 11
27.7838769137
 21
107.944323962
  0
LINE
  5
2E0
100
AcDbEntity
  8
0
100
AcDbLine
 62
7
  6
BYLAYER
 10
32.5185417369
 20
109.2545069674
 11
33.8932802157
 21
109.1543442895
  0
LINE
  5
2E1
100
AcDbEntity
  8
0
100
AcDbLine
 62
7
  6
BYLAYER
 10
27.485498209
 20
108.4932173111
 11
27.585495592
 21
108.4833162126
  0
LINE
  5
2E2
100
AcDbEntity
  8
0
100
AcDbLine
 62
7
  6
BYLAYER
 10
49.8594675371
 20
19.1673054262
 11
51.4858063627
 21
20.1062669801
  0
LINE
  5
2E3
100
AcDbEntity
  8
0
100
AcDbLine
 62
7
  6
BYLAYER
 10
27.7976285095
 20
108.3608439863
 11
31.0323709447
 21
108.3964709823
  0
LINE
  5
2E4
100
AcDbEntity
  8
0
100
AcDbLine
 62
7
  6
BYLAYER
 10
40.8167237926
 20
120.9389906547
 11
40.1506503776
 21
121.3235396205
  0
LINE
  5
2E5
100
AcDbEntity
  8
0
100
AcDbLine
 62
7
  6
BYLAYER
 10
53.6071721959
 20
18.8815235526
 11
54.2943088801
 21
19.2782397342
  0
LINE
  5
2E6
100
AcDbEntity
  8
0
100
AcDbLine
 62
7
  6
BYLAYER
 10
68.3820231888
 20
26.2688754237
 11
71.9212082363
 21
28.3122126664
  0
LINE
  5
2E7
100
AcDbEntity
  8
0
100
AcDbLine
 62
7
  6
BYLAYER
 10
72.9818639921
 20
28.9245788972
 11
76.5210490395
 21
30.96791614
  0
LINE
  5
2E8
100
AcDbEntity
  8
0
100
AcDbLine
 62
7
  6
BYLAYER
 10
76.5210490395
 20
29.7431625143
 11
72.9818639921
 21
27.6998252716
  0
LINE
  5
2E9
100
AcDbEntity
  8
0
100
AcDbLine
 62
7
  6
BYLAYER
 10
71.9212082363
 20
27.0874590407
 11
68.3820231888
 21
25.044121798
  0
LINE
  5
2EA
100
AcDbEntity
  8
0
100
AcDbLine
 62
7
  6
BYLAYER
 10
27.2106501566
 20
113.8526716047
 11
21.1473119275
 21
113.7858908543
  0
LINE
  5
2EB
100
AcDbEntity
  8
0
100
AcDbLine
 62
7
  6
BYLAYER
 10
23.2686234391
 20
115.0106233159
 11
29.3319616682
 21
115.0774040663
  0
LINE
  5
2EC
100
AcDbEntity
  8
0
100
AcDbLine
 62
7
  6
BYLAYER
 10
37.3180142184
 20
114.2509721517
 11
29.816765165
 21
114.797508969
  0
LINE
  5
2ED
100
AcDbEntity
  8
0
100
AcDbLine
 62
7
  6
BYLAYER
 10
26.4159850168
 20
115.0452879115
 11
23.4471545786
 21
115.2615952394
  0
LINE
  5
2EE
100
AcDbEntity
  8
0
100
AcDbLine
 62
7
  6
BYLAYER
 10
61.6328309186
 20
18.0855735132
 11
61.498824541
 21
18.0082053568
  0
LINE
  5
2EF
100
AcDbEntity
  8
0
100
AcDbLine
 62
7
  6
BYLAYER
 10
61.5094872305
 20
16.4630181217
 11
62.1985186987
 21
16.8608282508
  0
LINE
  5
2F0
100
AcDbEntity
  8
0
100
AcDbLine
 62
7
  6
BYLAYER
 10
61.5099638163
 20
16.3939535391
 11
60.4493080605
 21
15.7815873083
  0
LINE
  5
2F1
100
AcDbEntity
  8
0
100
AcDbLine
 62
7
  6
BYLAYER
 10
40.1506503776
 20
121.3235396205
 11
34.0873121485
 21
121.2567588701
  0
LINE
  5
2F2
100
AcDbEntity
  8
0
100
AcDbLine
 62
7
  6
BYLAYER
 10
33.3466082997
 20
120.9770133936
 11
40.6763300155
 21
120.4429739624
  0
LINE
  5
2F3
100
AcDbEntity
  8
0
100
AcDbLine
 62
7
  6
BYLAYER
 10
72.451668846
 20
19.0245705519
 11
72.0981193442
 21
18.8204428855
  0
LINE
  5
2F4
100
AcDbEntity
  8
0
100
AcDbLine
 62
7
  6
BYLAYER
 10
79.8761146291
 20
21.6780161445
 11
60.5721798731
 21
10.5329507438
  0
LINE
  5
2F5
100
AcDbEntity
  8
0
100
AcDbLine
 62
7
  6
BYLAYER
 10
36.2086236601
 20
122.4814913318
 11
42.0565992913
 21
122.5459001089
  0
ARC
  5
2F6
100
AcDbEntity
  8
0
100
AcDbCircle
 62
7
  6
BYLAYER
 10
70.1732435181
 20
32.497862661
 40
10.0564338851
100
AcDbArc
 50
359.9933991382
 51
2.3701225035
  0
ARC
  5
2F7
100
AcDbEntity
  8
0
100
AcDbCircle
 62
7
  6
BYLAYER
 10
67.4696291381
 20
27.6461966654
 40
9.9575573907
100
AcDbArc
 50
297.6596415816
 51
300.0216712901
  0
ARC
  5
2F8
100
AcDbEntity
  8
0
100
AcDbCircle
 62
7
  6
BYLAYER
 10
56.491121296
 20
113.0069726589
 40
5.9661461189
100
AcDbArc
 50
259.1806988314
 51
262.567718545
  0
ARC
  5
2F9
100
AcDbEntity
  8
0
100
AcDbCircle
 62
7
  6
BYLAYER
 10
61.3532932919
 20
53.8233263007
 40
4.7975123699
100
AcDbArc
 50
215.7958129046
 51
222.0669649596
  0
ARC
  5
2FA
100
AcDbEntity
  8
0
100
AcDbCircle
 62
7
  6
BYLAYER
 10
68.2898443806
 20
21.6099974752
 40
3.8800357735
100
AcDbArc
 50
228.4387633529
 51
239.9702270811
  0
ARC
  5
2FB
100
AcDbEntity
  8
0
100
AcDbCircle
 62
7
  6
BYLAYER
 10
28.6124763579
 20
100.2255960422
 40
3.2870767718
100
AcDbArc
 50
295.248463244
 51
295.4324912713
  0
ARC
  5
2FC
100
AcDbEntity
  8
0
100
AcDbCircle
 62
7
  6
BYLAYER
 10
33.2185464301
 20
117.8575796242
 40
3.1892248149
100
AcDbArc
 50
87.8582158717
 51
88.1126691644
  0
ARC
  5
2FD
100
AcDbEntity
  8
0
100
AcDbCircle
 62
7
  6
BYLAYER
 10
58.4676283914
 20
51.7114273595
 40
1.4458282173
100
AcDbArc
 50
240.1913708855
 51
242.4047842641
  0
ARC
  5
2FE
100
AcDbEntity
  8
0
100
AcDbCircle
 62
7
  6
BYLAYER
 10
23.1110107766
 20
72.1241182603
 40
1.4458282173
100
AcDbArc
 50
240.1913708854
 51
242.4047842641
  0
ARC
  5
2FF
100
AcDbEntity
  8
0
100
AcDbCircle
 62
7
  6
BYLAYER
 10
22.6956423923
 20
72.8320838553
 40
1.4393386917
100
AcDbArc
 50
177.2624637137
 51
180.4276367478
  0
ARC
  5
300
100
AcDbEntity
  8
0
100
AcDbCircle
 62
7
  6
BYLAYER
 10
58.0522600071
 20
52.4193929545
 40
1.4393386917
100
AcDbArc
 50
177.2624637137
 51
180.4276367478
  0
SPLINE
  5
301
100
AcDbEntity
  8
0
100
AcDbSpline
 62
7
  6
BYLAYER
 70
0
 71
3
 72
21
 73
17
 74
0
 42
0.0000001
 43
0.0000001
 44
0.0000000001
 40
0.0
 40
0.0
 40
0.0
 40
0.0
 40
0.0558443086
 40
0.114191431
 40
0.1748018272
 40
0.2373786921
 40
0.3015805976
 40
0.3670312483
 40
0.4999984201
 40
0.6329660654
 40
0.6984166178
 40
0.7626193367
 40
0.8251971457
 40
0.8858046875
 40
0.9441606712
 40
1.0
 40
1.0
 40
1.0
 40
1.0
 10
72.451669189
 20
19.0245827724
 30
0.0
 10
72.7122626027
 20
19.1750407297
 30
0.0
 10
73.2319678579
 20
19.5059453457
 30
0.0
 10
73.9857530199
 20
20.072058963
 30
0.0
 10
74.7247881517
 20
20.7140746211
 30
0.0
 10
75.4419845439
 20
21.4257989394
 30
0.0
 10
76.1305695951
 20
22.2004755111
 30
0.0
 10
77.0061033267
 20
23.3130897118
 30
0.0
 10
77.9863956738
 20
24.8104716319
 30
0.0
 10
78.7929994477
 20
26.4081313034
 30
0.0
 10
79.3187636547
 20
27.7226877665
 30
0.0
 10
79.6453639862
 20
28.7063666974
 30
0.0
 10
79.9031158716
 20
29.6833385616
 30
0.0
 10
80.0896032777
 20
30.6444076376
 30
0.0
 10
80.2029406722
 20
31.5802713846
 30
0.0
 10
80.2296773365
 20
32.1958214294
 30
0.0
 10
80.2296773365
 20
32.4967040917
 30
0.0
  0
SPLINE
  5
302
100
AcDbEntity
  8
0
100
AcDbSpline
 62
7
  6
BYLAYER
 70
0
 71
3
 72
15
 73
11
 74
0
 42
0.0000001
 43
0.0000001
 44
0.0000000001
 40
0.0
 40
0.0
 40
0.0
 40
0.0
 40
0.108012564
 40
0.2180612989
 40
0.3319990155
 40
0.4513575435
 40
0.577277251
 40
0.7104996148
 40
0.8513942844
 40
1.0
 40
1.0
 40
1.0
 40
1.0
 10
66.3480806719
 20
18.2507964835
 30
0.0
 10
66.5366245198
 20
18.1419345082
 30
0.0
 10
66.9369537345
 20
17.95449346
 30
0.0
 10
67.5846854412
 20
17.7753724988
 30
0.0
 10
68.2751903475
 20
17.6983634599
 30
0.0
 10
69.0011085526
 20
17.7236377811
 30
0.0
 10
69.7554477527
 20
17.850198168
 30
0.0
 10
70.5311461779
 20
18.0763471841
 30
0.0
 10
71.3209586554
 20
18.3995926467
 30
0.0
 10
71.8387153503
 20
18.6706798293
 30
0.0
 10
72.098119344
 20
18.8204510217
 30
0.0
  0
SPLINE
  5
303
100
AcDbEntity
  8
0
100
AcDbSpline
 62
7
  6
BYLAYER
 70
0
 71
3
 72
15
 73
11
 74
0
 42
0.0000001
 43
0.0000001
 44
0.0000000001
 40
0.0
 40
0.0
 40
0.0
 40
0.0
 40
0.1080121073
 40
0.2180610577
 40
0.3319978041
 40
0.4513559028
 40
0.5772770076
 40
0.7104924733
 40
0.851410256
 40
1.0
 40
1.0
 40
1.0
 40
1.0
 10
65.6409736177
 20
18.6590394687
 30
0.0
 10
65.4524281142
 20
18.7679020897
 30
0.0
 10
65.089902711
 20
19.02083752
 30
0.0
 10
64.6109247997
 20
19.4922545682
 30
0.0
 10
64.1989678176
 20
20.0517387377
 30
0.0
 10
63.8578652827
 20
20.6930342441
 30
0.0
 10
63.5903002787
 20
21.4095887539
 30
0.0
 10
63.3982709421
 20
22.1944774043
 30
0.0
 10
63.2833230392
 20
23.04011144
 30
0.0
 10
63.2591773985
 20
23.6240647969
 30
0.0
 10
63.2591773985
 20
23.9235723313
 30
0.0
  0
SPLINE
  5
304
100
AcDbEntity
  8
0
100
AcDbSpline
 62
7
  6
BYLAYER
 70
0
 71
3
 72
27
 73
23
 74
0
 42
0.0000001
 43
0.0000001
 44
0.0000000001
 40
0.0
 40
0.0
 40
0.0
 40
0.0
 40
0.0623778204
 40
0.1287082707
 40
0.1982938911
 40
0.270262317
 40
0.3436315819
 40
0.417355081
 40
0.4903713169
 40
0.5616499712
 40
0.6302398794
 40
0.6953205835
 40
0.7562617606
 40
0.8126931483
 40
0.8392156146
 40
0.8646361098
 40
0.8890201382
 40
0.9124671543
 40
0.9351092849
 40
0.9571122281
 40
0.9786703176
 40
1.0
 40
1.0
 40
1.0
 40
1.0
 10
63.2591773985
 20
23.9235723313
 30
0.0
 10
63.2591773985
 20
24.40067247
 30
0.0
 10
63.3238056647
 20
25.3857626285
 30
0.0
 10
63.5897811934
 20
26.8814881343
 30
0.0
 10
64.0221683025
 20
28.414119695
 30
0.0
 10
64.6117666684
 20
29.9508908569
 30
0.0
 10
65.3459940367
 20
31.4592216266
 30
0.0
 10
66.2092058956
 20
32.9069289669
 30
0.0
 10
67.182980537
 20
34.2631362271
 30
0.0
 10
68.2465852664
 20
35.4989441828
 30
0.0
 10
69.3774299054
 20
36.5880702823
 30
0.0
 10
70.5518030463
 20
37.5074667077
 30
0.0
 10
71.7450206251
 20
38.2375136964
 30
0.0
 10
72.755644371
 20
38.6841834781
 30
0.0
 10
73.5492972502
 20
38.926285212
 30
0.0
 10
74.1209890569
 20
39.0483792402
 30
0.0
 10
74.678298127
 20
39.1138928954
 30
0.0
 10
75.2182463486
 20
39.1224262148
 30
0.0
 10
75.7378751377
 20
39.0736781649
 30
0.0
 10
76.2342994799
 20
38.9678086966
 30
0.0
 10
76.7045437468
 20
38.8052501136
 30
0.0
 10
76.9994868744
 20
38.6592946213
 30
0.0
 10
77.1407694352
 20
38.5777207329
 30
0.0
  0
SPLINE
  5
305
100
AcDbEntity
  8
0
100
AcDbSpline
 62
7
  6
BYLAYER
 70
0
 71
3
 72
15
 73
11
 74
0
 42
0.0000001
 43
0.0000001
 44
0.0000000001
 40
0.0
 40
0.0
 40
0.0
 40
0.0
 40
0.1485896363
 40
0.2895067336
 40
0.4227217765
 40
0.5486427735
 40
0.6680012171
 40
0.7819383985
 40
0.8919875564
 40
1.0
 40
1.0
 40
1.0
 40
1.0
 10
80.2296743467
 20
32.9049477118
 30
0.0
 10
80.2296743467
 20
33.2044551055
 30
0.0
 10
80.2055291166
 20
33.7884070192
 30
0.0
 10
80.0905816915
 20
34.6340388829
 30
0.0
 10
79.898553382
 20
35.4189253812
 30
0.0
 10
79.6309907889
 20
36.135480625
 30
0.0
 10
79.2898877401
 20
36.7767776351
 30
0.0
 10
78.8779307524
 20
37.3362644594
 30
0.0
 10
78.3989518833
 20
37.8076836555
 30
0.0
 10
78.0364257698
 20
38.0606201814
 30
0.0
 10
77.8478797656
 20
38.1694834017
 30
0.0
  0
SPLINE
  5
306
100
AcDbEntity
  8
0
100
AcDbSpline
 62
7
  6
BYLAYER
 70
0
 71
3
 72
9
 73
5
 74
0
 42
0.0000001
 43
0.0000001
 44
0.0000000001
 40
0.0
 40
0.0
 40
0.0
 40
0.0
 40
0.2564696458
 40
1.0
 40
1.0
 40
1.0
 40
1.0
 10
72.4515361142
 20
32.7448745445
 30
0.0
 10
72.4954914183
 20
32.7702519997
 30
0.0
 10
72.6682396966
 20
32.8668081697
 30
0.0
 10
72.8465339177
 20
32.9535559678
 30
0.0
 10
72.9818639921
 20
33.0113240029
 30
0.0
  0
SPLINE
  5
307
100
AcDbEntity
  8
0
100
AcDbSpline
 62
7
  6
BYLAYER
 70
0
 71
3
 72
9
 73
5
 74
0
 42
0.0000001
 43
0.0000001
 44
0.0000000001
 40
0.0
 40
0.0
 40
0.0
 40
0.0
 40
0.2556516454
 40
1.0
 40
1.0
 40
1.0
 40
1.0
 10
71.9212082363
 20
32.3989577721
 30
0.0
 10
71.9648450134
 20
32.4307177515
 30
0.0
 10
72.1370569782
 20
32.5528334727
 30
0.0
 10
72.3154483529
 20
32.6663047079
 30
0.0
 10
72.4515361142
 20
32.7448745445
 30
0.0
  0
SPLINE
  5
308
100
AcDbEntity
  8
0
100
AcDbSpline
 62
7
  6
BYLAYER
 70
0
 71
3
 72
9
 73
5
 74
0
 42
0.0000001
 43
0.0000001
 44
0.0000000001
 40
0.0
 40
0.0
 40
0.0
 40
0.0
 40
0.4838301147
 40
1.0
 40
1.0
 40
1.0
 40
1.0
 10
68.3820231888
 20
25.044121798
 30
0.0
 10
68.3583120129
 20
25.2405318855
 30
0.0
 10
68.3362007541
 20
25.6499715781
 30
0.0
 10
68.3597852159
 20
26.0589904776
 30
0.0
 10
68.3820231888
 20
26.2688754237
 30
0.0
  0
SPLINE
  5
309
100
AcDbEntity
  8
0
100
AcDbSpline
 62
7
  6
BYLAYER
 70
0
 71
3
 72
14
 73
10
 74
0
 42
0.0000001
 43
0.0000001
 44
0.0000000001
 40
0.0
 40
0.0
 40
0.0
 40
0.0
 40
0.1457417538
 40
0.2851426311
 40
0.5444901205
 40
0.6653277576
 40
0.7809119575
 40
0.892104703
 40
1.0
 40
1.0
 40
1.0
 40
1.0
 10
63.9662860908
 20
23.515332173
 30
0.0
 10
63.9662860908
 20
23.2594868289
 30
0.0
 10
63.9840181526
 20
22.7585891882
 30
0.0
 10
64.0927251757
 20
21.8084666367
 30
0.0
 10
64.3110912788
 20
20.9159862759
 30
0.0
 10
64.650584858
 20
20.1129442176
 30
0.0
 10
64.951936169
 20
19.5805610972
 30
0.0
 10
65.3038382328
 20
19.1081643077
 30
0.0
 10
65.5739281637
 20
18.8323165328
 30
0.0
 10
65.7157505072
 20
18.70677197
 30
0.0
  0
SPLINE
  5
30A
100
AcDbEntity
  8
0
100
AcDbSpline
 62
7
  6
BYLAYER
 70
0
 71
3
 72
10
 73
6
 74
0
 42
0.0000001
 43
0.0000001
 44
0.0000000001
 40
0.0
 40
0.0
 40
0.0
 40
0.0
 40
0.2701908768
 40
0.5269896158
 40
1.0
 40
1.0
 40
1.0
 40
1.0
 10
64.6733948918
 20
23.5153338463
 30
0.0
 10
64.6733948918
 20
23.2394263333
 30
0.0
 10
64.6948896607
 20
22.7007714473
 30
0.0
 10
64.8269084202
 20
21.6876969796
 30
0.0
 10
65.0316735529
 20
20.9626663661
 30
0.0
 10
65.2220219282
 20
20.5187360728
 30
0.0
  0
SPLINE
  5
30B
100
AcDbEntity
  8
0
100
AcDbSpline
 62
7
  6
BYLAYER
 70
0
 71
3
 72
9
 73
5
 74
0
 42
0.0000001
 43
0.0000001
 44
0.0000000001
 40
0.0
 40
0.0
 40
0.0
 40
0.0
 40
0.2567716144
 40
1.0
 40
1.0
 40
1.0
 40
1.0
 10
65.2220219282
 20
20.5187360728
 30
0.0
 10
65.2539293605
 20
20.4443215907
 30
0.0
 10
65.3845224412
 20
20.1572978247
 30
0.0
 10
65.5413075735
 20
19.8819619842
 30
0.0
 10
65.6728262699
 20
19.6879853524
 30
0.0
  0
SPLINE
  5
30C
100
AcDbEntity
  8
0
100
AcDbSpline
 62
7
  6
BYLAYER
 70
0
 71
3
 72
20
 73
16
 74
0
 42
0.0000001
 43
0.0000001
 44
0.0000000001
 40
0.0
 40
0.0
 40
0.0
 40
0.0
 40
0.0593115062
 40
0.1172374314
 40
0.1741604779
 40
0.2305001677
 40
0.286698833
 40
0.3432045521
 40
0.4004525726
 40
0.4588513618
 40
0.5187662485
 40
0.5805147333
 40
0.710388636
 40
0.8500225733
 40
1.0
 40
1.0
 40
1.0
 40
1.0
 10
65.6728262699
 20
19.6879853524
 30
0.0
 10
65.7521305471
 20
19.571019651
 30
0.0
 10
65.9199452611
 20
19.3470553698
 30
0.0
 10
66.2014711787
 20
19.0412481153
 30
0.0
 10
66.5083203433
 20
18.7713434118
 30
0.0
 10
66.8392361541
 20
18.5386105749
 30
0.0
 10
67.192784833
 20
18.3439892066
 30
0.0
 10
67.5674894898
 20
18.18839385
 30
0.0
 10
67.9617031452
 20
18.0723539769
 30
0.0
 10
68.3737723348
 20
17.9964022532
 30
0.0
 10
68.8019808018
 20
17.9606783682
 30
0.0
 10
69.4020045491
 20
17.9669787471
 30
0.0
 10
70.1869979232
 20
18.0810366355
 30
0.0
 10
71.1457884779
 20
18.3738455272
 30
0.0
 10
71.7755878554
 20
18.6607382197
 30
0.0
 10
72.0921092079
 20
18.8265806197
 30
0.0
  0
SPLINE
  5
30D
100
AcDbEntity
  8
0
100
AcDbSpline
 62
7
  6
BYLAYER
 70
0
 71
3
 72
22
 73
18
 74
0
 42
0.0000001
 43
0.0000001
 44
0.0000000001
 40
0.0
 40
0.0
 40
0.0
 40
0.0
 40
0.1493609489
 40
0.2196838815
 40
0.287170691
 40
0.351978219
 40
0.4143322794
 40
0.4745477209
 40
0.533017355
 40
0.5902079609
 40
0.6466429512
 40
0.7028836255
 40
0.7595009429
 40
0.817046428
 40
0.8760284863
 40
0.9368901098
 40
1.0
 40
1.0
 40
1.0
 40
1.0
 10
80.2210744334
 20
32.9137429121
 30
0.0
 10
80.2043286783
 20
33.3148486992
 30
0.0
 10
80.1430329639
 20
33.9047556154
 30
0.0
 10
79.9750801978
 20
34.6587826821
 30
0.0
 10
79.8131435156
 20
35.1794764494
 30
0.0
 10
79.6135702147
 20
35.6639042271
 30
0.0
 10
79.3771511574
 20
36.1095640252
 30
0.0
 10
79.1050787098
 20
36.5141351469
 30
0.0
 10
78.7985652013
 20
36.8753773958
 30
0.0
 10
78.4592198522
 20
37.1913451383
 30
0.0
 10
78.0887391094
 20
37.4601543472
 30
0.0
 10
77.6892040707
 20
37.6803561759
 30
0.0
 10
77.2627916977
 20
37.8506522786
 30
0.0
 10
76.8119174586
 20
37.9702561789
 30
0.0
 10
76.3390178012
 20
38.0385643748
 30
0.0
 10
75.8466809442
 20
38.0554290409
 30
0.0
 10
75.5136085176
 20
38.0328021693
 30
0.0
 10
75.3450824844
 20
38.0134987701
 30
0.0
  0
SPLINE
  5
30E
100
AcDbEntity
  8
0
100
AcDbSpline
 62
7
  6
BYLAYER
 70
0
 71
3
 72
24
 73
20
 74
0
 42
0.0000001
 43
0.0000001
 44
0.0000000001
 40
0.0
 40
0.0
 40
0.0
 40
0.0
 40
0.0476240782
 40
0.0987116546
 40
0.1256118252
 40
0.1534039884
 40
0.2115607687
 40
0.2729354939
 40
0.3371223734
 40
0.4036097521
 40
0.4718073606
 40
0.5410702171
 40
0.6107205991
 40
0.680069318
 40
0.7484356626
 40
0.8151704094
 40
0.8796728923
 40
0.9414257589
 40
1.0
 40
1.0
 40
1.0
 40
1.0
 10
75.3450824844
 20
38.0134987701
 30
0.0
 10
75.0414014871
 20
37.9787143787
 30
0.0
 10
74.4173355919
 20
37.8539756564
 30
0.0
 10
73.654434463
 20
37.5864538979
 30
0.0
 10
73.0361372704
 20
37.3052448256
 30
0.0
 10
72.3947273412
 20
36.968023615
 30
0.0
 10
71.5947692262
 20
36.4605410561
 30
0.0
 10
70.6622312371
 20
35.7363785669
 30
0.0
 10
69.7562055673
 20
34.8985280208
 30
0.0
 10
68.8899788517
 20
33.95932006
 30
0.0
 10
68.0762047191
 20
32.9325174686
 30
0.0
 10
67.3268399524
 20
31.8332139366
 30
0.0
 10
66.6529022109
 20
30.6775797075
 30
0.0
 10
66.0643152248
 20
29.4826236293
 30
0.0
 10
65.5697261351
 20
28.2659203589
 30
0.0
 10
65.1764336908
 20
27.0453635949
 30
0.0
 10
64.8901739413
 20
25.8387738908
 30
0.0
 10
64.7152437853
 20
24.6639752036
 30
0.0
 10
64.6733948919
 20
23.8912821657
 30
0.0
 10
64.6733948918
 20
23.5153338463
 30
0.0
  0
SPLINE
  5
30F
100
AcDbEntity
  8
0
100
AcDbSpline
 62
7
  6
BYLAYER
 70
0
 71
3
 72
18
 73
14
 74
0
 42
0.0000001
 43
0.0000001
 44
0.0000000001
 40
0.0
 40
0.0
 40
0.0
 40
0.0
 40
0.0513602203
 40
0.1030898789
 40
0.1555446354
 40
0.2090568186
 40
0.2639228143
 40
0.3204013227
 40
0.4389127301
 40
0.5658803771
 40
0.7018248958
 40
0.8467010961
 40
1.0
 40
1.0
 40
1.0
 40
1.0
 10
77.8478797656
 20
38.1694834017
 30
0.0
 10
77.7323950032
 20
38.2361623174
 30
0.0
 10
77.493400542
 20
38.3579549826
 30
0.0
 10
77.1158646301
 20
38.5032633286
 30
0.0
 10
76.7201394011
 20
38.6110370036
 30
0.0
 10
76.3077767507
 20
38.6808125085
 30
0.0
 10
75.8803052906
 20
38.7124936047
 30
0.0
 10
75.2829052467
 20
38.7036187535
 30
0.0
 10
74.5032401084
 20
38.5922545759
 30
0.0
 10
73.5507878339
 20
38.3106350692
 30
0.0
 10
72.5790735552
 20
37.8838865371
 30
0.0
 10
71.6017117311
 20
37.3185389031
 30
0.0
 10
70.9716772795
 20
36.8663862559
 30
0.0
 10
70.6585924584
 20
36.6206155317
 30
0.0
  0
SPLINE
  5
310
100
AcDbEntity
  8
0
100
AcDbSpline
 62
7
  6
BYLAYER
 70
0
 71
3
 72
17
 73
13
 74
0
 42
0.0000001
 43
0.0000001
 44
0.0000000001
 40
0.0
 40
0.0
 40
0.0
 40
0.0
 40
0.1205751716
 40
0.2473454426
 40
0.3779859906
 40
0.509923987
 40
0.6405065998
 40
0.7671653135
 40
0.8283089958
 40
0.8876332126
 40
0.9449334484
 40
1.0
 40
1.0
 40
1.0
 40
1.0
 10
70.6585924584
 20
36.6206155317
 30
0.0
 10
70.1794342838
 20
36.2444776814
 30
0.0
 10
69.2465946472
 20
35.4075991715
 30
0.0
 10
67.9754107159
 20
33.9779628087
 30
0.0
 10
66.8262238098
 20
32.3772801344
 30
0.0
 10
65.8333242922
 20
30.6531403689
 30
0.0
 10
65.0261211041
 20
28.8567201131
 30
0.0
 10
64.5220772331
 20
27.3255137724
 30
0.0
 10
64.2348896311
 20
26.1098527763
 30
0.0
 10
64.0812712434
 20
25.2243714063
 30
0.0
 10
63.9881222061
 20
24.3613913816
 30
0.0
 10
63.9662860908
 20
23.7935335176
 30
0.0
 10
63.9662860908
 20
23.515332173
 30
0.0
  0
SPLINE
  5
311
100
AcDbEntity
  8
0
100
AcDbSpline
 62
7
  6
BYLAYER
 70
0
 71
3
 72
9
 73
5
 74
0
 42
0.0000001
 43
0.0000001
 44
0.0000000001
 40
0.0
 40
0.0
 40
0.0
 40
0.0
 40
0.2564696458
 40
1.0
 40
1.0
 40
1.0
 40
1.0
 10
72.4515361142
 20
23.2671633935
 30
0.0
 10
72.4075808101
 20
23.2417859383
 30
0.0
 10
72.2348325317
 20
23.1452297682
 30
0.0
 10
72.0565383107
 20
23.0584819701
 30
0.0
 10
71.9212082363
 20
23.0007139351
 30
0.0
  0
SPLINE
  5
312
100
AcDbEntity
  8
0
100
AcDbSpline
 62
7
  6
BYLAYER
 70
0
 71
3
 72
9
 73
5
 74
0
 42
0.0000001
 43
0.0000001
 44
0.0000000001
 40
0.0
 40
0.0
 40
0.0
 40
0.0
 40
0.2556516454
 40
1.0
 40
1.0
 40
1.0
 40
1.0
 10
72.9818639921
 20
23.6130801659
 30
0.0
 10
72.938227215
 20
23.5813201865
 30
0.0
 10
72.7660152502
 20
23.4592044653
 30
0.0
 10
72.5876238755
 20
23.3457332301
 30
0.0
 10
72.4515361142
 20
23.2671633935
 30
0.0
  0
SPLINE
  5
313
100
AcDbEntity
  8
0
100
AcDbSpline
 62
7
  6
BYLAYER
 70
0
 71
3
 72
9
 73
5
 74
0
 42
0.0000001
 43
0.0000001
 44
0.0000000001
 40
0.0
 40
0.0
 40
0.0
 40
0.0
 40
0.4838301147
 40
1.0
 40
1.0
 40
1.0
 40
1.0
 10
76.5210490395
 20
30.96791614
 30
0.0
 10
76.5447602155
 20
30.7715060525
 30
0.0
 10
76.5668714742
 20
30.3620663599
 30
0.0
 10
76.5432870125
 20
29.9530474604
 30
0.0
 10
76.5210490395
 20
29.7431625143
 30
0.0
  0
LINE
  5
314
100
AcDbEntity
  8
0
100
AcDbLine
 62
7
  6
BYLAYER
 10
75.1735634968
 20
30.1899561928
 11
76.5210490395
 21
29.7431625143
  0
LINE
  5
315
100
AcDbEntity
  8
0
100
AcDbLine
 62
7
  6
BYLAYER
 10
72.9818639921
 20
23.6130801659
 11
71.9212025639
 21
24.5565993307
  0
SPLINE
  5
316
100
AcDbEntity
  8
0
100
AcDbSpline
 62
7
  6
BYLAYER
 70
0
 71
3
 72
15
 73
11
 74
0
 42
0.0000001
 43
0.0000001
 44
0.0000000001
 40
0.0
 40
0.0
 40
0.0
 40
0.0
 40
0.1485891431
 40
0.2895060298
 40
0.4227210415
 40
0.5486420105
 40
0.668000189
 40
0.781937364
 40
0.8919870268
 40
1.0
 40
1.0
 40
1.0
 40
1.0
 10
59.36282932
 20
112.861087529
 30
0.0
 10
59.36282932
 20
112.6006475599
 30
0.0
 10
59.3418334224
 20
112.0928652549
 30
0.0
 10
59.2418790294
 20
111.3575356084
 30
0.0
 10
59.0748977756
 20
110.6750271439
 30
0.0
 10
58.8422343076
 20
110.0519374452
 30
0.0
 10
58.5456243331
 20
109.494288789
 30
0.0
 10
58.1874012168
 20
109.0077788801
 30
0.0
 10
57.7708988462
 20
108.5978468974
 30
0.0
 10
57.4556588824
 20
108.3778997432
 30
0.0
 10
57.2917058718
 20
108.2832347037
 30
0.0
  0
SPLINE
  5
317
100
AcDbEntity
  8
0
100
AcDbSpline
 62
7
  6
BYLAYER
 70
0
 71
3
 72
27
 73
23
 74
0
 42
0.0000001
 43
0.0000001
 44
0.0000000001
 40
0.0
 40
0.0
 40
0.0
 40
0.0
 40
0.0213298662
 40
0.0428881333
 40
0.0648912515
 40
0.0875335498
 40
0.1109807397
 40
0.1353649397
 40
0.1607856071
 40
0.1873082302
 40
0.2437398485
 40
0.304681062
 40
0.3697616006
 40
0.4383512347
 40
0.5096295946
 40
0.58264552
 40
0.656368676
 40
0.7297376546
 40
0.8017059612
 40
0.8712915941
 40
0.9376221388
 40
1.0
 40
1.0
 40
1.0
 40
1.0
 10
47.2917582652
 20
125.6037554448
 30
0.0
 10
47.4146136192
 20
125.6746910555
 30
0.0
 10
47.6710882673
 20
125.8016117693
 30
0.0
 10
48.0799997681
 20
125.9429726462
 30
0.0
 10
48.5116773601
 20
126.0350372638
 30
0.0
 10
48.9635330674
 20
126.077431745
 30
0.0
 10
49.4330584063
 20
126.0700153326
 30
0.0
 10
49.9176806618
 20
126.013051002
 30
0.0
 10
50.4148099101
 20
125.9068855014
 30
0.0
 10
51.1049507897
 20
125.6963668238
 30
0.0
 10
51.9837631172
 20
125.3079633622
 30
0.0
 10
53.0213531858
 20
124.6731460042
 30
0.0
 10
54.0425551261
 20
123.8736778604
 30
0.0
 10
55.025905525
 20
122.9266192877
 30
0.0
 10
55.95078647
 20
121.8520110307
 30
0.0
 10
56.7975543165
 20
120.6727070446
 30
0.0
 10
57.5481805565
 20
119.4138366522
 30
0.0
 10
58.1866464666
 20
118.1022480345
 30
0.0
 10
58.6993477895
 20
116.7659253664
 30
0.0
 10
59.0753428487
 20
115.4331989925
 30
0.0
 10
59.3066297813
 20
114.1325630126
 30
0.0
 10
59.36282932
 20
113.2759589486
 30
0.0
 10
59.36282932
 20
112.861087529
 30
0.0
  0
SPLINE
  5
318
100
AcDbEntity
  8
0
100
AcDbSpline
 62
7
  6
BYLAYER
 70
0
 71
3
 72
11
 73
7
 74
0
 42
0.0000001
 43
0.0000001
 44
0.0000000001
 40
0.0
 40
0.0
 40
0.0
 40
0.0
 40
0.261064075
 40
0.5128584284
 40
0.7581193037
 40
1.0
 40
1.0
 40
1.0
 40
1.0
 10
50.4065344372
 20
104.9581464569
 30
0.0
 10
50.5818233278
 20
104.9542774418
 30
0.0
 10
50.9270732115
 20
104.9669281975
 30
0.0
 10
51.4306577857
 20
105.0516318067
 30
0.0
 10
51.9054911104
 20
105.2013456915
 30
0.0
 10
52.201297293
 20
105.3442975991
 30
0.0
 10
52.3419788834
 20
105.4255258511
 30
0.0
  0
SPLINE
  5
319
100
AcDbEntity
  8
0
100
AcDbSpline
 62
7
  6
BYLAYER
 70
0
 71
3
 72
14
 73
10
 74
0
 42
0.0000001
 43
0.0000001
 44
0.0000000001
 40
0.0
 40
0.0
 40
0.0
 40
0.0
 40
0.1123121079
 40
0.226051455
 40
0.3425557297
 40
0.4630049384
 40
0.5883715888
 40
0.7193991104
 40
1.0
 40
1.0
 40
1.0
 40
1.0
 10
42.3420315326
 20
122.7460461431
 30
0.0
 10
42.2080185277
 20
122.6686682708
 30
0.0
 10
41.9488229716
 20
122.4938330795
 30
0.0
 10
41.5965888221
 20
122.1775977896
 30
0.0
 10
41.2820216213
 20
121.8090210596
 30
0.0
 10
41.0072637454
 20
121.3907831661
 30
0.0
 10
40.7738325119
 20
120.9257398312
 30
0.0
 10
40.5137239952
 20
120.2319623283
 30
0.0
 10
40.394562802
 20
119.6733347465
 30
0.0
 10
40.3430834383
 20
119.2901555053
 30
0.0
  0
SPLINE
  5
31A
100
AcDbEntity
  8
0
100
AcDbSpline
 62
7
  6
BYLAYER
 70
0
 71
3
 72
27
 73
23
 74
0
 42
0.0000001
 43
0.0000001
 44
0.0000000001
 40
0.0
 40
0.0
 40
0.0
 40
0.0
 40
0.0623776999
 40
0.1287080041
 40
0.1982934667
 40
0.2702617387
 40
0.3436308622
 40
0.4173542378
 40
0.490370374
 40
0.5616489599
 40
0.6302388344
 40
0.6953195434
 40
0.7562607705
 40
0.8126922587
 40
0.8392147955
 40
0.8646353748
 40
0.8890195011
 40
0.9124666273
 40
0.9351088783
 40
0.9571119512
 40
0.9786701774
 40
1.0
 40
1.0
 40
1.0
 40
1.0
 10
54.4131024595
 20
110.0033784519
 30
0.0
 10
54.4131024595
 20
110.4182487978
 30
0.0
 10
54.3569033182
 20
111.2748501926
 30
0.0
 10
54.1256175
 20
112.5754824831
 30
0.0
 10
53.7496242617
 20
113.9082062733
 30
0.0
 10
53.2369240006
 20
115.2445289208
 30
0.0
 10
52.5984579631
 20
116.556119921
 30
0.0
 10
51.8478302786
 20
117.8149939209
 30
0.0
 10
51.0010600769
 20
118.994301606
 30
0.0
 10
50.0761760478
 20
120.0689131711
 30
0.0
 10
49.092822136
 20
121.015974233
 30
0.0
 10
48.0716172569
 20
121.8154432283
 30
0.0
 10
47.0340261228
 20
122.4502595765
 30
0.0
 10
46.1552144759
 20
122.8386611739
 30
0.0
 10
45.4650753126
 20
123.0491785525
 30
0.0
 10
44.9679475073
 20
123.1553428511
 30
0.0
 10
44.4833267012
 20
123.2123066906
 30
0.0
 10
44.0138025969
 20
123.2197223002
 30
0.0
 10
43.561947912
 20
123.177327943
 30
0.0
 10
43.1302713829
 20
123.0852627188
 30
0.0
 10
42.7213605266
 20
122.9439026018
 30
0.0
 10
42.4648866624
 20
122.8169815614
 30
0.0
 10
42.3420315326
 20
122.7460461431
 30
0.0
  0
SPLINE
  5
31B
100
AcDbEntity
  8
0
100
AcDbSpline
 62
7
  6
BYLAYER
 70
0
 71
3
 72
15
 73
11
 74
0
 42
0.0000001
 43
0.0000001
 44
0.0000000001
 40
0.0
 40
0.0
 40
0.0
 40
0.0
 40
0.1080125619
 40
0.2180619039
 40
0.3319989234
 40
0.4513571383
 40
0.5772781841
 40
0.7104934159
 40
0.8514108039
 40
1.0
 40
1.0
 40
1.0
 40
1.0
 10
52.3419788834
 20
105.4255258511
 30
0.0
 10
52.5059313018
 20
105.5201904645
 30
0.0
 10
52.821170248
 20
105.7401367645
 30
0.0
 10
53.2376720665
 20
106.1500670584
 30
0.0
 10
53.5958948907
 20
106.636576231
 30
0.0
 10
53.8925052431
 20
107.1942245386
 30
0.0
 10
54.1251700272
 20
107.8173143633
 30
0.0
 10
54.2921517512
 20
108.4998241749
 30
0.0
 10
54.392106265
 20
109.235155144
 30
0.0
 10
54.4131024595
 20
109.742938397
 30
0.0
 10
54.4131024595
 20
110.0033784519
 30
0.0
  0
SPLINE
  5
31C
100
AcDbEntity
  8
0
100
AcDbSpline
 62
7
  6
BYLAYER
 70
0
 71
3
 72
11
 73
7
 74
0
 42
0.0000001
 43
0.0000001
 44
0.0000000001
 40
0.0
 40
0.0
 40
0.0
 40
0.0
 40
0.2260717981
 40
0.4630080839
 40
0.7193034304
 40
1.0
 40
1.0
 40
1.0
 40
1.0
 10
43.1221815243
 20
114.5362154489
 30
0.0
 10
43.1890023934
 20
114.5747827486
 30
0.0
 10
43.3377567392
 20
114.6347045598
 30
0.0
 10
43.584063613
 20
114.6631282332
 30
0.0
 10
43.8483250042
 20
114.632256306
 30
0.0
 10
44.0239287954
 20
114.5761549001
 30
0.0
 10
44.1126838411
 20
114.5401123173
 30
0.0
  0
SPLINE
  5
31D
100
AcDbEntity
  8
0
100
AcDbSpline
 62
7
  6
BYLAYER
 70
0
 71
3
 72
9
 73
5
 74
0
 42
0.0000001
 43
0.0000001
 44
0.0000000001
 40
0.0
 40
0.0
 40
0.0
 40
0.0
 40
0.260693725
 40
1.0
 40
1.0
 40
1.0
 40
1.0
 10
46.1242819326
 20
111.0884826458
 30
0.0
 10
46.120540976
 20
111.0584145946
 30
0.0
 10
46.103456215
 20
110.9434549703
 30
0.0
 10
46.0749302213
 20
110.8300250581
 30
0.0
 10
46.046266762
 20
110.7490187264
 30
0.0
  0
SPLINE
  5
31E
100
AcDbEntity
  8
0
100
AcDbSpline
 62
7
  6
BYLAYER
 70
0
 71
3
 72
10
 73
6
 74
0
 42
0.0000001
 43
0.0000001
 44
0.0000000001
 40
0.0
 40
0.0
 40
0.0
 40
0.0
 40
0.5211984435
 40
0.7636143311
 40
1.0
 40
1.0
 40
1.0
 40
1.0
 10
46.046266762
 20
110.7490187264
 30
0.0
 10
46.0056023599
 20
110.6340963082
 30
0.0
 10
45.9221725876
 20
110.4713660491
 30
0.0
 10
45.7616535773
 20
110.2997007959
 30
0.0
 10
45.6700419546
 20
110.2337438229
 30
0.0
 10
45.6221566591
 20
110.2061056529
 30
0.0
  0
SPLINE
  5
31F
100
AcDbEntity
  8
0
100
AcDbSpline
 62
7
  6
BYLAYER
 70
0
 71
3
 72
11
 73
7
 74
0
 42
0.0000001
 43
0.0000001
 44
0.0000000001
 40
0.0
 40
0.0
 40
0.0
 40
0.0
 40
0.2811219161
 40
0.5429619719
 40
0.7827610154
 40
1.0
 40
1.0
 40
1.0
 40
1.0
 10
43.2606899504
 20
102.4126122893
 30
0.0
 10
43.3925323758
 20
102.2828829458
 30
0.0
 10
43.661404981
 20
102.0461391531
 30
0.0
 10
44.0898118475
 20
101.7573280709
 30
0.0
 10
44.5189789599
 20
101.553897495
 30
0.0
 10
44.8120299034
 20
101.4760273686
 30
0.0
 10
44.9535175133
 20
101.4557504234
 30
0.0
  0
SPLINE
  5
320
100
AcDbEntity
  8
0
100
AcDbSpline
 62
7
  6
BYLAYER
 70
0
 71
3
 72
11
 73
7
 74
0
 42
0.0000001
 43
0.0000001
 44
0.0000000001
 40
0.0
 40
0.0
 40
0.0
 40
0.0
 40
0.2143646708
 40
0.4529838068
 40
0.7158509625
 40
1.0
 40
1.0
 40
1.0
 40
1.0
 10
39.5011758719
 20
105.181654764
 30
0.0
 10
39.6717260538
 20
105.169228573
 30
0.0
 10
40.0291728418
 20
105.0942344215
 30
0.0
 10
40.5549664777
 20
104.8641026117
 30
0.0
 10
41.0817680697
 20
104.5202171706
 30
0.0
 10
41.4114663921
 20
104.2321977339
 30
0.0
 10
41.5730361161
 20
104.0732175409
 30
0.0
  0
SPLINE
  5
321
100
AcDbEntity
  8
0
100
AcDbSpline
 62
7
  6
BYLAYER
 70
0
 71
3
 72
15
 73
11
 74
0
 42
0.0000001
 43
0.0000001
 44
0.0000000001
 40
0.0
 40
0.0
 40
0.0
 40
0.0
 40
0.1122492568
 40
0.2325848761
 40
0.3591520087
 40
0.4896575874
 40
0.6215712389
 40
0.7522490751
 40
0.8791870295
 40
1.0
 40
1.0
 40
1.0
 40
1.0
 10
43.8065457511
 20
114.7389698331
 30
0.0
 10
43.9467838258
 20
114.6579946393
 30
0.0
 10
44.2246102021
 20
114.4675748402
 30
0.0
 10
44.6123341417
 20
114.1221886198
 30
0.0
 10
44.9763868243
 20
113.7158745484
 30
0.0
 10
45.3060643435
 20
113.2605687613
 30
0.0
 10
45.5917176654
 20
112.7695873056
 30
0.0
 10
45.8250678062
 20
112.2572930809
 30
0.0
 10
45.9991064072
 20
111.7388127729
 30
0.0
 10
46.0745766924
 20
111.3884180194
 30
0.0
 10
46.100128399
 20
111.2160093254
 30
0.0
  0
SPLINE
  5
322
100
AcDbEntity
  8
0
100
AcDbSpline
 62
7
  6
BYLAYER
 70
0
 71
3
 72
9
 73
5
 74
0
 42
0.0000001
 43
0.0000001
 44
0.0000000001
 40
0.0
 40
0.0
 40
0.0
 40
0.0
 40
0.2527182083
 40
1.0
 40
1.0
 40
1.0
 40
1.0
 10
29.5855630728
 20
101.2736123599
 30
0.0
 10
29.6171460908
 20
101.221699111
 30
0.0
 10
29.7366797752
 20
101.0130379214
 30
0.0
 10
29.8345900251
 20
100.7918427138
 30
0.0
 10
29.8930634826
 20
100.6219405006
 30
0.0
  0
SPLINE
  5
323
100
AcDbEntity
  8
0
100
AcDbSpline
 62
7
  6
BYLAYER
 70
0
 71
3
 72
15
 73
11
 74
0
 42
0.0000001
 43
0.0000001
 44
0.0000000001
 40
0.0
 40
0.0
 40
0.0
 40
0.0
 40
0.1028014011
 40
0.2085287886
 40
0.3197121941
 40
0.4382489502
 40
0.5653150205
 40
0.7014060522
 40
0.8465228072
 40
1.0
 40
1.0
 40
1.0
 40
1.0
 10
39.8065132535
 20
118.972762648
 30
0.0
 10
39.6442853412
 20
118.8790958168
 30
0.0
 10
39.3345289641
 20
118.6533562617
 30
0.0
 10
38.9416452499
 20
118.2182544126
 30
0.0
 10
38.6229208906
 20
117.6928058696
 30
0.0
 10
38.3822918538
 20
117.0859962486
 30
0.0
 10
38.2221126836
 20
116.4069703489
 30
0.0
 10
38.1439524431
 20
115.6653696885
 30
0.0
 10
38.1486112793
 20
114.8719152908
 30
0.0
 10
38.2051404908
 20
114.3298333029
 30
0.0
 10
38.2461408653
 20
114.0531855971
 30
0.0
  0
SPLINE
  5
324
100
AcDbEntity
  8
0
100
AcDbSpline
 62
7
  6
BYLAYER
 70
0
 71
3
 72
23
 73
19
 74
0
 42
0.0000001
 43
0.0000001
 44
0.0000000001
 40
0.0
 40
0.0
 40
0.0
 40
0.0
 40
0.0428050525
 40
0.0871222821
 40
0.1342146735
 40
0.1849585272
 40
0.2398173399
 40
0.2988898572
 40
0.3619767421
 40
0.4286460661
 40
0.4982887359
 40
0.5701651767
 40
0.6434452213
 40
0.7172441861
 40
0.790661822
 40
0.8628022764
 40
0.9328427439
 40
1.0
 40
1.0
 40
1.0
 40
1.0
 10
42.7763399378
 20
120.6874044372
 30
0.0
 10
42.9579627156
 20
120.7922610243
 30
0.0
 10
43.3546444787
 20
120.9620143601
 30
0.0
 10
44.0071487729
 20
121.0770711592
 30
0.0
 10
44.707624251
 20
121.054758084
 30
0.0
 10
45.4425061904
 20
120.8977175138
 30
0.0
 10
46.1992567591
 20
120.6103748244
 30
0.0
 10
46.964961739
 20
120.1986079753
 30
0.0
 10
47.7264038325
 20
119.670096687
 30
0.0
 10
48.4701809654
 20
119.0344231979
 30
0.0
 10
49.1830260991
 20
118.3030592269
 30
0.0
 10
49.8521061142
 20
117.4892188187
 30
0.0
 10
50.4653027114
 20
116.6076439048
 30
0.0
 10
51.0115063826
 20
115.6743289191
 30
0.0
 10
51.4807559365
 20
114.706242535
 30
0.0
 10
51.8646463253
 20
113.7208877236
 30
0.0
 10
52.1560369105
 20
112.7362807399
 30
0.0
 10
52.2884306665
 20
112.0760442234
 30
0.0
 10
52.3366672948
 20
111.7505703047
 30
0.0
  0
SPLINE
  5
325
100
AcDbEntity
  8
0
100
AcDbSpline
 62
7
  6
BYLAYER
 70
0
 71
3
 72
24
 73
20
 74
0
 42
0.0000001
 43
0.0000001
 44
0.0000000001
 40
0.0
 40
0.0
 40
0.0
 40
0.0
 40
0.0213405321
 40
0.0428755485
 40
0.0871897035
 40
0.134279569
 40
0.1850202116
 40
0.2398747264
 40
0.2989418748
 40
0.3620234015
 40
0.4286879286
 40
0.4983256029
 40
0.5701971101
 40
0.6434716517
 40
0.7172646564
 40
0.7906766354
 40
0.8628103465
 40
0.9328496963
 40
1.0
 40
1.0
 40
1.0
 40
1.0
 10
51.8272787534
 20
125.9129128068
 30
0.0
 10
51.9178318948
 20
125.9651961101
 30
0.0
 10
52.1061592916
 20
126.0596082519
 30
0.0
 10
52.5085385014
 20
126.2054789879
 30
0.0
 10
53.0582611769
 20
126.3027184861
 30
0.0
 10
53.758532724
 20
126.2802613262
 30
0.0
 10
54.4934767778
 20
126.1232300536
 30
0.0
 10
55.2501994041
 20
125.8358690261
 30
0.0
 10
56.015907094
 20
125.4241239027
 30
0.0
 10
56.7773495101
 20
124.8956290507
 30
0.0
 10
57.5211198643
 20
124.2599517007
 30
0.0
 10
58.2339585275
 20
123.5285788625
 30
0.0
 10
58.9030310379
 20
122.7147317404
 30
0.0
 10
59.5162350007
 20
121.8331653263
 30
0.0
 10
60.0624380384
 20
120.8998557071
 30
0.0
 10
60.5316747045
 20
119.931776703
 30
0.0
 10
60.9155764686
 20
118.9464149087
 30
0.0
 10
61.20695484
 20
117.9618024805
 30
0.0
 10
61.3393612757
 20
117.3015593201
 30
0.0
 10
61.3875964112
 20
116.9760954742
 30
0.0
  0
SPLINE
  5
326
100
AcDbEntity
  8
0
100
AcDbSpline
 62
7
  6
BYLAYER
 70
0
 71
3
 72
9
 73
5
 74
0
 42
0.0000001
 43
0.0000001
 44
0.0000000001
 40
0.0
 40
0.0
 40
0.0
 40
0.0
 40
0.2420973187
 40
1.0
 40
1.0
 40
1.0
 40
1.0
 10
33.6950703932
 20
105.4197857526
 30
0.0
 10
33.69984025
 20
105.3824495749
 30
0.0
 10
33.7232860094
 20
105.2287187327
 30
0.0
 10
33.7608102104
 20
105.0772390598
 30
0.0
 10
33.7957544869
 20
104.964706252
 30
0.0
  0
SPLINE
  5
327
100
AcDbEntity
  8
0
100
AcDbSpline
 62
7
  6
BYLAYER
 70
0
 71
3
 72
9
 73
5
 74
0
 42
0.0000001
 43
0.0000001
 44
0.0000000001
 40
0.0
 40
0.0
 40
0.0
 40
0.0
 40
0.4921130197
 40
1.0
 40
1.0
 40
1.0
 40
1.0
 10
21.822750758
 20
114.880967833
 30
0.0
 10
21.6716994427
 20
114.7937550524
 30
0.0
 10
21.3839965994
 20
114.5810595639
 30
0.0
 10
21.1497885385
 20
114.3112254841
 30
0.0
 10
21.0454205944
 20
114.1645576286
 30
0.0
  0
SPLINE
  5
328
100
AcDbEntity
  8
0
100
AcDbSpline
 62
7
  6
BYLAYER
 70
0
 71
3
 72
9
 73
5
 74
0
 42
0.0000001
 43
0.0000001
 44
0.0000000001
 40
0.0
 40
0.0
 40
0.0
 40
0.0
 40
0.4950825755
 40
1.0
 40
1.0
 40
1.0
 40
1.0
 10
31.9343358417
 20
120.7188588794
 30
0.0
 10
32.0522067034
 20
120.7869142249
 30
0.0
 10
32.302874006
 20
120.903624116
 30
0.0
 10
32.5697335774
 20
120.9754317582
 30
0.0
 10
32.7062169137
 20
121.0007434728
 30
0.0
  0
SPLINE
  5
329
100
AcDbEntity
  8
0
100
AcDbSpline
 62
7
  6
BYLAYER
 70
0
 71
3
 72
9
 73
5
 74
0
 42
0.0000001
 43
0.0000001
 44
0.0000000001
 40
0.0
 40
0.0
 40
0.0
 40
0.0
 40
0.2443149264
 40
1.0
 40
1.0
 40
1.0
 40
1.0
 10
32.7062169137
 20
121.0007434728
 30
0.0
 10
32.7558337825
 20
121.009945241
 30
0.0
 10
32.9599856998
 20
121.0417539097
 30
0.0
 10
33.167579865
 20
121.05021463
 30
0.0
 10
33.3235809358
 20
121.0450743571
 30
0.0
  0
SPLINE
  5
32A
100
AcDbEntity
  8
0
100
AcDbSpline
 62
7
  6
BYLAYER
 70
0
 71
3
 72
9
 73
5
 74
0
 42
0.0000001
 43
0.0000001
 44
0.0000000001
 40
0.0
 40
0.0
 40
0.0
 40
0.0
 40
0.2438816393
 40
1.0
 40
1.0
 40
1.0
 40
1.0
 10
33.3377356698
 20
121.0445764621
 30
0.0
 10
33.3834910676
 20
121.0428653569
 30
0.0
 10
33.5709432488
 20
121.0318237556
 30
0.0
 10
33.7573742129
 20
121.0050106346
 30
0.0
 10
33.8965747716
 20
120.9771724584
 30
0.0
  0
SPLINE
  5
32B
100
AcDbEntity
  8
0
100
AcDbSpline
 62
7
  6
BYLAYER
 70
0
 71
3
 72
24
 73
20
 74
0
 42
0.0000001
 43
0.0000001
 44
0.0000000001
 40
0.0
 40
0.0
 40
0.0
 40
0.0
 40
0.0671494763
 40
0.1371875771
 40
0.2093210471
 40
0.2827330794
 40
0.3565265738
 40
0.4298020178
 40
0.5016746157
 40
0.5713133854
 40
0.6379787714
 40
0.7010607559
 40
0.7601280254
 40
0.8149823738
 40
0.8657225731
 40
0.912811773
 40
0.9571251972
 40
0.9786598429
 40
1.0
 40
1.0
 40
1.0
 40
1.0
 10
38.2461408653
 20
114.0531855971
 30
0.0
 10
38.2943754075
 20
113.727725755
 30
0.0
 10
38.4267777426
 20
113.0674921571
 30
0.0
 10
38.7181530279
 20
112.0828906304
 30
0.0
 10
39.1020494959
 20
111.097534374
 30
0.0
 10
39.5712847623
 20
110.1294530059
 30
0.0
 10
40.1174889643
 20
109.196135822
 30
0.0
 10
40.730698975
 20
108.3145586972
 30
0.0
 10
41.3997809257
 20
107.5006996878
 30
0.0
 10
42.1126302771
 20
106.7693163158
 30
0.0
 10
42.8564116182
 20
106.1336334068
 30
0.0
 10
43.6178627398
 20
105.6051386639
 30
0.0
 10
44.3835740687
 20
105.1933960393
 30
0.0
 10
45.1402958605
 20
104.9060394984
 30
0.0
 10
45.8752350664
 20
104.7490144645
 30
0.0
 10
46.5754976907
 20
104.726565161
 30
0.0
 10
47.1252112098
 20
104.8238053502
 30
0.0
 10
47.5275829937
 20
104.9696752134
 30
0.0
 10
47.7159072776
 20
105.0640853542
 30
0.0
 10
47.8064587904
 20
105.1163678076
 30
0.0
  0
SPLINE
  5
32C
100
AcDbEntity
  8
0
100
AcDbSpline
 62
7
  6
BYLAYER
 70
0
 71
3
 72
15
 73
11
 74
0
 42
0.0000001
 43
0.0000001
 44
0.0000000001
 40
0.0
 40
0.0
 40
0.0
 40
0.0
 40
0.153475605
 40
0.2985895214
 40
0.434679976
 40
0.5617464282
 40
0.6802837305
 40
0.7914682507
 40
0.897197074
 40
1.0
 40
1.0
 40
1.0
 40
1.0
 10
61.3875964112
 20
116.9760954742
 30
0.0
 10
61.4285963605
 20
116.6994506371
 30
0.0
 10
61.4851268884
 20
116.1573769114
 30
0.0
 10
61.4897851117
 20
115.3639316197
 30
0.0
 10
61.4116280691
 20
114.6223364362
 30
0.0
 10
61.2514543246
 20
113.9433085395
 30
0.0
 10
61.0108254443
 20
113.3364947711
 30
0.0
 10
60.6921011177
 20
112.8110397688
 30
0.0
 10
60.2992150603
 20
112.3759297844
 30
0.0
 10
59.9894541405
 20
112.1501869773
 30
0.0
 10
59.8272237558
 20
112.0565188804
 30
0.0
  0
SPLINE
  5
32D
100
AcDbEntity
  8
0
100
AcDbSpline
 62
7
  6
BYLAYER
 70
0
 71
3
 72
11
 73
7
 74
0
 42
0.0000001
 43
0.0000001
 44
0.0000000001
 40
0.0
 40
0.0
 40
0.0
 40
0.0
 40
0.2809266301
 40
0.4140972584
 40
0.542052734
 40
1.0
 40
1.0
 40
1.0
 40
1.0
 10
52.3366672948
 20
111.7505703047
 30
0.0
 10
52.3879251882
 20
111.4047105709
 30
0.0
 10
52.436170254
 20
110.8900668283
 30
0.0
 10
52.433522746
 20
110.2147113479
 30
0.0
 10
52.3686280709
 20
109.3231100794
 30
0.0
 10
52.1861191948
 20
108.5946893283
 30
0.0
 10
51.9279483229
 20
108.0865590717
 30
0.0
  0
SPLINE
  5
32E
100
AcDbEntity
  8
0
100
AcDbSpline
 62
7
  6
BYLAYER
 70
0
 71
3
 72
15
 73
11
 74
0
 42
0.0000001
 43
0.0000001
 44
0.0000000001
 40
0.0
 40
0.0
 40
0.0
 40
0.0
 40
0.1028014011
 40
0.2085287886
 40
0.3197121941
 40
0.4382489502
 40
0.5653150205
 40
0.7014060522
 40
0.8465228072
 40
1.0
 40
1.0
 40
1.0
 40
1.0
 10
47.8064587904
 20
105.1163678076
 30
0.0
 10
47.9686867027
 20
105.2100346387
 30
0.0
 10
48.2784430798
 20
105.4357741938
 30
0.0
 10
48.671326794
 20
105.870876043
 30
0.0
 10
48.9900511533
 20
106.396324586
 30
0.0
 10
49.2306801901
 20
107.0031342069
 30
0.0
 10
49.3908593603
 20
107.6821601066
 30
0.0
 10
49.4690196008
 20
108.4237607671
 30
0.0
 10
49.4643607645
 20
109.2172151647
 30
0.0
 10
49.4078315531
 20
109.7592971527
 30
0.0
 10
49.3668311785
 20
110.0359448584
 30
0.0
  0
SPLINE
  5
32F
100
AcDbEntity
  8
0
100
AcDbSpline
 62
7
  6
BYLAYER
 70
0
 71
3
 72
9
 73
5
 74
0
 42
0.0000001
 43
0.0000001
 44
0.0000000001
 40
0.0
 40
0.0
 40
0.0
 40
0.0
 40
0.2563439452
 40
1.0
 40
1.0
 40
1.0
 40
1.0
 10
32.0279948939
 20
103.9440958673
 30
0.0
 10
32.0174477046
 20
103.9780615104
 30
0.0
 10
31.9786789569
 20
104.1112785235
 30
0.0
 10
31.9494496187
 20
104.2473448252
 30
0.0
 10
31.9342105584
 20
104.3493891831
 30
0.0
  0
SPLINE
  5
330
100
AcDbEntity
  8
0
100
AcDbSpline
 62
7
  6
BYLAYER
 70
0
 71
3
 72
9
 73
5
 74
0
 42
0.0000001
 43
0.0000001
 44
0.0000000001
 40
0.0
 40
0.0
 40
0.0
 40
0.0
 40
0.2589684538
 40
1.0
 40
1.0
 40
1.0
 40
1.0
 10
23.9961985652
 20
115.0910725432
 30
0.0
 10
23.9316160215
 20
115.1076137875
 30
0.0
 10
23.6807956162
 20
115.1655839885
 30
0.0
 10
23.4239712018
 20
115.1988502775
 30
0.0
 10
23.2333544566
 20
115.2064081157
 30
0.0
  0
SPLINE
  5
331
100
AcDbEntity
  8
0
100
AcDbSpline
 62
7
  6
BYLAYER
 70
0
 71
3
 72
11
 73
7
 74
0
 42
0.0000001
 43
0.0000001
 44
0.0000000001
 40
0.0
 40
0.0
 40
0.0
 40
0.0
 40
0.2618029699
 40
0.5137284005
 40
0.7586765605
 40
1.0
 40
1.0
 40
1.0
 40
1.0
 10
23.2333544566
 20
115.2064081157
 30
0.0
 10
23.1055141191
 20
115.2114769075
 30
0.0
 10
22.8537083895
 20
115.2064043112
 30
0.0
 10
22.4862009635
 20
115.149273907
 30
0.0
 10
22.1400780865
 20
115.0432458743
 30
0.0
 10
21.9248824481
 20
114.9399357982
 30
0.0
 10
21.822750758
 20
114.880967833
 30
0.0
  0
SPLINE
  5
332
100
AcDbEntity
  8
0
100
AcDbSpline
 62
7
  6
BYLAYER
 70
0
 71
3
 72
9
 73
5
 74
0
 42
0.0000001
 43
0.0000001
 44
0.0000000001
 40
0.0
 40
0.0
 40
0.0
 40
0.0
 40
0.5174913871
 40
1.0
 40
1.0
 40
1.0
 40
1.0
 10
30.1626030358
 20
104.4772278495
 30
0.0
 10
30.1003622433
 20
104.2778695824
 30
0.0
 10
29.9499748431
 20
103.9009963289
 30
0.0
 10
29.7312726829
 20
103.5580724649
 30
0.0
 10
29.6092797579
 20
103.4062912967
 30
0.0
  0
SPLINE
  5
333
100
AcDbEntity
  8
0
100
AcDbSpline
 62
7
  6
BYLAYER
 70
0
 71
3
 72
9
 73
5
 74
0
 42
0.0000001
 43
0.0000001
 44
0.0000000001
 40
0.0
 40
0.0
 40
0.0
 40
0.0
 40
0.2413381174
 40
1.0
 40
1.0
 40
1.0
 40
1.0
 10
23.4471545786
 20
115.2615952394
 30
0.0
 10
23.5098986723
 20
115.2570237398
 30
0.0
 10
23.7693245318
 20
115.2306655862
 30
0.0
 10
24.0255660514
 20
115.1758501274
 30
0.0
 10
24.215739203
 20
115.1215883014
 30
0.0
  0
SPLINE
  5
334
100
AcDbEntity
  8
0
100
AcDbSpline
 62
7
  6
BYLAYER
 70
0
 71
3
 72
19
 73
15
 74
0
 42
0.0000001
 43
0.0000001
 44
0.0000000001
 40
0.0
 40
0.0
 40
0.0
 40
0.0
 40
0.0428271008
 40
0.087167115
 40
0.1342825274
 40
0.1850527812
 40
0.2399389804
 40
0.2990398476
 40
0.3621595144
 40
0.4288613778
 40
0.5703236407
 40
0.717365707
 40
0.8628701462
 40
1.0
 40
1.0
 40
1.0
 40
1.0
 10
45.6221566591
 20
110.2061056529
 30
0.0
 10
45.5653949257
 20
110.1733442294
 30
0.0
 10
45.4414471223
 20
110.1202553351
 30
0.0
 10
45.2375274081
 20
110.0843466142
 30
0.0
 10
45.0186299985
 20
110.0912850819
 30
0.0
 10
44.7889799418
 20
110.140380639
 30
0.0
 10
44.5525003957
 20
110.2301808166
 30
0.0
 10
44.3132097059
 20
110.3588378054
 30
0.0
 10
44.0752602346
 20
110.5240177886
 30
0.0
 10
43.7592571874
 20
110.7941204263
 30
0.0
 10
43.3966272381
 20
111.2029173688
 30
0.0
 10
43.0381800989
 20
111.7650948655
 30
0.0
 10
42.7726948649
 20
112.3693946801
 30
0.0
 10
42.6653256085
 20
112.7912735159
 30
0.0
 10
42.6345612303
 20
112.9988544163
 30
0.0
  0
SPLINE
  5
335
100
AcDbEntity
  8
0
100
AcDbSpline
 62
7
  6
BYLAYER
 70
0
 71
3
 72
26
 73
22
 74
0
 42
0.0000001
 43
0.0000001
 44
0.0000000001
 40
0.0
 40
0.0
 40
0.0
 40
0.0
 40
0.0607905229
 40
0.1155359653
 40
0.1649841065
 40
0.1883087163
 40
0.2110747217
 40
0.2336498571
 40
0.2564160006
 40
0.2797402967
 40
0.3039457181
 40
0.3558840378
 40
0.4136162384
 40
0.4773949269
 40
0.546694904
 40
0.6204386676
 40
0.6971753715
 40
0.7752379184
 40
0.8528556439
 40
0.9283115688
 40
1.0
 40
1.0
 40
1.0
 40
1.0
 10
46.1399398367
 20
110.6973979521
 30
0.0
 10
46.1399631471
 20
110.5394439534
 30
0.0
 10
46.1172636901
 20
110.2383063483
 30
0.0
 10
46.0030430512
 20
109.8219730254
 30
0.0
 10
45.8394099071
 20
109.5287775271
 30
0.0
 10
45.672971792
 20
109.3434173277
 30
0.0
 10
45.5341049328
 20
109.2301977345
 30
0.0
 10
45.3802117789
 20
109.1412900223
 30
0.0
 10
45.2127326836
 20
109.0776515053
 30
0.0
 10
45.0333437388
 20
109.0397484207
 30
0.0
 10
44.7746176251
 20
109.0234451295
 30
0.0
 10
44.4264557268
 20
109.0730161618
 30
0.0
 10
44.0017994418
 20
109.2315600798
 30
0.0
 10
43.5724211512
 20
109.4835867879
 30
0.0
 10
43.1517738978
 20
109.8205681559
 30
0.0
 10
42.7531946697
 20
110.231389389
 30
0.0
 10
42.3897344349
 20
110.7025003921
 30
0.0
 10
42.0734663261
 20
111.2182749158
 30
0.0
 10
41.8148232141
 20
111.7615975049
 30
0.0
 10
41.6225473423
 20
112.3142671882
 30
0.0
 10
41.5401514422
 20
112.6888633137
 30
0.0
 10
41.5128436448
 20
112.8731211301
 30
0.0
  0
SPLINE
  5
336
100
AcDbEntity
  8
0
100
AcDbSpline
 62
7
  6
BYLAYER
 70
0
 71
3
 72
11
 73
7
 74
0
 42
0.0000001
 43
0.0000001
 44
0.0000000001
 40
0.0
 40
0.0
 40
0.0
 40
0.0
 40
0.2623043656
 40
0.5144455026
 40
0.7591494518
 40
1.0
 40
1.0
 40
1.0
 40
1.0
 10
50.0187679625
 20
106.9842998562
 30
0.0
 10
49.9503891121
 20
106.8497170409
 30
0.0
 10
49.7999128458
 20
106.5936075241
 30
0.0
 10
49.5285807782
 20
106.2493502581
 30
0.0
 10
49.2185863541
 20
105.9570069869
 30
0.0
 10
48.9871662125
 20
105.7980201149
 30
0.0
 10
48.8671190123
 20
105.7287263186
 30
0.0
  0
SPLINE
  5
337
100
AcDbEntity
  8
0
100
AcDbSpline
 62
7
  6
BYLAYER
 70
0
 71
3
 72
13
 73
9
 74
0
 42
0.0000001
 43
0.0000001
 44
0.0000000001
 40
0.0
 40
0.0
 40
0.0
 40
0.0
 40
0.2984950199
 40
0.5613513316
 40
0.6799955313
 40
0.7912853077
 40
0.8971073978
 40
1.0
 40
1.0
 40
1.0
 40
1.0
 10
42.6345612303
 20
112.9988544163
 30
0.0
 10
42.6096646275
 20
113.1668428337
 30
0.0
 10
42.5887903434
 20
113.4876043543
 30
0.0
 10
42.6485851506
 20
113.8745625463
 30
0.0
 10
42.7523044561
 20
114.1362218509
 30
0.0
 10
42.8519059761
 20
114.3004377734
 30
0.0
 10
42.9746871022
 20
114.436402255
 30
0.0
 10
43.07148152
 20
114.5069527008
 30
0.0
 10
43.1221815243
 20
114.5362154489
 30
0.0
  0
SPLINE
  5
338
100
AcDbEntity
  8
0
100
AcDbSpline
 62
7
  6
BYLAYER
 70
0
 71
3
 72
9
 73
5
 74
0
 42
0.0000001
 43
0.0000001
 44
0.0000000001
 40
0.0
 40
0.0
 40
0.0
 40
0.0
 40
0.4834262329
 40
1.0
 40
1.0
 40
1.0
 40
1.0
 10
29.5977395277
 20
103.4698481889
 30
0.0
 10
29.7032477633
 20
103.6176852004
 30
0.0
 10
29.8918868374
 20
103.9452856753
 30
0.0
 10
30.0229832201
 20
104.2991282844
 30
0.0
 10
30.0775260888
 20
104.4853854859
 30
0.0
  0
SPLINE
  5
339
100
AcDbEntity
  8
0
100
AcDbSpline
 62
7
  6
BYLAYER
 70
0
 71
3
 72
20
 73
16
 74
0
 42
0.0000001
 43
0.0000001
 44
0.0000000001
 40
0.0
 40
0.0
 40
0.0
 40
0.0
 40
0.1534544722
 40
0.2242034333
 40
0.2907356734
 40
0.4116602851
 40
0.4673498191
 40
0.5208720938
 40
0.5733524015
 40
0.6260296511
 40
0.6801229834
 40
0.7366941566
 40
0.7965650266
 40
0.8602858887
 40
1.0
 40
1.0
 40
1.0
 40
1.0
 10
41.5128436448
 20
112.8731211301
 30
0.0
 10
41.482940083
 20
113.0748937207
 30
0.0
 10
41.4613614067
 20
113.3742068111
 30
0.0
 10
41.4915313064
 20
113.7601904304
 30
0.0
 10
41.5557458897
 20
114.0976941559
 30
0.0
 10
41.6743997287
 20
114.4039911223
 30
0.0
 10
41.8518984266
 20
114.6547851661
 30
0.0
 10
42.0058384884
 20
114.8065226775
 30
0.0
 10
42.1822346734
 20
114.9244903857
 30
0.0
 10
42.3785730517
 20
115.006957173
 30
0.0
 10
42.5919779683
 20
115.0528690906
 30
0.0
 10
42.8194801422
 20
115.0619401001
 30
0.0
 10
43.0582493498
 20
115.0344465559
 30
0.0
 10
43.3980257522
 20
114.9471711196
 30
0.0
 10
43.6457184553
 20
114.8318334971
 30
0.0
 10
43.8065457511
 20
114.7389698331
 30
0.0
  0
SPLINE
  5
33A
100
AcDbEntity
  8
0
100
AcDbSpline
 62
7
  6
BYLAYER
 70
0
 71
3
 72
24
 73
20
 74
0
 42
0.0000001
 43
0.0000001
 44
0.0000000001
 40
0.0
 40
0.0
 40
0.0
 40
0.0
 40
0.0671494763
 40
0.1371875771
 40
0.2093210471
 40
0.2827330794
 40
0.3565265738
 40
0.4298020178
 40
0.5016746157
 40
0.5713133854
 40
0.6379787714
 40
0.7010607559
 40
0.7601280254
 40
0.8149823738
 40
0.8657225731
 40
0.912811773
 40
0.9571251972
 40
0.9786598429
 40
1.0
 40
1.0
 40
1.0
 40
1.0
 10
49.3668311785
 20
110.0359448584
 30
0.0
 10
49.3185966364
 20
110.3614047006
 30
0.0
 10
49.1861943013
 20
111.0216382984
 30
0.0
 10
48.894819016
 20
112.0062398251
 30
0.0
 10
48.5109225479
 20
112.9915960816
 30
0.0
 10
48.0416872816
 20
113.9596774497
 30
0.0
 10
47.4954830795
 20
114.8929946335
 30
0.0
 10
46.8822730688
 20
115.7745717583
 30
0.0
 10
46.2131911181
 20
116.5884307677
 30
0.0
 10
45.5003417668
 20
117.3198141398
 30
0.0
 10
44.7565604257
 20
117.9554970487
 30
0.0
 10
43.995109304
 20
118.4839917916
 30
0.0
 10
43.2293979751
 20
118.8957344163
 30
0.0
 10
42.4726761834
 20
119.1830909572
 30
0.0
 10
41.7377369775
 20
119.3401159911
 30
0.0
 10
41.0374743532
 20
119.3625652946
 30
0.0
 10
40.487760834
 20
119.2653251053
 30
0.0
 10
40.0853890502
 20
119.1194552421
 30
0.0
 10
39.8970647662
 20
119.0250451013
 30
0.0
 10
39.8065132535
 20
118.972762648
 30
0.0
  0
SPLINE
  5
33B
100
AcDbEntity
  8
0
100
AcDbSpline
 62
7
  6
BYLAYER
 70
0
 71
3
 72
14
 73
10
 74
0
 42
0.0000001
 43
0.0000001
 44
0.0000000001
 40
0.0
 40
0.0
 40
0.0
 40
0.0
 40
0.1080461851
 40
0.2181299428
 40
0.3321102356
 40
0.4514989376
 40
0.5774426208
 40
0.7107260235
 40
1.0
 40
1.0
 40
1.0
 40
1.0
 10
19.0800999173
 20
102.4968551615
 30
0.0
 10
19.0145182368
 20
102.534717896
 30
0.0
 10
18.8884450512
 20
102.6227228124
 30
0.0
 10
18.7218056375
 20
102.7866589493
 30
0.0
 10
18.5785602374
 20
102.9812958865
 30
0.0
 10
18.4598855828
 20
103.2043129577
 30
0.0
 10
18.3668174608
 20
103.4535760513
 30
0.0
 10
18.2753175613
 20
103.8276326655
 30
0.0
 10
18.25164722
 20
104.125249212
 30
0.0
 10
18.25164722
 20
104.3279938388
 30
0.0
  0
SPLINE
  5
33C
100
AcDbEntity
  8
0
100
AcDbSpline
 62
7
  6
BYLAYER
 70
0
 71
3
 72
10
 73
6
 74
0
 42
0.0000001
 43
0.0000001
 44
0.0000000001
 40
0.0
 40
0.0
 40
0.0
 40
0.0
 40
0.469756258
 40
0.7268857489
 40
1.0
 40
1.0
 40
1.0
 40
1.0
 10
28.887952316
 20
97.0065293325
 30
0.0
 10
29.0696834394
 20
96.9936500906
 30
0.0
 10
29.3552791888
 20
97.0210800244
 30
0.0
 10
29.7282175724
 20
97.1285415491
 30
0.0
 10
29.9187572148
 20
97.2073643368
 30
0.0
 10
30.0145608133
 20
97.2525449354
 30
0.0
  0
SPLINE
  5
33D
100
AcDbEntity
  8
0
100
AcDbSpline
 62
7
  6
BYLAYER
 70
0
 71
3
 72
12
 73
8
 74
0
 42
0.0000001
 43
0.0000001
 44
0.0000000001
 40
0.0
 40
0.0
 40
0.0
 40
0.0
 40
0.2895257899
 40
0.54866123
 40
0.7816278344
 40
0.8918375682
 40
1.0
 40
1.0
 40
1.0
 40
1.0
 10
24.2974353701
 20
106.5530523076
 30
0.0
 10
24.2974353701
 20
106.4491670499
 30
0.0
 10
24.2816592835
 20
106.2516040264
 30
0.0
 10
24.2018364423
 20
105.980300111
 30
0.0
 10
24.0869771463
 20
105.7931458183
 30
0.0
 10
23.9710857278
 20
105.6791091531
 30
0.0
 10
23.9064636368
 20
105.6340006285
 30
0.0
 10
23.8728498582
 20
105.6146014974
 30
0.0
  0
SPLINE
  5
33E
100
AcDbEntity
  8
0
100
AcDbSpline
 62
7
  6
BYLAYER
 70
0
 71
3
 72
20
 73
16
 74
0
 42
0.0000001
 43
0.0000001
 44
0.0000000001
 40
0.0
 40
0.0
 40
0.0
 40
0.0
 40
0.0428310922
 40
0.0874317553
 40
0.1352330775
 40
0.1871652887
 40
0.2436341317
 40
0.3046150675
 40
0.3697402227
 40
0.4383748752
 40
0.5826259665
 40
0.7296915258
 40
0.8711893978
 40
0.9376086195
 40
1.0
 40
1.0
 40
1.0
 40
1.0
 10
21.8228710088
 20
109.1652902113
 30
0.0
 10
21.873414561
 20
109.1944598268
 30
0.0
 10
21.9848095359
 20
109.2407893253
 30
0.0
 10
22.1687154061
 20
109.2676990537
 30
0.0
 10
22.3661966382
 20
109.2532060055
 30
0.0
 10
22.57286846
 20
109.1982702291
 30
0.0
 10
22.7846800406
 20
109.1046655848
 30
0.0
 10
22.9974187429
 20
108.974535634
 30
0.0
 10
23.206749921
 20
108.8106347603
 30
0.0
 10
23.4799531237
 20
108.5475036622
 30
0.0
 10
23.783534252
 20
108.1586985424
 30
0.0
 10
24.0653507413
 20
107.6379078302
 30
0.0
 10
24.2213430992
 20
107.1768388169
 30
0.0
 10
24.2858735285
 20
106.8136860432
 30
0.0
 10
24.2974353701
 20
106.6380597561
 30
0.0
 10
24.2974353701
 20
106.5530523076
 30
0.0
  0
SPLINE
  5
33F
100
AcDbEntity
  8
0
100
AcDbSpline
 62
7
  6
BYLAYER
 70
0
 71
3
 72
11
 73
7
 74
0
 42
0.0000001
 43
0.0000001
 44
0.0000000001
 40
0.0
 40
0.0
 40
0.0
 40
0.0
 40
0.217792133
 40
0.4508987867
 40
0.7102995071
 40
1.0
 40
1.0
 40
1.0
 40
1.0
 10
29.7724982758
 20
99.7878117218
 30
0.0
 10
29.739506703
 20
99.806851142
 30
0.0
 10
29.6777898197
 20
99.8587380774
 30
0.0
 10
29.6121014489
 20
99.9661769551
 30
0.0
 10
29.5730656961
 20
100.0985652119
 30
0.0
 10
29.5653851586
 20
100.1949286645
 30
0.0
 10
29.5653851586
 20
100.2455964917
 30
0.0
  0
SPLINE
  5
340
100
AcDbEntity
  8
0
100
AcDbSpline
 62
7
  6
BYLAYER
 70
0
 71
3
 72
10
 73
6
 74
0
 42
0.0000001
 43
0.0000001
 44
0.0000000001
 40
0.0
 40
0.0
 40
0.0
 40
0.0
 40
0.2430824392
 40
0.489163419
 40
1.0
 40
1.0
 40
1.0
 40
1.0
 10
34.86630037
 20
122.1303405882
 30
0.0
 10
34.9645884382
 20
122.1870925317
 30
0.0
 10
35.1705190653
 20
122.2878744809
 30
0.0
 10
35.6146144157
 20
122.4352725717
 30
0.0
 10
35.9701269599
 20
122.4788645628
 30
0.0
 10
36.2086236601
 20
122.4814913318
 30
0.0
  0
SPLINE
  5
341
100
AcDbEntity
  8
0
100
AcDbSpline
 62
7
  6
BYLAYER
 70
0
 71
3
 72
10
 73
6
 74
0
 42
0.0000001
 43
0.0000001
 44
0.0000000001
 40
0.0
 40
0.0
 40
0.0
 40
0.0
 40
0.2430824392
 40
0.489163419
 40
1.0
 40
1.0
 40
1.0
 40
1.0
 10
21.926300149
 20
114.6594725723
 30
0.0
 10
22.0245882172
 20
114.7162245158
 30
0.0
 10
22.2305188443
 20
114.8170064651
 30
0.0
 10
22.6746141947
 20
114.9644045558
 30
0.0
 10
23.0301267389
 20
115.007996547
 30
0.0
 10
23.2686234391
 20
115.0106233159
 30
0.0
  0
SPLINE
  5
342
100
AcDbEntity
  8
0
100
AcDbSpline
 62
7
  6
BYLAYER
 70
0
 71
3
 72
15
 73
11
 74
0
 42
0.0000001
 43
0.0000001
 44
0.0000000001
 40
0.0
 40
0.0
 40
0.0
 40
0.0
 40
0.108011665
 40
0.2180615984
 40
0.3319988444
 40
0.4513602929
 40
0.5772738407
 40
0.7104900089
 40
0.851426871
 40
1.0
 40
1.0
 40
1.0
 40
1.0
 10
19.8049886374
 20
113.4347401107
 30
0.0
 10
19.682026242
 20
113.363741107
 30
0.0
 10
19.4456175237
 20
113.1987549838
 30
0.0
 10
19.1332180661
 20
112.8913358958
 30
0.0
 10
18.8645436077
 20
112.5264488182
 30
0.0
 10
18.6421221981
 20
112.1082019113
 30
0.0
 10
18.4675886595
 20
111.6409046363
 30
0.0
 10
18.3423534292
 20
111.1290027362
 30
0.0
 10
18.2674121729
 20
110.5774973407
 30
0.0
 10
18.25164722
 20
110.1966571072
 30
0.0
 10
18.25164722
 20
110.0013484769
 30
0.0
  0
SPLINE
  5
343
100
AcDbEntity
  8
0
100
AcDbSpline
 62
7
  6
BYLAYER
 70
0
 71
3
 72
9
 73
5
 74
0
 42
0.0000001
 43
0.0000001
 44
0.0000000001
 40
0.0
 40
0.0
 40
0.0
 40
0.0
 40
0.4876306061
 40
1.0
 40
1.0
 40
1.0
 40
1.0
 10
33.4392191774
 20
97.2450014487
 30
0.0
 10
33.4392191782
 20
97.1814386012
 30
0.0
 10
33.4200842968
 20
97.0504808652
 30
0.0
 10
33.3662542797
 20
96.9300403861
 30
0.0
 10
33.3323115056
 20
96.8725211191
 30
0.0
  0
SPLINE
  5
344
100
AcDbEntity
  8
0
100
AcDbSpline
 62
7
  6
BYLAYER
 70
0
 71
3
 72
11
 73
7
 74
0
 42
0.0000001
 43
0.0000001
 44
0.0000000001
 40
0.0
 40
0.0
 40
0.0
 40
0.0
 40
0.228322742
 40
0.4788010675
 40
0.740319781
 40
1.0
 40
1.0
 40
1.0
 40
1.0
 10
30.8530480105
 20
114.1992243241
 30
0.0
 10
30.9907213944
 20
114.1197403571
 30
0.0
 10
31.2590589979
 20
113.9170228645
 30
0.0
 10
31.6080512224
 20
113.5346576826
 30
0.0
 10
31.9033025039
 20
113.0832072177
 30
0.0
 10
32.0531445296
 20
112.7506615937
 30
0.0
 10
32.1131267673
 20
112.5800978193
 30
0.0
  0
SPLINE
  5
345
100
AcDbEntity
  8
0
100
AcDbSpline
 62
7
  6
BYLAYER
 70
0
 71
3
 72
20
 73
16
 74
0
 42
0.0000001
 43
0.0000001
 44
0.0000000001
 40
0.0
 40
0.0
 40
0.0
 40
0.0
 40
0.0428310922
 40
0.0874317553
 40
0.1352330775
 40
0.1871652887
 40
0.2436341317
 40
0.3046150675
 40
0.3697402227
 40
0.4383748752
 40
0.5826259665
 40
0.7296915258
 40
0.8711893978
 40
0.9376086195
 40
1.0
 40
1.0
 40
1.0
 40
1.0
 10
23.8728498582
 20
105.6146014974
 30
0.0
 10
23.822306306
 20
105.5854318819
 30
0.0
 10
23.7109113311
 20
105.5391023834
 30
0.0
 10
23.5270054609
 20
105.512192655
 30
0.0
 10
23.3295242288
 20
105.5266857032
 30
0.0
 10
23.122852407
 20
105.5816214796
 30
0.0
 10
22.9110408264
 20
105.6752261239
 30
0.0
 10
22.6983021241
 20
105.8053560747
 30
0.0
 10
22.488970946
 20
105.9692569485
 30
0.0
 10
22.2157677433
 20
106.2323880466
 30
0.0
 10
21.912186615
 20
106.6211931663
 30
0.0
 10
21.6303701257
 20
107.1419838785
 30
0.0
 10
21.4743777678
 20
107.6030528918
 30
0.0
 10
21.4098473385
 20
107.9662056655
 30
0.0
 10
21.398285497
 20
108.1418319527
 30
0.0
 10
21.398285497
 20
108.2268394011
 30
0.0
  0
SPLINE
  5
346
100
AcDbEntity
  8
0
100
AcDbSpline
 62
7
  6
BYLAYER
 70
0
 71
3
 72
12
 73
8
 74
0
 42
0.0000001
 43
0.0000001
 44
0.0000000001
 40
0.0
 40
0.0
 40
0.0
 40
0.0
 40
0.2895581804
 40
0.5486557816
 40
0.7816338325
 40
0.891839914
 40
1.0
 40
1.0
 40
1.0
 40
1.0
 10
32.8534415534
 20
98.0614897565
 30
0.0
 10
32.9412231273
 20
98.0108101877
 30
0.0
 10
33.1004542667
 20
97.9011238858
 30
0.0
 10
33.2907251743
 20
97.7013263217
 30
0.0
 10
33.3928244502
 20
97.5130078005
 30
0.0
 10
33.432653616
 20
97.3594643268
 30
0.0
 10
33.4392191769
 20
97.2828632665
 30
0.0
 10
33.4392191774
 20
97.2450014487
 30
0.0
  0
SPLINE
  5
347
100
AcDbEntity
  8
0
100
AcDbSpline
 62
7
  6
BYLAYER
 70
0
 71
3
 72
9
 73
5
 74
0
 42
0.0000001
 43
0.0000001
 44
0.0000000001
 40
0.0
 40
0.0
 40
0.0
 40
0.0
 40
0.2584769204
 40
1.0
 40
1.0
 40
1.0
 40
1.0
 10
30.2724889958
 20
99.8373382284
 30
0.0
 10
30.2625578554
 20
99.8316045161
 30
0.0
 10
30.2237355939
 20
99.8101308157
 30
0.0
 10
30.1832747444
 20
99.7915569598
 30
0.0
 10
30.152508131
 20
99.7799079205
 30
0.0
  0
SPLINE
  5
348
100
AcDbEntity
  8
0
100
AcDbSpline
 62
7
  6
BYLAYER
 70
0
 71
3
 72
9
 73
5
 74
0
 42
0.0000001
 43
0.0000001
 44
0.0000000001
 40
0.0
 40
0.0
 40
0.0
 40
0.0
 40
0.2606634503
 40
1.0
 40
1.0
 40
1.0
 40
1.0
 10
30.152508131
 20
99.7799079205
 30
0.0
 10
30.1415168564
 20
99.7757463383
 30
0.0
 10
30.0989722584
 20
99.7608242019
 30
0.0
 10
30.0548306161
 20
99.7502471528
 30
0.0
 10
30.0218149101
 20
99.7456440146
 30
0.0
  0
SPLINE
  5
349
100
AcDbEntity
  8
0
100
AcDbSpline
 62
7
  6
BYLAYER
 70
0
 71
3
 72
9
 73
5
 74
0
 42
0.0000001
 43
0.0000001
 44
0.0000000001
 40
0.0
 40
0.0
 40
0.0
 40
0.0
 40
0.2576974274
 40
1.0
 40
1.0
 40
1.0
 40
1.0
 10
30.0218149101
 20
99.7456440146
 30
0.0
 10
30.0136794764
 20
99.7445097507
 30
0.0
 10
29.982013102
 20
99.7408623971
 30
0.0
 10
29.949956579
 20
99.7403401671
 30
0.0
 10
29.9263548269
 20
99.742012818
 30
0.0
  0
SPLINE
  5
34A
100
AcDbEntity
  8
0
100
AcDbSpline
 62
7
  6
BYLAYER
 70
0
 71
3
 72
14
 73
10
 74
0
 42
0.0000001
 43
0.0000001
 44
0.0000000001
 40
0.0
 40
0.0
 40
0.0
 40
0.0
 40
0.2892843882
 40
0.4225526904
 40
0.5485003929
 40
0.6678994363
 40
0.7818781575
 40
0.8919629994
 40
1.0
 40
1.0
 40
1.0
 40
1.0
 10
27.444073647
 20
99.0208640301
 30
0.0
 10
27.444073647
 20
98.8181118084
 30
0.0
 10
27.4677436136
 20
98.5204989687
 30
0.0
 10
27.5592416229
 20
98.1464396396
 30
0.0
 10
27.6523316054
 20
97.8971881069
 30
0.0
 10
27.7709633115
 20
97.6741342438
 30
0.0
 10
27.9142662005
 20
97.4795317226
 30
0.0
 10
28.080862361
 20
97.315562515
 30
0.0
 10
28.2069486947
 20
97.2275824218
 30
0.0
 10
28.2725245098
 20
97.1897221802
 30
0.0
  0
SPLINE
  5
34B
100
AcDbEntity
  8
0
100
AcDbSpline
 62
7
  6
BYLAYER
 70
0
 71
3
 72
10
 73
6
 74
0
 42
0.0000001
 43
0.0000001
 44
0.0000000001
 40
0.0
 40
0.0
 40
0.0
 40
0.0
 40
0.510836581
 40
0.7569175608
 40
1.0
 40
1.0
 40
1.0
 40
1.0
 10
21.1473119275
 20
113.7858908543
 30
0.0
 10
20.9088152272
 20
113.7832640853
 30
0.0
 10
20.5533026831
 20
113.7396720942
 30
0.0
 10
20.1092073327
 20
113.5922740035
 30
0.0
 10
19.9032767056
 20
113.4914920542
 30
0.0
 10
19.8049886374
 20
113.4347401107
 30
0.0
  0
SPLINE
  5
34C
100
AcDbEntity
  8
0
100
AcDbSpline
 62
7
  6
BYLAYER
 70
0
 71
3
 72
11
 73
7
 74
0
 42
0.0000001
 43
0.0000001
 44
0.0000000001
 40
0.0
 40
0.0
 40
0.0
 40
0.0
 40
0.2596802801
 40
0.5211990096
 40
0.7716773139
 40
1.0
 40
1.0
 40
1.0
 40
1.0
 10
29.9918152557
 20
111.3553653577
 30
0.0
 10
29.9318330039
 20
111.5259291722
 30
0.0
 10
29.7819909491
 20
111.8584748433
 30
0.0
 10
29.4867396274
 20
112.309925329
 30
0.0
 10
29.1377474142
 20
112.6922904636
 30
0.0
 10
28.869409849
 20
112.8950079149
 30
0.0
 10
28.7317364989
 20
112.9744918625
 30
0.0
  0
SPLINE
  5
34D
100
AcDbEntity
  8
0
100
AcDbSpline
 62
7
  6
BYLAYER
 70
0
 71
3
 72
12
 73
8
 74
0
 42
0.0000001
 43
0.0000001
 44
0.0000000001
 40
0.0
 40
0.0
 40
0.0
 40
0.0
 40
0.2895257899
 40
0.54866123
 40
0.7816278344
 40
0.8918375682
 40
1.0
 40
1.0
 40
1.0
 40
1.0
 10
21.398285497
 20
108.2268394011
 30
0.0
 10
21.398285497
 20
108.3307246589
 30
0.0
 10
21.4140615835
 20
108.5282876823
 30
0.0
 10
21.4938844247
 20
108.7995915978
 30
0.0
 10
21.6087437207
 20
108.9867458905
 30
0.0
 10
21.7246351392
 20
109.1007825557
 30
0.0
 10
21.7892572302
 20
109.1458910802
 30
0.0
 10
21.8228710088
 20
109.1652902113
 30
0.0
  0
SPLINE
  5
34E
100
AcDbEntity
  8
0
100
AcDbSpline
 62
7
  6
BYLAYER
 70
0
 71
3
 72
10
 73
6
 74
0
 42
0.0000001
 43
0.0000001
 44
0.0000000001
 40
0.0
 40
0.0
 40
0.0
 40
0.0
 40
0.5108320266
 40
0.7569636152
 40
1.0
 40
1.0
 40
1.0
 40
1.0
 10
34.0873121485
 20
121.2567588701
 30
0.0
 10
33.8527542453
 20
121.2541754825
 30
0.0
 10
33.5031773068
 20
121.2119738111
 30
0.0
 10
33.0656363766
 20
121.0694948554
 30
0.0
 10
32.8623315928
 20
120.9720376417
 30
0.0
 10
32.7651688741
 20
120.9171352238
 30
0.0
  0
SPLINE
  5
34F
100
AcDbEntity
  8
0
100
AcDbSpline
 62
7
  6
BYLAYER
 70
0
 71
3
 72
15
 73
11
 74
0
 42
0.0000001
 43
0.0000001
 44
0.0000000001
 40
0.0
 40
0.0
 40
0.0
 40
0.0
 40
0.1144843243
 40
0.2379634769
 40
0.36772405
 40
0.5007652254
 40
0.633693403
 40
0.7631618737
 40
0.8861011318
 40
1.0
 40
1.0
 40
1.0
 40
1.0
 10
56.6129614054
 20
52.4086503063
 30
0.0
 10
56.6135789525
 20
52.3191582509
 30
0.0
 10
56.6311084023
 20
52.1330871545
 30
0.0
 10
56.6976948853
 20
51.8526890861
 30
0.0
 10
56.8033843243
 20
51.5690541651
 30
0.0
 10
56.9440681337
 20
51.2928181104
 30
0.0
 10
57.1146181541
 20
51.0342213885
 30
0.0
 10
57.3086704988
 20
50.8028821455
 30
0.0
 10
57.518946108
 20
50.6074141295
 30
0.0
 10
57.6716355388
 20
50.5011409684
 30
0.0
 10
57.7489004666
 20
50.4568958119
 30
0.0
  0
SPLINE
  5
350
100
AcDbEntity
  8
0
100
AcDbSpline
 62
7
  6
BYLAYER
 70
0
 71
3
 72
15
 73
11
 74
0
 42
0.0000001
 43
0.0000001
 44
0.0000000001
 40
0.0
 40
0.0
 40
0.0
 40
0.0
 40
0.1144843243
 40
0.2379634769
 40
0.36772405
 40
0.5007652254
 40
0.633693403
 40
0.7631618737
 40
0.8861011318
 40
1.0
 40
1.0
 40
1.0
 40
1.0
 10
21.2563437906
 20
72.8213412071
 30
0.0
 10
21.2569613377
 20
72.7318491517
 30
0.0
 10
21.2744907875
 20
72.5457780553
 30
0.0
 10
21.3410772705
 20
72.2653799869
 30
0.0
 10
21.4467667095
 20
71.9817450658
 30
0.0
 10
21.5874505189
 20
71.7055090112
 30
0.0
 10
21.7580005392
 20
71.4469122893
 30
0.0
 10
21.952052884
 20
71.2155730462
 30
0.0
 10
22.1623284932
 20
71.0201050302
 30
0.0
 10
22.315017924
 20
70.9138318692
 30
0.0
 10
22.3922828518
 20
70.8695867126
 30
0.0
  0
SPLINE
  5
351
100
AcDbEntity
  8
0
100
AcDbSpline
 62
7
  6
BYLAYER
 70
0
 71
3
 72
17
 73
13
 74
0
 42
0.0000001
 43
0.0000001
 44
0.0000000001
 40
0.0
 40
0.0
 40
0.0
 40
0.0
 40
0.0428524125
 40
0.0874601761
 40
0.1352565796
 40
0.1871600485
 40
0.3042544392
 40
0.4377382453
 40
0.5819573796
 40
0.7291310349
 40
0.8709180077
 40
1.0
 40
1.0
 40
1.0
 40
1.0
 10
20.5270335708
 20
72.9518997816
 30
0.0
 10
20.5663437289
 20
72.97459521
 30
0.0
 10
20.6529683506
 20
73.0106180883
 30
0.0
 10
20.7959211646
 20
73.0317762847
 30
0.0
 10
20.9494473087
 20
73.0207458748
 30
0.0
 10
21.1725214058
 20
72.9619047945
 30
0.0
 10
21.4578531014
 20
72.8067480054
 30
0.0
 10
21.7734292213
 20
72.5286380934
 30
0.0
 10
22.0528783784
 20
72.172918385
 30
0.0
 10
22.2734984607
 20
71.7681277082
 30
0.0
 10
22.4176811299
 20
71.3472570743
 30
0.0
 10
22.4574232582
 20
71.0602746758
 30
0.0
 10
22.4583667507
 20
70.9235481567
 30
0.0
  0
SPLINE
  5
352
100
AcDbEntity
  8
0
100
AcDbSpline
 62
7
  6
BYLAYER
 70
0
 71
3
 72
17
 73
13
 74
0
 42
0.0000001
 43
0.0000001
 44
0.0000000001
 40
0.0
 40
0.0
 40
0.0
 40
0.0
 40
0.0428524125
 40
0.0874601761
 40
0.1352565796
 40
0.1871600485
 40
0.3042544392
 40
0.4377382453
 40
0.5819573796
 40
0.7291310349
 40
0.8709180077
 40
1.0
 40
1.0
 40
1.0
 40
1.0
 10
55.8836511856
 20
52.5392088808
 30
0.0
 10
55.9229613437
 20
52.5619043092
 30
0.0
 10
56.0095859655
 20
52.5979271875
 30
0.0
 10
56.1525387794
 20
52.6190853839
 30
0.0
 10
56.3060649235
 20
52.608054974
 30
0.0
 10
56.5291390207
 20
52.5492138937
 30
0.0
 10
56.8144707162
 20
52.3940571046
 30
0.0
 10
57.1300468361
 20
52.1159471926
 30
0.0
 10
57.4094959932
 20
51.7602274842
 30
0.0
 10
57.6301160755
 20
51.3554368075
 30
0.0
 10
57.7742987447
 20
50.9345661735
 30
0.0
 10
57.814040873
 20
50.647583775
 30
0.0
 10
57.8149843655
 20
50.5108572559
 30
0.0
  0
SPLINE
  5
353
100
AcDbEntity
  8
0
100
AcDbSpline
 62
7
  6
BYLAYER
 70
0
 71
3
 72
11
 73
7
 74
0
 42
0.0000001
 43
0.0000001
 44
0.0000000001
 40
0.0
 40
0.0
 40
0.0
 40
0.0
 40
0.290162051
 40
0.5497153272
 40
0.782660308
 40
1.0
 40
1.0
 40
1.0
 40
1.0
 10
57.8149843655
 20
50.5108572559
 30
0.0
 10
57.81555161
 20
50.4286548217
 30
0.0
 10
57.8041531362
 20
50.2723036343
 30
0.0
 10
57.7422284318
 20
50.0573227364
 30
0.0
 10
57.6366762511
 20
49.8828767713
 30
0.0
 10
57.5369631743
 20
49.7987188661
 30
0.0
 10
57.4836388294
 20
49.7679324507
 30
0.0
  0
SPLINE
  5
354
100
AcDbEntity
  8
0
100
AcDbSpline
 62
7
  6
BYLAYER
 70
0
 71
3
 72
11
 73
7
 74
0
 42
0.0000001
 43
0.0000001
 44
0.0000000001
 40
0.0
 40
0.0
 40
0.0
 40
0.0
 40
0.290162051
 40
0.5497153272
 40
0.782660308
 40
1.0
 40
1.0
 40
1.0
 40
1.0
 10
22.4583667507
 20
70.9235481567
 30
0.0
 10
22.4589339952
 20
70.8413457225
 30
0.0
 10
22.4475355214
 20
70.6849945351
 30
0.0
 10
22.385610817
 20
70.4700136372
 30
0.0
 10
22.2800586362
 20
70.2955676721
 30
0.0
 10
22.1803455595
 20
70.2114097668
 30
0.0
 10
22.1270212146
 20
70.1806233515
 30
0.0
  0
SPLINE
  5
355
100
AcDbEntity
  8
0
100
AcDbSpline
 62
7
  6
BYLAYER
 70
0
 71
3
 72
11
 73
7
 74
0
 42
0.0000001
 43
0.0000001
 44
0.0000000001
 40
0.0
 40
0.0
 40
0.0
 40
0.0
 40
0.290162051
 40
0.5497153272
 40
0.782660308
 40
1.0
 40
1.0
 40
1.0
 40
1.0
 10
55.5523056495
 20
51.7962840755
 30
0.0
 10
55.551738405
 20
51.8784865098
 30
0.0
 10
55.5631368788
 20
52.0348376971
 30
0.0
 10
55.6250615832
 20
52.2498185951
 30
0.0
 10
55.730613764
 20
52.4242645601
 30
0.0
 10
55.8303268407
 20
52.5084224654
 30
0.0
 10
55.8836511856
 20
52.5392088808
 30
0.0
  0
SPLINE
  5
356
100
AcDbEntity
  8
0
100
AcDbSpline
 62
7
  6
BYLAYER
 70
0
 71
3
 72
17
 73
13
 74
0
 42
0.0000001
 43
0.0000001
 44
0.0000000001
 40
0.0
 40
0.0
 40
0.0
 40
0.0
 40
0.0428524125
 40
0.0874601761
 40
0.1352565796
 40
0.1871600485
 40
0.3042544392
 40
0.4377382453
 40
0.5819573796
 40
0.7291310349
 40
0.8709180077
 40
1.0
 40
1.0
 40
1.0
 40
1.0
 10
22.1270212146
 20
70.1806233515
 30
0.0
 10
22.0877110565
 20
70.157927923
 30
0.0
 10
22.0010864347
 20
70.1219050447
 30
0.0
 10
21.8581336208
 20
70.1007468483
 30
0.0
 10
21.7046074767
 20
70.1117772582
 30
0.0
 10
21.4815333795
 20
70.1706183385
 30
0.0
 10
21.196201684
 20
70.3257751276
 30
0.0
 10
20.8806255641
 20
70.6038850397
 30
0.0
 10
20.601176407
 20
70.959604748
 30
0.0
 10
20.3805563247
 20
71.3643954248
 30
0.0
 10
20.2363736555
 20
71.7852660588
 30
0.0
 10
20.1966315272
 20
72.0722484572
 30
0.0
 10
20.1956880347
 20
72.2089749763
 30
0.0
  0
SPLINE
  5
357
100
AcDbEntity
  8
0
100
AcDbSpline
 62
7
  6
BYLAYER
 70
0
 71
3
 72
11
 73
7
 74
0
 42
0.0000001
 43
0.0000001
 44
0.0000000001
 40
0.0
 40
0.0
 40
0.0
 40
0.0
 40
0.290162051
 40
0.5497153272
 40
0.782660308
 40
1.0
 40
1.0
 40
1.0
 40
1.0
 10
20.1956880347
 20
72.2089749763
 30
0.0
 10
20.1951207902
 20
72.2911774106
 30
0.0
 10
20.206519264
 20
72.4475285979
 30
0.0
 10
20.2684439684
 20
72.6625094958
 30
0.0
 10
20.3739961491
 20
72.8369554609
 30
0.0
 10
20.4737092259
 20
72.9211133662
 30
0.0
 10
20.5270335708
 20
72.9518997816
 30
0.0
  0
SPLINE
  5
358
100
AcDbEntity
  8
0
100
AcDbSpline
 62
7
  6
BYLAYER
 70
0
 71
3
 72
17
 73
13
 74
0
 42
0.0000001
 43
0.0000001
 44
0.0000000001
 40
0.0
 40
0.0
 40
0.0
 40
0.0
 40
0.0428524125
 40
0.0874601761
 40
0.1352565796
 40
0.1871600485
 40
0.3042544392
 40
0.4377382453
 40
0.5819573796
 40
0.7291310349
 40
0.8709180077
 40
1.0
 40
1.0
 40
1.0
 40
1.0
 10
57.4836388294
 20
49.7679324507
 30
0.0
 10
57.4443286713
 20
49.7452370222
 30
0.0
 10
57.3577040496
 20
49.709214144
 30
0.0
 10
57.2147512356
 20
49.6880559475
 30
0.0
 10
57.0612250915
 20
49.6990863575
 30
0.0
 10
56.8381509944
 20
49.7579274378
 30
0.0
 10
56.5528192988
 20
49.9130842268
 30
0.0
 10
56.2372431789
 20
50.1911941389
 30
0.0
 10
55.9577940218
 20
50.5469138473
 30
0.0
 10
55.7371739395
 20
50.951704524
 30
0.0
 10
55.5929912703
 20
51.372575158
 30
0.0
 10
55.553249142
 20
51.6595575564
 30
0.0
 10
55.5523056495
 20
51.7962840755
 30
0.0
  0
SPLINE
  5
359
100
AcDbEntity
  8
0
100
AcDbSpline
 62
7
  6
BYLAYER
 70
0
 71
3
 72
12
 73
8
 74
0
 42
0.0000001
 43
0.0000001
 44
0.0000000001
 40
0.0
 40
0.0
 40
0.0
 40
0.0
 40
0.2894980995
 40
0.5486444756
 40
0.7815759116
 40
0.8917777082
 40
1.0
 40
1.0
 40
1.0
 40
1.0
 10
72.1686451207
 20
70.2190496831
 30
0.0
 10
72.1686451207
 20
70.0619695947
 30
0.0
 10
72.144793989
 20
69.763220597
 30
0.0
 10
72.024067473
 20
69.3529982161
 30
0.0
 10
71.8504577609
 20
69.0699558931
 30
0.0
 10
71.6751996487
 20
68.8975018242
 30
0.0
 10
71.5774504072
 20
68.829276031
 30
0.0
 10
71.52658352
 20
68.7999384263
 30
0.0
  0
SPLINE
  5
35A
100
AcDbEntity
  8
0
100
AcDbSpline
 62
7
  6
BYLAYER
 70
0
 71
3
 72
11
 73
7
 74
0
 42
0.0000001
 43
0.0000001
 44
0.0000000001
 40
0.0
 40
0.0
 40
0.0
 40
0.0
 40
0.2625942938
 40
0.5234867496
 40
0.7722287989
 40
1.0
 40
1.0
 40
1.0
 40
1.0
 10
71.1703435813
 20
72.9183125912
 30
0.0
 10
71.3242465523
 20
72.7140690578
 30
0.0
 10
71.6012859823
 20
72.2836419463
 30
0.0
 10
71.9161716014
 20
71.5978731456
 30
0.0
 10
72.1165946
 20
70.9054532884
 30
0.0
 10
72.1686451207
 20
70.4408731724
 30
0.0
 10
72.1686451207
 20
70.2190496831
 30
0.0
  0
SPLINE
  5
35B
100
AcDbEntity
  8
0
100
AcDbSpline
 62
7
  6
BYLAYER
 70
0
 71
3
 72
11
 73
7
 74
0
 42
0.0000001
 43
0.0000001
 44
0.0000000001
 40
0.0
 40
0.0
 40
0.0
 40
0.0
 40
0.2118175243
 40
0.4500883414
 40
0.7142306304
 40
1.0
 40
1.0
 40
1.0
 40
1.0
 10
72.0916810231
 20
78.0843995088
 30
0.0
 10
72.3280129761
 20
78.0676858351
 30
0.0
 10
72.8256907068
 20
77.9567453302
 30
0.0
 10
73.5521988275
 20
77.6136207882
 30
0.0
 10
74.2744809734
 20
77.1016107186
 30
0.0
 10
74.7203523646
 20
76.6746729988
 30
0.0
 10
74.9368925619
 20
76.4395573905
 30
0.0
  0
SPLINE
  5
35C
100
AcDbEntity
  8
0
100
AcDbSpline
 62
7
  6
BYLAYER
 70
0
 71
3
 72
11
 73
7
 74
0
 42
0.0000001
 43
0.0000001
 44
0.0000000001
 40
0.0
 40
0.0
 40
0.0
 40
0.0
 40
0.2216134081
 40
0.4603055876
 40
0.7194608953
 40
1.0
 40
1.0
 40
1.0
 40
1.0
 10
29.4914414748
 20
73.9998438323
 30
0.0
 10
29.316366039
 20
73.9708921962
 30
0.0
 10
28.9448128979
 20
73.953616864
 30
0.0
 10
28.3724766144
 20
74.0419048394
 30
0.0
 10
27.7787907856
 20
74.2396497756
 30
0.0
 10
27.3911296153
 20
74.4338900308
 30
0.0
 10
27.1965873039
 20
74.5462065458
 30
0.0
  0
SPLINE
  5
35D
100
AcDbEntity
  8
0
100
AcDbSpline
 62
7
  6
BYLAYER
 70
0
 71
3
 72
11
 73
7
 74
0
 42
0.0000001
 43
0.0000001
 44
0.0000000001
 40
0.0
 40
0.0
 40
0.0
 40
0.0
 40
0.229188351
 40
0.4749628972
 40
0.7334801953
 40
1.0
 40
1.0
 40
1.0
 40
1.0
 10
54.7738665847
 20
58.6248171195
 30
0.0
 10
54.5172425232
 20
58.7729757386
 30
0.0
 10
54.0089362505
 20
59.1217457637
 30
0.0
 10
53.2999845824
 20
59.7547338465
 30
0.0
 10
52.6348926733
 20
60.4995008986
 30
0.0
 10
52.2371806956
 20
61.0513298
 30
0.0
 10
52.0498875494
 20
61.3405749546
 30
0.0
  0
SPLINE
  5
35E
100
AcDbEntity
  8
0
100
AcDbSpline
 62
7
  6
BYLAYER
 70
0
 71
3
 72
15
 73
11
 74
0
 42
0.0000001
 43
0.0000001
 44
0.0000000001
 40
0.0
 40
0.0
 40
0.0
 40
0.0
 40
0.1141555516
 40
0.2373276756
 40
0.3669773296
 40
0.5000011
 40
0.6330247168
 40
0.7626739247
 40
0.885845342
 40
1.0
 40
1.0
 40
1.0
 40
1.0
 10
65.0268368967
 20
74.3422813037
 30
0.0
 10
65.0268368967
 20
74.0069048542
 30
0.0
 10
65.0882658649
 20
73.3090110095
 30
0.0
 10
65.3331512134
 20
72.2561623641
 30
0.0
 10
65.7254434133
 20
71.1897111212
 30
0.0
 10
66.2504817229
 20
70.1497592619
 30
0.0
 10
66.8885912302
 20
69.175090951
 30
0.0
 10
67.6160211747
 20
68.3021370911
 30
0.0
 10
68.4053725107
 20
67.5636449349
 30
0.0
 10
68.9790513536
 20
67.1615063407
 30
0.0
 10
69.2694952475
 20
66.9938222738
 30
0.0
  0
SPLINE
  5
35F
100
AcDbEntity
  8
0
100
AcDbSpline
 62
7
  6
BYLAYER
 70
0
 71
3
 72
11
 73
7
 74
0
 42
0.0000001
 43
0.0000001
 44
0.0000000001
 40
0.0
 40
0.0
 40
0.0
 40
0.0
 40
0.2650017572
 40
0.5250070124
 40
0.7721726114
 40
1.0
 40
1.0
 40
1.0
 40
1.0
 10
56.0803794215
 20
63.6675666316
 30
0.0
 10
55.8434552974
 20
64.0334591175
 30
0.0
 10
55.4192623535
 20
64.7887335298
 30
0.0
 10
54.9400330113
 20
65.9687619227
 30
0.0
 10
54.6384341376
 20
67.1434009723
 30
0.0
 10
54.5617001059
 20
67.9255142299
 30
0.0
 10
54.5617001059
 20
68.3002678264
 30
0.0
  0
SPLINE
  5
360
100
AcDbEntity
  8
0
100
AcDbSpline
 62
7
  6
BYLAYER
 70
0
 71
3
 72
12
 73
8
 74
0
 42
0.0000001
 43
0.0000001
 44
0.0000000001
 40
0.0
 40
0.0
 40
0.0
 40
0.0
 40
0.2894980995
 40
0.5486444756
 40
0.7815759116
 40
0.8917777082
 40
1.0
 40
1.0
 40
1.0
 40
1.0
 10
67.7845648247
 20
72.7501423611
 30
0.0
 10
67.7845648247
 20
72.9072224495
 30
0.0
 10
67.8084159564
 20
73.2059714472
 30
0.0
 10
67.9291424724
 20
73.6161938281
 30
0.0
 10
68.1027521845
 20
73.899236151
 30
0.0
 10
68.2780102967
 20
74.07169022
 30
0.0
 10
68.3757595382
 20
74.1399160132
 30
0.0
 10
68.4266264254
 20
74.1692536178
 30
0.0
  0
SPLINE
  5
361
100
AcDbEntity
  8
0
100
AcDbSpline
 62
7
  6
BYLAYER
 70
0
 71
3
 72
11
 73
7
 74
0
 42
0.0000001
 43
0.0000001
 44
0.0000000001
 40
0.0
 40
0.0
 40
0.0
 40
0.0
 40
0.2625942938
 40
0.5234867496
 40
0.7722287989
 40
1.0
 40
1.0
 40
1.0
 40
1.0
 10
68.7828663641
 20
70.050879453
 30
0.0
 10
68.6289633931
 20
70.2551229864
 30
0.0
 10
68.3519239631
 20
70.6855500979
 30
0.0
 10
68.037038344
 20
71.3713188985
 30
0.0
 10
67.8366153454
 20
72.0637387558
 30
0.0
 10
67.7845648247
 20
72.5283188718
 30
0.0
 10
67.7845648247
 20
72.7501423611
 30
0.0
  0
ENDSEC
  0
SECTION
  2
OBJECTS
  0
DICTIONARY
  5
C
100
AcDbDictionary
280
0
281
1
  3
ACAD_GROUP
350
D
  3
ACAD_MLINESTYLE
350
17
  3
ACAD_LAYOUT
350
1A
  3
ACAD_PLOTSETTINGS
350
19
  3
ACAD_PLOTSTYLENAME
350
E
  0
DICTIONARY
  5
D
102
{ACAD_REACTORS
330
C
102
}
100
AcDbDictionary
280
0
281
1
  0
ACDBDICTIONARYWDFLT
  5
E
102
{ACAD_REACTORS
330
C
102
}
100
AcDbDictionary
281
1
  3
Normal
350
F
100
AcDbDictionaryWithDefault
340
F
  0
DICTIONARY
  5
17
102
{ACAD_REACTORS
330
C
102
}
100
AcDbDictionary
280
0
281
1
  3
Standard
350
18
  0
DICTIONARY
  5
19
102
{ACAD_REACTORS
330
C
102
}
100
AcDbDictionary
281
1
  0
DICTIONARY
  5
1A
102
{ACAD_REACTORS
330
C
102
}
100
AcDbDictionary
281
1
  3
Model
350
362
  3
Layout1
350
363
  0
ACDBPLACEHOLDER
  5
F
102
{ACAD_REACTORS
330
E
102
}
  0
MLINESTYLE
  5
18
102
{ACAD_REACTORS
330
17
102
}
100
AcDbMlineStyle
  2
STANDARD
 70
0
  3

 62
256
 51
90.0
 52
90.0
 71
2
 49
0.5
 62
256
  6
BYLAYER
 49
-0.5
 62
256
  6
BYLAYER
  0
LAYOUT
  5
362
102
{ACAD_REACTORS
330
1A
102
}
100
AcDbPlotSettings
  1

  2
none_device
  4

  6

 40
0.0
 41
0.0
 42
0.0
 43
0.0
 44
210.0
 45
297.0
 46
0.0
 47
0.0
 48
0.0
 49
0.0
140
0.0
141
0.0
142
1.0
143
1.0
 70
1024
 72
1
 73
0
 74
0
  7

 75
0
147
1.0
148
0.0
149
0.0
100
AcDbLayout
  1
Model
 70
0
 71
0
 10
0.0
 20
0.0
 11
210.0
 21
297.0
 12
0.0
 22
0.0
 32
0.0
 14
0.0
 24
0.0
 34
0.0
 15
0.0
 25
0.0
 35
0.0
146
0.0
 13
0.0
 23
0.0
 33
0.0
 16
1.0
 26
0.0
 36
0.0
 17
0.0
 27
1.0
 37
0.0
 76
0
330
210
345
0
346
0
  0
LAYOUT
  5
363
102
{ACAD_REACTORS
330
1A
102
}
100
AcDbPlotSettings
  1

  2
none_device
  4

  6

 40
0.0
 41
0.0
 42
0.0
 43
0.0
 44
210.0
 45
297.0
 46
0.0
 47
0.0
 48
0.0
 49
0.0
140
0.0
141
0.0
142
1.0
143
1.0
 70
0
 72
1
 73
0
 74
0
  7

 75
0
147
1.0
148
0.0
149
0.0
100
AcDbLayout
  1
Layout1
 70
0
 71
1
 10
0.0
 20
0.0
 11
210.0
 21
297.0
 12
0.0
 22
0.0
 32
0.0
 14
0.0
 24
0.0
 34
0.0
 15
0.0
 25
0.0
 35
0.0
146
0.0
 13
0.0
 23
0.0
 33
0.0
 16
1.0
 26
0.0
 36
0.0
 17
0.0
 27
1.0
 37
0.0
 76
0
330
211
345
0
346
0
  0
ENDSEC
  0
EOF
