999
DXF file: C:\Users\sesa63760\Dev\_Creo\CAD\MCADID0001926_3D-CAD\drw0001_1.dxf
999
Pro/ENGINEER 2019471 by Parametric Technology Corporation
  0
SECTION
  2
HEADER
  9
$ACADVER
  1
AC1024
  9
$DWGCODEPAGE
  3
ANSI_1252
  9
$EXTMAX
 10
27.9265994746
 20
39.4961906855
 30
0.0
  9
$EXTMIN
 10
0.0
 20
0.0
 30
0.0
  9
$LIMMIN
 10
0.0
 20
0.0
  9
$LIMMAX
 10
27.9265994746
 20
39.4961906855
  9
$VIEWCTR
 10
13.9632997373
 20
19.7480953428
  9
$VIEWSIZE
 40
39.4961906855
  9
$CLAYER
  8
0
  9
$LTSCALE
 40
2.5745665039
  9
$CELTYPE
  6
BYLAYER
  9
$DIMSCALE
 40
1.0
  9
$DIMASZ
 40
0.3324595176
  9
$DIMEXO
 40
1.0
  9
$DIMDLI
 40
1.7787914027
  9
$DIMEXE
 40
1.0
  9
$DIMCEN
 40
0.4212927006
  9
$DIMLFAC
 40
1.0
  9
$DIMBLK
  1
_FILLED
  9
$DIMALT
 70
0
  9
$DIMALTF
 40
0.0393700787
  9
$DIMTXT
 40
0.4654433246
  9
$DIMTOL
 70
1
  9
$DIMLIM
 70
0
  9
$DIMTFAC
 40
1.0
  9
$DIMTP
 40
0.01
  9
$DIMTM
 40
0.01
  9
$DIMGAP
 40
0.625
  9
$DIMDSEP
 70
46
  9
$AUNITS
 70
0
  9
$PDMODE
 70
3
  9
$PDSIZE
 40
0.3125
  9
$HANDSEED
  5
249
  9
$TILEMODE
 70
1
  9
$MEASUREMENT
 70
1
  9
$INSUNITS
 70
4
  0
ENDSEC
  0
SECTION
  2
CLASSES
  0
CLASS
  1
ACDBDICTIONARYWDFLT
  2
AcDbDictionaryWithDefault
  3
AutoCAD 2000
 90
0
 91
1
280
0
281
0
  0
CLASS
  1
ACDBPLACEHOLDER
  2
AcDbPlaceHolder
  3
AutoCAD 2000
 90
0
 91
1
280
0
281
0
  0
CLASS
  1
LAYOUT
  2
AcDbLayout
  3
AutoCAD 2000
 90
0
 91
0
280
0
281
0
  0
ENDSEC
  0
SECTION
  2
TABLES
  0
TABLE
  2
VPORT
  5
8
100
AcDbSymbolTable
 70
2
  0
VPORT
  5
1F4
100
AcDbSymbolTableRecord
100
AcDbViewportTableRecord
  2
*ACTIVE
 70
0
 10
0.0
 20
0.0
 11
1.0
 21
1.0
 12
13.9632997373
 22
19.7480953428
 13
0.0
 23
0.0
 14
1.0
 24
1.0
 15
0.0
 25
0.0
 16
0.0
 26
0.0
 36
1.0
 17
0.0
 27
0.0
 37
0.0
 40
39.4961906855
 41
0.7070707071
 42
50.0
 43
0.0
 44
0.0
 50
0.0
 51
0.0
 71
0
 72
100
 73
1
 74
1
 75
0
 76
0
 77
0
 78
0
  0
ENDTAB
  0
TABLE
  2
LTYPE
  5
5
100
AcDbSymbolTable
 70
6
  0
LTYPE
  5
14
100
AcDbSymbolTableRecord
100
AcDbLinetypeTableRecord
  2
BYBLOCK
 70
0
  3

 72
65
 73
0
 40
0.0
  0
LTYPE
  5
15
100
AcDbSymbolTableRecord
100
AcDbLinetypeTableRecord
  2
BYLAYER
 70
0
  3

 72
65
 73
0
 40
0.0
  0
LTYPE
  5
16
100
AcDbSymbolTableRecord
100
AcDbLinetypeTableRecord
  2
CONTINUOUS
 70
64
  3
Solid line
 72
65
 73
0
 40
0.0
  0
LTYPE
  5
1F5
100
AcDbSymbolTableRecord
100
AcDbLinetypeTableRecord
  2
CENTER
 70
64
  3
____ _ ____ _ ____ _ ____ _ ____ _ ____ _ ____
 72
65
 73
4
 40
0.6
 49
0.375
 74
0
 49
-0.075
 74
0
 49
0.075
 74
0
 49
-0.075
 74
0
  0
LTYPE
  5
1F6
100
AcDbSymbolTableRecord
100
AcDbLinetypeTableRecord
  2
HIDDEN
 70
64
  3
- - - - - - - - - - - - - - - - - - - -
 72
65
 73
2
 40
0.2
 49
0.1
 74
0
 49
-0.1
 74
0
  0
LTYPE
  5
1F7
100
AcDbSymbolTableRecord
100
AcDbLinetypeTableRecord
  2
PHANTOM
 70
64
  3
_____ _ _ _____ _ _ _____ _ _ _____
 72
65
 73
6
 40
0.8
 49
0.45
 74
0
 49
-0.05
 74
0
 49
0.1
 74
0
 49
-0.05
 74
0
 49
0.1
 74
0
 49
-0.05
 74
0
  0
LTYPE
  5
1F8
100
AcDbSymbolTableRecord
100
AcDbLinetypeTableRecord
  2
DOT
 70
64
  3
. . . . . . . . . . . . . . . . . . . .
 72
65
 73
2
 40
0.2
 49
0.1
 74
0
 49
-0.1
 74
0
  0
LTYPE
  5
1F9
100
AcDbSymbolTableRecord
100
AcDbLinetypeTableRecord
  2
DASHED
 70
64
  3
- - - - - - - - - - - - - - - - - - - -
 72
65
 73
2
 40
0.2
 49
0.1
 74
0
 49
-0.1
 74
0
  0
ENDTAB
  0
TABLE
  2
LAYER
  5
2
100
AcDbSymbolTable
 70
36
  0
LAYER
  5
10
100
AcDbSymbolTableRecord
100
AcDbLayerTableRecord
  2
0
 70
0
 62
7
  6
CONTINUOUS
370
-3
390
F
  0
LAYER
  5
1FA
100
AcDbSymbolTableRecord
100
AcDbLayerTableRecord
  2
DEFAULT_1
 70
0
 62
7
  6
CENTER
370
-3
390
F
  0
LAYER
  5
1FB
100
AcDbSymbolTableRecord
100
AcDbLayerTableRecord
  2
DEFAULT_2
 70
0
 62
8
  6
HIDDEN
370
-3
390
F
  0
LAYER
  5
1FC
100
AcDbSymbolTableRecord
100
AcDbLayerTableRecord
  2
DEFAULT_3
 70
0
 62
7
  6
PHANTOM
370
-3
390
F
  0
LAYER
  5
1FD
100
AcDbSymbolTableRecord
100
AcDbLayerTableRecord
  2
00_COMPONENTS
 70
0
 62
7
  6
CONTINUOUS
370
-3
390
F
  0
LAYER
  5
1FE
100
AcDbSymbolTableRecord
100
AcDbLayerTableRecord
  2
01_1_DEFAULT_DATUMS
 70
0
 62
7
  6
CONTINUOUS
370
-3
390
F
  0
LAYER
  5
1FF
100
AcDbSymbolTableRecord
100
AcDbLayerTableRecord
  2
01_PLANES
 70
0
 62
7
  6
CONTINUOUS
370
-3
390
F
  0
LAYER
  5
200
100
AcDbSymbolTableRecord
100
AcDbLayerTableRecord
  2
02_COORD_SYS
 70
0
 62
7
  6
CONTINUOUS
370
-3
390
F
  0
LAYER
  5
201
100
AcDbSymbolTableRecord
100
AcDbLayerTableRecord
  2
03_AXES
 70
0
 62
7
  6
CONTINUOUS
370
-3
390
F
  0
LAYER
  5
202
100
AcDbSymbolTableRecord
100
AcDbLayerTableRecord
  2
04_POINTS
 70
0
 62
7
  6
CONTINUOUS
370
-3
390
F
  0
LAYER
  5
203
100
AcDbSymbolTableRecord
100
AcDbLayerTableRecord
  2
05_CURVES
 70
0
 62
7
  6
CONTINUOUS
370
-3
390
F
  0
LAYER
  5
204
100
AcDbSymbolTableRecord
100
AcDbLayerTableRecord
  2
06_SURFS
 70
0
 62
7
  6
CONTINUOUS
370
-3
390
F
  0
LAYER
  5
205
100
AcDbSymbolTableRecord
100
AcDbLayerTableRecord
  2
07_COSMETICS
 70
0
 62
7
  6
CONTINUOUS
370
-3
390
F
  0
LAYER
  5
206
100
AcDbSymbolTableRecord
100
AcDbLayerTableRecord
  2
10_NOTES
 70
0
 62
7
  6
CONTINUOUS
370
-3
390
F
  0
LAYER
  5
207
100
AcDbSymbolTableRecord
100
AcDbLayerTableRecord
  2
11_NOTES_PUB
 70
0
 62
7
  6
CONTINUOUS
370
-3
390
F
  0
LAYER
  5
208
100
AcDbSymbolTableRecord
100
AcDbLayerTableRecord
  2
13_REF_GTOL
 70
0
 62
7
  6
CONTINUOUS
370
-3
390
F
  0
LAYER
  5
209
100
AcDbSymbolTableRecord
100
AcDbLayerTableRecord
  2
16_MISC
 70
0
 62
7
  6
CONTINUOUS
370
-3
390
F
  0
LAYER
  5
20A
100
AcDbSymbolTableRecord
100
AcDbLayerTableRecord
  2
17_NO_PRINT
 70
0
 62
7
  6
CONTINUOUS
370
-3
390
F
  0
LAYER
  5
20B
100
AcDbSymbolTableRecord
100
AcDbLayerTableRecord
  2
18_DATUM_CAMS_JOINTS
 70
0
 62
7
  6
CONTINUOUS
370
-3
390
F
  0
LAYER
  5
20C
100
AcDbSymbolTableRecord
100
AcDbLayerTableRecord
  2
19_DATUM_FUNCTIONAL
 70
0
 62
7
  6
CONTINUOUS
370
-3
390
F
  0
LAYER
  5
20D
100
AcDbSymbolTableRecord
100
AcDbLayerTableRecord
  2
20_DATUM_KINEMATIC_SCHEME
 70
0
 62
7
  6
CONTINUOUS
370
-3
390
F
  0
ENDTAB
  0
TABLE
  2
STYLE
  5
3
100
AcDbSymbolTable
 70
1
  0
STYLE
  5
11
100
AcDbSymbolTableRecord
100
AcDbTextStyleTableRecord
  2
STANDARD
 70
0
 40
0.0
 41
0.8
 50
0.0
 71
0
 42
0.2
  3
txt
  4

  0
STYLE
  5
20E
100
AcDbSymbolTableRecord
100
AcDbTextStyleTableRecord
  2
TEXTSTYLE_1
 70
0
 40
0.0
 41
0.8
 50
0.0
 71
0
 42
0.2
  3
gdt
  4

  0
ENDTAB
  0
TABLE
  2
VIEW
  5
6
100
AcDbSymbolTable
 70
0
  0
ENDTAB
  0
TABLE
  2
UCS
  5
7
100
AcDbSymbolTable
 70
0
  0
ENDTAB
  0
TABLE
  2
APPID
  5
9
100
AcDbSymbolTable
 70
1
  0
APPID
  5
20F
100
AcDbSymbolTableRecord
100
AcDbRegAppTableRecord
  2
ACAD
 70
0
  0
ENDTAB
  0
TABLE
  2
BLOCK_RECORD
  5
1
100
AcDbSymbolTable
 70
0
  0
BLOCK_RECORD
  5
210
100
AcDbSymbolTableRecord
100
AcDbBlockTableRecord
  2
*Model_Space
  0
BLOCK_RECORD
  5
211
100
AcDbSymbolTableRecord
100
AcDbBlockTableRecord
  2
*Paper_Space
  0
BLOCK_RECORD
  5
212
100
AcDbSymbolTableRecord
100
AcDbBlockTableRecord
  2
_FILLED
  0
ENDTAB
  0
TABLE
  2
DIMSTYLE
  5
A
100
AcDbSymbolTable
 70
1
100
AcDbDimStyleTable
 71
0
  0
DIMSTYLE
105
213
100
AcDbSymbolTableRecord
100
AcDbDimStyleTableRecord
  2
STANDARD
 70
0
  3

  4

 40
1.0
 41
0.3324595176
 42
1.0
 43
0.38
 44
1.0
 45
0.0
 46
0.0
 47
0.01
 48
0.01
140
0.4654433246
141
0.09
142
0.0
143
25.4
144
1.0
145
0.0
146
1.0
147
0.625
 71
1
 72
0
 73
0
 74
0
 75
0
 76
0
 77
1
 78
8
 79
2
170
0
171
1
172
0
173
0
174
0
175
0
176
0
177
0
178
0
270
2
179
2
271
2
272
2
273
2
274
2
275
0
280
0
281
0
282
0
283
1
284
8
285
0
286
0
287
3
288
0
340
11
278
46
341
212
342
212
343
212
344
212
  0
ENDTAB
  0
ENDSEC
  0
SECTION
  2
BLOCKS
  0
BLOCK
  5
20
100
AcDbEntity
  8
0
100
AcDbBlockBegin
  2
*Model_Space
 70
0
 10
0.0
 20
0.0
 30
0.0
  3
*Model_Space
  1

  0
ENDBLK
  5
21
100
AcDbEntity
  8
0
100
AcDbBlockEnd
  0
BLOCK
  5
1C
100
AcDbEntity
  8
0
100
AcDbBlockBegin
  2
*Paper_Space
 70
0
 10
0.0
 20
0.0
 30
0.0
  3
*Paper_Space
  1

  0
ENDBLK
  5
1D
100
AcDbEntity
  8
0
100
AcDbBlockEnd
  0
BLOCK
  5
214
100
AcDbEntity
  8
0
100
AcDbBlockBegin
  2
_FILLED
 70
64
 10
0.0
 20
0.0
  3
_FILLED
  1

  0
SOLID
  5
215
100
AcDbEntity
  8
0
  6
BYBLOCK
 62
0
100
AcDbTrace
 10
0.0
 20
0.0
 11
-1.0
 21
0.25
 12
-1.0
 22
-0.25
 13
-1.0
 23
-0.25
  0
ENDBLK
  5
216
100
AcDbEntity
  8
0
  6
BYBLOCK
 62
0
100
AcDbBlockEnd
  0
ENDSEC
  0
SECTION
  2
ENTITIES
  0
LINE
  5
217
100
AcDbEntity
  8
0
100
AcDbLine
 62
7
  6
CONTINUOUS
 10
3.2398068422
 20
24.8395985302
 11
3.2398068422
 21
23.0767698117
  0
LINE
  5
218
100
AcDbEntity
  8
0
100
AcDbLine
 62
7
  6
CONTINUOUS
 10
4.5868396521
 20
25.6173036434
 11
4.5868396521
 21
25.1765964637
  0
LINE
  5
219
100
AcDbEntity
  8
0
100
AcDbLine
 62
7
  6
CONTINUOUS
 10
5.0358505887
 20
25.8765386811
 11
4.5868396521
 21
25.6173036434
  0
LINE
  5
21A
100
AcDbEntity
  8
0
100
AcDbLine
 62
7
  6
CONTINUOUS
 10
3.6888177788
 20
25.0988335679
 11
3.2398068422
 21
24.8395985302
  0
LINE
  5
21B
100
AcDbEntity
  8
0
100
AcDbLine
 62
7
  6
CONTINUOUS
 10
4.5868396521
 20
25.1765964637
 11
4.0704868483
 21
24.878481813
  0
LINE
  5
21C
100
AcDbEntity
  8
0
100
AcDbLine
 62
7
  6
CONTINUOUS
 10
8.0891286967
 20
26.4883245981
 11
6.0326726345
 21
25.3010362242
  0
LINE
  5
21D
100
AcDbEntity
  8
0
100
AcDbLine
 62
7
  6
CONTINUOUS
 10
7.6491254662
 20
24.3677978594
 11
9.7055815283
 21
25.5550862333
  0
LINE
  5
21E
100
AcDbEntity
  8
0
100
AcDbLine
 62
7
  6
CONTINUOUS
 10
8.0801870035
 20
24.1189299949
 11
9.7055815283
 21
25.0573463598
  0
LINE
  5
21F
100
AcDbEntity
  8
0
100
AcDbLine
 62
7
  6
CONTINUOUS
 10
9.7055815283
 20
25.5550862333
 11
9.7055815283
 21
25.0573463598
  0
LINE
  5
220
100
AcDbEntity
  8
0
100
AcDbLine
 62
7
  6
CONTINUOUS
 10
10.0403551125
 20
26.0217054157
 11
10.0403551125
 21
25.5239655422
  0
LINE
  5
221
100
AcDbEntity
  8
0
100
AcDbLine
 62
7
  6
CONTINUOUS
 10
20.8411821206
 20
12.9148409501
 11
3.2398068422
 21
23.0767698117
  0
LINE
  5
222
100
AcDbEntity
  8
0
100
AcDbLine
 62
7
  6
CONTINUOUS
 10
22.1882149305
 20
13.6925460633
 11
21.806545861
 21
13.9128978182
  0
LINE
  5
223
100
AcDbEntity
  8
0
100
AcDbLine
 62
7
  6
CONTINUOUS
 10
20.8411821206
 20
14.6776696687
 11
3.2398068422
 21
24.8395985302
  0
LINE
  5
224
100
AcDbEntity
  8
0
100
AcDbLine
 62
7
  6
CONTINUOUS
 10
21.2901930572
 20
14.9369047064
 11
3.6888177788
 21
25.0988335679
  0
LINE
  5
225
100
AcDbEntity
  8
0
100
AcDbLine
 62
7
  6
CONTINUOUS
 10
22.1882149305
 20
15.0146676022
 11
4.5868396521
 21
25.1765964637
  0
LINE
  5
226
100
AcDbEntity
  8
0
100
AcDbLine
 62
7
  6
CONTINUOUS
 10
22.1882149305
 20
15.4553747818
 11
4.5868396521
 21
25.6173036434
  0
LINE
  5
227
100
AcDbEntity
  8
0
100
AcDbLine
 62
7
  6
CONTINUOUS
 10
22.6372258671
 20
15.7146098195
 11
5.0358505887
 21
25.8765386811
  0
LINE
  5
228
100
AcDbEntity
  8
0
100
AcDbLine
 62
7
  6
CONTINUOUS
 10
20.8411821206
 20
14.6776696687
 11
20.8411821206
 21
12.9148409501
  0
LINE
  5
229
100
AcDbEntity
  8
0
100
AcDbLine
 62
7
  6
CONTINUOUS
 10
23.1760217924
 20
17.7780998597
 11
21.1195657303
 21
16.5908114858
  0
LINE
  5
22A
100
AcDbEntity
  8
0
100
AcDbLine
 62
7
  6
CONTINUOUS
 10
21.2901930572
 20
13.1740759878
 11
21.2901930572
 21
13.6147831675
  0
LINE
  5
22B
100
AcDbEntity
  8
0
100
AcDbLine
 62
7
  6
CONTINUOUS
 10
21.2901930572
 20
14.4961975268
 11
21.2901930572
 21
14.9369047064
  0
LINE
  5
22C
100
AcDbEntity
  8
0
100
AcDbLine
 62
7
  6
CONTINUOUS
 10
22.6372258671
 20
15.7146098195
 11
22.1882149305
 21
15.4553747818
  0
LINE
  5
22D
100
AcDbEntity
  8
0
100
AcDbLine
 62
7
  6
CONTINUOUS
 10
21.2901930572
 20
14.9369047064
 11
20.8411821206
 21
14.6776696687
  0
LINE
  5
22E
100
AcDbEntity
  8
0
100
AcDbLine
 62
7
  6
CONTINUOUS
 10
22.6372258671
 20
15.6005354724
 11
24.7924746241
 21
16.8448614948
  0
LINE
  5
22F
100
AcDbEntity
  8
0
100
AcDbLine
 62
7
  6
CONTINUOUS
 10
22.1882149305
 20
15.4553747818
 11
22.1882149305
 21
15.0146676022
  0
LINE
  5
230
100
AcDbEntity
  8
0
100
AcDbLine
 62
7
  6
CONTINUOUS
 10
22.1882149305
 20
14.1332532429
 11
22.1882149305
 21
13.6925460633
  0
LINE
  5
231
100
AcDbEntity
  8
0
100
AcDbLine
 62
7
  6
CONTINUOUS
 10
22.6372258671
 20
13.951781101
 11
22.6372258671
 21
15.7146098195
  0
LINE
  5
232
100
AcDbEntity
  8
0
100
AcDbLine
 62
7
  6
CONTINUOUS
 10
22.1882149305
 20
15.0146676022
 11
21.2901930572
 21
14.4961975268
  0
LINE
  5
233
100
AcDbEntity
  8
0
100
AcDbLine
 62
7
  6
CONTINUOUS
 10
22.6372258671
 20
15.102795599
 11
24.7924746241
 21
16.3471216213
  0
LINE
  5
234
100
AcDbEntity
  8
0
100
AcDbLine
 62
7
  6
CONTINUOUS
 10
21.2901930572
 20
13.6147831675
 11
22.1882149305
 21
14.1332532429
  0
LINE
  5
235
100
AcDbEntity
  8
0
100
AcDbLine
 62
7
  6
CONTINUOUS
 10
20.8411821206
 20
12.9148409501
 11
21.2901930572
 21
13.1740759878
  0
LINE
  5
236
100
AcDbEntity
  8
0
100
AcDbLine
 62
7
  6
CONTINUOUS
 10
22.1882149305
 20
13.6925460633
 11
22.6372258671
 21
13.951781101
  0
LINE
  5
237
100
AcDbEntity
  8
0
100
AcDbLine
 62
7
  6
CONTINUOUS
 10
24.7924746241
 20
16.8448614948
 11
24.7924746241
 21
16.3471216213
  0
LINE
  5
238
100
AcDbEntity
  8
0
100
AcDbLine
 62
7
  6
CONTINUOUS
 10
25.1272482082
 20
17.3114806772
 11
25.1272482082
 21
16.8137408038
  0
SPLINE
  5
239
100
AcDbEntity
  8
0
100
AcDbSpline
 62
7
  6
CONTINUOUS
 70
0
 71
3
 72
12
 73
8
 74
0
 42
0.0000001
 43
0.0000001
 44
0.0000000001
 40
0.0
 40
0.0
 40
0.0
 40
0.0
 40
0.1081676522
 40
0.2183534475
 40
0.4513082424
 40
0.7105864439
 40
1.0
 40
1.0
 40
1.0
 40
1.0
 10
7.9313143162
 20
25.2440003283
 30
0.0
 10
7.931311451
 20
25.2367873647
 30
0.0
 10
7.9300546149
 20
25.2221976459
 30
0.0
 10
7.9224932332
 20
25.1929445958
 30
0.0
 10
7.9030277574
 20
25.1570641226
 30
0.0
 10
7.8667710406
 20
25.1190170226
 30
0.0
 10
7.8364445737
 20
25.0981100415
 30
0.0
 10
7.8197311079
 20
25.0884605751
 30
0.0
  0
SPLINE
  5
23A
100
AcDbEntity
  8
0
100
AcDbSpline
 62
7
  6
CONTINUOUS
 70
0
 71
3
 72
15
 73
11
 74
0
 42
0.0000001
 43
0.0000001
 44
0.0000000001
 40
0.0
 40
0.0
 40
0.0
 40
0.0
 40
0.1080094808
 40
0.2180640926
 40
0.3320010498
 40
0.451339293
 40
0.5772482537
 40
0.7105294985
 40
0.8515220805
 40
1.0
 40
1.0
 40
1.0
 40
1.0
 10
10.0403466752
 20
25.5239655412
 30
0.0
 10
10.040347187
 20
25.5023279136
 30
0.0
 10
10.0366017279
 20
25.4585532939
 30
0.0
 10
10.0198077415
 20
25.3939050108
 30
0.0
 10
9.9921360217
 20
25.3306435167
 30
0.0
 10
9.953895016
 20
25.2694193449
 30
0.0
 10
9.9055148591
 20
25.2107740867
 30
0.0
 10
9.8474764418
 20
25.155229102
 30
0.0
 10
9.7803882958
 20
25.1033244527
 30
0.0
 10
9.7313412353
 20
25.0722186447
 30
0.0
 10
9.7055815283
 20
25.0573463598
 30
0.0
  0
SPLINE
  5
23B
100
AcDbEntity
  8
0
100
AcDbSpline
 62
7
  6
CONTINUOUS
 70
0
 71
3
 72
24
 73
20
 74
0
 42
0.0000001
 43
0.0000001
 44
0.0000000001
 40
0.0
 40
0.0
 40
0.0
 40
0.0
 40
0.0213324101
 40
0.0428933918
 40
0.0874709645
 40
0.1352499319
 40
0.1871532944
 40
0.2435954485
 40
0.3045477174
 40
0.3696386424
 40
0.4382413783
 40
0.5095330187
 40
0.5825617062
 40
0.6562975487
 40
0.7296822651
 40
0.8016647886
 40
0.8712569088
 40
0.9376324369
 40
1.0
 40
1.0
 40
1.0
 40
1.0
 10
10.0403472526
 20
26.0217054156
 30
0.0
 10
10.0403471279
 20
26.037919303
 30
0.0
 10
10.0382583645
 20
26.0705611993
 30
0.0
 10
10.0256311437
 20
26.1359839778
 30
0.0
 10
9.993400999
 20
26.2172926734
 30
0.0
 10
9.9313167289
 20
26.3085425124
 30
0.0
 10
9.8471921724
 20
26.3930514552
 30
0.0
 10
9.7429366535
 20
26.469223439
 30
0.0
 10
9.6207834849
 20
26.5356574698
 30
0.0
 10
9.4832944258
 20
26.5910565012
 30
0.0
 10
9.3333482516
 20
26.6342675217
 30
0.0
 10
9.1741201451
 20
26.6643998545
 30
0.0
 10
9.0089946245
 20
26.6808298746
 30
0.0
 10
8.841484812
 20
26.6831856507
 30
0.0
 10
8.6751663892
 20
26.6714212978
 30
0.0
 10
8.5135893366
 20
26.6458123279
 30
0.0
 10
8.3601563904
 20
26.6068681485
 30
0.0
 10
8.2181998009
 20
26.5554048823
 30
0.0
 10
8.1301809765
 20
26.5120260015
 30
0.0
 10
8.0891286967
 20
26.4883245981
 30
0.0
  0
SPLINE
  5
23C
100
AcDbEntity
  8
0
100
AcDbSpline
 62
7
  6
CONTINUOUS
 70
0
 71
3
 72
12
 73
8
 74
0
 42
0.0000001
 43
0.0000001
 44
0.0000000001
 40
0.0
 40
0.0
 40
0.0
 40
0.0
 40
0.1081676522
 40
0.2183534475
 40
0.4513082424
 40
0.7105864439
 40
1.0
 40
1.0
 40
1.0
 40
1.0
 10
23.0182074119
 20
16.5337755898
 30
0.0
 10
23.0182045468
 20
16.5265626263
 30
0.0
 10
23.0169477107
 20
16.5119729075
 30
0.0
 10
23.0093863289
 20
16.4827198573
 30
0.0
 10
22.9899208532
 20
16.4468393842
 30
0.0
 10
22.9536641363
 20
16.4087922842
 30
0.0
 10
22.9233376695
 20
16.387885303
 30
0.0
 10
22.9066242036
 20
16.3782358366
 30
0.0
  0
SPLINE
  5
23D
100
AcDbEntity
  8
0
100
AcDbSpline
 62
7
  6
CONTINUOUS
 70
0
 71
3
 72
15
 73
11
 74
0
 42
0.0000001
 43
0.0000001
 44
0.0000000001
 40
0.0
 40
0.0
 40
0.0
 40
0.0
 40
0.1080094808
 40
0.2180640926
 40
0.3320010498
 40
0.451339293
 40
0.5772482537
 40
0.7105294985
 40
0.8515220805
 40
1.0
 40
1.0
 40
1.0
 40
1.0
 10
25.1272397709
 20
16.8137408028
 30
0.0
 10
25.1272402827
 20
16.7921031752
 30
0.0
 10
25.1234948236
 20
16.7483285554
 30
0.0
 10
25.1067008372
 20
16.6836802723
 30
0.0
 10
25.0790291174
 20
16.6204187783
 30
0.0
 10
25.0407881117
 20
16.5591946065
 30
0.0
 10
24.9924079548
 20
16.5005493482
 30
0.0
 10
24.9343695375
 20
16.4450043635
 30
0.0
 10
24.8672813915
 20
16.3930997142
 30
0.0
 10
24.818234331
 20
16.3619939063
 30
0.0
 10
24.7924746241
 20
16.3471216213
 30
0.0
  0
SPLINE
  5
23E
100
AcDbEntity
  8
0
100
AcDbSpline
 62
7
  6
CONTINUOUS
 70
0
 71
3
 72
24
 73
20
 74
0
 42
0.0000001
 43
0.0000001
 44
0.0000000001
 40
0.0
 40
0.0
 40
0.0
 40
0.0
 40
0.0213324101
 40
0.0428933918
 40
0.0874709645
 40
0.1352499319
 40
0.1871532944
 40
0.2435954485
 40
0.3045477174
 40
0.3696386424
 40
0.4382413783
 40
0.5095330187
 40
0.5825617062
 40
0.6562975487
 40
0.7296822651
 40
0.8016647886
 40
0.8712569088
 40
0.9376324369
 40
1.0
 40
1.0
 40
1.0
 40
1.0
 10
25.1272403483
 20
17.3114806772
 30
0.0
 10
25.1272402236
 20
17.3276945645
 30
0.0
 10
25.1251514602
 20
17.3603364608
 30
0.0
 10
25.1125242395
 20
17.4257592393
 30
0.0
 10
25.0802940947
 20
17.507067935
 30
0.0
 10
25.0182098246
 20
17.598317774
 30
0.0
 10
24.9340852681
 20
17.6828267168
 30
0.0
 10
24.8298297492
 20
17.7589987006
 30
0.0
 10
24.7076765807
 20
17.8254327313
 30
0.0
 10
24.5701875215
 20
17.8808317628
 30
0.0
 10
24.4202413474
 20
17.9240427833
 30
0.0
 10
24.2610132408
 20
17.9541751161
 30
0.0
 10
24.0958877202
 20
17.9706051362
 30
0.0
 10
23.9283779077
 20
17.9729609123
 30
0.0
 10
23.7620594849
 20
17.9611965594
 30
0.0
 10
23.6004824323
 20
17.9355875895
 30
0.0
 10
23.4470494862
 20
17.8966434101
 30
0.0
 10
23.3050928966
 20
17.8451801439
 30
0.0
 10
23.2170740723
 20
17.801801263
 30
0.0
 10
23.1760217924
 20
17.7780998597
 30
0.0
  0
SPLINE
  5
23F
100
AcDbEntity
  8
0
100
AcDbSpline
 62
7
  6
CONTINUOUS
 70
0
 71
3
 72
23
 73
19
 74
0
 42
0.0000001
 43
0.0000001
 44
0.0000000001
 40
0.0
 40
0.0
 40
0.0
 40
0.0
 40
0.0623378136
 40
0.1287499344
 40
0.1983704435
 40
0.2703403833
 40
0.3437261592
 40
0.4174696345
 40
0.4905035451
 40
0.5617996775
 40
0.6304085593
 40
0.6955081776
 40
0.7564651734
 40
0.8129114828
 40
0.8648211429
 40
0.9126033303
 40
0.9571854765
 40
1.0
 40
1.0
 40
1.0
 40
1.0
 10
22.9066242036
 20
16.3782358366
 30
0.0
 10
22.8929479145
 20
16.3703398746
 30
0.0
 10
22.8636048072
 20
16.3558911524
 30
0.0
 10
22.816288367
 20
16.3387183994
 30
0.0
 10
22.7651336402
 20
16.3257422723
 30
0.0
 10
22.7112765507
 20
16.3171992243
 30
0.0
 10
22.6558423436
 20
16.3132911853
 30
0.0
 10
22.600007439
 20
16.3140650294
 30
0.0
 10
22.5449667975
 20
16.3195472389
 30
0.0
 10
22.4918905732
 20
16.329585499
 30
0.0
 10
22.4419109663
 20
16.3439970646
 30
0.0
 10
22.3960770014
 20
16.3624539609
 30
0.0
 10
22.355362284
 20
16.3846044762
 30
0.0
 10
22.3206088968
 20
16.4099936057
 30
0.0
 10
22.292567095
 20
16.4381583214
 30
0.0
 10
22.2718722644
 20
16.4685903327
 30
0.0
 10
22.2591213956
 20
16.5006944771
 30
0.0
 10
22.2562190765
 20
16.5229293659
 30
0.0
 10
22.2562233848
 20
16.5337755384
 30
0.0
  0
SPLINE
  5
240
100
AcDbEntity
  8
0
100
AcDbSpline
 62
7
  6
CONTINUOUS
 70
0
 71
3
 72
23
 73
19
 74
0
 42
0.0000001
 43
0.0000001
 44
0.0000000001
 40
0.0
 40
0.0
 40
0.0
 40
0.0
 40
0.0623378136
 40
0.1287499344
 40
0.1983704435
 40
0.2703403833
 40
0.3437261592
 40
0.4174696345
 40
0.4905035451
 40
0.5617996775
 40
0.6304085593
 40
0.6955081776
 40
0.7564651734
 40
0.8129114828
 40
0.8648211429
 40
0.9126033303
 40
0.9571854765
 40
1.0
 40
1.0
 40
1.0
 40
1.0
 10
7.8197311079
 20
25.0884605751
 30
0.0
 10
7.8060548188
 20
25.080564613
 30
0.0
 10
7.7767117115
 20
25.0661158909
 30
0.0
 10
7.7293952713
 20
25.0489431378
 30
0.0
 10
7.6782405445
 20
25.0359670108
 30
0.0
 10
7.624383455
 20
25.0274239627
 30
0.0
 10
7.5689492478
 20
25.0235159238
 30
0.0
 10
7.5131143433
 20
25.0242897678
 30
0.0
 10
7.4580737017
 20
25.0297719774
 30
0.0
 10
7.4049974775
 20
25.0398102374
 30
0.0
 10
7.3550178705
 20
25.054221803
 30
0.0
 10
7.3091839056
 20
25.0726786994
 30
0.0
 10
7.2684691883
 20
25.0948292147
 30
0.0
 10
7.2337158011
 20
25.1202183442
 30
0.0
 10
7.2056739993
 20
25.1483830598
 30
0.0
 10
7.1849791687
 20
25.1788150711
 30
0.0
 10
7.1722282999
 20
25.2109192156
 30
0.0
 10
7.1693259808
 20
25.2331541043
 30
0.0
 10
7.1693302891
 20
25.2440002769
 30
0.0
  0
SPLINE
  5
241
100
AcDbEntity
  8
0
100
AcDbSpline
 62
7
  6
CONTINUOUS
 70
0
 71
3
 72
12
 73
8
 74
0
 42
0.0000001
 43
0.0000001
 44
0.0000000001
 40
0.0
 40
0.0
 40
0.0
 40
0.0
 40
0.1081676522
 40
0.2183534475
 40
0.4513082424
 40
0.7105864439
 40
1.0
 40
1.0
 40
1.0
 40
1.0
 10
22.2562233848
 20
16.5337755384
 30
0.0
 10
22.2562262499
 20
16.540988502
 30
0.0
 10
22.257483086
 20
16.5555782208
 30
0.0
 10
22.2650444678
 20
16.5848312709
 30
0.0
 10
22.2845099435
 20
16.620711744
 30
0.0
 10
22.3207666604
 20
16.658758844
 30
0.0
 10
22.3510931272
 20
16.6796658252
 30
0.0
 10
22.3678065931
 20
16.6893152916
 30
0.0
  0
SPLINE
  5
242
100
AcDbEntity
  8
0
100
AcDbSpline
 62
7
  6
CONTINUOUS
 70
0
 71
3
 72
12
 73
8
 74
0
 42
0.0000001
 43
0.0000001
 44
0.0000000001
 40
0.0
 40
0.0
 40
0.0
 40
0.0
 40
0.1081676522
 40
0.2183534475
 40
0.4513082424
 40
0.7105864439
 40
1.0
 40
1.0
 40
1.0
 40
1.0
 10
7.1693302891
 20
25.2440002769
 30
0.0
 10
7.1693331542
 20
25.2512132404
 30
0.0
 10
7.1705899903
 20
25.2658029592
 30
0.0
 10
7.178151372
 20
25.2950560093
 30
0.0
 10
7.1976168478
 20
25.3309364825
 30
0.0
 10
7.2338735647
 20
25.3689835825
 30
0.0
 10
7.2642000315
 20
25.3898905636
 30
0.0
 10
7.2809134973
 20
25.39954003
 30
0.0
  0
SPLINE
  5
243
100
AcDbEntity
  8
0
100
AcDbSpline
 62
7
  6
CONTINUOUS
 70
0
 71
3
 72
15
 73
11
 74
0
 42
0.0000001
 43
0.0000001
 44
0.0000000001
 40
0.0
 40
0.0
 40
0.0
 40
0.0
 40
0.1484808756
 40
0.2894739722
 40
0.4227535394
 40
0.5486613332
 40
0.667999137
 40
0.7819362738
 40
0.8919902831
 40
1.0
 40
1.0
 40
1.0
 40
1.0
 10
24.7924746241
 20
16.8448614948
 30
0.0
 10
24.8182348579
 20
16.859734084
 30
0.0
 10
24.8672825765
 20
16.8908401998
 30
0.0
 10
24.9343710768
 20
16.9427451098
 30
0.0
 10
24.9924087393
 20
16.9982902094
 30
0.0
 10
25.0407889458
 20
17.0569346965
 30
0.0
 10
25.0790287982
 20
17.1181592073
 30
0.0
 10
25.1067022083
 20
17.1814198293
 30
0.0
 10
25.1234949204
 20
17.2460685402
 30
0.0
 10
25.1272405147
 20
17.2898429905
 30
0.0
 10
25.1272403483
 20
17.3114806772
 30
0.0
  0
SPLINE
  5
244
100
AcDbEntity
  8
0
100
AcDbSpline
 62
7
  6
CONTINUOUS
 70
0
 71
3
 72
23
 73
19
 74
0
 42
0.0000001
 43
0.0000001
 44
0.0000000001
 40
0.0
 40
0.0
 40
0.0
 40
0.0
 40
0.0623378136
 40
0.1287499344
 40
0.1983704435
 40
0.2703403833
 40
0.3437261592
 40
0.4174696345
 40
0.4905035451
 40
0.5617996775
 40
0.6304085593
 40
0.6955081776
 40
0.7564651734
 40
0.8129114828
 40
0.8648211429
 40
0.9126033303
 40
0.9571854765
 40
1.0
 40
1.0
 40
1.0
 40
1.0
 10
22.3678065931
 20
16.6893152916
 30
0.0
 10
22.3814828822
 20
16.6972112537
 30
0.0
 10
22.4108259895
 20
16.7116599758
 30
0.0
 10
22.4581424297
 20
16.7288327288
 30
0.0
 10
22.5092971565
 20
16.7418088559
 30
0.0
 10
22.563154246
 20
16.750351904
 30
0.0
 10
22.6185884531
 20
16.7542599429
 30
0.0
 10
22.6744233577
 20
16.7534860988
 30
0.0
 10
22.7294639992
 20
16.7480038893
 30
0.0
 10
22.7825402235
 20
16.7379656293
 30
0.0
 10
22.8325198304
 20
16.7235540637
 30
0.0
 10
22.8783537953
 20
16.7050971673
 30
0.0
 10
22.9190685127
 20
16.682946652
 30
0.0
 10
22.9538218999
 20
16.6575575225
 30
0.0
 10
22.9818637017
 20
16.6293928069
 30
0.0
 10
23.0025585323
 20
16.5989607956
 30
0.0
 10
23.0153094011
 20
16.5668566511
 30
0.0
 10
23.0182117202
 20
16.5446217623
 30
0.0
 10
23.0182074119
 20
16.5337755898
 30
0.0
  0
SPLINE
  5
245
100
AcDbEntity
  8
0
100
AcDbSpline
 62
7
  6
CONTINUOUS
 70
0
 71
3
 72
23
 73
19
 74
0
 42
0.0000001
 43
0.0000001
 44
0.0000000001
 40
0.0
 40
0.0
 40
0.0
 40
0.0
 40
0.0623378136
 40
0.1287499344
 40
0.1983704435
 40
0.2703403833
 40
0.3437261592
 40
0.4174696345
 40
0.4905035451
 40
0.5617996775
 40
0.6304085593
 40
0.6955081776
 40
0.7564651734
 40
0.8129114828
 40
0.8648211429
 40
0.9126033303
 40
0.9571854765
 40
1.0
 40
1.0
 40
1.0
 40
1.0
 10
7.2809134973
 20
25.39954003
 30
0.0
 10
7.2945897864
 20
25.4074359921
 30
0.0
 10
7.3239328937
 20
25.4218847142
 30
0.0
 10
7.3712493339
 20
25.4390574673
 30
0.0
 10
7.4224040608
 20
25.4520335943
 30
0.0
 10
7.4762611502
 20
25.4605766424
 30
0.0
 10
7.5316953574
 20
25.4644846814
 30
0.0
 10
7.5875302619
 20
25.4637108373
 30
0.0
 10
7.6425709035
 20
25.4582286278
 30
0.0
 10
7.6956471277
 20
25.4481903677
 30
0.0
 10
7.7456267347
 20
25.4337788021
 30
0.0
 10
7.7914606996
 20
25.4153219058
 30
0.0
 10
7.8321754169
 20
25.3931713905
 30
0.0
 10
7.8669288042
 20
25.367782261
 30
0.0
 10
7.8949706059
 20
25.3396175453
 30
0.0
 10
7.9156654365
 20
25.309185534
 30
0.0
 10
7.9284163054
 20
25.2770813895
 30
0.0
 10
7.9313186244
 20
25.2548465008
 30
0.0
 10
7.9313143162
 20
25.2440003283
 30
0.0
  0
SPLINE
  5
246
100
AcDbEntity
  8
0
100
AcDbSpline
 62
7
  6
CONTINUOUS
 70
0
 71
3
 72
15
 73
11
 74
0
 42
0.0000001
 43
0.0000001
 44
0.0000000001
 40
0.0
 40
0.0
 40
0.0
 40
0.0
 40
0.1484808756
 40
0.2894739722
 40
0.4227535394
 40
0.5486613332
 40
0.667999137
 40
0.7819362738
 40
0.8919902831
 40
1.0
 40
1.0
 40
1.0
 40
1.0
 10
9.7055815283
 20
25.5550862333
 30
0.0
 10
9.7313417621
 20
25.5699588224
 30
0.0
 10
9.7803894807
 20
25.6010649382
 30
0.0
 10
9.8474779811
 20
25.6529698482
 30
0.0
 10
9.9055156436
 20
25.7085149479
 30
0.0
 10
9.9538958501
 20
25.7671594349
 30
0.0
 10
9.9921357025
 20
25.8283839458
 30
0.0
 10
10.0198091126
 20
25.8916445678
 30
0.0
 10
10.0366018247
 20
25.9562932786
 30
0.0
 10
10.0403474189
 20
26.0000677289
 30
0.0
 10
10.0403472526
 20
26.0217054156
 30
0.0
  0
ENDSEC
  0
SECTION
  2
OBJECTS
  0
DICTIONARY
  5
C
100
AcDbDictionary
280
0
281
1
  3
ACAD_GROUP
350
D
  3
ACAD_MLINESTYLE
350
17
  3
ACAD_LAYOUT
350
1A
  3
ACAD_PLOTSETTINGS
350
19
  3
ACAD_PLOTSTYLENAME
350
E
  0
DICTIONARY
  5
D
102
{ACAD_REACTORS
330
C
102
}
100
AcDbDictionary
280
0
281
1
  0
ACDBDICTIONARYWDFLT
  5
E
102
{ACAD_REACTORS
330
C
102
}
100
AcDbDictionary
281
1
  3
Normal
350
F
100
AcDbDictionaryWithDefault
340
F
  0
DICTIONARY
  5
17
102
{ACAD_REACTORS
330
C
102
}
100
AcDbDictionary
280
0
281
1
  3
Standard
350
18
  0
DICTIONARY
  5
19
102
{ACAD_REACTORS
330
C
102
}
100
AcDbDictionary
281
1
  0
DICTIONARY
  5
1A
102
{ACAD_REACTORS
330
C
102
}
100
AcDbDictionary
281
1
  3
Model
350
247
  3
Layout1
350
248
  0
ACDBPLACEHOLDER
  5
F
102
{ACAD_REACTORS
330
E
102
}
  0
MLINESTYLE
  5
18
102
{ACAD_REACTORS
330
17
102
}
100
AcDbMlineStyle
  2
STANDARD
 70
0
  3

 62
256
 51
90.0
 52
90.0
 71
2
 49
0.5
 62
256
  6
BYLAYER
 49
-0.5
 62
256
  6
BYLAYER
  0
LAYOUT
  5
247
102
{ACAD_REACTORS
330
1A
102
}
100
AcDbPlotSettings
  1

  2
none_device
  4

  6

 40
0.0
 41
0.0
 42
0.0
 43
0.0
 44
210.0
 45
297.0
 46
0.0
 47
0.0
 48
0.0
 49
0.0
140
0.0
141
0.0
142
1.0
143
1.0
 70
1024
 72
1
 73
0
 74
0
  7

 75
0
147
1.0
148
0.0
149
0.0
100
AcDbLayout
  1
Model
 70
0
 71
0
 10
0.0
 20
0.0
 11
210.0
 21
297.0
 12
0.0
 22
0.0
 32
0.0
 14
0.0
 24
0.0
 34
0.0
 15
0.0
 25
0.0
 35
0.0
146
0.0
 13
0.0
 23
0.0
 33
0.0
 16
1.0
 26
0.0
 36
0.0
 17
0.0
 27
1.0
 37
0.0
 76
0
330
210
345
0
346
0
  0
LAYOUT
  5
248
102
{ACAD_REACTORS
330
1A
102
}
100
AcDbPlotSettings
  1

  2
none_device
  4

  6

 40
0.0
 41
0.0
 42
0.0
 43
0.0
 44
210.0
 45
297.0
 46
0.0
 47
0.0
 48
0.0
 49
0.0
140
0.0
141
0.0
142
1.0
143
1.0
 70
0
 72
1
 73
0
 74
0
  7

 75
0
147
1.0
148
0.0
149
0.0
100
AcDbLayout
  1
Layout1
 70
0
 71
1
 10
0.0
 20
0.0
 11
210.0
 21
297.0
 12
0.0
 22
0.0
 32
0.0
 14
0.0
 24
0.0
 34
0.0
 15
0.0
 25
0.0
 35
0.0
146
0.0
 13
0.0
 23
0.0
 33
0.0
 16
1.0
 26
0.0
 36
0.0
 17
0.0
 27
1.0
 37
0.0
 76
0
330
211
345
0
346
0
  0
ENDSEC
  0
EOF
