999
DXF file: C:\Users\sesa63760\Dev\_Creo\CAD\MCADID0000570_3D-CAD\drw0001_2.dxf
999
Pro/ENGINEER 2019471 by Parametric Technology Corporation
  0
SECTION
  2
HEADER
  9
$ACADVER
  1
AC1024
  9
$DWGCODEPAGE
  3
ANSI_1252
  9
$EXTMAX
 10
185.0027801186
 20
261.6467890249
 30
0.0
  9
$EXTMIN
 10
0.0
 20
0.0
 30
0.0
  9
$LIMMIN
 10
0.0
 20
0.0
  9
$LIMMAX
 10
185.0027801186
 20
261.6467890249
  9
$VIEWCTR
 10
92.5013900593
 20
130.8233945124
  9
$VIEWSIZE
 40
261.6467890249
  9
$CLAYER
  8
0
  9
$LTSCALE
 40
17.0554943957
  9
$CELTYPE
  6
BYLAYER
  9
$DIMSCALE
 40
1.0
  9
$DIMASZ
 40
2.202414049
  9
$DIMEXO
 40
1.0
  9
$DIMDLI
 40
11.7837961279
  9
$DIMEXE
 40
1.0
  9
$DIMCEN
 40
2.7908990829
  9
$DIMLFAC
 40
1.0
  9
$DIMBLK
  1
_FILLED
  9
$DIMALT
 70
0
  9
$DIMALTF
 40
0.0393700787
  9
$DIMTXT
 40
3.0833796686
  9
$DIMTOL
 70
1
  9
$DIMLIM
 70
0
  9
$DIMTFAC
 40
1.0
  9
$DIMTP
 40
0.01
  9
$DIMTM
 40
0.01
  9
$DIMGAP
 40
0.625
  9
$DIMDSEP
 70
46
  9
$AUNITS
 70
0
  9
$PDMODE
 70
3
  9
$PDSIZE
 40
0.3125
  9
$HANDSEED
  5
2B8
  9
$TILEMODE
 70
1
  9
$MEASUREMENT
 70
1
  9
$INSUNITS
 70
4
  0
ENDSEC
  0
SECTION
  2
CLASSES
  0
CLASS
  1
ACDBDICTIONARYWDFLT
  2
AcDbDictionaryWithDefault
  3
AutoCAD 2000
 90
0
 91
1
280
0
281
0
  0
CLASS
  1
ACDBPLACEHOLDER
  2
AcDbPlaceHolder
  3
AutoCAD 2000
 90
0
 91
1
280
0
281
0
  0
CLASS
  1
LAYOUT
  2
AcDbLayout
  3
AutoCAD 2000
 90
0
 91
0
280
0
281
0
  0
ENDSEC
  0
SECTION
  2
TABLES
  0
TABLE
  2
VPORT
  5
8
100
AcDbSymbolTable
 70
2
  0
VPORT
  5
1F4
100
AcDbSymbolTableRecord
100
AcDbViewportTableRecord
  2
*ACTIVE
 70
0
 10
0.0
 20
0.0
 11
1.0
 21
1.0
 12
92.5013900593
 22
130.8233945124
 13
0.0
 23
0.0
 14
1.0
 24
1.0
 15
0.0
 25
0.0
 16
0.0
 26
0.0
 36
1.0
 17
0.0
 27
0.0
 37
0.0
 40
261.6467890249
 41
0.7070707071
 42
50.0
 43
0.0
 44
0.0
 50
0.0
 51
0.0
 71
0
 72
100
 73
1
 74
1
 75
0
 76
0
 77
0
 78
0
  0
ENDTAB
  0
TABLE
  2
LTYPE
  5
5
100
AcDbSymbolTable
 70
6
  0
LTYPE
  5
14
100
AcDbSymbolTableRecord
100
AcDbLinetypeTableRecord
  2
BYBLOCK
 70
0
  3

 72
65
 73
0
 40
0.0
  0
LTYPE
  5
15
100
AcDbSymbolTableRecord
100
AcDbLinetypeTableRecord
  2
BYLAYER
 70
0
  3

 72
65
 73
0
 40
0.0
  0
LTYPE
  5
16
100
AcDbSymbolTableRecord
100
AcDbLinetypeTableRecord
  2
CONTINUOUS
 70
64
  3
Solid line
 72
65
 73
0
 40
0.0
  0
LTYPE
  5
1F5
100
AcDbSymbolTableRecord
100
AcDbLinetypeTableRecord
  2
CENTER
 70
64
  3
____ _ ____ _ ____ _ ____ _ ____ _ ____ _ ____
 72
65
 73
4
 40
0.6
 49
0.375
 74
0
 49
-0.075
 74
0
 49
0.075
 74
0
 49
-0.075
 74
0
  0
LTYPE
  5
1F6
100
AcDbSymbolTableRecord
100
AcDbLinetypeTableRecord
  2
HIDDEN
 70
64
  3
- - - - - - - - - - - - - - - - - - - -
 72
65
 73
2
 40
0.2
 49
0.1
 74
0
 49
-0.1
 74
0
  0
LTYPE
  5
1F7
100
AcDbSymbolTableRecord
100
AcDbLinetypeTableRecord
  2
PHANTOM
 70
64
  3
_____ _ _ _____ _ _ _____ _ _ _____
 72
65
 73
6
 40
0.8
 49
0.45
 74
0
 49
-0.05
 74
0
 49
0.1
 74
0
 49
-0.05
 74
0
 49
0.1
 74
0
 49
-0.05
 74
0
  0
LTYPE
  5
1F8
100
AcDbSymbolTableRecord
100
AcDbLinetypeTableRecord
  2
DOT
 70
64
  3
. . . . . . . . . . . . . . . . . . . .
 72
65
 73
2
 40
0.2
 49
0.1
 74
0
 49
-0.1
 74
0
  0
LTYPE
  5
1F9
100
AcDbSymbolTableRecord
100
AcDbLinetypeTableRecord
  2
DASHED
 70
64
  3
- - - - - - - - - - - - - - - - - - - -
 72
65
 73
2
 40
0.2
 49
0.1
 74
0
 49
-0.1
 74
0
  0
ENDTAB
  0
TABLE
  2
LAYER
  5
2
100
AcDbSymbolTable
 70
36
  0
LAYER
  5
10
100
AcDbSymbolTableRecord
100
AcDbLayerTableRecord
  2
0
 70
0
 62
7
  6
CONTINUOUS
370
-3
390
F
  0
LAYER
  5
1FA
100
AcDbSymbolTableRecord
100
AcDbLayerTableRecord
  2
DEFAULT_1
 70
0
 62
7
  6
CENTER
370
-3
390
F
  0
LAYER
  5
1FB
100
AcDbSymbolTableRecord
100
AcDbLayerTableRecord
  2
DEFAULT_2
 70
0
 62
8
  6
HIDDEN
370
-3
390
F
  0
LAYER
  5
1FC
100
AcDbSymbolTableRecord
100
AcDbLayerTableRecord
  2
DEFAULT_3
 70
0
 62
7
  6
PHANTOM
370
-3
390
F
  0
LAYER
  5
1FD
100
AcDbSymbolTableRecord
100
AcDbLayerTableRecord
  2
00_COMPONENTS
 70
0
 62
7
  6
CONTINUOUS
370
-3
390
F
  0
LAYER
  5
1FE
100
AcDbSymbolTableRecord
100
AcDbLayerTableRecord
  2
01_1_DEFAULT_DATUMS
 70
0
 62
7
  6
CONTINUOUS
370
-3
390
F
  0
LAYER
  5
1FF
100
AcDbSymbolTableRecord
100
AcDbLayerTableRecord
  2
01_PLANES
 70
0
 62
7
  6
CONTINUOUS
370
-3
390
F
  0
LAYER
  5
200
100
AcDbSymbolTableRecord
100
AcDbLayerTableRecord
  2
02_COORD_SYS
 70
0
 62
7
  6
CONTINUOUS
370
-3
390
F
  0
LAYER
  5
201
100
AcDbSymbolTableRecord
100
AcDbLayerTableRecord
  2
03_AXES
 70
0
 62
7
  6
CONTINUOUS
370
-3
390
F
  0
LAYER
  5
202
100
AcDbSymbolTableRecord
100
AcDbLayerTableRecord
  2
04_POINTS
 70
0
 62
7
  6
CONTINUOUS
370
-3
390
F
  0
LAYER
  5
203
100
AcDbSymbolTableRecord
100
AcDbLayerTableRecord
  2
05_CURVES
 70
0
 62
7
  6
CONTINUOUS
370
-3
390
F
  0
LAYER
  5
204
100
AcDbSymbolTableRecord
100
AcDbLayerTableRecord
  2
06_SURFS
 70
0
 62
7
  6
CONTINUOUS
370
-3
390
F
  0
LAYER
  5
205
100
AcDbSymbolTableRecord
100
AcDbLayerTableRecord
  2
07_COSMETICS
 70
0
 62
7
  6
CONTINUOUS
370
-3
390
F
  0
LAYER
  5
206
100
AcDbSymbolTableRecord
100
AcDbLayerTableRecord
  2
10_NOTES
 70
0
 62
7
  6
CONTINUOUS
370
-3
390
F
  0
LAYER
  5
207
100
AcDbSymbolTableRecord
100
AcDbLayerTableRecord
  2
11_NOTES_PUB
 70
0
 62
7
  6
CONTINUOUS
370
-3
390
F
  0
LAYER
  5
208
100
AcDbSymbolTableRecord
100
AcDbLayerTableRecord
  2
13_REF_GTOL
 70
0
 62
7
  6
CONTINUOUS
370
-3
390
F
  0
LAYER
  5
209
100
AcDbSymbolTableRecord
100
AcDbLayerTableRecord
  2
16_MISC
 70
0
 62
7
  6
CONTINUOUS
370
-3
390
F
  0
LAYER
  5
20A
100
AcDbSymbolTableRecord
100
AcDbLayerTableRecord
  2
17_NO_PRINT
 70
0
 62
7
  6
CONTINUOUS
370
-3
390
F
  0
LAYER
  5
20B
100
AcDbSymbolTableRecord
100
AcDbLayerTableRecord
  2
18_DATUM_CAMS_JOINTS
 70
0
 62
7
  6
CONTINUOUS
370
-3
390
F
  0
LAYER
  5
20C
100
AcDbSymbolTableRecord
100
AcDbLayerTableRecord
  2
19_DATUM_FUNCTIONAL
 70
0
 62
7
  6
CONTINUOUS
370
-3
390
F
  0
LAYER
  5
20D
100
AcDbSymbolTableRecord
100
AcDbLayerTableRecord
  2
20_DATUM_KINEMATIC_SCHEME
 70
0
 62
7
  6
CONTINUOUS
370
-3
390
F
  0
ENDTAB
  0
TABLE
  2
STYLE
  5
3
100
AcDbSymbolTable
 70
1
  0
STYLE
  5
11
100
AcDbSymbolTableRecord
100
AcDbTextStyleTableRecord
  2
STANDARD
 70
0
 40
0.0
 41
0.8
 50
0.0
 71
0
 42
0.2
  3
txt
  4

  0
STYLE
  5
20E
100
AcDbSymbolTableRecord
100
AcDbTextStyleTableRecord
  2
TEXTSTYLE_1
 70
0
 40
0.0
 41
0.8
 50
0.0
 71
0
 42
0.2
  3
gdt
  4

  0
ENDTAB
  0
TABLE
  2
VIEW
  5
6
100
AcDbSymbolTable
 70
0
  0
ENDTAB
  0
TABLE
  2
UCS
  5
7
100
AcDbSymbolTable
 70
0
  0
ENDTAB
  0
TABLE
  2
APPID
  5
9
100
AcDbSymbolTable
 70
1
  0
APPID
  5
20F
100
AcDbSymbolTableRecord
100
AcDbRegAppTableRecord
  2
ACAD
 70
0
  0
ENDTAB
  0
TABLE
  2
BLOCK_RECORD
  5
1
100
AcDbSymbolTable
 70
0
  0
BLOCK_RECORD
  5
210
100
AcDbSymbolTableRecord
100
AcDbBlockTableRecord
  2
*Model_Space
  0
BLOCK_RECORD
  5
211
100
AcDbSymbolTableRecord
100
AcDbBlockTableRecord
  2
*Paper_Space
  0
BLOCK_RECORD
  5
212
100
AcDbSymbolTableRecord
100
AcDbBlockTableRecord
  2
_FILLED
  0
ENDTAB
  0
TABLE
  2
DIMSTYLE
  5
A
100
AcDbSymbolTable
 70
1
100
AcDbDimStyleTable
 71
0
  0
DIMSTYLE
105
213
100
AcDbSymbolTableRecord
100
AcDbDimStyleTableRecord
  2
STANDARD
 70
0
  3

  4

 40
1.0
 41
2.202414049
 42
1.0
 43
0.38
 44
1.0
 45
0.0
 46
0.0
 47
0.01
 48
0.01
140
3.0833796686
141
0.09
142
0.0
143
25.4
144
1.0
145
0.0
146
1.0
147
0.625
 71
1
 72
0
 73
0
 74
0
 75
0
 76
0
 77
1
 78
8
 79
2
170
0
171
1
172
0
173
0
174
0
175
0
176
0
177
0
178
0
270
2
179
2
271
2
272
2
273
2
274
2
275
0
280
0
281
0
282
0
283
1
284
8
285
0
286
0
287
3
288
0
340
11
278
46
341
212
342
212
343
212
344
212
  0
ENDTAB
  0
ENDSEC
  0
SECTION
  2
BLOCKS
  0
BLOCK
  5
20
100
AcDbEntity
  8
0
100
AcDbBlockBegin
  2
*Model_Space
 70
0
 10
0.0
 20
0.0
 30
0.0
  3
*Model_Space
  1

  0
ENDBLK
  5
21
100
AcDbEntity
  8
0
100
AcDbBlockEnd
  0
BLOCK
  5
1C
100
AcDbEntity
  8
0
100
AcDbBlockBegin
  2
*Paper_Space
 70
0
 10
0.0
 20
0.0
 30
0.0
  3
*Paper_Space
  1

  0
ENDBLK
  5
1D
100
AcDbEntity
  8
0
100
AcDbBlockEnd
  0
BLOCK
  5
214
100
AcDbEntity
  8
0
100
AcDbBlockBegin
  2
_FILLED
 70
64
 10
0.0
 20
0.0
  3
_FILLED
  1

  0
SOLID
  5
215
100
AcDbEntity
  8
0
  6
BYBLOCK
 62
0
100
AcDbTrace
 10
0.0
 20
0.0
 11
-1.0
 21
0.25
 12
-1.0
 22
-0.25
 13
-1.0
 23
-0.25
  0
ENDBLK
  5
216
100
AcDbEntity
  8
0
  6
BYBLOCK
 62
0
100
AcDbBlockEnd
  0
ENDSEC
  0
SECTION
  2
ENTITIES
  0
LINE
  5
217
100
AcDbEntity
  8
0
100
AcDbLine
 62
7
  6
CONTINUOUS
 10
20.2843142636
 20
98.8430148508
 11
20.2843142636
 21
106.8430148508
  0
LINE
  5
218
100
AcDbEntity
  8
0
100
AcDbLine
 62
7
  6
CONTINUOUS
 10
107.2843142636
 20
69.8430148508
 11
136.1004038118
 21
69.8430148508
  0
LINE
  5
219
100
AcDbEntity
  8
0
100
AcDbLine
 62
7
  6
CONTINUOUS
 10
45.2843142636
 20
70.3430148508
 11
107.2843142636
 21
70.3430148508
  0
LINE
  5
21A
100
AcDbEntity
  8
0
100
AcDbLine
 62
7
  6
CONTINUOUS
 10
137.1844622425
 20
73.5210906951
 11
107.2843142636
 21
73.5210906951
  0
LINE
  5
21B
100
AcDbEntity
  8
0
100
AcDbLine
 62
7
  6
CONTINUOUS
 10
107.2843142636
 20
73.6741024079
 11
51.2843142636
 21
73.6741024079
  0
LINE
  5
21C
100
AcDbEntity
  8
0
100
AcDbLine
 62
7
  6
CONTINUOUS
 10
43.2843142636
 20
82.8430148508
 11
43.2843142636
 21
122.8430148508
  0
LINE
  5
21D
100
AcDbEntity
  8
0
100
AcDbLine
 62
7
  6
CONTINUOUS
 10
51.2843142636
 20
77.1430148508
 11
45.2843142636
 21
77.1430148508
  0
LINE
  5
21E
100
AcDbEntity
  8
0
100
AcDbLine
 62
7
  6
CONTINUOUS
 10
107.2843142636
 20
77.9753015256
 11
137.9260011799
 21
77.9753015256
  0
LINE
  5
21F
100
AcDbEntity
  8
0
100
AcDbLine
 62
7
  6
CONTINUOUS
 10
51.2843142636
 20
78.1283132384
 11
107.2843142636
 21
78.1283132384
  0
LINE
  5
220
100
AcDbEntity
  8
0
100
AcDbLine
 62
7
  6
CONTINUOUS
 10
138.2929056108
 20
80.3655035855
 11
107.2843142636
 21
80.3655035855
  0
LINE
  5
221
100
AcDbEntity
  8
0
100
AcDbLine
 62
7
  6
CONTINUOUS
 10
45.2843142636
 20
70.3430148508
 11
45.2843142636
 21
135.3430148508
  0
LINE
  5
222
100
AcDbEntity
  8
0
100
AcDbLine
 62
7
  6
CONTINUOUS
 10
81.6843142636
 20
80.8379794889
 11
63.6843142636
 21
80.8379794889
  0
LINE
  5
223
100
AcDbEntity
  8
0
100
AcDbLine
 62
7
  6
CONTINUOUS
 10
107.2843142636
 20
80.8415155767
 11
81.6843142636
 21
80.8415155767
  0
LINE
  5
224
100
AcDbEntity
  8
0
100
AcDbLine
 62
7
  6
CONTINUOUS
 10
63.6843142636
 20
80.8415155767
 11
51.2843142636
 21
80.8415155767
  0
LINE
  5
225
100
AcDbEntity
  8
0
100
AcDbLine
 62
7
  6
CONTINUOUS
 10
138.4800721766
 20
81.6430148508
 11
164.1721550385
 21
81.6430148508
  0
LINE
  5
226
100
AcDbEntity
  8
0
100
AcDbLine
 62
7
  6
CONTINUOUS
 10
107.2843142636
 20
81.7972877443
 11
138.5023637001
 21
81.7972877443
  0
LINE
  5
227
100
AcDbEntity
  8
0
100
AcDbLine
 62
7
  6
CONTINUOUS
 10
51.2843142636
 20
82.2732997355
 11
63.6843142636
 21
82.2732997355
  0
LINE
  5
228
100
AcDbEntity
  8
0
100
AcDbLine
 62
7
  6
CONTINUOUS
 10
81.6843142636
 20
82.2732997355
 11
107.2843142636
 21
82.2732997355
  0
LINE
  5
229
100
AcDbEntity
  8
0
100
AcDbLine
 62
7
  6
CONTINUOUS
 10
63.6843142636
 20
82.2973409788
 11
81.6843142636
 21
82.2973409788
  0
LINE
  5
22A
100
AcDbEntity
  8
0
100
AcDbLine
 62
7
  6
CONTINUOUS
 10
43.2843142636
 20
82.8430148508
 11
45.2843142636
 21
82.8430148508
  0
LINE
  5
22B
100
AcDbEntity
  8
0
100
AcDbLine
 62
7
  6
CONTINUOUS
 10
164.5922186321
 20
84.6430148508
 11
138.8629864944
 21
84.6430148508
  0
LINE
  5
22C
100
AcDbEntity
  8
0
100
AcDbLine
 62
7
  6
CONTINUOUS
 10
51.2843142636
 20
135.3430148508
 11
51.2843142636
 21
118.8430148508
  0
LINE
  5
22D
100
AcDbEntity
  8
0
100
AcDbLine
 62
7
  6
CONTINUOUS
 10
51.2843142636
 20
86.8430148508
 11
51.2843142636
 21
70.3430148508
  0
LINE
  5
22E
100
AcDbEntity
  8
0
100
AcDbLine
 62
7
  6
CONTINUOUS
 10
113.2843142636
 20
86.8430148508
 11
81.6843142636
 21
86.8430148508
  0
LINE
  5
22F
100
AcDbEntity
  8
0
100
AcDbLine
 62
7
  6
CONTINUOUS
 10
63.6843142636
 20
86.8430148508
 11
51.2843142636
 21
86.8430148508
  0
LINE
  5
230
100
AcDbEntity
  8
0
100
AcDbLine
 62
7
  6
CONTINUOUS
 10
81.6843142636
 20
87.3007362234
 11
63.6843142636
 21
87.3007362234
  0
LINE
  5
231
100
AcDbEntity
  8
0
100
AcDbLine
 62
7
  6
CONTINUOUS
 10
20.2843142636
 20
98.8430148508
 11
43.2843142636
 21
98.8430148508
  0
LINE
  5
232
100
AcDbEntity
  8
0
100
AcDbLine
 62
7
  6
CONTINUOUS
 10
63.6843142636
 20
135.3429940182
 11
63.6843142636
 21
124.8510424193
  0
LINE
  5
233
100
AcDbEntity
  8
0
100
AcDbLine
 62
7
  6
CONTINUOUS
 10
63.6843142636
 20
80.8349872823
 11
63.6843142636
 21
70.3430356834
  0
LINE
  5
234
100
AcDbEntity
  8
0
100
AcDbLine
 62
7
  6
CONTINUOUS
 10
63.6843142636
 20
80.8379794889
 11
63.6843142636
 21
124.8480502128
  0
LINE
  5
235
100
AcDbEntity
  8
0
100
AcDbLine
 62
7
  6
CONTINUOUS
 10
43.2843142636
 20
106.8430148508
 11
20.2843142636
 21
106.8430148508
  0
LINE
  5
236
100
AcDbEntity
  8
0
100
AcDbLine
 62
7
  6
CONTINUOUS
 10
81.6843142636
 20
70.3430356834
 11
81.6843142636
 21
80.8349872823
  0
LINE
  5
237
100
AcDbEntity
  8
0
100
AcDbLine
 62
7
  6
CONTINUOUS
 10
81.6843142636
 20
80.8379794889
 11
81.6843142636
 21
124.8480502128
  0
LINE
  5
238
100
AcDbEntity
  8
0
100
AcDbLine
 62
7
  6
CONTINUOUS
 10
81.6843142636
 20
124.8510424193
 11
81.6843142636
 21
135.3429940182
  0
LINE
  5
239
100
AcDbEntity
  8
0
100
AcDbLine
 62
7
  6
CONTINUOUS
 10
51.2843142636
 20
118.8430148508
 11
63.6843142636
 21
118.8430148508
  0
LINE
  5
23A
100
AcDbEntity
  8
0
100
AcDbLine
 62
7
  6
CONTINUOUS
 10
81.6843142636
 20
118.8430148508
 11
113.2843142636
 21
118.8430148508
  0
LINE
  5
23B
100
AcDbEntity
  8
0
100
AcDbLine
 62
7
  6
CONTINUOUS
 10
63.6843142636
 20
119.2607362234
 11
81.6843142636
 21
119.2607362234
  0
LINE
  5
23C
100
AcDbEntity
  8
0
100
AcDbLine
 62
7
  6
CONTINUOUS
 10
45.2843142636
 20
122.8430148508
 11
43.2843142636
 21
122.8430148508
  0
LINE
  5
23D
100
AcDbEntity
  8
0
100
AcDbLine
 62
7
  6
CONTINUOUS
 10
81.6843142636
 20
123.3886887229
 11
63.6843142636
 21
123.3886887229
  0
LINE
  5
23E
100
AcDbEntity
  8
0
100
AcDbLine
 62
7
  6
CONTINUOUS
 10
107.2843142636
 20
123.4127299661
 11
81.6843142636
 21
123.4127299661
  0
LINE
  5
23F
100
AcDbEntity
  8
0
100
AcDbLine
 62
7
  6
CONTINUOUS
 10
63.6843142636
 20
123.4127299661
 11
51.2843142636
 21
123.4127299661
  0
LINE
  5
240
100
AcDbEntity
  8
0
100
AcDbLine
 62
7
  6
CONTINUOUS
 10
141.2043907669
 20
123.8887419573
 11
107.2843142636
 21
123.8887419573
  0
LINE
  5
241
100
AcDbEntity
  8
0
100
AcDbLine
 62
7
  6
CONTINUOUS
 10
113.2843142636
 20
124.1208009256
 11
140.9163177108
 21
124.1208009256
  0
LINE
  5
242
100
AcDbEntity
  8
0
100
AcDbLine
 62
7
  6
CONTINUOUS
 10
107.2843142636
 20
124.1529454337
 11
113.2843142636
 21
124.1529454337
  0
LINE
  5
243
100
AcDbEntity
  8
0
100
AcDbLine
 62
7
  6
CONTINUOUS
 10
107.2843142636
 20
124.4529454337
 11
94.2843142636
 21
124.4529454337
  0
LINE
  5
244
100
AcDbEntity
  8
0
100
AcDbLine
 62
7
  6
CONTINUOUS
 10
51.2843142636
 20
124.8445141249
 11
63.6843142636
 21
124.8445141249
  0
LINE
  5
245
100
AcDbEntity
  8
0
100
AcDbLine
 62
7
  6
CONTINUOUS
 10
81.6843142636
 20
124.8445141249
 11
94.2843142636
 21
124.8445141249
  0
LINE
  5
246
100
AcDbEntity
  8
0
100
AcDbLine
 62
7
  6
CONTINUOUS
 10
63.6843142636
 20
124.8480502128
 11
81.6843142636
 21
124.8480502128
  0
LINE
  5
247
100
AcDbEntity
  8
0
100
AcDbLine
 62
7
  6
CONTINUOUS
 10
88.7843142636
 20
150.093023985
 11
88.7843142636
 21
159.5930057166
  0
LINE
  5
248
100
AcDbEntity
  8
0
100
AcDbLine
 62
7
  6
CONTINUOUS
 10
92.2843142636
 20
140.2430148508
 11
92.2843142636
 21
170.3430148508
  0
LINE
  5
249
100
AcDbEntity
  8
0
100
AcDbLine
 62
7
  6
CONTINUOUS
 10
94.2843142636
 20
173.8430148508
 11
94.2843142636
 21
139.5430148508
  0
LINE
  5
24A
100
AcDbEntity
  8
0
100
AcDbLine
 62
7
  6
CONTINUOUS
 10
94.2843142636
 20
124.4529454337
 11
94.2843142636
 21
139.4430148508
  0
LINE
  5
24B
100
AcDbEntity
  8
0
100
AcDbLine
 62
7
  6
CONTINUOUS
 10
94.2843142636
 20
127.5577164632
 11
51.2843142636
 21
127.5577164632
  0
LINE
  5
24C
100
AcDbEntity
  8
0
100
AcDbLine
 62
7
  6
CONTINUOUS
 10
45.2843142636
 20
128.5430148508
 11
51.2843142636
 21
128.5430148508
  0
LINE
  5
24D
100
AcDbEntity
  8
0
100
AcDbLine
 62
7
  6
CONTINUOUS
 10
94.7843142636
 20
170.8430148508
 11
94.7843142636
 21
172.4430148508
  0
LINE
  5
24E
100
AcDbEntity
  8
0
100
AcDbLine
 62
7
  6
CONTINUOUS
 10
97.2843142636
 20
139.5430148508
 11
97.2843142636
 21
170.8430148508
  0
LINE
  5
24F
100
AcDbEntity
  8
0
100
AcDbLine
 62
7
  6
CONTINUOUS
 10
97.7843142636
 20
173.8430148508
 11
97.7843142636
 21
173.2430148508
  0
LINE
  5
250
100
AcDbEntity
  8
0
100
AcDbLine
 62
7
  6
CONTINUOUS
 10
100.7843142636
 20
173.8430148508
 11
100.7843142636
 21
170.8430148508
  0
LINE
  5
251
100
AcDbEntity
  8
0
100
AcDbLine
 62
7
  6
CONTINUOUS
 10
51.2843142636
 20
132.0119272937
 11
94.2843142636
 21
132.0119272937
  0
LINE
  5
252
100
AcDbEntity
  8
0
100
AcDbLine
 62
7
  6
CONTINUOUS
 10
45.2843142636
 20
135.3430148508
 11
94.2843142636
 21
135.3430148508
  0
LINE
  5
253
100
AcDbEntity
  8
0
100
AcDbLine
 62
7
  6
CONTINUOUS
 10
101.2843142636
 20
173.8430148508
 11
101.2843142636
 21
177.3430148508
  0
LINE
  5
254
100
AcDbEntity
  8
0
100
AcDbLine
 62
7
  6
CONTINUOUS
 10
105.7843142636
 20
179.3430148508
 11
105.7843142636
 21
183.3430148508
  0
LINE
  5
255
100
AcDbEntity
  8
0
100
AcDbLine
 62
7
  6
CONTINUOUS
 10
106.2843142636
 20
183.3430148508
 11
106.2843142636
 21
179.3430148508
  0
LINE
  5
256
100
AcDbEntity
  8
0
100
AcDbLine
 62
7
  6
CONTINUOUS
 10
107.2843142636
 20
69.8430148508
 11
107.2843142636
 21
124.4529454337
  0
LINE
  5
257
100
AcDbEntity
  8
0
100
AcDbLine
 62
7
  6
CONTINUOUS
 10
94.2843142636
 20
139.4430148508
 11
113.2843142636
 21
139.4430148508
  0
LINE
  5
258
100
AcDbEntity
  8
0
100
AcDbLine
 62
7
  6
CONTINUOUS
 10
113.2843142636
 20
139.5430148508
 11
94.2843142636
 21
139.5430148508
  0
LINE
  5
259
100
AcDbEntity
  8
0
100
AcDbLine
 62
7
  6
CONTINUOUS
 10
92.2843142636
 20
140.2430148508
 11
94.2843142636
 21
140.2430148508
  0
LINE
  5
25A
100
AcDbEntity
  8
0
100
AcDbLine
 62
7
  6
CONTINUOUS
 10
108.2843142636
 20
186.3430148508
 11
108.2843142636
 21
177.8233733041
  0
LINE
  5
25B
100
AcDbEntity
  8
0
100
AcDbLine
 62
7
  6
CONTINUOUS
 10
109.2843142636
 20
177.3430148508
 11
109.2843142636
 21
173.8430148508
  0
LINE
  5
25C
100
AcDbEntity
  8
0
100
AcDbLine
 62
7
  6
CONTINUOUS
 10
109.7843142636
 20
186.3430148508
 11
109.7843142636
 21
176.3430148508
  0
LINE
  5
25D
100
AcDbEntity
  8
0
100
AcDbLine
 62
7
  6
CONTINUOUS
 10
113.2843142636
 20
118.8430148508
 11
113.2843142636
 21
86.8430148508
  0
LINE
  5
25E
100
AcDbEntity
  8
0
100
AcDbLine
 62
7
  6
CONTINUOUS
 10
113.2843142636
 20
124.1208009256
 11
113.2843142636
 21
139.5430148508
  0
LINE
  5
25F
100
AcDbEntity
  8
0
100
AcDbLine
 62
7
  6
CONTINUOUS
 10
94.2843142636
 20
145.0430148508
 11
92.2843142636
 21
145.0430148508
  0
LINE
  5
260
100
AcDbEntity
  8
0
100
AcDbLine
 62
7
  6
CONTINUOUS
 10
88.7843142636
 20
150.0930148508
 11
92.2843142636
 21
149.4758704183
  0
LINE
  5
261
100
AcDbEntity
  8
0
100
AcDbLine
 62
7
  6
CONTINUOUS
 10
113.7843142636
 20
177.9430148508
 11
113.7843142636
 21
176.3430148508
  0
LINE
  5
262
100
AcDbEntity
  8
0
100
AcDbLine
 62
7
  6
CONTINUOUS
 10
114.2149711979
 20
176.3430148508
 11
114.2149711979
 21
173.8430148508
  0
LINE
  5
263
100
AcDbEntity
  8
0
100
AcDbLine
 62
7
  6
CONTINUOUS
 10
119.3536573293
 20
173.8430148508
 11
119.3536573293
 21
176.3430148508
  0
LINE
  5
264
100
AcDbEntity
  8
0
100
AcDbLine
 62
7
  6
CONTINUOUS
 10
119.7843142636
 20
177.9430148508
 11
119.7843142636
 21
176.3430148508
  0
LINE
  5
265
100
AcDbEntity
  8
0
100
AcDbLine
 62
7
  6
CONTINUOUS
 10
123.7843142636
 20
186.3430148508
 11
123.7843142636
 21
176.3430148508
  0
LINE
  5
266
100
AcDbEntity
  8
0
100
AcDbLine
 62
7
  6
CONTINUOUS
 10
125.2843142636
 20
186.3430148508
 11
125.2843142636
 21
176.3430148508
  0
LINE
  5
267
100
AcDbEntity
  8
0
100
AcDbLine
 62
7
  6
CONTINUOUS
 10
88.7843142636
 20
159.5930148508
 11
92.2843142636
 21
160.2101592833
  0
LINE
  5
268
100
AcDbEntity
  8
0
100
AcDbLine
 62
7
  6
CONTINUOUS
 10
127.2843142636
 20
179.3430148508
 11
127.2843142636
 21
183.3430148508
  0
LINE
  5
269
100
AcDbEntity
  8
0
100
AcDbLine
 62
7
  6
CONTINUOUS
 10
127.7843142636
 20
183.3430148508
 11
127.7843142636
 21
179.3430148508
  0
LINE
  5
26A
100
AcDbEntity
  8
0
100
AcDbLine
 62
7
  6
CONTINUOUS
 10
127.7843142636
 20
176.3430148508
 11
127.7843142636
 21
173.8430148508
  0
LINE
  5
26B
100
AcDbEntity
  8
0
100
AcDbLine
 62
7
  6
CONTINUOUS
 10
164.1721550385
 20
167.8430148508
 11
94.2843142636
 21
167.8430148508
  0
LINE
  5
26C
100
AcDbEntity
  8
0
100
AcDbLine
 62
7
  6
CONTINUOUS
 10
134.2843142636
 20
173.8430148508
 11
134.2843142636
 21
176.8430148508
  0
LINE
  5
26D
100
AcDbEntity
  8
0
100
AcDbLine
 62
7
  6
CONTINUOUS
 10
134.3106361577
 20
173.8430148508
 11
134.3106361577
 21
176.8430148508
  0
LINE
  5
26E
100
AcDbEntity
  8
0
100
AcDbLine
 62
7
  6
CONTINUOUS
 10
136.7843142636
 20
176.8430148508
 11
136.7843142636
 21
179.8430148508
  0
LINE
  5
26F
100
AcDbEntity
  8
0
100
AcDbLine
 62
7
  6
CONTINUOUS
 10
137.5343142636
 20
179.3430148508
 11
137.5343142636
 21
185.8430148508
  0
LINE
  5
270
100
AcDbEntity
  8
0
100
AcDbLine
 62
7
  6
CONTINUOUS
 10
138.2843142636
 20
185.8430148508
 11
138.2843142636
 21
189.8430148508
  0
LINE
  5
271
100
AcDbEntity
  8
0
100
AcDbLine
 62
7
  6
CONTINUOUS
 10
138.6695351013
 20
176.8430148508
 11
138.6695351013
 21
173.8430148508
  0
LINE
  5
272
100
AcDbEntity
  8
0
100
AcDbLine
 62
7
  6
CONTINUOUS
 10
139.0343142636
 20
189.8430148508
 11
139.0343142636
 21
190.8430148508
  0
LINE
  5
273
100
AcDbEntity
  8
0
100
AcDbLine
 62
7
  6
CONTINUOUS
 10
92.2843142636
 20
170.3430148508
 11
94.2843142636
 21
170.3430148508
  0
LINE
  5
274
100
AcDbEntity
  8
0
100
AcDbLine
 62
7
  6
CONTINUOUS
 10
94.2843142636
 20
170.8430148508
 11
100.7843142636
 21
170.8430148508
  0
LINE
  5
275
100
AcDbEntity
  8
0
100
AcDbLine
 62
7
  6
CONTINUOUS
 10
153.7843142636
 20
170.8430148508
 11
159.7843142636
 21
170.8430148508
  0
LINE
  5
276
100
AcDbEntity
  8
0
100
AcDbLine
 62
7
  6
CONTINUOUS
 10
94.7843142636
 20
172.4430148508
 11
100.7843142636
 21
172.4430148508
  0
LINE
  5
277
100
AcDbEntity
  8
0
100
AcDbLine
 62
7
  6
CONTINUOUS
 10
153.7843142636
 20
172.4430148508
 11
159.7843142636
 21
172.4430148508
  0
LINE
  5
278
100
AcDbEntity
  8
0
100
AcDbLine
 62
7
  6
CONTINUOUS
 10
156.7906555799
 20
173.2430185556
 11
156.7779729472
 21
173.2430185556
  0
LINE
  5
279
100
AcDbEntity
  8
0
100
AcDbLine
 62
7
  6
CONTINUOUS
 10
97.7906555799
 20
173.2430185556
 11
97.7779729472
 21
173.2430185556
  0
LINE
  5
27A
100
AcDbEntity
  8
0
100
AcDbLine
 62
7
  6
CONTINUOUS
 10
94.2843142636
 20
173.8430148508
 11
162.5340076216
 21
173.8430148508
  0
LINE
  5
27B
100
AcDbEntity
  8
0
100
AcDbLine
 62
7
  6
CONTINUOUS
 10
139.92541532
 20
173.8430148508
 11
139.92541532
 21
176.8430148508
  0
LINE
  5
27C
100
AcDbEntity
  8
0
100
AcDbLine
 62
7
  6
CONTINUOUS
 10
140.2843142636
 20
185.8430148508
 11
140.2843142636
 21
187.8430148508
  0
LINE
  5
27D
100
AcDbEntity
  8
0
100
AcDbLine
 62
7
  6
CONTINUOUS
 10
109.2843142636
 20
176.3430148508
 11
127.7843142636
 21
176.3430148508
  0
LINE
  5
27E
100
AcDbEntity
  8
0
100
AcDbLine
 62
7
  6
CONTINUOUS
 10
134.2843142636
 20
176.8430148508
 11
154.2843142636
 21
176.8430148508
  0
LINE
  5
27F
100
AcDbEntity
  8
0
100
AcDbLine
 62
7
  6
CONTINUOUS
 10
101.2843142636
 20
177.3430148508
 11
109.2843142636
 21
177.3430148508
  0
LINE
  5
280
100
AcDbEntity
  8
0
100
AcDbLine
 62
7
  6
CONTINUOUS
 10
113.7843142636
 20
177.9430148508
 11
119.7843142636
 21
177.9430148508
  0
LINE
  5
281
100
AcDbEntity
  8
0
100
AcDbLine
 62
7
  6
CONTINUOUS
 10
105.2902590218
 20
178.4430173554
 11
105.2783695053
 21
178.4430173554
  0
LINE
  5
282
100
AcDbEntity
  8
0
100
AcDbLine
 62
7
  6
CONTINUOUS
 10
127.7843142636
 20
179.3430148508
 11
127.2843142636
 21
179.3430148508
  0
LINE
  5
283
100
AcDbEntity
  8
0
100
AcDbLine
 62
7
  6
CONTINUOUS
 10
106.2843142636
 20
179.3430148508
 11
105.7843142636
 21
179.3430148508
  0
LINE
  5
284
100
AcDbEntity
  8
0
100
AcDbLine
 62
7
  6
CONTINUOUS
 10
136.7843142636
 20
179.3430148508
 11
148.1680390813
 21
179.3430148508
  0
LINE
  5
285
100
AcDbEntity
  8
0
100
AcDbLine
 62
7
  6
CONTINUOUS
 10
149.8051096356
 20
179.3430148508
 11
151.7843142636
 21
179.3430148508
  0
LINE
  5
286
100
AcDbEntity
  8
0
100
AcDbLine
 62
7
  6
CONTINUOUS
 10
127.2843142636
 20
179.8430148508
 11
125.2843142636
 21
179.8430148508
  0
LINE
  5
287
100
AcDbEntity
  8
0
100
AcDbLine
 62
7
  6
CONTINUOUS
 10
108.2843142636
 20
179.8430148508
 11
106.2843142636
 21
179.8430148508
  0
LINE
  5
288
100
AcDbEntity
  8
0
100
AcDbLine
 62
7
  6
CONTINUOUS
 10
136.7843142636
 20
179.8430148508
 11
137.5343142636
 21
179.8430148508
  0
LINE
  5
289
100
AcDbEntity
  8
0
100
AcDbLine
 62
7
  6
CONTINUOUS
 10
151.0343142636
 20
179.8430148508
 11
151.7843142636
 21
179.8430148508
  0
LINE
  5
28A
100
AcDbEntity
  8
0
100
AcDbLine
 62
7
  6
CONTINUOUS
 10
146.5342795148
 20
176.8430148508
 11
146.5342795148
 21
179.3430148508
  0
LINE
  5
28B
100
AcDbEntity
  8
0
100
AcDbLine
 62
7
  6
CONTINUOUS
 10
148.1680390813
 20
179.3430148508
 11
148.1680390813
 21
185.8430148508
  0
LINE
  5
28C
100
AcDbEntity
  8
0
100
AcDbLine
 62
7
  6
CONTINUOUS
 10
148.2843142636
 20
187.8430148508
 11
148.2843142636
 21
185.8430148508
  0
LINE
  5
28D
100
AcDbEntity
  8
0
100
AcDbLine
 62
7
  6
CONTINUOUS
 10
148.6432132071
 20
176.8430148508
 11
148.6432132071
 21
173.8430148508
  0
LINE
  5
28E
100
AcDbEntity
  8
0
100
AcDbLine
 62
7
  6
CONTINUOUS
 10
149.5343142636
 20
190.8430148508
 11
149.5343142636
 21
189.8430148508
  0
LINE
  5
28F
100
AcDbEntity
  8
0
100
AcDbLine
 62
7
  6
CONTINUOUS
 10
149.8051096356
 20
185.8430148508
 11
149.8051096356
 21
179.3430148508
  0
LINE
  5
290
100
AcDbEntity
  8
0
100
AcDbLine
 62
7
  6
CONTINUOUS
 10
149.8990934259
 20
173.8430148508
 11
149.8990934259
 21
176.8430148508
  0
LINE
  5
291
100
AcDbEntity
  8
0
100
AcDbLine
 62
7
  6
CONTINUOUS
 10
150.2843142636
 20
189.8430148508
 11
150.2843142636
 21
185.8430148508
  0
LINE
  5
292
100
AcDbEntity
  8
0
100
AcDbLine
 62
7
  6
CONTINUOUS
 10
151.0343142636
 20
185.8430148508
 11
151.0343142636
 21
179.3430148508
  0
LINE
  5
293
100
AcDbEntity
  8
0
100
AcDbLine
 62
7
  6
CONTINUOUS
 10
151.4388692021
 20
179.3430148508
 11
151.4388692021
 21
176.8430148508
  0
LINE
  5
294
100
AcDbEntity
  8
0
100
AcDbLine
 62
7
  6
CONTINUOUS
 10
106.2843142636
 20
182.8430148508
 11
108.2843142636
 21
182.8430148508
  0
LINE
  5
295
100
AcDbEntity
  8
0
100
AcDbLine
 62
7
  6
CONTINUOUS
 10
125.2843142636
 20
182.8430148508
 11
127.2843142636
 21
182.8430148508
  0
LINE
  5
296
100
AcDbEntity
  8
0
100
AcDbLine
 62
7
  6
CONTINUOUS
 10
105.7843142636
 20
183.3430148508
 11
106.2843142636
 21
183.3430148508
  0
LINE
  5
297
100
AcDbEntity
  8
0
100
AcDbLine
 62
7
  6
CONTINUOUS
 10
127.2843142636
 20
183.3430148508
 11
127.7843142636
 21
183.3430148508
  0
LINE
  5
298
100
AcDbEntity
  8
0
100
AcDbLine
 62
7
  6
CONTINUOUS
 10
137.5343142636
 20
185.8430148508
 11
151.0343142636
 21
185.8430148508
  0
LINE
  5
299
100
AcDbEntity
  8
0
100
AcDbLine
 62
7
  6
CONTINUOUS
 10
108.2843142636
 20
186.3430148508
 11
125.2843142636
 21
186.3430148508
  0
LINE
  5
29A
100
AcDbEntity
  8
0
100
AcDbLine
 62
7
  6
CONTINUOUS
 10
140.2843142636
 20
187.8430148508
 11
148.2843142636
 21
187.8430148508
  0
LINE
  5
29B
100
AcDbEntity
  8
0
100
AcDbLine
 62
7
  6
CONTINUOUS
 10
151.7843142636
 20
179.8430148508
 11
151.7843142636
 21
176.8430148508
  0
LINE
  5
29C
100
AcDbEntity
  8
0
100
AcDbLine
 62
7
  6
CONTINUOUS
 10
153.7843142636
 20
173.8430148508
 11
153.7843142636
 21
170.8430148508
  0
LINE
  5
29D
100
AcDbEntity
  8
0
100
AcDbLine
 62
7
  6
CONTINUOUS
 10
154.2579923694
 20
176.8430148508
 11
154.2579923694
 21
173.8430148508
  0
LINE
  5
29E
100
AcDbEntity
  8
0
100
AcDbLine
 62
7
  6
CONTINUOUS
 10
154.2843142636
 20
176.8430148508
 11
154.2843142636
 21
173.8430148508
  0
LINE
  5
29F
100
AcDbEntity
  8
0
100
AcDbLine
 62
7
  6
CONTINUOUS
 10
138.2843142636
 20
189.8430148508
 11
150.2843142636
 21
189.8430148508
  0
LINE
  5
2A0
100
AcDbEntity
  8
0
100
AcDbLine
 62
7
  6
CONTINUOUS
 10
139.0343142636
 20
190.8430148508
 11
149.5343142636
 21
190.8430148508
  0
LINE
  5
2A1
100
AcDbEntity
  8
0
100
AcDbLine
 62
7
  6
CONTINUOUS
 10
159.7843142636
 20
173.8430148508
 11
159.7843142636
 21
170.8430148508
  0
LINE
  5
2A2
100
AcDbEntity
  8
0
100
AcDbLine
 62
7
  6
CONTINUOUS
 10
159.7843142636
 20
167.8430148508
 11
159.7843142636
 21
81.6430148508
  0
LINE
  5
2A3
100
AcDbEntity
  8
0
100
AcDbLine
 62
7
  6
CONTINUOUS
 10
163.4843142636
 20
167.8430148508
 11
162.5340076216
 21
173.8430148508
  0
ARC
  5
2A4
100
AcDbEntity
  8
0
100
AcDbCircle
 62
7
  6
CONTINUOUS
 10
-132.7156857364
 20
124.7430148508
 40
300.0
100
AcDbArc
 50
351.7399235704
 51
8.2600764296
  0
ARC
  5
2A5
100
AcDbEntity
  8
0
100
AcDbCircle
 62
7
  6
CONTINUOUS
 10
-132.7156857364
 20
120.7430148508
 40
274.0
100
AcDbArc
 50
349.3809658895
 51
0.6075351892
  0
ARC
  5
2A6
100
AcDbEntity
  8
0
100
AcDbCircle
 62
7
  6
CONTINUOUS
 10
105.2780635748
 20
170.6430173554
 40
7.8
100
AcDbArc
 50
89.954084856
 51
120.7984176416
  0
ARC
  5
2A7
100
AcDbEntity
  8
0
100
AcDbCircle
 62
7
  6
CONTINUOUS
 10
105.2905649523
 20
170.6430173554
 40
7.8
100
AcDbArc
 50
59.2015823584
 51
90.045915144
  0
ARC
  5
2A8
100
AcDbEntity
  8
0
100
AcDbCircle
 62
7
  6
CONTINUOUS
 10
116.7376943377
 20
172.5431901289
 40
6.2
100
AcDbArc
 50
60.5679963153
 51
89.5691693284
  0
ARC
  5
2A9
100
AcDbEntity
  8
0
100
AcDbCircle
 62
7
  6
CONTINUOUS
 10
116.8309341894
 20
172.5431901289
 40
6.2
100
AcDbArc
 50
90.4308306716
 51
119.4320036847
  0
ARC
  5
2AA
100
AcDbEntity
  8
0
100
AcDbCircle
 62
7
  6
CONTINUOUS
 10
156.7909819182
 20
167.2430185556
 40
6.0
100
AcDbArc
 50
60.0734942192
 51
90.0636714245
  0
ARC
  5
2AB
100
AcDbEntity
  8
0
100
AcDbCircle
 62
7
  6
CONTINUOUS
 10
156.777646609
 20
167.2430185556
 40
6.0
100
AcDbArc
 50
89.9363285755
 51
119.9265057808
  0
ARC
  5
2AC
100
AcDbEntity
  8
0
100
AcDbCircle
 62
7
  6
CONTINUOUS
 10
97.777646609
 20
167.2430185556
 40
6.0
100
AcDbArc
 50
89.9363285755
 51
119.9265057808
  0
ARC
  5
2AD
100
AcDbEntity
  8
0
100
AcDbCircle
 62
7
  6
CONTINUOUS
 10
97.7909819182
 20
167.2430185556
 40
6.0
100
AcDbArc
 50
60.0734942192
 51
90.0636714245
  0
ARC
  5
2AE
100
AcDbEntity
  8
0
100
AcDbCircle
 62
7
  6
CONTINUOUS
 10
140.7689390599
 20
123.6430148508
 40
0.5
100
AcDbArc
 50
0.6075351892
 51
72.857015308
  0
ARC
  5
2AF
100
AcDbEntity
  8
0
100
AcDbCircle
 62
7
  6
CONTINUOUS
 10
136.1004038118
 20
70.3430148508
 40
0.5
100
AcDbArc
 50
270.0
 51
349.3809658896
  0
SPLINE
  5
2B0
100
AcDbEntity
  8
0
100
AcDbSpline
 62
7
  6
CONTINUOUS
 70
0
 71
3
 72
16
 73
12
 74
0
 42
0.0000001
 43
0.0000001
 44
0.0000000001
 40
0.0
 40
0.0
 40
0.0
 40
0.0
 40
0.2500258926
 40
0.3750562642
 40
0.5000807493
 40
0.6250859029
 40
0.7500317739
 40
0.8125492496
 40
0.8750548187
 40
0.9375355701
 40
1.0
 40
1.0
 40
1.0
 40
1.0
 10
92.2824541555
 20
156.7930745436
 30
0.0
 10
92.0592667406
 20
156.684773842
 30
0.0
 10
91.7286580232
 20
156.5129978741
 30
0.0
 10
91.3045115574
 20
156.2551654811
 30
0.0
 10
90.9984778244
 20
156.0428487816
 30
0.0
 10
90.7113285672
 20
155.8054960952
 30
0.0
 10
90.4978277816
 20
155.5785426467
 30
0.0
 10
90.3567721647
 20
155.3739040004
 30
0.0
 10
90.2718428837
 20
155.207601051
 30
0.0
 10
90.2154640279
 20
155.0293244002
 30
0.0
 10
90.2021347185
 20
154.9049921165
 30
0.0
 10
90.2021347185
 20
154.8430148508
 30
0.0
  0
SPLINE
  5
2B1
100
AcDbEntity
  8
0
100
AcDbSpline
 62
7
  6
CONTINUOUS
 70
0
 71
3
 72
29
 73
25
 74
0
 42
0.0000001
 43
0.0000001
 44
0.0000000001
 40
0.0
 40
0.0
 40
0.0
 40
0.0
 40
0.0720422738
 40
0.1431397662
 40
0.2129346078
 40
0.2808418001
 40
0.3458368108
 40
0.3767147182
 40
0.4060551209
 40
0.4333822579
 40
0.4581676757
 40
0.4801357681
 40
0.4999940253
 40
0.5198530829
 40
0.5418231097
 40
0.5666104904
 40
0.5939391326
 40
0.6232804662
 40
0.6541591571
 40
0.7191558882
 40
0.7870640199
 40
0.8568594591
 40
0.9279574094
 40
1.0
 40
1.0
 40
1.0
 40
1.0
 10
92.282356481
 20
160.1481481156
 30
0.0
 10
92.1713425922
 20
160.1212128727
 30
0.0
 10
91.9512020299
 20
160.0658853552
 30
0.0
 10
91.6255099583
 20
159.9767431442
 30
0.0
 10
91.3086429358
 20
159.8805362192
 30
0.0
 10
91.0048398893
 20
159.775370145
 30
0.0
 10
90.7643461272
 20
159.6766000019
 30
0.0
 10
90.5865526045
 20
159.5879975028
 30
0.0
 10
90.4665790187
 20
159.5178942534
 30
0.0
 10
90.3614627082
 20
159.4423626437
 30
0.0
 10
90.2763297079
 20
159.3606214024
 30
0.0
 10
90.2173652405
 20
159.2712826253
 30
0.0
 10
90.1948957334
 20
159.1731032236
 30
0.0
 10
90.2173988074
 20
159.074929344
 30
0.0
 10
90.2763852195
 20
158.985597544
 30
0.0
 10
90.3615353665
 20
158.9038620823
 30
0.0
 10
90.4666639284
 20
158.8283359415
 30
0.0
 10
90.5866456623
 20
158.7582366995
 30
0.0
 10
90.7644469858
 20
158.6696376864
 30
0.0
 10
91.0049491664
 20
158.570873781
 30
0.0
 10
91.3087585845
 20
158.4657105757
 30
0.0
 10
91.6256297666
 20
158.3695064246
 30
0.0
 10
91.9513247579
 20
158.2803667028
 30
0.0
 10
92.1714667699
 20
158.2250399075
 30
0.0
 10
92.282481366
 20
158.1981054495
 30
0.0
  0
SPLINE
  5
2B2
100
AcDbEntity
  8
0
100
AcDbSpline
 62
7
  6
CONTINUOUS
 70
0
 71
3
 72
16
 73
12
 74
0
 42
0.0000001
 43
0.0000001
 44
0.0000000001
 40
0.0
 40
0.0
 40
0.0
 40
0.0
 40
0.2500258945
 40
0.3750562681
 40
0.5000807574
 40
0.6250859205
 40
0.7500318121
 40
0.8125493053
 40
0.8750548811
 40
0.9375356139
 40
1.0
 40
1.0
 40
1.0
 40
1.0
 10
92.282453031
 20
152.892955701
 30
0.0
 10
92.0592657206
 20
153.0012563843
 30
0.0
 10
91.7286571531
 20
153.1730323104
 30
0.0
 10
91.3045108893
 20
153.430864651
 30
0.0
 10
90.9984773014
 20
153.6431813133
 30
0.0
 10
90.7113281753
 20
153.8805339667
 30
0.0
 10
90.4978274936
 20
154.1074874015
 30
0.0
 10
90.3567719717
 20
154.3121260408
 30
0.0
 10
90.271842767
 20
154.4784289477
 30
0.0
 10
90.2154640017
 20
154.6567054861
 30
0.0
 10
90.2021347185
 20
154.7810376545
 30
0.0
 10
90.2021347185
 20
154.8430148508
 30
0.0
  0
SPLINE
  5
2B3
100
AcDbEntity
  8
0
100
AcDbSpline
 62
7
  6
CONTINUOUS
 70
0
 71
3
 72
29
 73
25
 74
0
 42
0.0000001
 43
0.0000001
 44
0.0000000001
 40
0.0
 40
0.0
 40
0.0
 40
0.0
 40
0.0720422738
 40
0.1431397662
 40
0.2129346078
 40
0.2808418001
 40
0.3458368108
 40
0.3767147182
 40
0.4060551209
 40
0.4333822579
 40
0.4581676757
 40
0.4801357681
 40
0.4999940253
 40
0.5198530829
 40
0.5418231097
 40
0.5666104904
 40
0.5939391326
 40
0.6232804662
 40
0.6541591571
 40
0.7191558882
 40
0.7870640199
 40
0.8568594591
 40
0.9279574094
 40
1.0
 40
1.0
 40
1.0
 40
1.0
 10
92.282356481
 20
151.4878940777
 30
0.0
 10
92.1713425922
 20
151.4609588348
 30
0.0
 10
91.9512020299
 20
151.4056313173
 30
0.0
 10
91.6255099583
 20
151.3164891064
 30
0.0
 10
91.3086429358
 20
151.2202821814
 30
0.0
 10
91.0048398893
 20
151.1151161072
 30
0.0
 10
90.7643461272
 20
151.0163459641
 30
0.0
 10
90.5865526045
 20
150.927743465
 30
0.0
 10
90.4665790187
 20
150.8576402156
 30
0.0
 10
90.3614627082
 20
150.7821086058
 30
0.0
 10
90.2763297079
 20
150.7003673645
 30
0.0
 10
90.2173652405
 20
150.6110285875
 30
0.0
 10
90.1948957334
 20
150.5128491858
 30
0.0
 10
90.2173988074
 20
150.4146753062
 30
0.0
 10
90.2763852195
 20
150.3253435062
 30
0.0
 10
90.3615353665
 20
150.2436080445
 30
0.0
 10
90.4666639284
 20
150.1680819037
 30
0.0
 10
90.5866456623
 20
150.0979826616
 30
0.0
 10
90.7644469858
 20
150.0093836486
 30
0.0
 10
91.0049491664
 20
149.9106197432
 30
0.0
 10
91.3087585845
 20
149.8054565378
 30
0.0
 10
91.6256297666
 20
149.7092523868
 30
0.0
 10
91.9513247579
 20
149.6201126649
 30
0.0
 10
92.1714667699
 20
149.5647858697
 30
0.0
 10
92.282481366
 20
149.5378514116
 30
0.0
  0
SPLINE
  5
2B4
100
AcDbEntity
  8
0
100
AcDbSpline
 62
7
  6
CONTINUOUS
 70
0
 71
3
 72
10
 73
6
 74
0
 42
0.0000001
 43
0.0000001
 44
0.0000000001
 40
0.0
 40
0.0
 40
0.0
 40
0.0
 40
0.2489354164
 40
0.4987882715
 40
1.0
 40
1.0
 40
1.0
 40
1.0
 10
141.2753047406
 20
122.9649818742
 30
0.0
 10
138.942574057
 20
122.6984841836
 30
0.0
 10
134.2754863666
 20
122.1029501378
 30
0.0
 10
124.9421920372
 20
120.7416483981
 30
0.0
 10
117.9502140386
 20
119.6025683044
 30
0.0
 10
113.2843142636
 20
118.8430148508
 30
0.0
  0
SPLINE
  5
2B5
100
AcDbEntity
  8
0
100
AcDbSpline
 62
7
  6
CONTINUOUS
 70
0
 71
3
 72
10
 73
6
 74
0
 42
0.0000001
 43
0.0000001
 44
0.0000000001
 40
0.0
 40
0.0
 40
0.0
 40
0.0
 40
0.5009938634
 40
0.7508727623
 40
1.0
 40
1.0
 40
1.0
 40
1.0
 10
113.2843142636
 20
86.8430148508
 30
0.0
 10
117.5168411442
 20
86.1540093932
 30
0.0
 10
123.8604931859
 20
85.1208065651
 30
0.0
 10
132.326761618
 20
83.8600141398
 30
0.0
 10
136.5603141528
 20
83.2919230198
 30
0.0
 10
138.6766081705
 20
83.0303595476
 30
0.0
  0
ENDSEC
  0
SECTION
  2
OBJECTS
  0
DICTIONARY
  5
C
100
AcDbDictionary
280
0
281
1
  3
ACAD_GROUP
350
D
  3
ACAD_MLINESTYLE
350
17
  3
ACAD_LAYOUT
350
1A
  3
ACAD_PLOTSETTINGS
350
19
  3
ACAD_PLOTSTYLENAME
350
E
  0
DICTIONARY
  5
D
102
{ACAD_REACTORS
330
C
102
}
100
AcDbDictionary
280
0
281
1
  0
ACDBDICTIONARYWDFLT
  5
E
102
{ACAD_REACTORS
330
C
102
}
100
AcDbDictionary
281
1
  3
Normal
350
F
100
AcDbDictionaryWithDefault
340
F
  0
DICTIONARY
  5
17
102
{ACAD_REACTORS
330
C
102
}
100
AcDbDictionary
280
0
281
1
  3
Standard
350
18
  0
DICTIONARY
  5
19
102
{ACAD_REACTORS
330
C
102
}
100
AcDbDictionary
281
1
  0
DICTIONARY
  5
1A
102
{ACAD_REACTORS
330
C
102
}
100
AcDbDictionary
281
1
  3
Model
350
2B6
  3
Layout1
350
2B7
  0
ACDBPLACEHOLDER
  5
F
102
{ACAD_REACTORS
330
E
102
}
  0
MLINESTYLE
  5
18
102
{ACAD_REACTORS
330
17
102
}
100
AcDbMlineStyle
  2
STANDARD
 70
0
  3

 62
256
 51
90.0
 52
90.0
 71
2
 49
0.5
 62
256
  6
BYLAYER
 49
-0.5
 62
256
  6
BYLAYER
  0
LAYOUT
  5
2B6
102
{ACAD_REACTORS
330
1A
102
}
100
AcDbPlotSettings
  1

  2
none_device
  4

  6

 40
0.0
 41
0.0
 42
0.0
 43
0.0
 44
210.0
 45
297.0
 46
0.0
 47
0.0
 48
0.0
 49
0.0
140
0.0
141
0.0
142
1.0
143
1.0
 70
1024
 72
1
 73
0
 74
0
  7

 75
0
147
1.0
148
0.0
149
0.0
100
AcDbLayout
  1
Model
 70
0
 71
0
 10
0.0
 20
0.0
 11
210.0
 21
297.0
 12
0.0
 22
0.0
 32
0.0
 14
0.0
 24
0.0
 34
0.0
 15
0.0
 25
0.0
 35
0.0
146
0.0
 13
0.0
 23
0.0
 33
0.0
 16
1.0
 26
0.0
 36
0.0
 17
0.0
 27
1.0
 37
0.0
 76
0
330
210
345
0
346
0
  0
LAYOUT
  5
2B7
102
{ACAD_REACTORS
330
1A
102
}
100
AcDbPlotSettings
  1

  2
none_device
  4

  6

 40
0.0
 41
0.0
 42
0.0
 43
0.0
 44
210.0
 45
297.0
 46
0.0
 47
0.0
 48
0.0
 49
0.0
140
0.0
141
0.0
142
1.0
143
1.0
 70
0
 72
1
 73
0
 74
0
  7

 75
0
147
1.0
148
0.0
149
0.0
100
AcDbLayout
  1
Layout1
 70
0
 71
1
 10
0.0
 20
0.0
 11
210.0
 21
297.0
 12
0.0
 22
0.0
 32
0.0
 14
0.0
 24
0.0
 34
0.0
 15
0.0
 25
0.0
 35
0.0
146
0.0
 13
0.0
 23
0.0
 33
0.0
 16
1.0
 26
0.0
 36
0.0
 17
0.0
 27
1.0
 37
0.0
 76
0
330
211
345
0
346
0
  0
ENDSEC
  0
EOF
