999
DXF file: C:\Users\sesa63760\Dev\_Creo\CAD\MCADID0004239_3D-CAD\drw0001_6.dxf
999
Pro/ENGINEER 2019471 by Parametric Technology Corporation
  0
SECTION
  2
HEADER
  9
$ACADVER
  1
AC1024
  9
$DWGCODEPAGE
  3
ANSI_1252
  9
$EXTMAX
 10
333.8158577104
 20
472.1109987618
 30
0.0
  9
$EXTMIN
 10
0.0
 20
0.0
 30
0.0
  9
$LIMMIN
 10
0.0
 20
0.0
  9
$LIMMAX
 10
333.8158577104
 20
472.1109987618
  9
$VIEWCTR
 10
166.9079288552
 20
236.0554993809
  9
$VIEWSIZE
 40
472.1109987618
  9
$CLAYER
  8
0
  9
$LTSCALE
 40
30.7746428822
  9
$CELTYPE
  6
BYLAYER
  9
$DIMSCALE
 40
1.0
  9
$DIMASZ
 40
3.9739983061
  9
$DIMEXO
 40
1.0
  9
$DIMDLI
 40
21.2624805368
  9
$DIMEXE
 40
1.0
  9
$DIMCEN
 40
5.0358506535
  9
$DIMLFAC
 40
1.0
  9
$DIMBLK
  1
_FILLED
  9
$DIMALT
 70
0
  9
$DIMALTF
 40
0.0393700787
  9
$DIMTXT
 40
5.5635976285
  9
$DIMTOL
 70
1
  9
$DIMLIM
 70
0
  9
$DIMTFAC
 40
1.0
  9
$DIMTP
 40
0.01
  9
$DIMTM
 40
0.01
  9
$DIMGAP
 40
0.625
  9
$DIMDSEP
 70
46
  9
$AUNITS
 70
0
  9
$PDMODE
 70
3
  9
$PDSIZE
 40
0.3125
  9
$HANDSEED
  5
317
  9
$TILEMODE
 70
1
  9
$MEASUREMENT
 70
1
  9
$INSUNITS
 70
4
  0
ENDSEC
  0
SECTION
  2
CLASSES
  0
CLASS
  1
ACDBDICTIONARYWDFLT
  2
AcDbDictionaryWithDefault
  3
AutoCAD 2000
 90
0
 91
1
280
0
281
0
  0
CLASS
  1
ACDBPLACEHOLDER
  2
AcDbPlaceHolder
  3
AutoCAD 2000
 90
0
 91
1
280
0
281
0
  0
CLASS
  1
LAYOUT
  2
AcDbLayout
  3
AutoCAD 2000
 90
0
 91
0
280
0
281
0
  0
ENDSEC
  0
SECTION
  2
TABLES
  0
TABLE
  2
VPORT
  5
8
100
AcDbSymbolTable
 70
2
  0
VPORT
  5
1F4
100
AcDbSymbolTableRecord
100
AcDbViewportTableRecord
  2
*ACTIVE
 70
0
 10
0.0
 20
0.0
 11
1.0
 21
1.0
 12
166.9079288552
 22
236.0554993809
 13
0.0
 23
0.0
 14
1.0
 24
1.0
 15
0.0
 25
0.0
 16
0.0
 26
0.0
 36
1.0
 17
0.0
 27
0.0
 37
0.0
 40
472.1109987618
 41
0.7070707071
 42
50.0
 43
0.0
 44
0.0
 50
0.0
 51
0.0
 71
0
 72
100
 73
1
 74
1
 75
0
 76
0
 77
0
 78
0
  0
ENDTAB
  0
TABLE
  2
LTYPE
  5
5
100
AcDbSymbolTable
 70
6
  0
LTYPE
  5
14
100
AcDbSymbolTableRecord
100
AcDbLinetypeTableRecord
  2
BYBLOCK
 70
0
  3

 72
65
 73
0
 40
0.0
  0
LTYPE
  5
15
100
AcDbSymbolTableRecord
100
AcDbLinetypeTableRecord
  2
BYLAYER
 70
0
  3

 72
65
 73
0
 40
0.0
  0
LTYPE
  5
16
100
AcDbSymbolTableRecord
100
AcDbLinetypeTableRecord
  2
CONTINUOUS
 70
64
  3
Solid line
 72
65
 73
0
 40
0.0
  0
LTYPE
  5
1F5
100
AcDbSymbolTableRecord
100
AcDbLinetypeTableRecord
  2
CENTER
 70
64
  3
____ _ ____ _ ____ _ ____ _ ____ _ ____ _ ____
 72
65
 73
4
 40
0.6
 49
0.375
 74
0
 49
-0.075
 74
0
 49
0.075
 74
0
 49
-0.075
 74
0
  0
LTYPE
  5
1F6
100
AcDbSymbolTableRecord
100
AcDbLinetypeTableRecord
  2
HIDDEN
 70
64
  3
- - - - - - - - - - - - - - - - - - - -
 72
65
 73
2
 40
0.2
 49
0.1
 74
0
 49
-0.1
 74
0
  0
LTYPE
  5
1F7
100
AcDbSymbolTableRecord
100
AcDbLinetypeTableRecord
  2
PHANTOM
 70
64
  3
_____ _ _ _____ _ _ _____ _ _ _____
 72
65
 73
6
 40
0.8
 49
0.45
 74
0
 49
-0.05
 74
0
 49
0.1
 74
0
 49
-0.05
 74
0
 49
0.1
 74
0
 49
-0.05
 74
0
  0
LTYPE
  5
1F8
100
AcDbSymbolTableRecord
100
AcDbLinetypeTableRecord
  2
DOT
 70
64
  3
. . . . . . . . . . . . . . . . . . . .
 72
65
 73
2
 40
0.2
 49
0.1
 74
0
 49
-0.1
 74
0
  0
LTYPE
  5
1F9
100
AcDbSymbolTableRecord
100
AcDbLinetypeTableRecord
  2
DASHED
 70
64
  3
- - - - - - - - - - - - - - - - - - - -
 72
65
 73
2
 40
0.2
 49
0.1
 74
0
 49
-0.1
 74
0
  0
ENDTAB
  0
TABLE
  2
LAYER
  5
2
100
AcDbSymbolTable
 70
36
  0
LAYER
  5
10
100
AcDbSymbolTableRecord
100
AcDbLayerTableRecord
  2
0
 70
0
 62
7
  6
CONTINUOUS
370
-3
390
F
  0
LAYER
  5
1FA
100
AcDbSymbolTableRecord
100
AcDbLayerTableRecord
  2
DEFAULT_1
 70
0
 62
7
  6
CENTER
370
-3
390
F
  0
LAYER
  5
1FB
100
AcDbSymbolTableRecord
100
AcDbLayerTableRecord
  2
DEFAULT_2
 70
0
 62
7
  6
HIDDEN
370
-3
390
F
  0
LAYER
  5
1FC
100
AcDbSymbolTableRecord
100
AcDbLayerTableRecord
  2
DEFAULT_3
 70
0
 62
7
  6
PHANTOM
370
-3
390
F
  0
LAYER
  5
1FD
100
AcDbSymbolTableRecord
100
AcDbLayerTableRecord
  2
00_COMPONENTS
 70
0
 62
7
  6
CONTINUOUS
370
-3
390
F
  0
LAYER
  5
1FE
100
AcDbSymbolTableRecord
100
AcDbLayerTableRecord
  2
01_1_DEFAULT_DATUMS
 70
0
 62
7
  6
CONTINUOUS
370
-3
390
F
  0
LAYER
  5
1FF
100
AcDbSymbolTableRecord
100
AcDbLayerTableRecord
  2
01_PLANES
 70
0
 62
7
  6
CONTINUOUS
370
-3
390
F
  0
LAYER
  5
200
100
AcDbSymbolTableRecord
100
AcDbLayerTableRecord
  2
02_COORD_SYS
 70
0
 62
7
  6
CONTINUOUS
370
-3
390
F
  0
LAYER
  5
201
100
AcDbSymbolTableRecord
100
AcDbLayerTableRecord
  2
03_AXES
 70
0
 62
7
  6
CONTINUOUS
370
-3
390
F
  0
LAYER
  5
202
100
AcDbSymbolTableRecord
100
AcDbLayerTableRecord
  2
04_POINTS
 70
0
 62
7
  6
CONTINUOUS
370
-3
390
F
  0
LAYER
  5
203
100
AcDbSymbolTableRecord
100
AcDbLayerTableRecord
  2
05_CURVES
 70
0
 62
7
  6
CONTINUOUS
370
-3
390
F
  0
LAYER
  5
204
100
AcDbSymbolTableRecord
100
AcDbLayerTableRecord
  2
06_SURFS
 70
0
 62
7
  6
CONTINUOUS
370
-3
390
F
  0
LAYER
  5
205
100
AcDbSymbolTableRecord
100
AcDbLayerTableRecord
  2
07_COSMETICS
 70
0
 62
7
  6
CONTINUOUS
370
-3
390
F
  0
LAYER
  5
206
100
AcDbSymbolTableRecord
100
AcDbLayerTableRecord
  2
10_NOTES
 70
0
 62
7
  6
CONTINUOUS
370
-3
390
F
  0
LAYER
  5
207
100
AcDbSymbolTableRecord
100
AcDbLayerTableRecord
  2
11_NOTES_PUB
 70
0
 62
7
  6
CONTINUOUS
370
-3
390
F
  0
LAYER
  5
208
100
AcDbSymbolTableRecord
100
AcDbLayerTableRecord
  2
13_REF_GTOL
 70
0
 62
7
  6
CONTINUOUS
370
-3
390
F
  0
LAYER
  5
209
100
AcDbSymbolTableRecord
100
AcDbLayerTableRecord
  2
16_MISC
 70
0
 62
7
  6
CONTINUOUS
370
-3
390
F
  0
LAYER
  5
20A
100
AcDbSymbolTableRecord
100
AcDbLayerTableRecord
  2
17_NO_PRINT
 70
0
 62
7
  6
CONTINUOUS
370
-3
390
F
  0
LAYER
  5
20B
100
AcDbSymbolTableRecord
100
AcDbLayerTableRecord
  2
18_DATUM_CAMS_JOINTS
 70
0
 62
7
  6
CONTINUOUS
370
-3
390
F
  0
LAYER
  5
20C
100
AcDbSymbolTableRecord
100
AcDbLayerTableRecord
  2
19_DATUM_FUNCTIONAL
 70
0
 62
7
  6
CONTINUOUS
370
-3
390
F
  0
LAYER
  5
20D
100
AcDbSymbolTableRecord
100
AcDbLayerTableRecord
  2
20_DATUM_KINEMATIC_SCHEME
 70
0
 62
7
  6
CONTINUOUS
370
-3
390
F
  0
LAYER
  5
20E
100
AcDbSymbolTableRecord
100
AcDbLayerTableRecord
  2
3
 70
0
 62
7
  6
CONTINUOUS
370
-3
390
F
  0
LAYER
  5
20F
100
AcDbSymbolTableRecord
100
AcDbLayerTableRecord
  2
4
 70
0
 62
7
  6
CONTINUOUS
370
-3
390
F
  0
ENDTAB
  0
TABLE
  2
STYLE
  5
3
100
AcDbSymbolTable
 70
1
  0
STYLE
  5
11
100
AcDbSymbolTableRecord
100
AcDbTextStyleTableRecord
  2
STANDARD
 70
0
 40
0.0
 41
1.0
 50
0.0
 71
0
 42
0.2
  3
ARIAL.TTF
  4

  0
STYLE
  5
210
100
AcDbSymbolTableRecord
100
AcDbTextStyleTableRecord
  2
TEXTSTYLE_1
 70
0
 40
0.0
 41
0.8
 50
0.0
 71
0
 42
0.2
  3
gdt
  4

  0
ENDTAB
  0
TABLE
  2
VIEW
  5
6
100
AcDbSymbolTable
 70
0
  0
ENDTAB
  0
TABLE
  2
UCS
  5
7
100
AcDbSymbolTable
 70
0
  0
ENDTAB
  0
TABLE
  2
APPID
  5
9
100
AcDbSymbolTable
 70
1
  0
APPID
  5
211
100
AcDbSymbolTableRecord
100
AcDbRegAppTableRecord
  2
ACAD
 70
0
  0
ENDTAB
  0
TABLE
  2
BLOCK_RECORD
  5
1
100
AcDbSymbolTable
 70
0
  0
BLOCK_RECORD
  5
212
100
AcDbSymbolTableRecord
100
AcDbBlockTableRecord
  2
*Model_Space
  0
BLOCK_RECORD
  5
213
100
AcDbSymbolTableRecord
100
AcDbBlockTableRecord
  2
*Paper_Space
  0
BLOCK_RECORD
  5
214
100
AcDbSymbolTableRecord
100
AcDbBlockTableRecord
  2
_FILLED
  0
ENDTAB
  0
TABLE
  2
DIMSTYLE
  5
A
100
AcDbSymbolTable
 70
1
100
AcDbDimStyleTable
 71
0
  0
DIMSTYLE
105
215
100
AcDbSymbolTableRecord
100
AcDbDimStyleTableRecord
  2
STANDARD
 70
0
  3

  4

 40
1.0
 41
3.9739983061
 42
1.0
 43
0.38
 44
1.0
 45
0.0
 46
0.0
 47
0.01
 48
0.01
140
5.5635976285
141
0.09
142
0.0
143
25.4
144
1.0
145
0.0
146
1.0
147
0.625
 71
1
 72
0
 73
0
 74
0
 75
0
 76
0
 77
1
 78
8
 79
2
170
0
171
1
172
0
173
0
174
0
175
0
176
0
177
0
178
0
270
2
179
2
271
2
272
2
273
2
274
2
275
0
280
0
281
0
282
0
283
1
284
8
285
0
286
0
287
3
288
0
340
11
278
46
341
214
342
214
343
214
344
214
  0
ENDTAB
  0
ENDSEC
  0
SECTION
  2
BLOCKS
  0
BLOCK
  5
20
100
AcDbEntity
  8
0
100
AcDbBlockBegin
  2
*Model_Space
 70
0
 10
0.0
 20
0.0
 30
0.0
  3
*Model_Space
  1

  0
ENDBLK
  5
21
100
AcDbEntity
  8
0
100
AcDbBlockEnd
  0
BLOCK
  5
1C
100
AcDbEntity
  8
0
100
AcDbBlockBegin
  2
*Paper_Space
 70
0
 10
0.0
 20
0.0
 30
0.0
  3
*Paper_Space
  1

  0
ENDBLK
  5
1D
100
AcDbEntity
  8
0
100
AcDbBlockEnd
  0
BLOCK
  5
216
100
AcDbEntity
  8
0
100
AcDbBlockBegin
  2
_FILLED
 70
64
 10
0.0
 20
0.0
  3
_FILLED
  1

  0
SOLID
  5
217
100
AcDbEntity
  8
0
  6
BYBLOCK
 62
0
100
AcDbTrace
 10
0.0
 20
0.0
 11
-1.0
 21
0.25
 12
-1.0
 22
-0.25
 13
-1.0
 23
-0.25
  0
ENDBLK
  5
218
100
AcDbEntity
  8
0
  6
BYBLOCK
 62
0
100
AcDbBlockEnd
  0
ENDSEC
  0
SECTION
  2
ENTITIES
  0
LINE
  5
219
100
AcDbEntity
  8
0
100
AcDbLine
 62
7
  6
BYLAYER
 10
169.9766718098
 20
39.0054986737
 11
165.3768485075
 21
39.0054986737
  0
LINE
  5
21A
100
AcDbEntity
  8
0
100
AcDbLine
 62
7
  6
BYLAYER
 10
129.9766836886
 20
39.0054986737
 11
125.3768603863
 21
39.0054986737
  0
LINE
  5
21B
100
AcDbEntity
  8
0
100
AcDbLine
 62
7
  6
BYLAYER
 10
125.0039821268
 20
39.1053885352
 11
118.1767644089
 21
39.1053885352
  0
LINE
  5
21C
100
AcDbEntity
  8
0
100
AcDbLine
 62
7
  6
BYLAYER
 10
130.3495704487
 20
39.1053885352
 11
165.003970248
 21
39.1053885352
  0
LINE
  5
21D
100
AcDbEntity
  8
0
100
AcDbLine
 62
7
  6
BYLAYER
 10
170.3495585699
 20
39.1053885352
 11
171.1767644089
 21
39.1053885352
  0
LINE
  5
21E
100
AcDbEntity
  8
0
100
AcDbLine
 62
7
  6
BYLAYER
 10
148.818212589
 20
39.6053885352
 11
140.5362807547
 21
39.6053885352
  0
LINE
  5
21F
100
AcDbEntity
  8
0
100
AcDbLine
 62
7
  6
BYLAYER
 10
170.9767644089
 20
40.0054986737
 11
164.3767644089
 21
40.0054986737
  0
LINE
  5
220
100
AcDbEntity
  8
0
100
AcDbLine
 62
7
  6
BYLAYER
 10
130.9767762877
 20
40.0054986737
 11
124.3767762877
 21
40.0054986737
  0
LINE
  5
221
100
AcDbEntity
  8
0
100
AcDbLine
 62
7
  6
BYLAYER
 10
172.1767644089
 20
40.1053885352
 11
170.9767644089
 21
40.1053885352
  0
LINE
  5
222
100
AcDbEntity
  8
0
100
AcDbLine
 62
7
  6
BYLAYER
 10
164.3767644089
 20
40.1053885352
 11
148.6767644089
 21
40.1053885419
  0
LINE
  5
223
100
AcDbEntity
  8
0
100
AcDbLine
 62
7
  6
BYLAYER
 10
140.6767644089
 20
40.1053885353
 11
130.9767762877
 21
40.1053885352
  0
LINE
  5
224
100
AcDbEntity
  8
0
100
AcDbLine
 62
7
  6
BYLAYER
 10
124.3767762877
 20
40.1053885352
 11
117.1767644089
 21
40.1053885352
  0
LINE
  5
225
100
AcDbEntity
  8
0
100
AcDbLine
 62
7
  6
BYLAYER
 10
123.7644491794
 20
41.1053885352
 11
124.3767762877
 21
41.1053885352
  0
LINE
  5
226
100
AcDbEntity
  8
0
100
AcDbLine
 62
7
  6
BYLAYER
 10
130.9767762877
 20
41.1053885352
 11
132.1767644089
 21
41.1053884781
  0
LINE
  5
227
100
AcDbEntity
  8
0
100
AcDbLine
 62
7
  6
BYLAYER
 10
163.1767644089
 20
41.1053884663
 11
164.3767644089
 21
41.1053885352
  0
LINE
  5
228
100
AcDbEntity
  8
0
100
AcDbLine
 62
7
  6
BYLAYER
 10
170.9767644089
 20
41.1053885352
 11
172.1767644089
 21
41.1053884663
  0
LINE
  5
229
100
AcDbEntity
  8
0
100
AcDbLine
 62
7
  6
BYLAYER
 10
164.6767644089
 20
41.6053885352
 11
171.6767644089
 21
41.6053885352
  0
LINE
  5
22A
100
AcDbEntity
  8
0
100
AcDbLine
 62
7
  6
BYLAYER
 10
124.1270109153
 20
41.6053885352
 11
130.6767644089
 21
41.6053885352
  0
LINE
  5
22B
100
AcDbEntity
  8
0
100
AcDbLine
 62
7
  6
BYLAYER
 10
172.1767644089
 20
42.1053885352
 11
164.6767644089
 21
42.1053885352
  0
LINE
  5
22C
100
AcDbEntity
  8
0
100
AcDbLine
 62
7
  6
BYLAYER
 10
130.6767644089
 20
42.1053885352
 11
122.2646827171
 21
42.1053885352
  0
LINE
  5
22D
100
AcDbEntity
  8
0
100
AcDbLine
 62
7
  6
BYLAYER
 10
117.1767644089
 20
56.6053885352
 11
148.6762656197
 21
56.6053885352
  0
LINE
  5
22E
100
AcDbEntity
  8
0
100
AcDbLine
 62
7
  6
BYLAYER
 10
148.6767644089
 20
56.6053885352
 11
172.1767644089
 21
56.6053885352
  0
LINE
  5
22F
100
AcDbEntity
  8
3
100
AcDbLine
 62
7
  6
BYLAYER
 10
172.1762829346
 20
56.6055114822
 11
117.1762656197
 21
56.6055114822
  0
LINE
  5
230
100
AcDbEntity
  8
0
100
AcDbLine
 62
7
  6
BYLAYER
 10
128.6765231075
 20
433.1055000881
 11
128.1765221238
 21
432.6054992842
  0
LINE
  5
231
100
AcDbEntity
  8
0
100
AcDbLine
 62
7
  6
BYLAYER
 10
126.9265236717
 20
429.1054986737
 11
126.4265236717
 21
428.6054986737
  0
LINE
  5
232
100
AcDbEntity
  8
0
100
AcDbLine
 62
7
  6
BYLAYER
 10
126.9265236717
 20
424.1054986737
 11
126.4265236717
 21
423.6054986737
  0
LINE
  5
233
100
AcDbEntity
  8
0
100
AcDbLine
 62
7
  6
BYLAYER
 10
141.9265236717
 20
422.8054986737
 11
141.7265236717
 21
422.6054986737
  0
LINE
  5
234
100
AcDbEntity
  8
0
100
AcDbLine
 62
7
  6
BYLAYER
 10
149.4265236717
 20
429.1054986737
 11
148.9265236717
 21
428.6054986737
  0
LINE
  5
235
100
AcDbEntity
  8
4
100
AcDbLine
 62
7
  6
BYLAYER
 10
217.4181844868
 20
83.9536737969
 11
172.4181844868
 21
83.9536737969
  0
LINE
  5
236
100
AcDbEntity
  8
4
100
AcDbLine
 62
7
  6
BYLAYER
 10
200.7181844868
 20
90.7036737969
 11
214.2181844868
 21
90.7036737969
  0
LINE
  5
237
100
AcDbEntity
  8
4
100
AcDbLine
 62
7
  6
BYLAYER
 10
172.4181844868
 20
90.9536737969
 11
172.1762829346
 21
90.9536737969
  0
LINE
  5
238
100
AcDbEntity
  8
4
100
AcDbLine
 62
7
  6
BYLAYER
 10
172.4181844868
 20
96.9536737969
 11
172.1762829346
 21
96.9536737969
  0
LINE
  5
239
100
AcDbEntity
  8
4
100
AcDbLine
 62
7
  6
BYLAYER
 10
214.2181844868
 20
97.2036737969
 11
200.7181844868
 21
97.2036737969
  0
LINE
  5
23A
100
AcDbEntity
  8
4
100
AcDbLine
 62
7
  6
BYLAYER
 10
200.7181844868
 20
120.7036737969
 11
214.2181844868
 21
120.7036737969
  0
LINE
  5
23B
100
AcDbEntity
  8
4
100
AcDbLine
 62
7
  6
BYLAYER
 10
172.4181844868
 20
120.9536737969
 11
172.1762829346
 21
120.9536737969
  0
LINE
  5
23C
100
AcDbEntity
  8
4
100
AcDbLine
 62
7
  6
BYLAYER
 10
172.4181844868
 20
126.9536737969
 11
172.1762829346
 21
126.9536737969
  0
LINE
  5
23D
100
AcDbEntity
  8
4
100
AcDbLine
 62
7
  6
BYLAYER
 10
214.2181844868
 20
127.2036737969
 11
200.7181844868
 21
127.2036737969
  0
LINE
  5
23E
100
AcDbEntity
  8
4
100
AcDbLine
 62
7
  6
BYLAYER
 10
172.4181844868
 20
133.9536737969
 11
217.4181844868
 21
133.9536737969
  0
LINE
  5
23F
100
AcDbEntity
  8
3
100
AcDbLine
 62
7
  6
BYLAYER
 10
117.1762656197
 20
405.1055114822
 11
117.1762656197
 21
56.6055114822
  0
LINE
  5
240
100
AcDbEntity
  8
0
100
AcDbLine
 62
7
  6
BYLAYER
 10
117.1765236717
 20
421.6054986737
 11
117.1765236717
 21
405.1054986737
  0
LINE
  5
241
100
AcDbEntity
  8
0
100
AcDbLine
 62
7
  6
BYLAYER
 10
117.1767644089
 20
56.6053885352
 11
117.1767644089
 21
40.1053885352
  0
LINE
  5
242
100
AcDbEntity
  8
3
100
AcDbLine
 62
7
  6
BYLAYER
 10
118.6268233639
 20
56.6055114822
 11
118.6268233639
 21
405.1055114822
  0
LINE
  5
243
100
AcDbEntity
  8
0
100
AcDbLine
 62
7
  6
BYLAYER
 10
118.627081416
 20
405.1054986737
 11
118.627081416
 21
421.6054986737
  0
LINE
  5
244
100
AcDbEntity
  8
0
100
AcDbLine
 62
7
  6
BYLAYER
 10
118.6273221531
 20
40.1053885352
 11
118.6273221531
 21
56.6053885352
  0
LINE
  5
245
100
AcDbEntity
  8
0
100
AcDbLine
 62
7
  6
BYLAYER
 10
122.2644419799
 20
421.6054986737
 11
122.2644419799
 21
419.6054986737
  0
LINE
  5
246
100
AcDbEntity
  8
0
100
AcDbLine
 62
7
  6
BYLAYER
 10
122.2646827171
 20
42.1053885352
 11
122.2646827171
 21
40.1053885352
  0
LINE
  5
247
100
AcDbEntity
  8
3
100
AcDbLine
 62
7
  6
BYLAYER
 10
122.8296037872
 20
405.1055114822
 11
122.8296037872
 21
56.6055114822
  0
LINE
  5
248
100
AcDbEntity
  8
0
100
AcDbLine
 62
7
  6
BYLAYER
 10
122.8298618392
 20
419.6054986737
 11
122.8298618392
 21
405.1054986737
  0
LINE
  5
249
100
AcDbEntity
  8
0
100
AcDbLine
 62
7
  6
BYLAYER
 10
122.8301025764
 20
56.6053885352
 11
122.8301025764
 21
42.1053885352
  0
LINE
  5
24A
100
AcDbEntity
  8
0
100
AcDbLine
 62
7
  6
BYLAYER
 10
124.1765236717
 20
420.6054986737
 11
124.1765236717
 21
421.6054986737
  0
LINE
  5
24B
100
AcDbEntity
  8
0
100
AcDbLine
 62
7
  6
BYLAYER
 10
124.1767644089
 20
40.1053885352
 11
124.1767644089
 21
41.1053885352
  0
LINE
  5
24C
100
AcDbEntity
  8
0
100
AcDbLine
 62
7
  6
BYLAYER
 10
124.3765236717
 20
420.2070975504
 11
124.3765236717
 21
421.7054986737
  0
LINE
  5
24D
100
AcDbEntity
  8
0
100
AcDbLine
 62
7
  6
BYLAYER
 10
124.3767762877
 20
41.5038015374
 11
124.3767762877
 21
40.0054986737
  0
LINE
  5
24E
100
AcDbEntity
  8
3
100
AcDbLine
 62
7
  6
BYLAYER
 10
125.5768150661
 20
56.6055114822
 11
125.5768150661
 21
405.1055114822
  0
LINE
  5
24F
100
AcDbEntity
  8
0
100
AcDbLine
 62
7
  6
BYLAYER
 10
125.5770731181
 20
405.1054986737
 11
125.5770731181
 21
420.1054986737
  0
LINE
  5
250
100
AcDbEntity
  8
0
100
AcDbLine
 62
7
  6
BYLAYER
 10
125.5773138553
 20
41.6053885352
 11
125.5773138553
 21
56.6053885352
  0
LINE
  5
251
100
AcDbEntity
  8
0
100
AcDbLine
 62
7
  6
BYLAYER
 10
126.4265236717
 20
422.7054986737
 11
126.4265236717
 21
428.6054986737
  0
LINE
  5
252
100
AcDbEntity
  8
0
100
AcDbLine
 62
7
  6
BYLAYER
 10
128.1765236717
 20
425.1054986737
 11
128.1765236717
 21
432.6054977363
  0
LINE
  5
253
100
AcDbEntity
  8
0
100
AcDbLine
 62
7
  6
BYLAYER
 10
128.6765236717
 20
424.1054986737
 11
128.6765236717
 21
425.1054986737
  0
LINE
  5
254
100
AcDbEntity
  8
0
100
AcDbLine
 62
7
  6
BYLAYER
 10
130.6765235989
 20
420.1054986737
 11
130.6765235989
 21
419.6054986737
  0
LINE
  5
255
100
AcDbEntity
  8
0
100
AcDbLine
 62
7
  6
BYLAYER
 10
130.6767643414
 20
42.1053885352
 11
130.6767643414
 21
41.6053885352
  0
LINE
  5
256
100
AcDbEntity
  8
0
100
AcDbLine
 62
7
  6
BYLAYER
 10
130.9765236717
 20
420.209681109
 11
130.9765236717
 21
421.7054986737
  0
LINE
  5
257
100
AcDbEntity
  8
0
100
AcDbLine
 62
7
  6
BYLAYER
 10
130.9767762877
 20
41.5013257903
 11
130.9767762877
 21
40.0054986737
  0
LINE
  5
258
100
AcDbEntity
  8
0
100
AcDbLine
 62
7
  6
BYLAYER
 10
131.1765236717
 20
421.6054986737
 11
131.1765236717
 21
420.6054986737
  0
LINE
  5
259
100
AcDbEntity
  8
0
100
AcDbLine
 62
7
  6
BYLAYER
 10
131.1767644089
 20
41.1053885352
 11
131.1767644089
 21
40.1053885352
  0
LINE
  5
25A
100
AcDbEntity
  8
0
100
AcDbLine
 62
7
  6
BYLAYER
 10
132.1765236717
 20
420.6054986737
 11
132.1765236717
 21
422.6054986737
  0
LINE
  5
25B
100
AcDbEntity
  8
0
100
AcDbLine
 62
7
  6
BYLAYER
 10
132.1767644089
 20
39.1053885352
 11
132.1767644089
 21
41.1053885352
  0
LINE
  5
25C
100
AcDbEntity
  8
0
100
AcDbLine
 62
7
  6
BYLAYER
 10
139.6765236717
 20
425.1054986737
 11
139.6765236717
 21
424.1054986737
  0
LINE
  5
25D
100
AcDbEntity
  8
3
100
AcDbLine
 62
7
  6
BYLAYER
 10
140.1762656197
 20
405.1055114822
 11
140.1762656197
 21
56.6055114822
  0
LINE
  5
25E
100
AcDbEntity
  8
0
100
AcDbLine
 62
7
  6
BYLAYER
 10
140.1765236717
 20
421.6054986737
 11
140.1765236717
 21
405.1054986737
  0
LINE
  5
25F
100
AcDbEntity
  8
0
100
AcDbLine
 62
7
  6
BYLAYER
 10
140.1765236717
 20
425.1054986737
 11
140.1765236717
 21
432.6054977363
  0
LINE
  5
260
100
AcDbEntity
  8
0
100
AcDbLine
 62
7
  6
BYLAYER
 10
140.1767644089
 20
56.6053885352
 11
140.1767644089
 21
40.1053885352
  0
LINE
  5
261
100
AcDbEntity
  8
3
100
AcDbLine
 62
7
  6
BYLAYER
 10
140.6762656197
 20
56.6055114822
 11
140.6762656197
 21
405.1055114822
  0
LINE
  5
262
100
AcDbEntity
  8
0
100
AcDbLine
 62
7
  6
BYLAYER
 10
140.6765236717
 20
405.1054986737
 11
140.6765236717
 21
421.6054986736
  0
LINE
  5
263
100
AcDbEntity
  8
0
100
AcDbLine
 62
7
  6
BYLAYER
 10
140.6767644089
 20
40.1053885353
 11
140.6767644089
 21
56.6053885352
  0
LINE
  5
264
100
AcDbEntity
  8
0
100
AcDbLine
 62
7
  6
BYLAYER
 10
141.9265236717
 20
422.6054986737
 11
141.9265236717
 21
428.6054986737
  0
LINE
  5
265
100
AcDbEntity
  8
3
100
AcDbLine
 62
7
  6
BYLAYER
 10
148.6762656197
 20
405.1055114822
 11
148.6762656197
 21
56.6055114822
  0
LINE
  5
266
100
AcDbEntity
  8
0
100
AcDbLine
 62
7
  6
BYLAYER
 10
148.6765236717
 20
421.6054986737
 11
148.6765236717
 21
405.1054986737
  0
LINE
  5
267
100
AcDbEntity
  8
0
100
AcDbLine
 62
7
  6
BYLAYER
 10
148.6767644089
 20
56.6053885352
 11
148.6767644089
 21
40.1053885353
  0
LINE
  5
268
100
AcDbEntity
  8
0
100
AcDbLine
 62
7
  6
BYLAYER
 10
148.9265236717
 20
422.6054986737
 11
148.9265236717
 21
428.6054986737
  0
LINE
  5
269
100
AcDbEntity
  8
3
100
AcDbLine
 62
7
  6
BYLAYER
 10
149.1762656197
 20
56.6055114822
 11
149.1762656197
 21
405.1055114822
  0
LINE
  5
26A
100
AcDbEntity
  8
0
100
AcDbLine
 62
7
  6
BYLAYER
 10
149.1765236717
 20
405.1054986737
 11
149.1765236717
 21
421.6054986737
  0
LINE
  5
26B
100
AcDbEntity
  8
0
100
AcDbLine
 62
7
  6
BYLAYER
 10
149.1767644089
 20
40.1053885352
 11
149.1767644089
 21
56.6053885352
  0
LINE
  5
26C
100
AcDbEntity
  8
0
100
AcDbLine
 62
7
  6
BYLAYER
 10
152.5502636717
 20
430.3054986737
 11
152.5502636717
 21
429.1054986737
  0
LINE
  5
26D
100
AcDbEntity
  8
0
100
AcDbLine
 62
7
  6
BYLAYER
 10
160.8002636717
 20
430.3054986737
 11
160.8002636717
 21
429.1054986737
  0
LINE
  5
26E
100
AcDbEntity
  8
0
100
AcDbLine
 62
7
  6
BYLAYER
 10
163.1765236717
 20
422.6054986737
 11
163.1765236717
 21
420.6054986737
  0
LINE
  5
26F
100
AcDbEntity
  8
0
100
AcDbLine
 62
7
  6
BYLAYER
 10
163.1767644089
 20
41.1053885352
 11
163.1767644089
 21
39.1053885352
  0
LINE
  5
270
100
AcDbEntity
  8
0
100
AcDbLine
 62
7
  6
BYLAYER
 10
164.1765236717
 20
420.6054986737
 11
164.1765236717
 21
421.6054986737
  0
LINE
  5
271
100
AcDbEntity
  8
0
100
AcDbLine
 62
7
  6
BYLAYER
 10
164.1767644089
 20
40.1053885352
 11
164.1767644089
 21
41.1053885352
  0
LINE
  5
272
100
AcDbEntity
  8
0
100
AcDbLine
 62
7
  6
BYLAYER
 10
164.3765236717
 20
420.2095656682
 11
164.3765236717
 21
421.7054986737
  0
LINE
  5
273
100
AcDbEntity
  8
0
100
AcDbLine
 62
7
  6
BYLAYER
 10
164.3767644089
 20
41.5012061004
 11
164.3767644089
 21
40.0054986737
  0
LINE
  5
274
100
AcDbEntity
  8
0
100
AcDbLine
 62
7
  6
BYLAYER
 10
164.4265236717
 20
422.6054986737
 11
164.4265236717
 21
428.6054986737
  0
LINE
  5
275
100
AcDbEntity
  8
0
100
AcDbLine
 62
7
  6
BYLAYER
 10
164.6765237443
 20
419.6054986737
 11
164.6765237443
 21
420.1054986737
  0
LINE
  5
276
100
AcDbEntity
  8
0
100
AcDbLine
 62
7
  6
BYLAYER
 10
164.6767644818
 20
41.6053885352
 11
164.6767644818
 21
42.1053885352
  0
LINE
  5
277
100
AcDbEntity
  8
3
100
AcDbLine
 62
7
  6
BYLAYER
 10
168.1762829346
 20
405.1055114822
 11
168.1762829346
 21
56.6055114822
  0
LINE
  5
278
100
AcDbEntity
  8
0
100
AcDbLine
 62
7
  6
BYLAYER
 10
168.1765236717
 20
420.1054986737
 11
168.1765236717
 21
405.1054986737
  0
LINE
  5
279
100
AcDbEntity
  8
0
100
AcDbLine
 62
7
  6
BYLAYER
 10
168.1767644089
 20
56.6053885352
 11
168.1767644089
 21
41.6053885352
  0
LINE
  5
27A
100
AcDbEntity
  8
0
100
AcDbLine
 62
7
  6
BYLAYER
 10
170.9765236717
 20
420.1054986737
 11
170.9765236717
 21
421.7054986737
  0
LINE
  5
27B
100
AcDbEntity
  8
0
100
AcDbLine
 62
7
  6
BYLAYER
 10
170.9767644089
 20
41.6054986737
 11
170.9767644089
 21
40.0054986737
  0
LINE
  5
27C
100
AcDbEntity
  8
0
100
AcDbLine
 62
7
  6
BYLAYER
 10
171.1765236717
 20
422.6054986737
 11
171.1765236734
 21
420.6054986737
  0
LINE
  5
27D
100
AcDbEntity
  8
0
100
AcDbLine
 62
7
  6
BYLAYER
 10
171.1767644106
 20
41.1053885352
 11
171.1767644089
 21
39.1053885352
  0
LINE
  5
27E
100
AcDbEntity
  8
3
100
AcDbLine
 62
7
  6
BYLAYER
 10
172.1762829346
 20
56.6055114822
 11
172.1762829346
 21
405.1055114822
  0
LINE
  5
27F
100
AcDbEntity
  8
0
100
AcDbLine
 62
7
  6
BYLAYER
 10
172.1765236717
 20
405.1054986737
 11
172.1765236717
 21
421.6054986737
  0
LINE
  5
280
100
AcDbEntity
  8
0
100
AcDbLine
 62
7
  6
BYLAYER
 10
172.1767644089
 20
40.1053885352
 11
172.1767644089
 21
42.0936043096
  0
LINE
  5
281
100
AcDbEntity
  8
0
100
AcDbLine
 62
7
  6
BYLAYER
 10
172.1767644089
 20
42.1053885352
 11
172.1767644089
 21
56.6053885352
  0
LINE
  5
282
100
AcDbEntity
  8
4
100
AcDbLine
 62
7
  6
BYLAYER
 10
172.4181844868
 20
380.2885762578
 11
172.4181844868
 21
330.2885762578
  0
LINE
  5
283
100
AcDbEntity
  8
4
100
AcDbLine
 62
7
  6
BYLAYER
 10
172.4181844868
 20
133.9536737969
 11
172.4181844868
 21
83.9536737969
  0
LINE
  5
284
100
AcDbEntity
  8
4
100
AcDbLine
 62
7
  6
BYLAYER
 10
179.4181844868
 20
83.9536737969
 11
179.4181844868
 21
133.9536737969
  0
LINE
  5
285
100
AcDbEntity
  8
4
100
AcDbLine
 62
7
  6
BYLAYER
 10
179.4181844868
 20
330.2885762578
 11
179.4181844868
 21
380.2885762578
  0
LINE
  5
286
100
AcDbEntity
  8
4
100
AcDbLine
 62
7
  6
BYLAYER
 10
222.4181844868
 20
375.2885762578
 11
222.4181844868
 21
335.2885762578
  0
LINE
  5
287
100
AcDbEntity
  8
4
100
AcDbLine
 62
7
  6
BYLAYER
 10
222.4181844868
 20
128.9536737969
 11
222.4181844868
 21
88.9536737969
  0
LINE
  5
288
100
AcDbEntity
  8
4
100
AcDbLine
 62
7
  6
BYLAYER
 10
217.4181844868
 20
330.2885762578
 11
172.4181844868
 21
330.2885762578
  0
LINE
  5
289
100
AcDbEntity
  8
4
100
AcDbLine
 62
7
  6
BYLAYER
 10
200.7181844868
 20
337.0385762578
 11
214.2181844868
 21
337.0385762578
  0
LINE
  5
28A
100
AcDbEntity
  8
4
100
AcDbLine
 62
7
  6
BYLAYER
 10
172.4181844868
 20
337.2885762578
 11
172.1762829346
 21
337.2885762578
  0
LINE
  5
28B
100
AcDbEntity
  8
4
100
AcDbLine
 62
7
  6
BYLAYER
 10
172.4181844868
 20
343.2885762578
 11
172.1762829346
 21
343.2885762578
  0
LINE
  5
28C
100
AcDbEntity
  8
4
100
AcDbLine
 62
7
  6
BYLAYER
 10
214.2181844868
 20
343.5385762578
 11
200.7181844868
 21
343.5385762578
  0
LINE
  5
28D
100
AcDbEntity
  8
0
100
AcDbLine
 62
7
  6
BYLAYER
 10
126.5265236717
 20
422.7054986737
 11
126.4265236717
 21
422.8054986737
  0
LINE
  5
28E
100
AcDbEntity
  8
0
100
AcDbLine
 62
7
  6
BYLAYER
 10
141.9265236717
 20
423.6054986737
 11
141.4265236717
 21
424.1054986737
  0
LINE
  5
28F
100
AcDbEntity
  8
0
100
AcDbLine
 62
7
  6
BYLAYER
 10
141.9265236717
 20
428.6054986737
 11
141.4265236717
 21
429.1054986737
  0
LINE
  5
290
100
AcDbEntity
  8
0
100
AcDbLine
 62
7
  6
BYLAYER
 10
140.1765252197
 20
432.6054992842
 11
139.676524236
 21
433.1055000881
  0
LINE
  5
291
100
AcDbEntity
  8
4
100
AcDbLine
 62
7
  6
BYLAYER
 10
200.7181844868
 20
367.0385762578
 11
214.2181844868
 21
367.0385762578
  0
LINE
  5
292
100
AcDbEntity
  8
4
100
AcDbLine
 62
7
  6
BYLAYER
 10
172.4181844868
 20
367.2885762578
 11
172.1762829346
 21
367.2885762578
  0
LINE
  5
293
100
AcDbEntity
  8
4
100
AcDbLine
 62
7
  6
BYLAYER
 10
172.4181844868
 20
373.2885762578
 11
172.1762829346
 21
373.2885762578
  0
LINE
  5
294
100
AcDbEntity
  8
4
100
AcDbLine
 62
7
  6
BYLAYER
 10
214.2181844868
 20
373.5385762578
 11
200.7181844868
 21
373.5385762578
  0
LINE
  5
295
100
AcDbEntity
  8
0
100
AcDbLine
 62
7
  6
BYLAYER
 10
164.4265236717
 20
428.6054986737
 11
163.9265236717
 21
429.1054986737
  0
LINE
  5
296
100
AcDbEntity
  8
4
100
AcDbLine
 62
7
  6
BYLAYER
 10
172.4181844868
 20
380.2885762578
 11
217.4181844868
 21
380.2885762578
  0
LINE
  5
297
100
AcDbEntity
  8
0
100
AcDbLine
 62
7
  6
BYLAYER
 10
117.1765236717
 20
405.1054986737
 11
172.1765236717
 21
405.1054986737
  0
LINE
  5
298
100
AcDbEntity
  8
3
100
AcDbLine
 62
7
  6
BYLAYER
 10
117.1762656197
 20
405.1055114822
 11
172.1762829346
 21
405.1055114822
  0
LINE
  5
299
100
AcDbEntity
  8
0
100
AcDbLine
 62
7
  6
BYLAYER
 10
156.6929255803
 20
418.6054986737
 11
148.6765236717
 21
418.6054986737
  0
LINE
  5
29A
100
AcDbEntity
  8
0
100
AcDbLine
 62
7
  6
BYLAYER
 10
134.1601217632
 20
418.6054986737
 11
142.1765236717
 21
418.6054986737
  0
LINE
  5
29B
100
AcDbEntity
  8
0
100
AcDbLine
 62
7
  6
BYLAYER
 10
134.1603374668
 20
418.6166929247
 11
142.0713146429
 21
418.6166929247
  0
LINE
  5
29C
100
AcDbEntity
  8
0
100
AcDbLine
 62
7
  6
BYLAYER
 10
156.6927096973
 20
418.6167117566
 11
148.7818201564
 21
418.6167117566
  0
LINE
  5
29D
100
AcDbEntity
  8
0
100
AcDbLine
 62
7
  6
BYLAYER
 10
156.6931418695
 20
419.594242857
 11
148.5710290115
 21
419.594242857
  0
LINE
  5
29E
100
AcDbEntity
  8
0
100
AcDbLine
 62
7
  6
BYLAYER
 10
134.1599060596
 20
419.5943044227
 11
142.2817327006
 21
419.5943044227
  0
LINE
  5
29F
100
AcDbEntity
  8
0
100
AcDbLine
 62
7
  6
BYLAYER
 10
122.2644419799
 20
419.6054986737
 11
130.6765236717
 21
419.6054986737
  0
LINE
  5
2A0
100
AcDbEntity
  8
0
100
AcDbLine
 62
7
  6
BYLAYER
 10
164.6765236717
 20
419.6054986737
 11
172.1765236717
 21
419.6054986737
  0
LINE
  5
2A1
100
AcDbEntity
  8
0
100
AcDbLine
 62
7
  6
BYLAYER
 10
124.1267701793
 20
420.1054986737
 11
130.6765236717
 21
420.1054986737
  0
LINE
  5
2A2
100
AcDbEntity
  8
0
100
AcDbLine
 62
7
  6
BYLAYER
 10
164.6765236717
 20
420.1054986737
 11
171.6765236717
 21
420.1054986737
  0
LINE
  5
2A3
100
AcDbEntity
  8
0
100
AcDbLine
 62
7
  6
BYLAYER
 10
172.1765236717
 20
420.6054987426
 11
170.9765236717
 21
420.6054986737
  0
LINE
  5
2A4
100
AcDbEntity
  8
0
100
AcDbLine
 62
7
  6
BYLAYER
 10
164.3765236717
 20
420.6054986737
 11
163.1765236717
 21
420.6054987427
  0
LINE
  5
2A5
100
AcDbEntity
  8
0
100
AcDbLine
 62
7
  6
BYLAYER
 10
132.1765236717
 20
420.6054987426
 11
130.9765236717
 21
420.6054986737
  0
LINE
  5
2A6
100
AcDbEntity
  8
0
100
AcDbLine
 62
7
  6
BYLAYER
 10
124.3765236717
 20
420.6054986737
 11
123.7642084629
 21
420.6054986737
  0
LINE
  5
2A7
100
AcDbEntity
  8
0
100
AcDbLine
 62
7
  6
BYLAYER
 10
117.1765236717
 20
421.6054986737
 11
124.3765236717
 21
421.6054986737
  0
LINE
  5
2A8
100
AcDbEntity
  8
0
100
AcDbLine
 62
7
  6
BYLAYER
 10
130.9765236717
 20
421.6054986737
 11
140.6765236717
 21
421.6054986671
  0
LINE
  5
2A9
100
AcDbEntity
  8
0
100
AcDbLine
 62
7
  6
BYLAYER
 10
148.6765236717
 20
421.6054986736
 11
164.3765236717
 21
421.6054986737
  0
LINE
  5
2AA
100
AcDbEntity
  8
0
100
AcDbLine
 62
7
  6
BYLAYER
 10
170.9765236717
 20
421.6054986737
 11
172.1765236717
 21
421.6054986737
  0
LINE
  5
2AB
100
AcDbEntity
  8
0
100
AcDbLine
 62
7
  6
BYLAYER
 10
124.3765236717
 20
421.7054986737
 11
130.9765236717
 21
421.7054986737
  0
LINE
  5
2AC
100
AcDbEntity
  8
0
100
AcDbLine
 62
7
  6
BYLAYER
 10
164.3765236717
 20
421.7054986737
 11
170.9765236717
 21
421.7054986737
  0
LINE
  5
2AD
100
AcDbEntity
  8
0
100
AcDbLine
 62
7
  6
BYLAYER
 10
140.5350754917
 20
422.1054986737
 11
148.8170073259
 21
422.1054986737
  0
LINE
  5
2AE
100
AcDbEntity
  8
0
100
AcDbLine
 62
7
  6
BYLAYER
 10
171.1765236717
 20
422.6054986737
 11
170.3497288752
 21
422.6054986737
  0
LINE
  5
2AF
100
AcDbEntity
  8
0
100
AcDbLine
 62
7
  6
BYLAYER
 10
118.1765236717
 20
422.6054986737
 11
125.0033184683
 21
422.6054986737
  0
LINE
  5
2B0
100
AcDbEntity
  8
0
100
AcDbLine
 62
7
  6
BYLAYER
 10
130.3497288752
 20
422.6054986737
 11
165.0033184683
 21
422.6054986737
  0
LINE
  5
2B1
100
AcDbEntity
  8
0
100
AcDbLine
 62
7
  6
BYLAYER
 10
125.3766077703
 20
422.7054986737
 11
129.9764310726
 21
422.7054986737
  0
LINE
  5
2B2
100
AcDbEntity
  8
0
100
AcDbLine
 62
7
  6
BYLAYER
 10
165.3766077703
 20
422.7054986737
 11
169.9764310726
 21
422.7054986737
  0
LINE
  5
2B3
100
AcDbEntity
  8
0
100
AcDbLine
 62
7
  6
BYLAYER
 10
141.9265236717
 20
422.8054986737
 11
126.4265236717
 21
422.8054986737
  0
LINE
  5
2B4
100
AcDbEntity
  8
0
100
AcDbLine
 62
7
  6
BYLAYER
 10
126.4265236717
 20
423.6054986737
 11
141.9265236717
 21
423.6054986737
  0
LINE
  5
2B5
100
AcDbEntity
  8
0
100
AcDbLine
 62
7
  6
BYLAYER
 10
164.4264593749
 20
424.1054986737
 11
148.9265879686
 21
424.1054986737
  0
LINE
  5
2B6
100
AcDbEntity
  8
0
100
AcDbLine
 62
7
  6
BYLAYER
 10
126.4265879686
 20
424.1054986737
 11
141.9264593749
 21
424.1054986737
  0
LINE
  5
2B7
100
AcDbEntity
  8
0
100
AcDbLine
 62
7
  6
BYLAYER
 10
140.1765170884
 20
425.1054986737
 11
128.1765302551
 21
425.1054986737
  0
LINE
  5
2B8
100
AcDbEntity
  8
0
100
AcDbLine
 62
7
  6
BYLAYER
 10
164.4265236717
 20
427.1054986737
 11
148.9265236717
 21
427.1054986737
  0
LINE
  5
2B9
100
AcDbEntity
  8
0
100
AcDbLine
 62
7
  6
BYLAYER
 10
141.9265236717
 20
427.1054986737
 11
140.1765236717
 21
427.1054986737
  0
LINE
  5
2BA
100
AcDbEntity
  8
0
100
AcDbLine
 62
7
  6
BYLAYER
 10
128.1765236717
 20
427.1054986737
 11
126.4265236717
 21
427.1054986737
  0
LINE
  5
2BB
100
AcDbEntity
  8
0
100
AcDbLine
 62
7
  6
BYLAYER
 10
126.4265236717
 20
428.6054986737
 11
128.1765236717
 21
428.6054986737
  0
LINE
  5
2BC
100
AcDbEntity
  8
0
100
AcDbLine
 62
7
  6
BYLAYER
 10
140.1765236717
 20
428.6054986737
 11
141.9265236717
 21
428.6054986737
  0
LINE
  5
2BD
100
AcDbEntity
  8
0
100
AcDbLine
 62
7
  6
BYLAYER
 10
148.9265236717
 20
428.6054986737
 11
164.4265236717
 21
428.6054986737
  0
LINE
  5
2BE
100
AcDbEntity
  8
0
100
AcDbLine
 62
7
  6
BYLAYER
 10
126.9265236717
 20
429.1054986737
 11
128.1765236717
 21
429.1054986737
  0
LINE
  5
2BF
100
AcDbEntity
  8
0
100
AcDbLine
 62
7
  6
BYLAYER
 10
140.1765236717
 20
429.1054986737
 11
141.4265236717
 21
429.1054986737
  0
LINE
  5
2C0
100
AcDbEntity
  8
0
100
AcDbLine
 62
7
  6
BYLAYER
 10
149.4265236717
 20
429.1054986737
 11
163.9265236717
 21
429.1054986737
  0
LINE
  5
2C1
100
AcDbEntity
  8
0
100
AcDbLine
 62
7
  6
BYLAYER
 10
152.5502636717
 20
430.3054986737
 11
160.8002636717
 21
430.3054986737
  0
LINE
  5
2C2
100
AcDbEntity
  8
0
100
AcDbLine
 62
7
  6
BYLAYER
 10
152.8502033038
 20
430.6054986737
 11
160.5002855631
 21
430.6054986737
  0
LINE
  5
2C3
100
AcDbEntity
  8
0
100
AcDbLine
 62
7
  6
BYLAYER
 10
128.1765236717
 20
432.6054977363
 11
140.1765236717
 21
432.6054977363
  0
LINE
  5
2C4
100
AcDbEntity
  8
0
100
AcDbLine
 62
7
  6
BYLAYER
 10
128.6765231075
 20
433.1054986737
 11
139.676524236
 21
433.1054986737
  0
ARC
  5
2C5
100
AcDbEntity
  8
0
100
AcDbCircle
 62
7
  6
BYLAYER
 10
145.9037524807
 20
26.5740087681
 40
27.6896077499
100
AcDbArc
 50
146.3934359332
 51
146.902605216
  0
ARC
  5
2C6
100
AcDbEntity
  8
0
100
AcDbCircle
 62
7
  6
BYLAYER
 10
165.3767644089
 20
40.0054986737
 40
1.0
100
AcDbArc
 50
180.0
 51
270.0
  0
ARC
  5
2C7
100
AcDbEntity
  8
0
100
AcDbCircle
 62
7
  6
BYLAYER
 10
129.9767762877
 20
40.0054986737
 40
1.0
100
AcDbArc
 50
270.0
 51
360.0
  0
ARC
  5
2C8
100
AcDbEntity
  8
0
100
AcDbCircle
 62
7
  6
BYLAYER
 10
125.3767762877
 20
40.0054986737
 40
1.0
100
AcDbArc
 50
180.0
 51
270.0
  0
ARC
  5
2C9
100
AcDbEntity
  8
0
100
AcDbCircle
 62
7
  6
BYLAYER
 10
163.1767644089
 20
40.1053885352
 40
1.0
100
AcDbArc
 50
270.0
 51
360.0
  0
ARC
  5
2CA
100
AcDbEntity
  8
0
100
AcDbCircle
 62
7
  6
BYLAYER
 10
149.6767644089
 20
40.1053885352
 40
1.0
100
AcDbArc
 50
179.9999999984
 51
270.0
  0
ARC
  5
2CB
100
AcDbEntity
  8
0
100
AcDbCircle
 62
7
  6
BYLAYER
 10
139.6767644089
 20
40.1053885352
 40
1.0
100
AcDbArc
 50
270.0
 51
360.0
  0
ARC
  5
2CC
100
AcDbEntity
  8
0
100
AcDbCircle
 62
7
  6
BYLAYER
 10
123.1767644089
 20
40.1053885352
 40
1.0
100
AcDbArc
 50
270.0000000003
 51
359.9999999999
  0
ARC
  5
2CD
100
AcDbEntity
  8
0
100
AcDbCircle
 62
7
  6
BYLAYER
 10
132.1767644089
 20
40.1053885352
 40
1.0
100
AcDbArc
 50
180.0
 51
270.0
  0
ARC
  5
2CE
100
AcDbEntity
  8
0
100
AcDbCircle
 62
7
  6
BYLAYER
 10
118.1767644089
 20
40.1053885352
 40
1.0
100
AcDbArc
 50
180.0000000002
 51
270.0000000009
  0
ARC
  5
2CF
100
AcDbEntity
  8
0
100
AcDbCircle
 62
7
  6
BYLAYER
 10
124.6767644089
 20
41.1053885352
 40
0.5
100
AcDbArc
 50
90.0
 51
180.0
  0
ARC
  5
2D0
100
AcDbEntity
  8
0
100
AcDbCircle
 62
7
  6
BYLAYER
 10
164.6767644089
 20
41.1053885352
 40
0.5
100
AcDbArc
 50
90.0
 51
180.0
  0
ARC
  5
2D1
100
AcDbEntity
  8
0
100
AcDbCircle
 62
7
  6
BYLAYER
 10
130.6767644089
 20
41.1053885352
 40
0.5
100
AcDbArc
 50
0.0
 51
90.0
  0
ARC
  5
2D2
100
AcDbEntity
  8
0
100
AcDbCircle
 62
7
  6
BYLAYER
 10
129.9765236717
 20
421.7054986737
 40
1.0
100
AcDbArc
 50
0.0
 51
90.0
  0
ARC
  5
2D3
100
AcDbEntity
  8
0
100
AcDbCircle
 62
7
  6
BYLAYER
 10
125.3765236717
 20
421.7054986737
 40
1.0
100
AcDbArc
 50
90.0
 51
180.0
  0
ARC
  5
2D4
100
AcDbEntity
  8
0
100
AcDbCircle
 62
7
  6
BYLAYER
 10
132.1765236717
 20
421.6054986737
 40
1.0
100
AcDbArc
 50
90.0
 51
180.0
  0
ARC
  5
2D5
100
AcDbEntity
  8
0
100
AcDbCircle
 62
7
  6
BYLAYER
 10
139.6765236717
 20
421.6054986737
 40
1.0
100
AcDbArc
 50
0.0
 51
90.0
  0
ARC
  5
2D6
100
AcDbEntity
  8
0
100
AcDbCircle
 62
7
  6
BYLAYER
 10
118.1765236718
 20
421.6054986737
 40
1.0
100
AcDbArc
 50
90.0000000017
 51
180.0000000003
  0
ARC
  5
2D7
100
AcDbEntity
  8
0
100
AcDbCircle
 62
7
  6
BYLAYER
 10
123.1765236717
 20
421.6054986737
 40
1.0
100
AcDbArc
 50
0.0
 51
90.0
  0
ARC
  5
2D8
100
AcDbEntity
  8
0
100
AcDbCircle
 62
7
  6
BYLAYER
 10
124.6765236717
 20
420.6054986737
 40
0.5
100
AcDbArc
 50
180.0
 51
270.0
  0
ARC
  5
2D9
100
AcDbEntity
  8
0
100
AcDbCircle
 62
7
  6
BYLAYER
 10
130.6765236717
 20
420.6054986737
 40
0.5
100
AcDbArc
 50
270.0
 51
360.0
  0
ARC
  5
2DA
100
AcDbEntity
  8
0
100
AcDbCircle
 62
7
  6
BYLAYER
 10
165.3765236717
 20
421.7054986737
 40
1.0
100
AcDbArc
 50
90.0
 51
180.0
  0
ARC
  5
2DB
100
AcDbEntity
  8
0
100
AcDbCircle
 62
7
  6
BYLAYER
 10
163.1765236717
 20
421.6054986737
 40
1.0
100
AcDbArc
 50
0.0
 51
90.0
  0
ARC
  5
2DC
100
AcDbEntity
  8
0
100
AcDbCircle
 62
7
  6
BYLAYER
 10
149.6765236717
 20
421.6054986737
 40
1.0
100
AcDbArc
 50
90.0
 51
180.0000000008
  0
ARC
  5
2DD
100
AcDbEntity
  8
0
100
AcDbCircle
 62
7
  6
BYLAYER
 10
164.6765236717
 20
420.6054986737
 40
0.5
100
AcDbArc
 50
180.0
 51
270.0
  0
ARC
  5
2DE
100
AcDbEntity
  8
0
100
AcDbCircle
 62
7
  6
BYLAYER
 10
142.1765236717
 20
419.1054986737
 40
0.5
100
AcDbArc
 50
257.8531473856
 51
77.8531473856
  0
ARC
  5
2DF
100
AcDbEntity
  8
0
100
AcDbCircle
 62
7
  6
BYLAYER
 10
148.6765236717
 20
419.1054986737
 40
0.5
100
AcDbArc
 50
102.1803352402
 51
282.1803352402
  0
ARC
  5
2E0
100
AcDbEntity
  8
0
100
AcDbCircle
 62
7
  6
BYLAYER
 10
144.4497210662
 20
434.1800273481
 40
25.9492033336
100
AcDbArc
 50
213.0803197523
 51
213.623639097
  0
ARC
  5
2E1
100
AcDbEntity
  8
0
100
AcDbCircle
 62
7
  6
BYLAYER
 10
152.8502636717
 20
430.3054986737
 40
0.3
100
AcDbArc
 50
90.0
 51
180.0
  0
ARC
  5
2E2
100
AcDbEntity
  8
0
100
AcDbCircle
 62
7
  6
BYLAYER
 10
160.5002636717
 20
430.3054986737
 40
0.3
100
AcDbArc
 50
0.0
 51
90.0
  0
ARC
  5
2E3
100
AcDbEntity
  8
4
100
AcDbCircle
 62
7
  6
BYLAYER
 10
217.4181844868
 20
128.9536737969
 40
5.0
100
AcDbArc
 50
0.0
 51
90.0
  0
ARC
  5
2E4
100
AcDbEntity
  8
4
100
AcDbCircle
 62
7
  6
BYLAYER
 10
217.4181844868
 20
88.9536737969
 40
5.0
100
AcDbArc
 50
270.0
 51
360.0
  0
ARC
  5
2E5
100
AcDbEntity
  8
4
100
AcDbCircle
 62
7
  6
BYLAYER
 10
214.2181844868
 20
123.9536737969
 40
3.25
100
AcDbArc
 50
270.0
 51
90.0
  0
ARC
  5
2E6
100
AcDbEntity
  8
4
100
AcDbCircle
 62
7
  6
BYLAYER
 10
200.7181844868
 20
123.9536737969
 40
3.25
100
AcDbArc
 50
90.0
 51
270.0
  0
ARC
  5
2E7
100
AcDbEntity
  8
4
100
AcDbCircle
 62
7
  6
BYLAYER
 10
200.7181844868
 20
93.9536737969
 40
3.25
100
AcDbArc
 50
90.0
 51
270.0
  0
ARC
  5
2E8
100
AcDbEntity
  8
4
100
AcDbCircle
 62
7
  6
BYLAYER
 10
214.2181844868
 20
93.9536737969
 40
3.25
100
AcDbArc
 50
270.0
 51
90.0
  0
ARC
  5
2E9
100
AcDbEntity
  8
0
100
AcDbCircle
 62
7
  6
BYLAYER
 10
169.9767644089
 20
40.0054986737
 40
1.0
100
AcDbArc
 50
270.0
 51
360.0
  0
ARC
  5
2EA
100
AcDbEntity
  8
0
100
AcDbCircle
 62
7
  6
BYLAYER
 10
171.1767644089
 20
40.1053885352
 40
1.0
100
AcDbArc
 50
270.0
 51
360.0
  0
ARC
  5
2EB
100
AcDbEntity
  8
0
100
AcDbCircle
 62
7
  6
BYLAYER
 10
171.6767644089
 20
42.1053885352
 40
0.5
100
AcDbArc
 50
270.0
 51
360.0
  0
ARC
  5
2EC
100
AcDbEntity
  8
4
100
AcDbCircle
 62
7
  6
BYLAYER
 10
217.4181844868
 20
375.2885762578
 40
5.0
100
AcDbArc
 50
0.0
 51
90.0
  0
ARC
  5
2ED
100
AcDbEntity
  8
4
100
AcDbCircle
 62
7
  6
BYLAYER
 10
217.4181844868
 20
335.2885762578
 40
5.0
100
AcDbArc
 50
270.0
 51
360.0
  0
ARC
  5
2EE
100
AcDbEntity
  8
4
100
AcDbCircle
 62
7
  6
BYLAYER
 10
214.2181844868
 20
370.2885762578
 40
3.25
100
AcDbArc
 50
270.0
 51
90.0
  0
ARC
  5
2EF
100
AcDbEntity
  8
4
100
AcDbCircle
 62
7
  6
BYLAYER
 10
200.7181844868
 20
370.2885762578
 40
3.25
100
AcDbArc
 50
90.0
 51
270.0
  0
ARC
  5
2F0
100
AcDbEntity
  8
4
100
AcDbCircle
 62
7
  6
BYLAYER
 10
200.7181844868
 20
340.2885762578
 40
3.25
100
AcDbArc
 50
90.0
 51
270.0
  0
ARC
  5
2F1
100
AcDbEntity
  8
4
100
AcDbCircle
 62
7
  6
BYLAYER
 10
214.2181844868
 20
340.2885762578
 40
3.25
100
AcDbArc
 50
270.0
 51
90.0
  0
ARC
  5
2F2
100
AcDbEntity
  8
0
100
AcDbCircle
 62
7
  6
BYLAYER
 10
169.9765236717
 20
421.7054986737
 40
1.0
100
AcDbArc
 50
0.0
 51
90.0
  0
ARC
  5
2F3
100
AcDbEntity
  8
0
100
AcDbCircle
 62
7
  6
BYLAYER
 10
171.1765236717
 20
421.6054986737
 40
1.0
100
AcDbArc
 50
0.0
 51
90.0
  0
ARC
  5
2F4
100
AcDbEntity
  8
0
100
AcDbCircle
 62
7
  6
BYLAYER
 10
171.6765236717
 20
419.6054986737
 40
0.5
100
AcDbArc
 50
0.0
 51
90.0
  0
SPLINE
  5
2F5
100
AcDbEntity
  8
0
100
AcDbSpline
 62
7
  6
BYLAYER
 70
0
 71
3
 72
13
 73
9
 74
0
 42
0.0000001
 43
0.0000001
 44
0.0000000001
 40
0.0
 40
0.0
 40
0.0
 40
0.0
 40
0.3392858505
 40
0.6244968205
 40
0.7400572435
 40
0.838438062
 40
0.9230857444
 40
1.0
 40
1.0
 40
1.0
 40
1.0
 10
149.1767658321
 20
40.1053885352
 30
0.0
 10
149.1767658325
 20
39.9687875171
 30
0.0
 10
149.2018875009
 20
39.7167738039
 30
0.0
 10
149.2962974037
 20
39.4299204917
 30
0.0
 10
149.4045435943
 20
39.2593649031
 30
0.0
 10
149.4889671815
 20
39.1722732533
 30
0.0
 10
149.5802809967
 20
39.1180514242
 30
0.0
 10
149.6458006432
 20
39.105395532
 30
0.0
 10
149.6767673498
 20
39.1053885348
 30
0.0
  0
SPLINE
  5
2F6
100
AcDbEntity
  8
0
100
AcDbSpline
 62
7
  6
BYLAYER
 70
0
 71
3
 72
13
 73
9
 74
0
 42
0.0000001
 43
0.0000001
 44
0.0000000001
 40
0.0
 40
0.0
 40
0.0
 40
0.0
 40
0.0769117593
 40
0.1615599832
 40
0.2599401278
 40
0.3754978976
 40
0.6607031278
 40
1.0
 40
1.0
 40
1.0
 40
1.0
 10
139.6767623747
 20
39.1053885349
 30
0.0
 10
139.7077280766
 20
39.1053948739
 30
0.0
 10
139.7732469291
 20
39.1180510597
 30
0.0
 10
139.8645603027
 20
39.1722712826
 30
0.0
 10
139.9489834828
 20
39.2593618742
 30
0.0
 10
140.0572289391
 20
39.4299134735
 30
0.0
 10
140.1516416175
 20
39.7167671148
 30
0.0
 10
140.1767632232
 20
39.9687830781
 30
0.0
 10
140.1767638681
 20
40.1053885352
 30
0.0
  0
SPLINE
  5
2F7
100
AcDbEntity
  8
0
100
AcDbSpline
 62
7
  6
BYLAYER
 70
0
 71
3
 72
14
 73
10
 74
0
 42
0.0000001
 43
0.0000001
 44
0.0000000001
 40
0.0
 40
0.0
 40
0.0
 40
0.0
 40
0.1247554493
 40
0.2497373879
 40
0.3748457258
 40
0.5000187559
 40
0.7495153736
 40
0.8747430248
 40
1.0
 40
1.0
 40
1.0
 40
1.0
 10
163.1767644089
 20
41.1053885352
 30
0.0
 10
163.1767646292
 20
41.188396989
 30
0.0
 10
163.2088968807
 20
41.3556220207
 30
0.0
 10
163.3314011127
 20
41.5762092491
 30
0.0
 10
163.5025146802
 20
41.760829605
 30
0.0
 10
163.7745848844
 20
41.9551479152
 30
0.0
 10
164.0953215592
 20
42.0690363262
 30
0.0
 10
164.4265756349
 20
42.1054060713
 30
0.0
 10
164.5934222552
 20
42.1053885559
 30
0.0
 10
164.6767644089
 20
42.1053885352
 30
0.0
  0
SPLINE
  5
2F8
100
AcDbEntity
  8
0
100
AcDbSpline
 62
7
  6
BYLAYER
 70
0
 71
3
 72
20
 73
16
 74
0
 42
0.0000001
 43
0.0000001
 44
0.0000000001
 40
0.0
 40
0.0
 40
0.0
 40
0.0
 40
0.1238080638
 40
0.2666953726
 40
0.420299857
 40
0.5759579771
 40
0.7251494748
 40
0.793928924
 40
0.8569220493
 40
0.9124045426
 40
0.9574392426
 40
0.9749810012
 40
0.9883988687
 40
0.9969788418
 40
1.0
 40
1.0
 40
1.0
 40
1.0
 10
171.1767643973
 20
41.1053885352
 30
0.0
 10
171.1767644703
 20
41.1352382138
 30
0.0
 10
171.2004472244
 20
41.1986989695
 30
0.0
 10
171.2651241842
 20
41.2767918876
 30
0.0
 10
171.3430609025
 20
41.3532897604
 30
0.0
 10
171.4273503888
 20
41.4248308397
 30
0.0
 10
171.4976210174
 20
41.4812127826
 30
0.0
 10
171.5515341183
 20
41.5222304216
 30
0.0
 10
171.5880206474
 20
41.5488281662
 30
0.0
 10
171.6204264079
 20
41.5712751107
 30
0.0
 10
171.6443804086
 20
41.5866914185
 30
0.0
 10
171.6599909139
 20
41.596235315
 30
0.0
 10
171.6685010012
 20
41.6006763981
 30
0.0
 10
171.6733755784
 20
41.6040762805
 30
0.0
 10
171.6763123228
 20
41.6048174123
 30
0.0
 10
171.6767644006
 20
41.6053885324
 30
0.0
  0
SPLINE
  5
2F9
100
AcDbEntity
  8
0
100
AcDbSpline
 62
7
  6
BYLAYER
 70
0
 71
3
 72
13
 73
9
 74
0
 42
0.0000001
 43
0.0000001
 44
0.0000000001
 40
0.0
 40
0.0
 40
0.0
 40
0.0
 40
0.3554818092
 40
0.51747332
 40
0.6615013205
 40
0.7831694886
 40
0.8795585688
 40
1.0
 40
1.0
 40
1.0
 40
1.0
 10
122.2646827171
 20
40.1053885352
 30
0.0
 10
122.2646827171
 20
39.9776312539
 30
0.0
 10
122.2739788097
 20
39.7914239911
 30
0.0
 10
122.3079082938
 20
39.5557978616
 30
0.0
 10
122.3405080209
 20
39.4058798706
 30
0.0
 10
122.3816453488
 20
39.2806292716
 30
0.0
 10
122.4311966255
 20
39.1740707992
 30
0.0
 10
122.4961181707
 20
39.1053885352
 30
0.0
 10
122.539403845
 20
39.1053885352
 30
0.0
  0
SPLINE
  5
2FA
100
AcDbEntity
  8
0
100
AcDbSpline
 62
7
  6
BYLAYER
 70
0
 71
3
 72
10
 73
6
 74
0
 42
0.0000001
 43
0.0000001
 44
0.0000000001
 40
0.0
 40
0.0
 40
0.0
 40
0.0
 40
0.5192781373
 40
0.7706703291
 40
1.0
 40
1.0
 40
1.0
 40
1.0
 10
122.8422456257
 20
41.8998456255
 30
0.0
 10
123.0579599055
 20
41.8233424373
 30
0.0
 10
123.3837635409
 20
41.7242994496
 30
0.0
 10
123.8143554214
 20
41.630403544
 30
0.0
 10
124.0259308121
 20
41.6053887727
 30
0.0
 10
124.1270108261
 20
41.6053885352
 30
0.0
  0
SPLINE
  5
2FB
100
AcDbEntity
  8
0
100
AcDbSpline
 62
7
  6
BYLAYER
 70
0
 71
3
 72
9
 73
5
 74
0
 42
0.0000001
 43
0.0000001
 44
0.0000000001
 40
0.0
 40
0.0
 40
0.0
 40
0.0
 40
0.2566268573
 40
1.0
 40
1.0
 40
1.0
 40
1.0
 10
122.8301025764
 20
42.1053885352
 30
0.0
 10
122.8301025764
 20
42.0877692795
 30
0.0
 10
122.8311073367
 20
42.019119729
 30
0.0
 10
122.8359707933
 20
41.9504964703
 30
0.0
 10
122.8422456851
 20
41.8998458312
 30
0.0
  0
SPLINE
  5
2FC
100
AcDbEntity
  8
0
100
AcDbSpline
 62
7
  6
BYLAYER
 70
0
 71
3
 72
11
 73
7
 74
0
 42
0.0000001
 43
0.0000001
 44
0.0000000001
 40
0.0
 40
0.0
 40
0.0
 40
0.0
 40
0.2742864213
 40
0.5514542927
 40
0.7962818329
 40
1.0
 40
1.0
 40
1.0
 40
1.0
 10
123.7644491785
 20
41.1053885352
 30
0.0
 10
123.7644491852
 20
41.1673216886
 30
0.0
 10
123.7811428643
 20
41.292523452
 30
0.0
 10
123.8569006366
 20
41.4591078464
 30
0.0
 10
123.9785279927
 20
41.5767485003
 30
0.0
 10
124.0810117951
 20
41.6053885356
 30
0.0
 10
124.1270108221
 20
41.6053885352
 30
0.0
  0
SPLINE
  5
2FD
100
AcDbEntity
  8
0
100
AcDbSpline
 62
7
  6
BYLAYER
 70
0
 71
3
 72
12
 73
8
 74
0
 42
0.0000001
 43
0.0000001
 44
0.0000000001
 40
0.0
 40
0.0
 40
0.0
 40
0.0
 40
0.1003453412
 40
0.2120468593
 40
0.4599434278
 40
0.7263410539
 40
1.0
 40
1.0
 40
1.0
 40
1.0
 10
123.7644491794
 20
41.1053885352
 30
0.0
 10
123.7233861323
 20
41.105388814
 30
0.0
 10
123.6366457948
 20
41.1186301881
 30
0.0
 10
123.4581264025
 20
41.179562012
 30
0.0
 10
123.2313855929
 20
41.301635765
 30
0.0
 10
122.9646998488
 20
41.4830699647
 30
0.0
 10
122.7914767442
 20
41.6208309452
 30
0.0
 10
122.7069622747
 20
41.6943031272
 30
0.0
  0
SPLINE
  5
2FE
100
AcDbEntity
  8
0
100
AcDbSpline
 62
7
  6
BYLAYER
 70
0
 71
3
 72
9
 73
5
 74
0
 42
0.0000001
 43
0.0000001
 44
0.0000000001
 40
0.0
 40
0.0
 40
0.0
 40
0.0
 40
0.2510691642
 40
1.0
 40
1.0
 40
1.0
 40
1.0
 10
122.7069621808
 20
41.6943030192
 30
0.0
 10
122.6688247345
 20
41.7274643595
 30
0.0
 10
122.5182505447
 20
41.8610716603
 30
0.0
 10
122.3723243901
 20
41.9998412623
 30
0.0
 10
122.2646826227
 20
42.1053884312
 30
0.0
  0
SPLINE
  5
2FF
100
AcDbEntity
  8
0
100
AcDbSpline
 62
7
  6
BYLAYER
 70
0
 71
3
 72
9
 73
5
 74
0
 42
0.0000001
 43
0.0000001
 44
0.0000000001
 40
0.0
 40
0.0
 40
0.0
 40
0.0
 40
0.2472785885
 40
1.0
 40
1.0
 40
1.0
 40
1.0
 10
122.2646827171
 20
42.1053885352
 30
0.0
 10
122.3121116441
 20
42.0879542495
 30
0.0
 10
122.5040259499
 20
42.0177559984
 30
0.0
 10
122.6966022325
 20
41.949328117
 30
0.0
 10
122.8422456851
 20
41.8998458312
 30
0.0
  0
SPLINE
  5
300
100
AcDbEntity
  8
0
100
AcDbSpline
 62
7
  6
BYLAYER
 70
0
 71
3
 72
13
 73
9
 74
0
 42
0.0000001
 43
0.0000001
 44
0.0000000001
 40
0.0
 40
0.0
 40
0.0
 40
0.0
 40
0.1203849781
 40
0.2167041628
 40
0.338332266
 40
0.4823465581
 40
0.6444003142
 40
1.0
 40
1.0
 40
1.0
 40
1.0
 10
118.902043281
 20
39.1053885352
 30
0.0
 10
118.8587777277
 20
39.1053885352
 30
0.0
 10
118.7938801595
 20
39.1740085826
 30
0.0
 10
118.7443328723
 20
39.2805103728
 30
0.0
 10
118.7031919327
 20
39.4057120393
 30
0.0
 10
118.6705764074
 20
39.5556308316
 30
0.0
 10
118.6366250421
 20
39.7913153546
 30
0.0
 10
118.6273221531
 20
39.9775883942
 30
0.0
 10
118.6273221531
 20
40.1053885352
 30
0.0
  0
SPLINE
  5
301
100
AcDbEntity
  8
0
100
AcDbSpline
 62
7
  6
BYLAYER
 70
0
 71
3
 72
14
 73
10
 74
0
 42
0.0000001
 43
0.0000001
 44
0.0000000001
 40
0.0
 40
0.0
 40
0.0
 40
0.0
 40
0.1247548922
 40
0.2497370872
 40
0.3748455166
 40
0.5000186734
 40
0.7495155103
 40
0.8747430806
 40
1.0
 40
1.0
 40
1.0
 40
1.0
 10
132.1767644089
 20
41.1053885352
 30
0.0
 10
132.1767642732
 20
41.1883966175
 30
0.0
 10
132.1446320779
 20
41.3556214373
 30
0.0
 10
132.0221281624
 20
41.5762086779
 30
0.0
 10
131.8510144597
 20
41.7608293576
 30
0.0
 10
131.5789440577
 20
41.9551478793
 30
0.0
 10
131.2582071982
 20
42.0690364297
 30
0.0
 10
130.9269530457
 20
42.1054058753
 30
0.0
 10
130.7601065247
 20
42.1053885391
 30
0.0
 10
130.6767644089
 20
42.1053885352
 30
0.0
  0
SPLINE
  5
302
100
AcDbEntity
  8
0
100
AcDbSpline
 62
7
  6
BYLAYER
 70
0
 71
3
 72
9
 73
5
 74
0
 42
0.0000001
 43
0.0000001
 44
0.0000000001
 40
0.0
 40
0.0
 40
0.0
 40
0.0
 40
0.2481650378
 40
1.0
 40
1.0
 40
1.0
 40
1.0
 10
122.2644418477
 20
419.6054988195
 30
0.0
 10
122.3001092726
 20
419.6404721739
 30
0.0
 10
122.4445503265
 20
419.7806582206
 30
0.0
 10
122.5925196761
 20
419.9172833395
 30
0.0
 10
122.706721406
 20
420.016584233
 30
0.0
  0
SPLINE
  5
303
100
AcDbEntity
  8
0
100
AcDbSpline
 62
7
  6
BYLAYER
 70
0
 71
3
 72
9
 73
5
 74
0
 42
0.0000001
 43
0.0000001
 44
0.0000000001
 40
0.0
 40
0.0
 40
0.0
 40
0.0
 40
0.2472783312
 40
1.0
 40
1.0
 40
1.0
 40
1.0
 10
122.2644419799
 20
419.6054986737
 30
0.0
 10
122.3118708593
 20
419.622932929
 30
0.0
 10
122.5037877431
 20
419.69312408
 30
0.0
 10
122.6963614505
 20
419.7615590854
 30
0.0
 10
122.8420049479
 20
419.8110413777
 30
0.0
  0
SPLINE
  5
304
100
AcDbEntity
  8
0
100
AcDbSpline
 62
7
  6
BYLAYER
 70
0
 71
3
 72
12
 73
8
 74
0
 42
0.0000001
 43
0.0000001
 44
0.0000000001
 40
0.0
 40
0.0
 40
0.0
 40
0.0
 40
0.1003457233
 40
0.212047276
 40
0.4599435574
 40
0.7263411187
 40
1.0
 40
1.0
 40
1.0
 40
1.0
 10
123.7642084629
 20
420.6054986737
 30
0.0
 10
123.7231452588
 20
420.6054983969
 30
0.0
 10
123.6364047468
 20
420.5922569707
 30
0.0
 10
123.4578853482
 20
420.531324998
 30
0.0
 10
123.2311446666
 20
420.4092512982
 30
0.0
 10
122.9644590344
 20
420.2278172218
 30
0.0
 10
122.7912359817
 20
420.0900562551
 30
0.0
 10
122.7067215375
 20
420.0165840817
 30
0.0
  0
SPLINE
  5
305
100
AcDbEntity
  8
0
100
AcDbSpline
 62
7
  6
BYLAYER
 70
0
 71
3
 72
11
 73
7
 74
0
 42
0.0000001
 43
0.0000001
 44
0.0000000001
 40
0.0
 40
0.0
 40
0.0
 40
0.0
 40
0.2037181708
 40
0.4485457117
 40
0.7257135813
 40
1.0
 40
1.0
 40
1.0
 40
1.0
 10
124.126770103
 20
420.1054986737
 30
0.0
 10
124.0807710751
 20
420.1054986734
 30
0.0
 10
123.9782872714
 20
420.1341387085
 30
0.0
 10
123.8566599146
 20
420.2517793631
 30
0.0
 10
123.7809021442
 20
420.418363758
 30
0.0
 10
123.7642084673
 20
420.5435655208
 30
0.0
 10
123.7642084618
 20
420.6054986737
 30
0.0
  0
SPLINE
  5
306
100
AcDbEntity
  8
0
100
AcDbSpline
 62
7
  6
BYLAYER
 70
0
 71
3
 72
10
 73
6
 74
0
 42
0.0000001
 43
0.0000001
 44
0.0000000001
 40
0.0
 40
0.0
 40
0.0
 40
0.0
 40
0.2293296864
 40
0.4807218845
 40
1.0
 40
1.0
 40
1.0
 40
1.0
 10
124.1267700824
 20
420.1054986737
 30
0.0
 10
124.025690062
 20
420.1054984373
 30
0.0
 10
123.8141146622
 20
420.0804836662
 30
0.0
 10
123.3835227838
 20
419.9865877609
 30
0.0
 10
123.0577191542
 20
419.8875447817
 30
0.0
 10
122.8420048854
 20
419.8110415941
 30
0.0
  0
SPLINE
  5
307
100
AcDbEntity
  8
0
100
AcDbSpline
 62
7
  6
BYLAYER
 70
0
 71
3
 72
9
 73
5
 74
0
 42
0.0000001
 43
0.0000001
 44
0.0000000001
 40
0.0
 40
0.0
 40
0.0
 40
0.0
 40
0.2408658181
 40
1.0
 40
1.0
 40
1.0
 40
1.0
 10
122.8420049479
 20
419.8110413777
 30
0.0
 10
122.8399717439
 20
419.7946294478
 30
0.0
 10
122.8327327617
 20
419.7263463712
 30
0.0
 10
122.8298618392
 20
419.6576193952
 30
0.0
 10
122.8298618392
 20
419.6054986737
 30
0.0
  0
SPLINE
  5
308
100
AcDbEntity
  8
0
100
AcDbSpline
 62
7
  6
BYLAYER
 70
0
 71
3
 72
13
 73
9
 74
0
 42
0.0000001
 43
0.0000001
 44
0.0000000001
 40
0.0
 40
0.0
 40
0.0
 40
0.0
 40
0.3392858711
 40
0.6244968413
 40
0.7400572659
 40
0.8384380723
 40
0.9230857481
 40
1.0
 40
1.0
 40
1.0
 40
1.0
 10
140.176522364
 20
421.6054986737
 30
0.0
 10
140.1765223636
 20
421.7420997025
 30
0.0
 10
140.1514006948
 20
421.9941134305
 30
0.0
 10
140.0569907734
 20
422.2809667486
 30
0.0
 10
139.9487445904
 20
422.4515223426
 30
0.0
 10
139.8643209923
 20
422.5386139763
 30
0.0
 10
139.7730071789
 20
422.5928357921
 30
0.0
 10
139.7074875344
 20
422.6054916799
 30
0.0
 10
139.6765208289
 20
422.6054986741
 30
0.0
  0
SPLINE
  5
309
100
AcDbEntity
  8
0
100
AcDbSpline
 62
7
  6
BYLAYER
 70
0
 71
3
 72
13
 73
9
 74
0
 42
0.0000001
 43
0.0000001
 44
0.0000000001
 40
0.0
 40
0.0
 40
0.0
 40
0.0
 40
0.0769117555
 40
0.161559974
 40
0.2599401127
 40
0.3754978776
 40
0.6607031082
 40
1.0
 40
1.0
 40
1.0
 40
1.0
 10
149.6765256136
 20
422.6054986741
 30
0.0
 10
149.6455599127
 20
422.6054923379
 30
0.0
 10
149.5800410617
 20
422.592836159
 30
0.0
 10
149.4887276874
 20
422.5386159455
 30
0.0
 10
149.4043045058
 20
422.4515253615
 30
0.0
 10
149.2960590441
 20
422.2809737667
 30
0.0
 10
149.2016463574
 20
421.9941201163
 30
0.0
 10
149.1765247487
 20
421.7421041409
 30
0.0
 10
149.1765241037
 20
421.6054986738
 30
0.0
  0
SPLINE
  5
30A
100
AcDbEntity
  8
0
100
AcDbSpline
 62
7
  6
BYLAYER
 70
0
 71
3
 72
20
 73
16
 74
0
 42
0.0000001
 43
0.0000001
 44
0.0000000001
 40
0.0
 40
0.0
 40
0.0
 40
0.0
 40
0.0030211582
 40
0.0116011313
 40
0.0250189988
 40
0.0425607574
 40
0.0875954574
 40
0.1430779508
 40
0.2060710762
 40
0.2748505254
 40
0.4240420232
 40
0.5797001434
 40
0.7333046278
 40
0.8761919364
 40
1.0
 40
1.0
 40
1.0
 40
1.0
 10
171.6765236643
 20
420.1054986766
 30
0.0
 10
171.676071556
 20
420.1060697725
 30
0.0
 10
171.6731348835
 20
420.1068109612
 30
0.0
 10
171.6682602404
 20
420.1102107915
 30
0.0
 10
171.6597501878
 20
420.114651902
 30
0.0
 10
171.6441396639
 20
420.1241957838
 30
0.0
 10
171.6201856754
 20
420.1396121013
 30
0.0
 10
171.5877799099
 20
420.1620590419
 30
0.0
 10
171.5512933825
 20
420.1886567878
 30
0.0
 10
171.4973802811
 20
420.2296744263
 30
0.0
 10
171.4271096529
 20
420.2860563696
 30
0.0
 10
171.3428201666
 20
420.3575974489
 30
0.0
 10
171.2648834485
 20
420.4340953217
 30
0.0
 10
171.2002064889
 20
420.5121882397
 30
0.0
 10
171.1765237349
 20
420.5756489952
 30
0.0
 10
171.1765236618
 20
420.6054986737
 30
0.0
  0
SPLINE
  5
30B
100
AcDbEntity
  8
0
100
AcDbSpline
 62
7
  6
BYLAYER
 70
0
 71
3
 72
14
 73
10
 74
0
 42
0.0000001
 43
0.0000001
 44
0.0000000001
 40
0.0
 40
0.0
 40
0.0
 40
0.0
 40
0.124755068
 40
0.2497371838
 40
0.3748455004
 40
0.5000186091
 40
0.7495154875
 40
0.8747430736
 40
1.0
 40
1.0
 40
1.0
 40
1.0
 10
163.1765236717
 20
420.6054986737
 30
0.0
 10
163.1765238921
 20
420.5224904745
 30
0.0
 10
163.2086560185
 20
420.3552655876
 30
0.0
 10
163.3311600354
 20
420.1346783955
 30
0.0
 10
163.502273639
 20
419.9500578605
 30
0.0
 10
163.7743439599
 20
419.7557393629
 30
0.0
 10
164.09508082
 20
419.64185078
 30
0.0
 10
164.4263350152
 20
419.6054813386
 30
0.0
 10
164.5931815513
 20
419.605498653
 30
0.0
 10
164.6765236717
 20
419.6054986737
 30
0.0
  0
SPLINE
  5
30C
100
AcDbEntity
  8
0
100
AcDbSpline
 62
7
  6
BYLAYER
 70
0
 71
3
 72
14
 73
10
 74
0
 42
0.0000001
 43
0.0000001
 44
0.0000000001
 40
0.0
 40
0.0
 40
0.0
 40
0.0
 40
0.1247554493
 40
0.2497373879
 40
0.3748457258
 40
0.5000187559
 40
0.7495153736
 40
0.8747430248
 40
1.0
 40
1.0
 40
1.0
 40
1.0
 10
132.1765236717
 20
420.6054986737
 30
0.0
 10
132.1765234514
 20
420.52249022
 30
0.0
 10
132.1443912
 20
420.3552651883
 30
0.0
 10
132.0218869679
 20
420.1346779598
 30
0.0
 10
131.8507734005
 20
419.950057604
 30
0.0
 10
131.5787031963
 20
419.7557392938
 30
0.0
 10
131.2579665215
 20
419.6418508827
 30
0.0
 10
130.9267124458
 20
419.6054811376
 30
0.0
 10
130.7598658254
 20
419.605498653
 30
0.0
 10
130.6765236717
 20
419.6054986737
 30
0.0
  0
SPLINE
  5
30D
100
AcDbEntity
  8
0
100
AcDbSpline
 62
7
  6
BYLAYER
 70
0
 71
3
 72
13
 73
9
 74
0
 42
0.0000001
 43
0.0000001
 44
0.0000000001
 40
0.0
 40
0.0
 40
0.0
 40
0.0
 40
0.3554818092
 40
0.51747332
 40
0.6615013205
 40
0.7831694886
 40
0.8795585688
 40
1.0
 40
1.0
 40
1.0
 40
1.0
 10
118.6270814159
 20
421.6054986737
 30
0.0
 10
118.6270814159
 20
421.7332559551
 30
0.0
 10
118.6363775085
 20
421.9194632179
 30
0.0
 10
118.6703069927
 20
422.1550893473
 30
0.0
 10
118.7029067198
 20
422.3050073383
 30
0.0
 10
118.7440440476
 20
422.4302579373
 30
0.0
 10
118.7935953244
 20
422.5368164098
 30
0.0
 10
118.8585168695
 20
422.6054986737
 30
0.0
 10
118.9018025438
 20
422.6054986737
 30
0.0
  0
SPLINE
  5
30E
100
AcDbEntity
  8
0
100
AcDbSpline
 62
7
  6
BYLAYER
 70
0
 71
3
 72
13
 73
9
 74
0
 42
0.0000001
 43
0.0000001
 44
0.0000000001
 40
0.0
 40
0.0
 40
0.0
 40
0.0
 40
0.1203849781
 40
0.2167041628
 40
0.338332266
 40
0.4823465581
 40
0.6444003142
 40
1.0
 40
1.0
 40
1.0
 40
1.0
 10
122.5391631078
 20
422.6054986737
 30
0.0
 10
122.4958975544
 20
422.6054986737
 30
0.0
 10
122.4309999862
 20
422.5368786263
 30
0.0
 10
122.3814526991
 20
422.4303768361
 30
0.0
 10
122.3403117595
 20
422.3051751697
 30
0.0
 10
122.3076962342
 20
422.1552563773
 30
0.0
 10
122.2737448689
 20
421.9195718543
 30
0.0
 10
122.2644419799
 20
421.7332988147
 30
0.0
 10
122.2644419799
 20
421.6054986737
 30
0.0
  0
SPLINE
  5
30F
100
AcDbEntity
  8
0
100
AcDbSpline
 62
7
  6
BYLAYER
 70
0
 71
3
 72
15
 73
11
 74
0
 42
0.0000001
 43
0.0000001
 44
0.0000000001
 40
0.0
 40
0.0
 40
0.0
 40
0.0
 40
0.0669617425
 40
0.186153423
 40
0.3431991328
 40
0.519156981
 40
0.6928039503
 40
0.8431957534
 40
0.9521930809
 40
1.0
 40
1.0
 40
1.0
 40
1.0
 10
134.1931412839
 20
419.5943044227
 30
0.0
 10
134.1933491304
 20
419.5724844022
 30
0.0
 10
134.1935244365
 20
419.5118324472
 30
0.0
 10
134.1937876101
 20
419.3999036332
 30
0.0
 10
134.1939270137
 20
419.2530380017
 30
0.0
 10
134.1939474287
 20
419.0858011842
 30
0.0
 10
134.1939814542
 20
418.9305270333
 30
0.0
 10
134.1935084772
 20
418.7667422966
 30
0.0
 10
134.1939563576
 20
418.7171256239
 30
0.0
 10
134.1928582674
 20
418.6011146569
 30
0.0
 10
134.1927098766
 20
418.6166929247
 30
0.0
  0
SPLINE
  5
310
100
AcDbEntity
  8
0
100
AcDbSpline
 62
7
  6
BYLAYER
 70
0
 71
3
 72
15
 73
11
 74
0
 42
0.0000001
 43
0.0000001
 44
0.0000000001
 40
0.0
 40
0.0
 40
0.0
 40
0.0
 40
0.0669617425
 40
0.186153423
 40
0.3431991328
 40
0.519156981
 40
0.6928039503
 40
0.8431957534
 40
0.9521930809
 40
1.0
 40
1.0
 40
1.0
 40
1.0
 10
134.1599060596
 20
419.5943044227
 30
0.0
 10
134.1596982131
 20
419.5724844022
 30
0.0
 10
134.159522907
 20
419.5118324472
 30
0.0
 10
134.1592597333
 20
419.3999036332
 30
0.0
 10
134.1591203298
 20
419.2530380017
 30
0.0
 10
134.1590999148
 20
419.0858011842
 30
0.0
 10
134.1590658892
 20
418.9305270333
 30
0.0
 10
134.1595388663
 20
418.7667422966
 30
0.0
 10
134.1590909859
 20
418.7171256239
 30
0.0
 10
134.1601890761
 20
418.6011146569
 30
0.0
 10
134.1603374668
 20
418.6166929247
 30
0.0
  0
SPLINE
  5
311
100
AcDbEntity
  8
0
100
AcDbSpline
 62
7
  6
BYLAYER
 70
0
 71
3
 72
15
 73
11
 74
0
 42
0.0000001
 43
0.0000001
 44
0.0000000001
 40
0.0
 40
0.0
 40
0.0
 40
0.0
 40
0.0669937573
 40
0.186213591
 40
0.3432801964
 40
0.5192491623
 40
0.6928961304
 40
0.8432768136
 40
0.9522532438
 40
1.0
 40
1.0
 40
1.0
 40
1.0
 10
156.6599058803
 20
419.5942855908
 30
0.0
 10
156.6596981231
 20
419.5724559772
 30
0.0
 10
156.659522727
 20
419.5117867642
 30
0.0
 10
156.6592596624
 20
419.3998357809
 30
0.0
 10
156.659120254
 20
419.2529564755
 30
0.0
 10
156.6590999884
 20
419.0857147
 30
0.0
 10
156.659065735
 20
418.9304492904
 30
0.0
 10
156.659539555
 20
418.7666756165
 30
0.0
 10
156.659090087
 20
418.7170893518
 30
0.0
 10
156.6601895766
 20
418.6011536915
 30
0.0
 10
156.6603376461
 20
418.6167117566
 30
0.0
  0
SPLINE
  5
312
100
AcDbEntity
  8
0
100
AcDbSpline
 62
7
  6
BYLAYER
 70
0
 71
3
 72
15
 73
11
 74
0
 42
0.0000001
 43
0.0000001
 44
0.0000000001
 40
0.0
 40
0.0
 40
0.0
 40
0.0
 40
0.0669937573
 40
0.186213591
 40
0.3432801964
 40
0.5192491623
 40
0.6928961304
 40
0.8432768136
 40
0.9522532438
 40
1.0
 40
1.0
 40
1.0
 40
1.0
 10
156.6931414632
 20
419.5942855908
 30
0.0
 10
156.6933492204
 20
419.5724559772
 30
0.0
 10
156.6935246165
 20
419.5117867642
 30
0.0
 10
156.6937876811
 20
419.3998357809
 30
0.0
 10
156.6939270895
 20
419.2529564755
 30
0.0
 10
156.6939473551
 20
419.0857147
 30
0.0
 10
156.6939816085
 20
418.9304492904
 30
0.0
 10
156.6935077885
 20
418.7666756165
 30
0.0
 10
156.6939572565
 20
418.7170893518
 30
0.0
 10
156.6928577669
 20
418.6011536915
 30
0.0
 10
156.6927096973
 20
418.6167117566
 30
0.0
  0
SPLINE
  5
313
100
AcDbEntity
  8
0
100
AcDbSpline
 62
7
  6
BYLAYER
 70
0
 71
3
 72
15
 73
11
 74
0
 42
0.0000001
 43
0.0000001
 44
0.0000000001
 40
0.0
 40
0.0
 40
0.0
 40
0.0
 40
0.0670663168
 40
0.1863499579
 40
0.3434639219
 40
0.5194580854
 40
0.6931050508
 40
0.8434605314
 40
0.9523895991
 40
1.0
 40
1.0
 40
1.0
 40
1.0
 10
156.659905474
 20
419.594242857
 30
0.0
 10
156.6596979187
 20
419.5723915065
 30
0.0
 10
156.6595223195
 20
419.5116831915
 30
0.0
 10
156.6592595015
 20
419.3996819824
 30
0.0
 10
156.6591200823
 20
419.252771708
 30
0.0
 10
156.6591001559
 20
419.0855187135
 30
0.0
 10
156.6590653834
 20
418.9302731407
 30
0.0
 10
156.6595411211
 20
418.7665245349
 30
0.0
 10
156.6590880429
 20
418.7170072029
 30
0.0
 10
156.6601907089
 20
418.6012422094
 30
0.0
 10
156.6603380525
 20
418.6167544905
 30
0.0
  0
SPLINE
  5
314
100
AcDbEntity
  8
0
100
AcDbSpline
 62
7
  6
BYLAYER
 70
0
 71
3
 72
15
 73
11
 74
0
 42
0.0000001
 43
0.0000001
 44
0.0000000001
 40
0.0
 40
0.0
 40
0.0
 40
0.0
 40
0.0670663168
 40
0.1863499579
 40
0.3434639219
 40
0.5194580854
 40
0.6931050508
 40
0.8434605314
 40
0.9523895991
 40
1.0
 40
1.0
 40
1.0
 40
1.0
 10
156.6931418695
 20
419.594242857
 30
0.0
 10
156.6933494248
 20
419.5723915065
 30
0.0
 10
156.693525024
 20
419.5116831915
 30
0.0
 10
156.693787842
 20
419.3996819824
 30
0.0
 10
156.6939272612
 20
419.252771708
 30
0.0
 10
156.6939471876
 20
419.0855187135
 30
0.0
 10
156.6939819601
 20
418.9302731407
 30
0.0
 10
156.6935062224
 20
418.7665245349
 30
0.0
 10
156.6939593006
 20
418.7170072029
 30
0.0
 10
156.6928566346
 20
418.6012422094
 30
0.0
 10
156.692709291
 20
418.6167544905
 30
0.0
  0
ENDSEC
  0
SECTION
  2
OBJECTS
  0
DICTIONARY
  5
C
100
AcDbDictionary
280
0
281
1
  3
ACAD_GROUP
350
D
  3
ACAD_MLINESTYLE
350
17
  3
ACAD_LAYOUT
350
1A
  3
ACAD_PLOTSETTINGS
350
19
  3
ACAD_PLOTSTYLENAME
350
E
  0
DICTIONARY
  5
D
102
{ACAD_REACTORS
330
C
102
}
100
AcDbDictionary
280
0
281
1
  0
ACDBDICTIONARYWDFLT
  5
E
102
{ACAD_REACTORS
330
C
102
}
100
AcDbDictionary
281
1
  3
Normal
350
F
100
AcDbDictionaryWithDefault
340
F
  0
DICTIONARY
  5
17
102
{ACAD_REACTORS
330
C
102
}
100
AcDbDictionary
280
0
281
1
  3
Standard
350
18
  0
DICTIONARY
  5
19
102
{ACAD_REACTORS
330
C
102
}
100
AcDbDictionary
281
1
  0
DICTIONARY
  5
1A
102
{ACAD_REACTORS
330
C
102
}
100
AcDbDictionary
281
1
  3
Model
350
315
  3
Layout1
350
316
  0
ACDBPLACEHOLDER
  5
F
102
{ACAD_REACTORS
330
E
102
}
  0
MLINESTYLE
  5
18
102
{ACAD_REACTORS
330
17
102
}
100
AcDbMlineStyle
  2
STANDARD
 70
0
  3

 62
256
 51
90.0
 52
90.0
 71
2
 49
0.5
 62
256
  6
BYLAYER
 49
-0.5
 62
256
  6
BYLAYER
  0
LAYOUT
  5
315
102
{ACAD_REACTORS
330
1A
102
}
100
AcDbPlotSettings
  1

  2
none_device
  4

  6

 40
0.0
 41
0.0
 42
0.0
 43
0.0
 44
210.0
 45
297.0
 46
0.0
 47
0.0
 48
0.0
 49
0.0
140
0.0
141
0.0
142
1.0
143
1.0
 70
1024
 72
1
 73
0
 74
0
  7

 75
0
147
1.0
148
0.0
149
0.0
100
AcDbLayout
  1
Model
 70
0
 71
0
 10
0.0
 20
0.0
 11
210.0
 21
297.0
 12
0.0
 22
0.0
 32
0.0
 14
0.0
 24
0.0
 34
0.0
 15
0.0
 25
0.0
 35
0.0
146
0.0
 13
0.0
 23
0.0
 33
0.0
 16
1.0
 26
0.0
 36
0.0
 17
0.0
 27
1.0
 37
0.0
 76
0
330
212
345
0
346
0
  0
LAYOUT
  5
316
102
{ACAD_REACTORS
330
1A
102
}
100
AcDbPlotSettings
  1

  2
none_device
  4

  6

 40
0.0
 41
0.0
 42
0.0
 43
0.0
 44
210.0
 45
297.0
 46
0.0
 47
0.0
 48
0.0
 49
0.0
140
0.0
141
0.0
142
1.0
143
1.0
 70
0
 72
1
 73
0
 74
0
  7

 75
0
147
1.0
148
0.0
149
0.0
100
AcDbLayout
  1
Layout1
 70
0
 71
1
 10
0.0
 20
0.0
 11
210.0
 21
297.0
 12
0.0
 22
0.0
 32
0.0
 14
0.0
 24
0.0
 34
0.0
 15
0.0
 25
0.0
 35
0.0
146
0.0
 13
0.0
 23
0.0
 33
0.0
 16
1.0
 26
0.0
 36
0.0
 17
0.0
 27
1.0
 37
0.0
 76
0
330
213
345
0
346
0
  0
ENDSEC
  0
EOF
