999
DXF file: C:\Users\sesa63760\Dev\_Creo\CAD\MCADPD0005304_3D-CAD\drw0001_5.dxf
999
Pro/ENGINEER 2019471 by Parametric Technology Corporation
  0
SECTION
  2
HEADER
  9
$ACADVER
  1
AC1024
  9
$DWGCODEPAGE
  3
ANSI_1252
  9
$EXTMAX
 10
104.840754501
 20
148.2747813657
 30
0.0
  9
$EXTMIN
 10
0.0
 20
0.0
 30
0.0
  9
$LIMMIN
 10
0.0
 20
0.0
  9
$LIMMAX
 10
104.840754501
 20
148.2747813657
  9
$VIEWCTR
 10
52.4203772505
 20
74.1373906828
  9
$VIEWSIZE
 40
148.2747813657
  9
$CLAYER
  8
0
  9
$LTSCALE
 40
9.6653190816
  9
$CELTYPE
  6
BYLAYER
  9
$DIMSCALE
 40
1.0
  9
$DIMASZ
 40
1.2481042202
  9
$DIMEXO
 40
1.0
  9
$DIMDLI
 40
6.67785682
  9
$DIMEXE
 40
1.0
  9
$DIMCEN
 40
1.5815976679
  9
$DIMLFAC
 40
1.0
  9
$DIMBLK
  1
_FILLED
  9
$DIMALT
 70
0
  9
$DIMALTF
 40
0.0393700787
  9
$DIMTXT
 40
1.7473459083
  9
$DIMTOL
 70
1
  9
$DIMLIM
 70
0
  9
$DIMTFAC
 40
1.0
  9
$DIMTP
 40
0.01
  9
$DIMTM
 40
0.01
  9
$DIMGAP
 40
0.625
  9
$DIMDSEP
 70
46
  9
$AUNITS
 70
0
  9
$PDMODE
 70
3
  9
$PDSIZE
 40
0.3125
  9
$HANDSEED
  5
271
  9
$TILEMODE
 70
1
  9
$MEASUREMENT
 70
1
  9
$INSUNITS
 70
4
  0
ENDSEC
  0
SECTION
  2
CLASSES
  0
CLASS
  1
ACDBDICTIONARYWDFLT
  2
AcDbDictionaryWithDefault
  3
AutoCAD 2000
 90
0
 91
1
280
0
281
0
  0
CLASS
  1
ACDBPLACEHOLDER
  2
AcDbPlaceHolder
  3
AutoCAD 2000
 90
0
 91
1
280
0
281
0
  0
CLASS
  1
LAYOUT
  2
AcDbLayout
  3
AutoCAD 2000
 90
0
 91
0
280
0
281
0
  0
ENDSEC
  0
SECTION
  2
TABLES
  0
TABLE
  2
VPORT
  5
8
100
AcDbSymbolTable
 70
2
  0
VPORT
  5
1F4
100
AcDbSymbolTableRecord
100
AcDbViewportTableRecord
  2
*ACTIVE
 70
0
 10
0.0
 20
0.0
 11
1.0
 21
1.0
 12
52.4203772505
 22
74.1373906828
 13
0.0
 23
0.0
 14
1.0
 24
1.0
 15
0.0
 25
0.0
 16
0.0
 26
0.0
 36
1.0
 17
0.0
 27
0.0
 37
0.0
 40
148.2747813657
 41
0.7070707071
 42
50.0
 43
0.0
 44
0.0
 50
0.0
 51
0.0
 71
0
 72
100
 73
1
 74
1
 75
0
 76
0
 77
0
 78
0
  0
ENDTAB
  0
TABLE
  2
LTYPE
  5
5
100
AcDbSymbolTable
 70
6
  0
LTYPE
  5
14
100
AcDbSymbolTableRecord
100
AcDbLinetypeTableRecord
  2
BYBLOCK
 70
0
  3

 72
65
 73
0
 40
0.0
  0
LTYPE
  5
15
100
AcDbSymbolTableRecord
100
AcDbLinetypeTableRecord
  2
BYLAYER
 70
0
  3

 72
65
 73
0
 40
0.0
  0
LTYPE
  5
16
100
AcDbSymbolTableRecord
100
AcDbLinetypeTableRecord
  2
CONTINUOUS
 70
64
  3
Solid line
 72
65
 73
0
 40
0.0
  0
LTYPE
  5
1F5
100
AcDbSymbolTableRecord
100
AcDbLinetypeTableRecord
  2
CENTER
 70
64
  3
____ _ ____ _ ____ _ ____ _ ____ _ ____ _ ____
 72
65
 73
4
 40
0.6
 49
0.375
 74
0
 49
-0.075
 74
0
 49
0.075
 74
0
 49
-0.075
 74
0
  0
LTYPE
  5
1F6
100
AcDbSymbolTableRecord
100
AcDbLinetypeTableRecord
  2
HIDDEN
 70
64
  3
- - - - - - - - - - - - - - - - - - - -
 72
65
 73
2
 40
0.2
 49
0.1
 74
0
 49
-0.1
 74
0
  0
LTYPE
  5
1F7
100
AcDbSymbolTableRecord
100
AcDbLinetypeTableRecord
  2
PHANTOM
 70
64
  3
_____ _ _ _____ _ _ _____ _ _ _____
 72
65
 73
6
 40
0.8
 49
0.45
 74
0
 49
-0.05
 74
0
 49
0.1
 74
0
 49
-0.05
 74
0
 49
0.1
 74
0
 49
-0.05
 74
0
  0
LTYPE
  5
1F8
100
AcDbSymbolTableRecord
100
AcDbLinetypeTableRecord
  2
DOT
 70
64
  3
. . . . . . . . . . . . . . . . . . . .
 72
65
 73
2
 40
0.2
 49
0.1
 74
0
 49
-0.1
 74
0
  0
LTYPE
  5
1F9
100
AcDbSymbolTableRecord
100
AcDbLinetypeTableRecord
  2
DASHED
 70
64
  3
- - - - - - - - - - - - - - - - - - - -
 72
65
 73
2
 40
0.2
 49
0.1
 74
0
 49
-0.1
 74
0
  0
ENDTAB
  0
TABLE
  2
LAYER
  5
2
100
AcDbSymbolTable
 70
36
  0
LAYER
  5
10
100
AcDbSymbolTableRecord
100
AcDbLayerTableRecord
  2
0
 70
0
 62
7
  6
CONTINUOUS
370
-3
390
F
  0
LAYER
  5
1FA
100
AcDbSymbolTableRecord
100
AcDbLayerTableRecord
  2
DEFAULT_1
 70
0
 62
7
  6
CENTER
370
-3
390
F
  0
LAYER
  5
1FB
100
AcDbSymbolTableRecord
100
AcDbLayerTableRecord
  2
DEFAULT_2
 70
0
 62
7
  6
HIDDEN
370
-3
390
F
  0
LAYER
  5
1FC
100
AcDbSymbolTableRecord
100
AcDbLayerTableRecord
  2
DEFAULT_3
 70
0
 62
7
  6
PHANTOM
370
-3
390
F
  0
LAYER
  5
1FD
100
AcDbSymbolTableRecord
100
AcDbLayerTableRecord
  2
00_COMPONENTS
 70
0
 62
7
  6
CONTINUOUS
370
-3
390
F
  0
LAYER
  5
1FE
100
AcDbSymbolTableRecord
100
AcDbLayerTableRecord
  2
01_1_DEFAULT_DATUMS
 70
0
 62
7
  6
CONTINUOUS
370
-3
390
F
  0
LAYER
  5
1FF
100
AcDbSymbolTableRecord
100
AcDbLayerTableRecord
  2
01_PLANES
 70
0
 62
7
  6
CONTINUOUS
370
-3
390
F
  0
LAYER
  5
200
100
AcDbSymbolTableRecord
100
AcDbLayerTableRecord
  2
02_COORD_SYS
 70
0
 62
7
  6
CONTINUOUS
370
-3
390
F
  0
LAYER
  5
201
100
AcDbSymbolTableRecord
100
AcDbLayerTableRecord
  2
03_AXES
 70
0
 62
7
  6
CONTINUOUS
370
-3
390
F
  0
LAYER
  5
202
100
AcDbSymbolTableRecord
100
AcDbLayerTableRecord
  2
04_POINTS
 70
0
 62
7
  6
CONTINUOUS
370
-3
390
F
  0
LAYER
  5
203
100
AcDbSymbolTableRecord
100
AcDbLayerTableRecord
  2
05_CURVES
 70
0
 62
7
  6
CONTINUOUS
370
-3
390
F
  0
LAYER
  5
204
100
AcDbSymbolTableRecord
100
AcDbLayerTableRecord
  2
06_SURFS
 70
0
 62
7
  6
CONTINUOUS
370
-3
390
F
  0
LAYER
  5
205
100
AcDbSymbolTableRecord
100
AcDbLayerTableRecord
  2
07_COSMETICS
 70
0
 62
7
  6
CONTINUOUS
370
-3
390
F
  0
LAYER
  5
206
100
AcDbSymbolTableRecord
100
AcDbLayerTableRecord
  2
10_NOTES
 70
0
 62
7
  6
CONTINUOUS
370
-3
390
F
  0
LAYER
  5
207
100
AcDbSymbolTableRecord
100
AcDbLayerTableRecord
  2
11_NOTES_PUB
 70
0
 62
7
  6
CONTINUOUS
370
-3
390
F
  0
LAYER
  5
208
100
AcDbSymbolTableRecord
100
AcDbLayerTableRecord
  2
13_REF_GTOL
 70
0
 62
7
  6
CONTINUOUS
370
-3
390
F
  0
LAYER
  5
209
100
AcDbSymbolTableRecord
100
AcDbLayerTableRecord
  2
16_MISC
 70
0
 62
7
  6
CONTINUOUS
370
-3
390
F
  0
LAYER
  5
20A
100
AcDbSymbolTableRecord
100
AcDbLayerTableRecord
  2
17_NO_PRINT
 70
0
 62
7
  6
CONTINUOUS
370
-3
390
F
  0
LAYER
  5
20B
100
AcDbSymbolTableRecord
100
AcDbLayerTableRecord
  2
18_DATUM_CAMS_JOINTS
 70
0
 62
7
  6
CONTINUOUS
370
-3
390
F
  0
LAYER
  5
20C
100
AcDbSymbolTableRecord
100
AcDbLayerTableRecord
  2
19_DATUM_FUNCTIONAL
 70
0
 62
7
  6
CONTINUOUS
370
-3
390
F
  0
LAYER
  5
20D
100
AcDbSymbolTableRecord
100
AcDbLayerTableRecord
  2
20_DATUM_KINEMATIC_SCHEME
 70
0
 62
7
  6
CONTINUOUS
370
-3
390
F
  0
ENDTAB
  0
TABLE
  2
STYLE
  5
3
100
AcDbSymbolTable
 70
1
  0
STYLE
  5
11
100
AcDbSymbolTableRecord
100
AcDbTextStyleTableRecord
  2
STANDARD
 70
0
 40
0.0
 41
1.0
 50
0.0
 71
0
 42
0.2
  3
ARIAL.TTF
  4

  0
STYLE
  5
20E
100
AcDbSymbolTableRecord
100
AcDbTextStyleTableRecord
  2
TEXTSTYLE_1
 70
0
 40
0.0
 41
0.8
 50
0.0
 71
0
 42
0.2
  3
gdt
  4

  0
ENDTAB
  0
TABLE
  2
VIEW
  5
6
100
AcDbSymbolTable
 70
0
  0
ENDTAB
  0
TABLE
  2
UCS
  5
7
100
AcDbSymbolTable
 70
0
  0
ENDTAB
  0
TABLE
  2
APPID
  5
9
100
AcDbSymbolTable
 70
1
  0
APPID
  5
20F
100
AcDbSymbolTableRecord
100
AcDbRegAppTableRecord
  2
ACAD
 70
0
  0
ENDTAB
  0
TABLE
  2
BLOCK_RECORD
  5
1
100
AcDbSymbolTable
 70
0
  0
BLOCK_RECORD
  5
210
100
AcDbSymbolTableRecord
100
AcDbBlockTableRecord
  2
*Model_Space
  0
BLOCK_RECORD
  5
211
100
AcDbSymbolTableRecord
100
AcDbBlockTableRecord
  2
*Paper_Space
  0
BLOCK_RECORD
  5
212
100
AcDbSymbolTableRecord
100
AcDbBlockTableRecord
  2
_FILLED
  0
ENDTAB
  0
TABLE
  2
DIMSTYLE
  5
A
100
AcDbSymbolTable
 70
1
100
AcDbDimStyleTable
 71
0
  0
DIMSTYLE
105
213
100
AcDbSymbolTableRecord
100
AcDbDimStyleTableRecord
  2
STANDARD
 70
0
  3

  4

 40
1.0
 41
1.2481042202
 42
1.0
 43
0.38
 44
1.0
 45
0.0
 46
0.0
 47
0.01
 48
0.01
140
1.7473459083
141
0.09
142
0.0
143
25.4
144
1.0
145
0.0
146
1.0
147
0.625
 71
1
 72
0
 73
0
 74
0
 75
0
 76
0
 77
1
 78
8
 79
2
170
0
171
1
172
0
173
0
174
0
175
0
176
0
177
0
178
0
270
2
179
2
271
2
272
2
273
2
274
2
275
0
280
0
281
0
282
0
283
1
284
8
285
0
286
0
287
3
288
0
340
11
278
46
341
212
342
212
343
212
344
212
  0
ENDTAB
  0
ENDSEC
  0
SECTION
  2
BLOCKS
  0
BLOCK
  5
20
100
AcDbEntity
  8
0
100
AcDbBlockBegin
  2
*Model_Space
 70
0
 10
0.0
 20
0.0
 30
0.0
  3
*Model_Space
  1

  0
ENDBLK
  5
21
100
AcDbEntity
  8
0
100
AcDbBlockEnd
  0
BLOCK
  5
1C
100
AcDbEntity
  8
0
100
AcDbBlockBegin
  2
*Paper_Space
 70
0
 10
0.0
 20
0.0
 30
0.0
  3
*Paper_Space
  1

  0
ENDBLK
  5
1D
100
AcDbEntity
  8
0
100
AcDbBlockEnd
  0
BLOCK
  5
214
100
AcDbEntity
  8
0
100
AcDbBlockBegin
  2
_FILLED
 70
64
 10
0.0
 20
0.0
  3
_FILLED
  1

  0
SOLID
  5
215
100
AcDbEntity
  8
0
  6
BYBLOCK
 62
0
100
AcDbTrace
 10
0.0
 20
0.0
 11
-1.0
 21
0.25
 12
-1.0
 22
-0.25
 13
-1.0
 23
-0.25
  0
ENDBLK
  5
216
100
AcDbEntity
  8
0
  6
BYBLOCK
 62
0
100
AcDbBlockEnd
  0
ENDSEC
  0
SECTION
  2
ENTITIES
  0
LINE
  5
217
100
AcDbEntity
  8
0
100
AcDbLine
 62
7
  6
BYLAYER
 10
19.2472952172
 20
12.068877553
 11
37.0972722945
 21
12.068877553
  0
LINE
  5
218
100
AcDbEntity
  8
0
100
AcDbLine
 62
7
  6
BYLAYER
 10
70.8972722945
 20
12.068877553
 11
90.9472722945
 21
12.068877553
  0
LINE
  5
219
100
AcDbEntity
  8
0
100
AcDbLine
 62
7
  6
BYLAYER
 10
90.9472722945
 20
15.568877553
 11
76.6972722945
 21
15.568877553
  0
LINE
  5
21A
100
AcDbEntity
  8
0
100
AcDbLine
 62
7
  6
BYLAYER
 10
29.7972722945
 20
15.568877553
 11
19.2472952172
 21
15.568877553
  0
LINE
  5
21B
100
AcDbEntity
  8
0
100
AcDbLine
 62
7
  6
BYLAYER
 10
47.5472722945
 20
15.568877553
 11
58.9472722945
 21
15.568877553
  0
LINE
  5
21C
100
AcDbEntity
  8
0
100
AcDbLine
 62
7
  6
BYLAYER
 10
35.5972722945
 20
16.468877553
 11
37.0972722945
 21
15.6028521492
  0
LINE
  5
21D
100
AcDbEntity
  8
0
100
AcDbLine
 62
7
  6
BYLAYER
 10
58.9472722945
 20
17.318877553
 11
70.8972722945
 21
17.318877553
  0
LINE
  5
21E
100
AcDbEntity
  8
0
100
AcDbLine
 62
7
  6
BYLAYER
 10
35.5972722945
 20
17.568877553
 11
47.5472722945
 21
17.568877553
  0
LINE
  5
21F
100
AcDbEntity
  8
0
100
AcDbLine
 62
7
  6
BYLAYER
 10
88.6972722945
 20
21.068877553
 11
75.6972722945
 21
21.068877553
  0
LINE
  5
220
100
AcDbEntity
  8
0
100
AcDbLine
 62
7
  6
BYLAYER
 10
17.7972722945
 20
21.068877553
 11
30.7972722945
 21
21.068877553
  0
LINE
  5
221
100
AcDbEntity
  8
0
100
AcDbLine
 62
7
  6
BYLAYER
 10
16.7972722945
 20
51.568877553
 11
16.7972722945
 21
22.068877553
  0
LINE
  5
222
100
AcDbEntity
  8
0
100
AcDbLine
 62
7
  6
BYLAYER
 10
19.2472722945
 20
12.068877553
 11
19.2472722945
 21
15.568877553
  0
LINE
  5
223
100
AcDbEntity
  8
0
100
AcDbLine
 62
7
  6
BYLAYER
 10
23.2472722945
 20
15.568877553
 11
23.2472722945
 21
12.068877553
  0
LINE
  5
224
100
AcDbEntity
  8
0
100
AcDbLine
 62
7
  6
BYLAYER
 10
23.2472722945
 20
91.268877553
 11
23.2472722945
 21
95.568877553
  0
LINE
  5
225
100
AcDbEntity
  8
0
100
AcDbLine
 62
7
  6
BYLAYER
 10
25.7972722945
 20
12.068877553
 11
25.7972722945
 21
15.568877553
  0
LINE
  5
226
100
AcDbEntity
  8
0
100
AcDbLine
 62
7
  6
BYLAYER
 10
26.2472722945
 20
91.268877553
 11
26.2472722945
 21
96.568877553
  0
LINE
  5
227
100
AcDbEntity
  8
0
100
AcDbLine
 62
7
  6
BYLAYER
 10
26.2895504295
 20
67.368877553
 11
26.2895504295
 21
73.068877553
  0
LINE
  5
228
100
AcDbEntity
  8
0
100
AcDbLine
 62
7
  6
BYLAYER
 10
26.3322187417
 20
67.368877553
 11
26.3322187417
 21
73.068877553
  0
LINE
  5
229
100
AcDbEntity
  8
0
100
AcDbLine
 62
7
  6
BYLAYER
 10
26.7972722945
 20
62.968877553
 11
26.7972722945
 21
67.368877553
  0
LINE
  5
22A
100
AcDbEntity
  8
0
100
AcDbLine
 62
7
  6
BYLAYER
 10
29.7681525093
 20
73.068877553
 11
29.7681525093
 21
67.368877553
  0
LINE
  5
22B
100
AcDbEntity
  8
0
100
AcDbLine
 62
7
  6
BYLAYER
 10
30.7472722945
 20
96.568877553
 11
30.7472722945
 21
104.268877553
  0
LINE
  5
22C
100
AcDbEntity
  8
0
100
AcDbLine
 62
7
  6
BYLAYER
 10
30.7972722945
 20
67.368877553
 11
30.7972722945
 21
52.568877553
  0
LINE
  5
22D
100
AcDbEntity
  8
0
100
AcDbLine
 62
7
  6
BYLAYER
 10
30.7972722945
 20
21.068877553
 11
30.7972722945
 21
12.068877553
  0
LINE
  5
22E
100
AcDbEntity
  8
0
100
AcDbLine
 62
7
  6
BYLAYER
 10
32.9972722945
 20
91.268877553
 11
32.9972722945
 21
80.468877553
  0
LINE
  5
22F
100
AcDbEntity
  8
0
100
AcDbLine
 62
7
  6
BYLAYER
 10
88.6972722945
 20
52.568877553
 11
75.6972722945
 21
52.568877553
  0
LINE
  5
230
100
AcDbEntity
  8
0
100
AcDbLine
 62
7
  6
BYLAYER
 10
17.7972722945
 20
52.568877553
 11
30.7972722945
 21
52.568877553
  0
LINE
  5
231
100
AcDbEntity
  8
0
100
AcDbLine
 62
7
  6
BYLAYER
 10
35.5972722945
 20
16.468877553
 11
35.5972722945
 21
17.568877553
  0
LINE
  5
232
100
AcDbEntity
  8
0
100
AcDbLine
 62
7
  6
BYLAYER
 10
37.0972722945
 20
15.6028521492
 11
37.0972722945
 21
12.068877553
  0
LINE
  5
233
100
AcDbEntity
  8
0
100
AcDbLine
 62
7
  6
BYLAYER
 10
42.2472722945
 20
80.468877553
 11
42.2472722945
 21
73.068877553
  0
LINE
  5
234
100
AcDbEntity
  8
0
100
AcDbLine
 62
7
  6
BYLAYER
 10
26.7972722945
 20
62.968877553
 11
30.7972722945
 21
62.968877553
  0
LINE
  5
235
100
AcDbEntity
  8
0
100
AcDbLine
 62
7
  6
BYLAYER
 10
47.5472722945
 20
17.568877553
 11
47.5472722945
 21
15.568877553
  0
LINE
  5
236
100
AcDbEntity
  8
0
100
AcDbLine
 62
7
  6
BYLAYER
 10
47.8160824957
 20
134.6386765853
 11
47.2472722945
 21
118.3500835926
  0
LINE
  5
237
100
AcDbEntity
  8
0
100
AcDbLine
 62
7
  6
BYLAYER
 10
26.2896190286
 20
67.368877553
 11
80.2058938
 21
67.368877553
  0
LINE
  5
238
100
AcDbEntity
  8
0
100
AcDbLine
 62
7
  6
BYLAYER
 10
53.2472722945
 20
73.068877553
 11
53.2472722945
 21
67.368877553
  0
LINE
  5
239
100
AcDbEntity
  8
0
100
AcDbLine
 62
7
  6
BYLAYER
 10
80.2058938
 20
73.068877553
 11
26.2896187753
 21
73.068877553
  0
LINE
  5
23A
100
AcDbEntity
  8
0
100
AcDbLine
 62
7
  6
BYLAYER
 10
58.9472722945
 20
15.568877553
 11
58.9472722945
 21
17.318877553
  0
LINE
  5
23B
100
AcDbEntity
  8
0
100
AcDbLine
 62
7
  6
BYLAYER
 10
59.2472722945
 20
118.3500835926
 11
58.6784620925
 21
134.6386766052
  0
LINE
  5
23C
100
AcDbEntity
  8
0
100
AcDbLine
 62
7
  6
BYLAYER
 10
32.9972722945
 20
80.468877553
 11
73.4972722945
 21
80.468877553
  0
LINE
  5
23D
100
AcDbEntity
  8
0
100
AcDbLine
 62
7
  6
BYLAYER
 10
64.2472722945
 20
80.468877553
 11
64.2472722945
 21
73.068877553
  0
LINE
  5
23E
100
AcDbEntity
  8
0
100
AcDbLine
 62
7
  6
BYLAYER
 10
70.8972722945
 20
17.318877553
 11
70.8972722945
 21
12.068877553
  0
LINE
  5
23F
100
AcDbEntity
  8
0
100
AcDbLine
 62
7
  6
BYLAYER
 10
73.4972722945
 20
91.268877553
 11
73.4972722945
 21
80.468877553
  0
LINE
  5
240
100
AcDbEntity
  8
0
100
AcDbLine
 62
7
  6
BYLAYER
 10
23.2472722945
 20
91.268877553
 11
83.2472722945
 21
91.268877553
  0
LINE
  5
241
100
AcDbEntity
  8
0
100
AcDbLine
 62
7
  6
BYLAYER
 10
75.6972722945
 20
67.368877553
 11
75.6972722945
 21
52.568877553
  0
LINE
  5
242
100
AcDbEntity
  8
0
100
AcDbLine
 62
7
  6
BYLAYER
 10
75.6972722945
 20
21.068877553
 11
75.6972722945
 21
12.068877553
  0
LINE
  5
243
100
AcDbEntity
  8
0
100
AcDbLine
 62
7
  6
BYLAYER
 10
75.7472722945
 20
96.568877553
 11
75.7472722945
 21
104.268877553
  0
LINE
  5
244
100
AcDbEntity
  8
0
100
AcDbLine
 62
7
  6
BYLAYER
 10
76.766162683
 20
67.368877553
 11
76.766162683
 21
73.068877553
  0
LINE
  5
245
100
AcDbEntity
  8
0
100
AcDbLine
 62
7
  6
BYLAYER
 10
83.2472722945
 20
95.568877553
 11
23.2472722945
 21
95.568877553
  0
LINE
  5
246
100
AcDbEntity
  8
0
100
AcDbLine
 62
7
  6
BYLAYER
 10
24.2472722945
 20
96.568877553
 11
82.2472722945
 21
96.568877553
  0
LINE
  5
247
100
AcDbEntity
  8
0
100
AcDbLine
 62
7
  6
BYLAYER
 10
80.206124533
 20
67.368877553
 11
80.206124533
 21
73.068877553
  0
LINE
  5
248
100
AcDbEntity
  8
0
100
AcDbLine
 62
7
  6
BYLAYER
 10
80.2472722945
 20
91.268877553
 11
80.2472722945
 21
96.568877553
  0
LINE
  5
249
100
AcDbEntity
  8
0
100
AcDbLine
 62
7
  6
BYLAYER
 10
80.6972722945
 20
15.568877553
 11
80.6972722945
 21
12.068877553
  0
LINE
  5
24A
100
AcDbEntity
  8
0
100
AcDbLine
 62
7
  6
BYLAYER
 10
83.2472722945
 20
12.068877553
 11
83.2472722945
 21
15.568877553
  0
LINE
  5
24B
100
AcDbEntity
  8
0
100
AcDbLine
 62
7
  6
BYLAYER
 10
83.2472722945
 20
91.268877553
 11
83.2472722945
 21
95.568877553
  0
LINE
  5
24C
100
AcDbEntity
  8
0
100
AcDbLine
 62
7
  6
BYLAYER
 10
87.2472722945
 20
12.068877553
 11
87.2472722945
 21
15.568877553
  0
LINE
  5
24D
100
AcDbEntity
  8
0
100
AcDbLine
 62
7
  6
BYLAYER
 10
75.7472722945
 20
104.268877553
 11
73.4890484592
 21
104.268877553
  0
LINE
  5
24E
100
AcDbEntity
  8
0
100
AcDbLine
 62
7
  6
BYLAYER
 10
33.0054961297
 20
104.268877553
 11
30.7472722945
 21
104.268877553
  0
LINE
  5
24F
100
AcDbEntity
  8
0
100
AcDbLine
 62
7
  6
BYLAYER
 10
73.2472613512
 20
106.768877553
 11
71.2399622187
 21
106.768877553
  0
LINE
  5
250
100
AcDbEntity
  8
0
100
AcDbLine
 62
7
  6
BYLAYER
 10
35.2545823702
 20
106.768877553
 11
33.2472832377
 21
106.768877553
  0
LINE
  5
251
100
AcDbEntity
  8
0
100
AcDbLine
 62
7
  6
BYLAYER
 10
89.6972722945
 20
22.068877553
 11
89.6972722945
 21
51.568877553
  0
LINE
  5
252
100
AcDbEntity
  8
0
100
AcDbLine
 62
7
  6
BYLAYER
 10
90.9472722945
 20
15.568877553
 11
90.9472722945
 21
12.068877553
  0
LINE
  5
253
100
AcDbEntity
  8
0
100
AcDbLine
 62
7
  6
BYLAYER
 10
56.5458885776
 20
134.568877553
 11
49.9486560118
 21
134.568877553
  0
LINE
  5
254
100
AcDbEntity
  8
0
100
AcDbLine
 62
7
  6
BYLAYER
 10
56.6796804405
 20
136.568877553
 11
49.8148641484
 21
136.568877553
  0
ARC
  5
255
100
AcDbEntity
  8
0
100
AcDbCircle
 62
7
  6
BYLAYER
 10
71.2399622187
 20
118.768877553
 40
12.0
100
AcDbArc
 50
181.9999999999
 51
270.0
  0
ARC
  5
256
100
AcDbEntity
  8
0
100
AcDbCircle
 62
7
  6
BYLAYER
 10
35.2545823702
 20
118.768877553
 40
12.0
100
AcDbArc
 50
270.0
 51
358.0000000001
  0
ARC
  5
257
100
AcDbEntity
  8
0
100
AcDbCircle
 62
7
  6
BYLAYER
 10
73.2472722945
 20
104.268877553
 40
2.5
100
AcDbArc
 50
0.0
 51
90.0
  0
ARC
  5
258
100
AcDbEntity
  8
0
100
AcDbCircle
 62
7
  6
BYLAYER
 10
33.2472722945
 20
104.268877553
 40
2.5
100
AcDbArc
 50
90.0
 51
180.0
  0
ARC
  5
259
100
AcDbEntity
  8
0
100
AcDbCircle
 62
7
  6
BYLAYER
 10
49.8148641484
 20
134.568877553
 40
2.0
100
AcDbArc
 50
90.0
 51
177.9999994432
  0
ARC
  5
25A
100
AcDbEntity
  8
0
100
AcDbCircle
 62
7
  6
BYLAYER
 10
56.6796896514
 20
134.5688779441
 40
1.9999995908
100
AcDbArc
 50
1.9999988564
 51
90.0002638721
  0
ARC
  5
25B
100
AcDbEntity
  8
0
100
AcDbCircle
 62
7
  6
BYLAYER
 10
29.7972722945
 20
16.568877553
 40
1.0
100
AcDbArc
 50
270.0
 51
360.0
  0
ARC
  5
25C
100
AcDbEntity
  8
0
100
AcDbCircle
 62
7
  6
BYLAYER
 10
17.7972722945
 20
51.568877553
 40
1.0
100
AcDbArc
 50
90.0
 51
180.0
  0
ARC
  5
25D
100
AcDbEntity
  8
0
100
AcDbCircle
 62
7
  6
BYLAYER
 10
88.6972722945
 20
51.568877553
 40
1.0
100
AcDbArc
 50
0.0
 51
90.0
  0
ARC
  5
25E
100
AcDbEntity
  8
0
100
AcDbCircle
 62
7
  6
BYLAYER
 10
88.6972722945
 20
22.068877553
 40
1.0
100
AcDbArc
 50
270.0
 51
360.0
  0
ARC
  5
25F
100
AcDbEntity
  8
0
100
AcDbCircle
 62
7
  6
BYLAYER
 10
17.7972722945
 20
22.068877553
 40
1.0
100
AcDbArc
 50
180.0
 51
270.0
  0
ARC
  5
260
100
AcDbEntity
  8
0
100
AcDbCircle
 62
7
  6
BYLAYER
 10
82.2472722945
 20
95.568877553
 40
1.0
100
AcDbArc
 50
0.0
 51
90.0
  0
ARC
  5
261
100
AcDbEntity
  8
0
100
AcDbCircle
 62
7
  6
BYLAYER
 10
24.2472722945
 20
95.568877553
 40
1.0
100
AcDbArc
 50
90.0
 51
180.0
  0
ARC
  5
262
100
AcDbEntity
  8
0
100
AcDbCircle
 62
7
  6
BYLAYER
 10
76.6972722945
 20
16.568877553
 40
1.0
100
AcDbArc
 50
180.0
 51
270.0
  0
SPLINE
  5
263
100
AcDbEntity
  8
0
100
AcDbSpline
 62
7
  6
BYLAYER
 70
0
 71
3
 72
17
 73
13
 74
0
 42
0.0000001
 43
0.0000001
 44
0.0000000001
 40
0.0
 40
0.0
 40
0.0
 40
0.0
 40
0.0749004509
 40
0.1497303316
 40
0.2243966181
 40
0.2987305407
 40
0.3724606113
 40
0.4451915071
 40
0.5853202123
 40
0.7145689186
 40
0.8285677649
 40
1.0
 40
1.0
 40
1.0
 40
1.0
 10
49.3080589955
 20
118.2628348508
 30
0.0
 10
49.28484429
 20
117.671917291
 30
0.0
 10
49.156772171
 20
116.4922540528
 30
0.0
 10
48.7263220849
 20
114.7683254784
 30
0.0
 10
48.0719033464
 20
113.1211364342
 30
0.0
 10
47.2151503872
 20
111.5800597356
 30
0.0
 10
46.183657499
 20
110.169245171
 30
0.0
 10
44.6399458793
 20
108.5089920397
 30
0.0
 10
42.4844005188
 20
106.8454754232
 30
0.0
 10
39.7619520546
 20
105.4853088065
 30
0.0
 10
36.6225882331
 20
104.5199387702
 30
0.0
 10
34.359032198
 20
104.2688777884
 30
0.0
 10
33.0054961297
 20
104.268877553
 30
0.0
  0
SPLINE
  5
264
100
AcDbEntity
  8
0
100
AcDbSpline
 62
7
  6
BYLAYER
 70
0
 71
3
 72
14
 73
10
 74
0
 42
0.0000001
 43
0.0000001
 44
0.0000000001
 40
0.0
 40
0.0
 40
0.0
 40
0.0
 40
0.2508039073
 40
0.3835556783
 40
0.5164689068
 40
0.646505922
 40
0.7714528255
 40
0.8893876074
 40
1.0
 40
1.0
 40
1.0
 40
1.0
 10
33.0054961295
 20
104.268877553
 30
0.0
 10
33.0054961295
 20
104.5801066429
 30
0.0
 10
33.0863827033
 20
105.0617443007
 30
0.0
 10
33.3594681251
 20
105.6445585765
 30
0.0
 10
33.648842344
 20
106.0456576847
 30
0.0
 10
34.0092558087
 20
106.3699730929
 30
0.0
 10
34.4120025443
 20
106.6049907796
 30
0.0
 10
34.8329830114
 20
106.7394354949
 30
0.0
 10
35.117320576
 20
106.768877553
 30
0.0
 10
35.2545823701
 20
106.768877553
 30
0.0
  0
SPLINE
  5
265
100
AcDbEntity
  8
0
100
AcDbSpline
 62
7
  6
BYLAYER
 70
0
 71
3
 72
24
 73
20
 74
0
 42
0.0000001
 43
0.0000001
 44
0.0000000001
 40
0.0
 40
0.0
 40
0.0
 40
0.0
 40
0.0009883168
 40
0.0038766359
 40
0.0087525197
 40
0.0156836523
 40
0.0247354184
 40
0.0359725721
 40
0.0494596246
 40
0.0652609733
 40
0.103929963
 40
0.1518244363
 40
0.2086550711
 40
0.2741324242
 40
0.3478238532
 40
0.428724106
 40
0.6075573282
 40
0.8012947605
 40
1.0
 40
1.0
 40
1.0
 40
1.0
 10
47.247272294
 20
118.3500835802
 30
0.0
 10
47.24724858
 20
118.3494044248
 30
0.0
 10
47.251329614
 20
118.3494990301
 30
0.0
 10
47.2559011673
 20
118.3481588639
 30
0.0
 10
47.2667721679
 20
118.347569355
 30
0.0
 10
47.2807071529
 20
118.346306081
 30
0.0
 10
47.299526127
 20
118.3450965846
 30
0.0
 10
47.3226524728
 20
118.3436378282
 30
0.0
 10
47.3504907717
 20
118.3420447708
 30
0.0
 10
47.3971416432
 20
118.3395106085
 30
0.0
 10
47.4674446167
 20
118.3359793118
 30
0.0
 10
47.5659310495
 20
118.3313301023
 30
0.0
 10
47.6828455884
 20
118.3260774711
 30
0.0
 10
47.8174896016
 20
118.3202627601
 30
0.0
 10
47.968677999
 20
118.3139494567
 30
0.0
 10
48.1977527793
 20
118.3046409745
 30
0.0
 10
48.5093213938
 20
118.2924264351
 30
0.0
 10
48.9018528746
 20
118.2776137896
 30
0.0
 10
49.1715173329
 20
118.2677537491
 30
0.0
 10
49.3080589944
 20
118.2628348363
 30
0.0
  0
SPLINE
  5
266
100
AcDbEntity
  8
0
100
AcDbSpline
 62
7
  6
BYLAYER
 70
0
 71
3
 72
14
 73
10
 74
0
 42
0.0000001
 43
0.0000001
 44
0.0000000001
 40
0.0
 40
0.0
 40
0.0
 40
0.0
 40
0.1106123923
 40
0.2285471739
 40
0.3534940772
 40
0.4835310923
 40
0.6164443208
 40
0.749196092
 40
1.0
 40
1.0
 40
1.0
 40
1.0
 10
71.2399621573
 20
106.768877553
 30
0.0
 10
71.3772239507
 20
106.768877553
 30
0.0
 10
71.661561514
 20
106.7394354949
 30
0.0
 10
72.0825419792
 20
106.6049907799
 30
0.0
 10
72.4852887131
 20
106.3699730935
 30
0.0
 10
72.8457021763
 20
106.0456576856
 30
0.0
 10
73.135076394
 20
105.6445585774
 30
0.0
 10
73.4081618149
 20
105.0617443012
 30
0.0
 10
73.4890483881
 20
104.5801066431
 30
0.0
 10
73.4890483878
 20
104.268877553
 30
0.0
  0
SPLINE
  5
267
100
AcDbEntity
  8
0
100
AcDbSpline
 62
7
  6
BYLAYER
 70
0
 71
3
 72
24
 73
20
 74
0
 42
0.0000001
 43
0.0000001
 44
0.0000000001
 40
0.0
 40
0.0
 40
0.0
 40
0.0
 40
0.0009883171
 40
0.0038766365
 40
0.0087525205
 40
0.0156836533
 40
0.0247354197
 40
0.0359725736
 40
0.0494596263
 40
0.0652609752
 40
0.1039299652
 40
0.1518244388
 40
0.2086550738
 40
0.2741324269
 40
0.3478238557
 40
0.4287241084
 40
0.60755733
 40
0.8012947615
 40
1.0
 40
1.0
 40
1.0
 40
1.0
 10
59.2472722945
 20
118.3500835921
 30
0.0
 10
59.2472960079
 20
118.3494044366
 30
0.0
 10
59.2432149747
 20
118.3494990424
 30
0.0
 10
59.2386434196
 20
118.3481588757
 30
0.0
 10
59.2277724192
 20
118.3475693671
 30
0.0
 10
59.2138374333
 20
118.346306093
 30
0.0
 10
59.1950184589
 20
118.3450965967
 30
0.0
 10
59.1718921125
 20
118.3436378402
 30
0.0
 10
59.1440538133
 20
118.3420447829
 30
0.0
 10
59.0974029413
 20
118.3395106207
 30
0.0
 10
59.0270999673
 20
118.3359793241
 30
0.0
 10
58.9286135341
 20
118.3313301147
 30
0.0
 10
58.811698995
 20
118.3260774836
 30
0.0
 10
58.6770549818
 20
118.3202627728
 30
0.0
 10
58.5258665846
 20
118.3139494696
 30
0.0
 10
58.2967918049
 20
118.3046409877
 30
0.0
 10
57.9852231917
 20
118.2924264488
 30
0.0
 10
57.5926917128
 20
118.2776138037
 30
0.0
 10
57.3230272559
 20
118.2677537636
 30
0.0
 10
57.1864855951
 20
118.2628348509
 30
0.0
  0
SPLINE
  5
268
100
AcDbEntity
  8
0
100
AcDbSpline
 62
7
  6
BYLAYER
 70
0
 71
3
 72
26
 73
22
 74
0
 42
0.0000001
 43
0.0000001
 44
0.0000000001
 40
0.0
 40
0.0
 40
0.0
 40
0.0
 40
0.0003007023
 40
0.0011709381
 40
0.0026189878
 40
0.0046444833
 40
0.0104221072
 40
0.0184907503
 40
0.0288361912
 40
0.0414439428
 40
0.0562983492
 40
0.0733685431
 40
0.1139873102
 40
0.1629608287
 40
0.2199415593
 40
0.2844673547
 40
0.3559883539
 40
0.4339513792
 40
0.6067608238
 40
0.7976296605
 40
1.0
 40
1.0
 40
1.0
 40
1.0
 10
58.6780645526
 20
134.6386670254
 30
0.0
 10
58.6780911482
 20
134.6384548532
 30
0.0
 10
58.6767965459
 20
134.6384126377
 30
0.0
 10
58.6754049184
 20
134.6380318836
 30
0.0
 10
58.6720738472
 20
134.6378093869
 30
0.0
 10
58.6656710803
 20
134.6372462148
 30
0.0
 10
58.6542901589
 20
134.6365797135
 30
0.0
 10
58.6371675448
 20
134.6356409955
 30
0.0
 10
58.6151112432
 20
134.6345891961
 30
0.0
 10
58.588260105
 20
134.6333937798
 30
0.0
 10
58.5566175739
 20
134.632073108
 30
0.0
 10
58.505073105
 20
134.6300217281
 30
0.0
 10
58.4292766395
 20
134.6271832614
 30
0.0
 10
58.3251131121
 20
134.6234782437
 30
0.0
 10
58.2039536086
 20
134.6193355174
 30
0.0
 10
58.0667650209
 20
134.6147883091
 30
0.0
 10
57.9146596246
 20
134.6098760114
 30
0.0
 10
57.6855873909
 20
134.6026445775
 30
0.0
 10
57.3716785984
 20
134.5930324453
 30
0.0
 10
56.969334006
 20
134.5810406224
 30
0.0
 10
56.6898142943
 20
134.5729545131
 30
0.0
 10
56.5459643587
 20
134.5688770009
 30
0.0
  0
SPLINE
  5
269
100
AcDbEntity
  8
0
100
AcDbSpline
 62
7
  6
BYLAYER
 70
0
 71
3
 72
17
 73
13
 74
0
 42
0.0000001
 43
0.0000001
 44
0.0000000001
 40
0.0
 40
0.0
 40
0.0
 40
0.0
 40
0.3721090131
 40
0.5405721316
 40
0.688862319
 40
0.7537749658
 40
0.8117023748
 40
0.8621818109
 40
0.9049022756
 40
0.9396506203
 40
0.9665090719
 40
1.0
 40
1.0
 40
1.0
 40
1.0
 10
56.54588652
 20
134.5688777472
 30
0.0
 10
56.5458867879
 20
134.8241200473
 30
0.0
 10
56.5360009496
 20
135.1950938031
 30
0.0
 10
56.4999843123
 20
135.6663037742
 30
0.0
 10
56.4696229047
 20
135.9264452889
 30
0.0
 10
56.4402533736
 20
136.11012693
 30
0.0
 10
56.4175130645
 20
136.2268200119
 30
0.0
 10
56.3931807748
 20
136.3277166937
 30
0.0
 10
56.3679525515
 20
136.4115813016
 30
0.0
 10
56.3409514145
 20
136.4787699544
 30
0.0
 10
56.310963187
 20
136.5344143543
 30
0.0
 10
56.2756489743
 20
136.5688773814
 30
0.0
 10
56.2526764011
 20
136.5688774653
 30
0.0
  0
SPLINE
  5
26A
100
AcDbEntity
  8
0
100
AcDbSpline
 62
7
  6
BYLAYER
 70
0
 71
3
 72
8
 73
4
 74
0
 42
0.0000001
 43
0.0000001
 44
0.0000000001
 40
0.0
 40
0.0
 40
0.0
 40
0.0
 40
1.0
 40
1.0
 40
1.0
 40
1.0
 10
49.3080589955
 20
118.2628348508
 30
0.0
 10
49.5212966099
 20
123.6981939887
 30
0.0
 10
49.7348642639
 20
129.1335401829
 30
0.0
 10
49.9486560118
 20
134.568877553
 30
0.0
  0
SPLINE
  5
26B
100
AcDbEntity
  8
0
100
AcDbSpline
 62
7
  6
BYLAYER
 70
0
 71
3
 72
8
 73
4
 74
0
 42
0.0000001
 43
0.0000001
 44
0.0000000001
 40
0.0
 40
0.0
 40
0.0
 40
0.0
 40
1.0
 40
1.0
 40
1.0
 40
1.0
 10
56.5458885776
 20
134.568877553
 30
0.0
 10
56.7596802885
 20
129.1335401815
 30
0.0
 10
56.9732479673
 20
123.6981939883
 30
0.0
 10
57.1864855935
 20
118.2628348508
 30
0.0
  0
SPLINE
  5
26C
100
AcDbEntity
  8
0
100
AcDbSpline
 62
7
  6
BYLAYER
 70
0
 71
3
 72
17
 73
13
 74
0
 42
0.0000001
 43
0.0000001
 44
0.0000000001
 40
0.0
 40
0.0
 40
0.0
 40
0.0
 40
0.074900329
 40
0.1497301338
 40
0.2243964785
 40
0.2987304914
 40
0.3724605951
 40
0.4451914978
 40
0.5853202355
 40
0.7145689607
 40
0.8285678256
 40
1.0
 40
1.0
 40
1.0
 40
1.0
 10
57.1864855935
 20
118.2628348508
 30
0.0
 10
57.209700237
 20
117.6719182847
 30
0.0
 10
57.3377747551
 20
116.4922569035
 30
0.0
 10
57.7682237592
 20
114.7683296124
 30
0.0
 10
58.42264006
 20
113.1211388463
 30
0.0
 10
59.2793982082
 20
111.5800632993
 30
0.0
 10
60.310892149
 20
110.1692488486
 30
0.0
 10
61.8545971104
 20
108.5089889736
 30
0.0
 10
64.0101435396
 20
106.8454716327
 30
0.0
 10
66.7325941968
 20
105.4853091095
 30
0.0
 10
69.8719571975
 20
104.5199382298
 30
0.0
 10
72.1355129449
 20
104.2688771967
 30
0.0
 10
73.4890484592
 20
104.268877553
 30
0.0
  0
SPLINE
  5
26D
100
AcDbEntity
  8
0
100
AcDbSpline
 62
7
  6
BYLAYER
 70
0
 71
3
 72
17
 73
13
 74
0
 42
0.0000001
 43
0.0000001
 44
0.0000000001
 40
0.0
 40
0.0
 40
0.0
 40
0.0
 40
0.0334798636
 40
0.0603223303
 40
0.0950453831
 40
0.137726243
 40
0.1881720582
 40
0.2460825174
 40
0.3109674419
 40
0.459241031
 40
0.627767807
 40
1.0
 40
1.0
 40
1.0
 40
1.0
 10
50.2418678497
 20
136.5688775412
 30
0.0
 10
50.218902772
 20
136.5688775535
 30
0.0
 10
50.1835886287
 20
136.5344532819
 30
0.0
 10
50.153616295
 20
136.4788340766
 30
0.0
 10
50.1266354201
 20
136.4116995828
 30
0.0
 10
50.1014107975
 20
136.3279034397
 30
0.0
 10
50.0770848874
 20
136.2270683815
 30
0.0
 10
50.0543533615
 20
136.1104278921
 30
0.0
 10
50.0249606952
 20
135.9267918372
 30
0.0
 10
49.9945925707
 20
135.6666360979
 30
0.0
 10
49.9585484624
 20
135.1953094505
 30
0.0
 10
49.9486571141
 20
134.8242055357
 30
0.0
 10
49.94865751
 20
134.5688776966
 30
0.0
  0
SPLINE
  5
26E
100
AcDbEntity
  8
0
100
AcDbSpline
 62
7
  6
BYLAYER
 70
0
 71
3
 72
26
 73
22
 74
0
 42
0.0000001
 43
0.0000001
 44
0.0000000001
 40
0.0
 40
0.0
 40
0.0
 40
0.0
 40
0.2023670241
 40
0.3932339549
 40
0.5660407782
 40
0.6440027281
 40
0.7155228784
 40
0.7800482325
 40
0.8370291009
 40
0.8860031424
 40
0.9266228452
 40
0.943693697
 40
0.9585489047
 40
0.9711575853
 40
0.9815040722
 40
0.9895738725
 40
0.9953527584
 40
0.997378922
 40
0.9988276628
 40
0.999698609
 40
1.0
 40
1.0
 40
1.0
 40
1.0
 10
49.9485859738
 20
134.5688705026
 30
0.0
 10
49.8047359177
 20
134.572948267
 30
0.0
 10
49.5252151
 20
134.5810347563
 30
0.0
 10
49.122869147
 20
134.5930270734
 30
0.0
 10
48.8089589229
 20
134.6026394918
 30
0.0
 10
48.5798859696
 20
134.6098711316
 30
0.0
 10
48.4277796328
 20
134.6147836176
 30
0.0
 10
48.2905894994
 20
134.6193310211
 30
0.0
 10
48.1694277512
 20
134.6234739177
 30
0.0
 10
48.0652612894
 20
134.62717907
 30
0.0
 10
47.9894620158
 20
134.6300176438
 30
0.0
 10
47.9379149472
 20
134.6320691339
 30
0.0
 10
47.9062701915
 20
134.6333898984
 30
0.0
 10
47.8794165637
 20
134.6345854567
 30
0.0
 10
47.8573578056
 20
134.6356373217
 30
0.0
 10
47.8402320541
 20
134.6365763343
 30
0.0
 10
47.8288495224
 20
134.637242593
 30
0.0
 10
47.8224437481
 20
134.6378063032
 30
0.0
 10
47.8191127789
 20
134.6380280549
 30
0.0
 10
47.8177169525
 20
134.6384103745
 30
0.0
 10
47.8164237353
 20
134.6384509454
 30
0.0
 10
47.8164488941
 20
134.6386637897
 30
0.0
  0
ENDSEC
  0
SECTION
  2
OBJECTS
  0
DICTIONARY
  5
C
100
AcDbDictionary
280
0
281
1
  3
ACAD_GROUP
350
D
  3
ACAD_MLINESTYLE
350
17
  3
ACAD_LAYOUT
350
1A
  3
ACAD_PLOTSETTINGS
350
19
  3
ACAD_PLOTSTYLENAME
350
E
  0
DICTIONARY
  5
D
102
{ACAD_REACTORS
330
C
102
}
100
AcDbDictionary
280
0
281
1
  0
ACDBDICTIONARYWDFLT
  5
E
102
{ACAD_REACTORS
330
C
102
}
100
AcDbDictionary
281
1
  3
Normal
350
F
100
AcDbDictionaryWithDefault
340
F
  0
DICTIONARY
  5
17
102
{ACAD_REACTORS
330
C
102
}
100
AcDbDictionary
280
0
281
1
  3
Standard
350
18
  0
DICTIONARY
  5
19
102
{ACAD_REACTORS
330
C
102
}
100
AcDbDictionary
281
1
  0
DICTIONARY
  5
1A
102
{ACAD_REACTORS
330
C
102
}
100
AcDbDictionary
281
1
  3
Model
350
26F
  3
Layout1
350
270
  0
ACDBPLACEHOLDER
  5
F
102
{ACAD_REACTORS
330
E
102
}
  0
MLINESTYLE
  5
18
102
{ACAD_REACTORS
330
17
102
}
100
AcDbMlineStyle
  2
STANDARD
 70
0
  3

 62
256
 51
90.0
 52
90.0
 71
2
 49
0.5
 62
256
  6
BYLAYER
 49
-0.5
 62
256
  6
BYLAYER
  0
LAYOUT
  5
26F
102
{ACAD_REACTORS
330
1A
102
}
100
AcDbPlotSettings
  1

  2
none_device
  4

  6

 40
0.0
 41
0.0
 42
0.0
 43
0.0
 44
210.0
 45
297.0
 46
0.0
 47
0.0
 48
0.0
 49
0.0
140
0.0
141
0.0
142
1.0
143
1.0
 70
1024
 72
1
 73
0
 74
0
  7

 75
0
147
1.0
148
0.0
149
0.0
100
AcDbLayout
  1
Model
 70
0
 71
0
 10
0.0
 20
0.0
 11
210.0
 21
297.0
 12
0.0
 22
0.0
 32
0.0
 14
0.0
 24
0.0
 34
0.0
 15
0.0
 25
0.0
 35
0.0
146
0.0
 13
0.0
 23
0.0
 33
0.0
 16
1.0
 26
0.0
 36
0.0
 17
0.0
 27
1.0
 37
0.0
 76
0
330
210
345
0
346
0
  0
LAYOUT
  5
270
102
{ACAD_REACTORS
330
1A
102
}
100
AcDbPlotSettings
  1

  2
none_device
  4

  6

 40
0.0
 41
0.0
 42
0.0
 43
0.0
 44
210.0
 45
297.0
 46
0.0
 47
0.0
 48
0.0
 49
0.0
140
0.0
141
0.0
142
1.0
143
1.0
 70
0
 72
1
 73
0
 74
0
  7

 75
0
147
1.0
148
0.0
149
0.0
100
AcDbLayout
  1
Layout1
 70
0
 71
1
 10
0.0
 20
0.0
 11
210.0
 21
297.0
 12
0.0
 22
0.0
 32
0.0
 14
0.0
 24
0.0
 34
0.0
 15
0.0
 25
0.0
 35
0.0
146
0.0
 13
0.0
 23
0.0
 33
0.0
 16
1.0
 26
0.0
 36
0.0
 17
0.0
 27
1.0
 37
0.0
 76
0
330
211
345
0
346
0
  0
ENDSEC
  0
EOF
