999
DXF file: C:\Users\sesa63760\Dev\_Creo\CAD\MCADPE0010562_3D-CAD\drw0001_1.dxf
999
Pro/ENGINEER 2019471 by Parametric Technology Corporation
  0
SECTION
  2
HEADER
  9
$ACADVER
  1
AC1024
  9
$DWGCODEPAGE
  3
ANSI_1252
  9
$EXTMAX
 10
60.6469637814
 20
85.7721344908
 30
0.0
  9
$EXTMIN
 10
0.0
 20
0.0
 30
0.0
  9
$LIMMIN
 10
0.0
 20
0.0
  9
$LIMMAX
 10
60.6469637814
 20
85.7721344908
  9
$VIEWCTR
 10
30.3234818907
 20
42.8860672454
  9
$VIEWSIZE
 40
85.7721344908
  9
$CLAYER
  8
0
  9
$LTSCALE
 40
5.5910724705
  9
$CELTYPE
  6
BYLAYER
  9
$DIMSCALE
 40
1.0
  9
$DIMASZ
 40
0.7219876641
  9
$DIMEXO
 40
1.0
  9
$DIMDLI
 40
3.8629227978
  9
$DIMEXE
 40
1.0
  9
$DIMCEN
 40
0.9149027679
  9
$DIMLFAC
 40
1.0
  9
$DIMBLK
  1
_FILLED
  9
$DIMALT
 70
0
  9
$DIMALTF
 40
0.0393700787
  9
$DIMTXT
 40
1.0107827297
  9
$DIMTOL
 70
1
  9
$DIMLIM
 70
0
  9
$DIMTFAC
 40
1.0
  9
$DIMTP
 40
0.01
  9
$DIMTM
 40
0.01
  9
$DIMGAP
 40
0.625
  9
$DIMDSEP
 70
46
  9
$AUNITS
 70
0
  9
$PDMODE
 70
3
  9
$PDSIZE
 40
0.3125
  9
$HANDSEED
  5
2A2
  9
$TILEMODE
 70
1
  9
$MEASUREMENT
 70
1
  9
$INSUNITS
 70
4
  0
ENDSEC
  0
SECTION
  2
CLASSES
  0
CLASS
  1
ACDBDICTIONARYWDFLT
  2
AcDbDictionaryWithDefault
  3
AutoCAD 2000
 90
0
 91
1
280
0
281
0
  0
CLASS
  1
ACDBPLACEHOLDER
  2
AcDbPlaceHolder
  3
AutoCAD 2000
 90
0
 91
1
280
0
281
0
  0
CLASS
  1
LAYOUT
  2
AcDbLayout
  3
AutoCAD 2000
 90
0
 91
0
280
0
281
0
  0
ENDSEC
  0
SECTION
  2
TABLES
  0
TABLE
  2
VPORT
  5
8
100
AcDbSymbolTable
 70
2
  0
VPORT
  5
1F4
100
AcDbSymbolTableRecord
100
AcDbViewportTableRecord
  2
*ACTIVE
 70
0
 10
0.0
 20
0.0
 11
1.0
 21
1.0
 12
30.3234818907
 22
42.8860672454
 13
0.0
 23
0.0
 14
1.0
 24
1.0
 15
0.0
 25
0.0
 16
0.0
 26
0.0
 36
1.0
 17
0.0
 27
0.0
 37
0.0
 40
85.7721344908
 41
0.7070707071
 42
50.0
 43
0.0
 44
0.0
 50
0.0
 51
0.0
 71
0
 72
100
 73
1
 74
1
 75
0
 76
0
 77
0
 78
0
  0
ENDTAB
  0
TABLE
  2
LTYPE
  5
5
100
AcDbSymbolTable
 70
6
  0
LTYPE
  5
14
100
AcDbSymbolTableRecord
100
AcDbLinetypeTableRecord
  2
BYBLOCK
 70
0
  3

 72
65
 73
0
 40
0.0
  0
LTYPE
  5
15
100
AcDbSymbolTableRecord
100
AcDbLinetypeTableRecord
  2
BYLAYER
 70
0
  3

 72
65
 73
0
 40
0.0
  0
LTYPE
  5
16
100
AcDbSymbolTableRecord
100
AcDbLinetypeTableRecord
  2
CONTINUOUS
 70
64
  3
Solid line
 72
65
 73
0
 40
0.0
  0
LTYPE
  5
1F5
100
AcDbSymbolTableRecord
100
AcDbLinetypeTableRecord
  2
CENTER
 70
64
  3
____ _ ____ _ ____ _ ____ _ ____ _ ____ _ ____
 72
65
 73
4
 40
0.6
 49
0.375
 74
0
 49
-0.075
 74
0
 49
0.075
 74
0
 49
-0.075
 74
0
  0
LTYPE
  5
1F6
100
AcDbSymbolTableRecord
100
AcDbLinetypeTableRecord
  2
HIDDEN
 70
64
  3
- - - - - - - - - - - - - - - - - - - -
 72
65
 73
2
 40
0.2
 49
0.1
 74
0
 49
-0.1
 74
0
  0
LTYPE
  5
1F7
100
AcDbSymbolTableRecord
100
AcDbLinetypeTableRecord
  2
PHANTOM
 70
64
  3
_____ _ _ _____ _ _ _____ _ _ _____
 72
65
 73
6
 40
0.8
 49
0.45
 74
0
 49
-0.05
 74
0
 49
0.1
 74
0
 49
-0.05
 74
0
 49
0.1
 74
0
 49
-0.05
 74
0
  0
LTYPE
  5
1F8
100
AcDbSymbolTableRecord
100
AcDbLinetypeTableRecord
  2
DOT
 70
64
  3
. . . . . . . . . . . . . . . . . . . .
 72
65
 73
2
 40
0.2
 49
0.1
 74
0
 49
-0.1
 74
0
  0
LTYPE
  5
1F9
100
AcDbSymbolTableRecord
100
AcDbLinetypeTableRecord
  2
DASHED
 70
64
  3
- - - - - - - - - - - - - - - - - - - -
 72
65
 73
2
 40
0.2
 49
0.1
 74
0
 49
-0.1
 74
0
  0
ENDTAB
  0
TABLE
  2
LAYER
  5
2
100
AcDbSymbolTable
 70
36
  0
LAYER
  5
10
100
AcDbSymbolTableRecord
100
AcDbLayerTableRecord
  2
0
 70
0
 62
7
  6
CONTINUOUS
370
-3
390
F
  0
LAYER
  5
1FA
100
AcDbSymbolTableRecord
100
AcDbLayerTableRecord
  2
DEFAULT_1
 70
0
 62
7
  6
CENTER
370
-3
390
F
  0
LAYER
  5
1FB
100
AcDbSymbolTableRecord
100
AcDbLayerTableRecord
  2
DEFAULT_2
 70
0
 62
7
  6
HIDDEN
370
-3
390
F
  0
LAYER
  5
1FC
100
AcDbSymbolTableRecord
100
AcDbLayerTableRecord
  2
DEFAULT_3
 70
0
 62
7
  6
PHANTOM
370
-3
390
F
  0
LAYER
  5
1FD
100
AcDbSymbolTableRecord
100
AcDbLayerTableRecord
  2
00_COMPONENTS
 70
0
 62
7
  6
CONTINUOUS
370
-3
390
F
  0
LAYER
  5
1FE
100
AcDbSymbolTableRecord
100
AcDbLayerTableRecord
  2
01_1_DEFAULT_DATUMS
 70
0
 62
7
  6
CONTINUOUS
370
-3
390
F
  0
LAYER
  5
1FF
100
AcDbSymbolTableRecord
100
AcDbLayerTableRecord
  2
01_PLANES
 70
0
 62
7
  6
CONTINUOUS
370
-3
390
F
  0
LAYER
  5
200
100
AcDbSymbolTableRecord
100
AcDbLayerTableRecord
  2
02_COORD_SYS
 70
0
 62
7
  6
CONTINUOUS
370
-3
390
F
  0
LAYER
  5
201
100
AcDbSymbolTableRecord
100
AcDbLayerTableRecord
  2
03_AXES
 70
0
 62
7
  6
CONTINUOUS
370
-3
390
F
  0
LAYER
  5
202
100
AcDbSymbolTableRecord
100
AcDbLayerTableRecord
  2
04_POINTS
 70
0
 62
7
  6
CONTINUOUS
370
-3
390
F
  0
LAYER
  5
203
100
AcDbSymbolTableRecord
100
AcDbLayerTableRecord
  2
05_CURVES
 70
0
 62
7
  6
CONTINUOUS
370
-3
390
F
  0
LAYER
  5
204
100
AcDbSymbolTableRecord
100
AcDbLayerTableRecord
  2
06_SURFS
 70
0
 62
7
  6
CONTINUOUS
370
-3
390
F
  0
LAYER
  5
205
100
AcDbSymbolTableRecord
100
AcDbLayerTableRecord
  2
07_COSMETICS
 70
0
 62
7
  6
CONTINUOUS
370
-3
390
F
  0
LAYER
  5
206
100
AcDbSymbolTableRecord
100
AcDbLayerTableRecord
  2
10_NOTES
 70
0
 62
7
  6
CONTINUOUS
370
-3
390
F
  0
LAYER
  5
207
100
AcDbSymbolTableRecord
100
AcDbLayerTableRecord
  2
11_NOTES_PUB
 70
0
 62
7
  6
CONTINUOUS
370
-3
390
F
  0
LAYER
  5
208
100
AcDbSymbolTableRecord
100
AcDbLayerTableRecord
  2
13_REF_GTOL
 70
0
 62
7
  6
CONTINUOUS
370
-3
390
F
  0
LAYER
  5
209
100
AcDbSymbolTableRecord
100
AcDbLayerTableRecord
  2
16_MISC
 70
0
 62
7
  6
CONTINUOUS
370
-3
390
F
  0
LAYER
  5
20A
100
AcDbSymbolTableRecord
100
AcDbLayerTableRecord
  2
17_NO_PRINT
 70
0
 62
7
  6
CONTINUOUS
370
-3
390
F
  0
LAYER
  5
20B
100
AcDbSymbolTableRecord
100
AcDbLayerTableRecord
  2
18_DATUM_CAMS_JOINTS
 70
0
 62
7
  6
CONTINUOUS
370
-3
390
F
  0
LAYER
  5
20C
100
AcDbSymbolTableRecord
100
AcDbLayerTableRecord
  2
19_DATUM_FUNCTIONAL
 70
0
 62
7
  6
CONTINUOUS
370
-3
390
F
  0
LAYER
  5
20D
100
AcDbSymbolTableRecord
100
AcDbLayerTableRecord
  2
20_DATUM_KINEMATIC_SCHEME
 70
0
 62
7
  6
CONTINUOUS
370
-3
390
F
  0
ENDTAB
  0
TABLE
  2
STYLE
  5
3
100
AcDbSymbolTable
 70
1
  0
STYLE
  5
11
100
AcDbSymbolTableRecord
100
AcDbTextStyleTableRecord
  2
STANDARD
 70
0
 40
0.0
 41
1.0
 50
0.0
 71
0
 42
0.2
  3
ARIAL.TTF
  4

  0
STYLE
  5
20E
100
AcDbSymbolTableRecord
100
AcDbTextStyleTableRecord
  2
TEXTSTYLE_1
 70
0
 40
0.0
 41
0.8
 50
0.0
 71
0
 42
0.2
  3
gdt
  4

  0
ENDTAB
  0
TABLE
  2
VIEW
  5
6
100
AcDbSymbolTable
 70
0
  0
ENDTAB
  0
TABLE
  2
UCS
  5
7
100
AcDbSymbolTable
 70
0
  0
ENDTAB
  0
TABLE
  2
APPID
  5
9
100
AcDbSymbolTable
 70
1
  0
APPID
  5
20F
100
AcDbSymbolTableRecord
100
AcDbRegAppTableRecord
  2
ACAD
 70
0
  0
ENDTAB
  0
TABLE
  2
BLOCK_RECORD
  5
1
100
AcDbSymbolTable
 70
0
  0
BLOCK_RECORD
  5
210
100
AcDbSymbolTableRecord
100
AcDbBlockTableRecord
  2
*Model_Space
  0
BLOCK_RECORD
  5
211
100
AcDbSymbolTableRecord
100
AcDbBlockTableRecord
  2
*Paper_Space
  0
BLOCK_RECORD
  5
212
100
AcDbSymbolTableRecord
100
AcDbBlockTableRecord
  2
_FILLED
  0
ENDTAB
  0
TABLE
  2
DIMSTYLE
  5
A
100
AcDbSymbolTable
 70
1
100
AcDbDimStyleTable
 71
0
  0
DIMSTYLE
105
213
100
AcDbSymbolTableRecord
100
AcDbDimStyleTableRecord
  2
STANDARD
 70
0
  3

  4

 40
1.0
 41
0.7219876641
 42
1.0
 43
0.38
 44
1.0
 45
0.0
 46
0.0
 47
0.01
 48
0.01
140
1.0107827297
141
0.09
142
0.0
143
25.4
144
1.0
145
0.0
146
1.0
147
0.625
 71
1
 72
0
 73
0
 74
0
 75
0
 76
0
 77
1
 78
8
 79
2
170
0
171
1
172
0
173
0
174
0
175
0
176
0
177
0
178
0
270
2
179
2
271
2
272
2
273
2
274
2
275
0
280
0
281
0
282
0
283
1
284
8
285
0
286
0
287
3
288
0
340
11
278
46
341
212
342
212
343
212
344
212
  0
ENDTAB
  0
ENDSEC
  0
SECTION
  2
BLOCKS
  0
BLOCK
  5
20
100
AcDbEntity
  8
0
100
AcDbBlockBegin
  2
*Model_Space
 70
0
 10
0.0
 20
0.0
 30
0.0
  3
*Model_Space
  1

  0
ENDBLK
  5
21
100
AcDbEntity
  8
0
100
AcDbBlockEnd
  0
BLOCK
  5
1C
100
AcDbEntity
  8
0
100
AcDbBlockBegin
  2
*Paper_Space
 70
0
 10
0.0
 20
0.0
 30
0.0
  3
*Paper_Space
  1

  0
ENDBLK
  5
1D
100
AcDbEntity
  8
0
100
AcDbBlockEnd
  0
BLOCK
  5
214
100
AcDbEntity
  8
0
100
AcDbBlockBegin
  2
_FILLED
 70
64
 10
0.0
 20
0.0
  3
_FILLED
  1

  0
SOLID
  5
215
100
AcDbEntity
  8
0
  6
BYBLOCK
 62
0
100
AcDbTrace
 10
0.0
 20
0.0
 11
-1.0
 21
0.25
 12
-1.0
 22
-0.25
 13
-1.0
 23
-0.25
  0
ENDBLK
  5
216
100
AcDbEntity
  8
0
  6
BYBLOCK
 62
0
100
AcDbBlockEnd
  0
ENDSEC
  0
SECTION
  2
ENTITIES
  0
LINE
  5
217
100
AcDbEntity
  8
0
100
AcDbLine
 62
7
  6
BYLAYER
 10
21.8849967952
 20
11.4973818869
 11
15.5210622603
 21
14.4709638311
  0
LINE
  5
218
100
AcDbEntity
  8
0
100
AcDbLine
 62
7
  6
BYLAYER
 10
15.5210622603
 20
14.4709638311
 11
7.0357455585
 21
19.3698528853
  0
LINE
  5
219
100
AcDbEntity
  8
0
100
AcDbLine
 62
7
  6
BYLAYER
 10
22.1324831382
 20
16.1310306349
 11
23.4406252371
 21
16.0141777225
  0
LINE
  5
21A
100
AcDbEntity
  8
0
100
AcDbLine
 62
7
  6
BYLAYER
 10
23.4406252371
 20
16.0141777225
 11
22.1324831382
 21
16.7694168296
  0
LINE
  5
21B
100
AcDbEntity
  8
0
100
AcDbLine
 62
7
  6
BYLAYER
 10
7.0357455585
 20
50.4214398088
 11
7.0357455585
 21
19.3698528853
  0
LINE
  5
21C
100
AcDbEntity
  8
0
100
AcDbLine
 62
7
  6
BYLAYER
 10
7.7805778929
 20
52.1088338546
 11
7.0357455585
 21
50.4214398088
  0
LINE
  5
21D
100
AcDbEntity
  8
0
100
AcDbLine
 62
7
  6
BYLAYER
 10
12.6113083139
 20
60.0322375239
 11
10.9021486635
 21
57.2288598429
  0
LINE
  5
21E
100
AcDbEntity
  8
0
100
AcDbLine
 62
7
  6
BYLAYER
 10
37.6427841513
 20
74.484080571
 11
29.8646419419
 21
69.9933948784
  0
LINE
  5
21F
100
AcDbEntity
  8
0
100
AcDbLine
 62
7
  6
BYLAYER
 10
20.3894505232
 20
64.5229232165
 11
12.6113083139
 21
60.0322375239
  0
LINE
  5
220
100
AcDbEntity
  8
0
100
AcDbLine
 62
7
  6
BYLAYER
 10
7.6367888249
 20
27.6067727654
 11
14.9200189939
 21
23.4018929939
  0
LINE
  5
221
100
AcDbEntity
  8
0
100
AcDbLine
 62
7
  6
BYLAYER
 10
7.6367888249
 20
46.3384861468
 11
7.6367888249
 21
27.6067727654
  0
LINE
  5
222
100
AcDbEntity
  8
0
100
AcDbLine
 62
7
  6
BYLAYER
 10
12.3387806659
 20
56.2560346548
 11
9.2818778286
 21
51.2420775412
  0
LINE
  5
223
100
AcDbEntity
  8
0
100
AcDbLine
 62
7
  6
BYLAYER
 10
12.6466685105
 20
40.9873331741
 11
12.6466685105
 21
35.2718162542
  0
LINE
  5
224
100
AcDbEntity
  8
0
100
AcDbLine
 62
7
  6
BYLAYER
 10
12.750967195
 20
36.6676967201
 11
14.0750301553
 21
34.44716993
  0
LINE
  5
225
100
AcDbEntity
  8
0
100
AcDbLine
 62
7
  6
BYLAYER
 10
12.750967195
 20
36.6676967201
 11
12.750967195
 21
40.9271176628
  0
LINE
  5
226
100
AcDbEntity
  8
0
100
AcDbLine
 62
7
  6
BYLAYER
 10
13.4580710322
 20
40.6400669358
 11
13.4580710322
 21
37.075940874
  0
LINE
  5
227
100
AcDbEntity
  8
0
100
AcDbLine
 62
7
  6
BYLAYER
 10
13.8133936691
 20
40.4349259567
 11
13.8133936691
 21
37.0477087519
  0
LINE
  5
228
100
AcDbEntity
  8
0
100
AcDbLine
 62
7
  6
BYLAYER
 10
14.9200189939
 20
42.1336063752
 11
14.9200189939
 21
23.4018929939
  0
LINE
  5
229
100
AcDbEntity
  8
0
100
AcDbLine
 62
7
  6
BYLAYER
 10
29.1575381047
 20
61.1751758281
 11
27.6728065504
 21
60.3179707824
  0
LINE
  5
22A
100
AcDbEntity
  8
0
100
AcDbLine
 62
7
  6
BYLAYER
 10
28.5920491931
 20
59.7872578015
 11
30.0767807474
 21
60.6444628472
  0
LINE
  5
22B
100
AcDbEntity
  8
0
100
AcDbLine
 62
7
  6
BYLAYER
 10
12.6466685105
 20
35.2718162542
 11
14.9200189939
 21
33.9593264331
  0
LINE
  5
22C
100
AcDbEntity
  8
0
100
AcDbLine
 62
7
  6
BYLAYER
 10
14.7821339925
 20
34.8554140839
 11
13.4580710322
 21
37.075940874
  0
LINE
  5
22D
100
AcDbEntity
  8
0
100
AcDbLine
 62
7
  6
BYLAYER
 10
13.8133936691
 20
37.0477087519
 11
14.9200189939
 21
35.1918368983
  0
LINE
  5
22E
100
AcDbEntity
  8
0
100
AcDbLine
 62
7
  6
BYLAYER
 10
15.5210622603
 20
45.5225507545
 11
15.5210622603
 21
14.4709638311
  0
LINE
  5
22F
100
AcDbEntity
  8
0
100
AcDbLine
 62
7
  6
BYLAYER
 10
15.5210622603
 20
45.5225507545
 11
16.2658945946
 21
47.2099448003
  0
LINE
  5
230
100
AcDbEntity
  8
0
100
AcDbLine
 62
7
  6
BYLAYER
 10
19.3874653653
 20
52.3299707887
 11
21.0966250157
 21
55.1333484697
  0
LINE
  5
231
100
AcDbEntity
  8
0
100
AcDbLine
 62
7
  6
BYLAYER
 10
17.702526597
 20
46.2371196121
 11
20.8240973677
 21
51.3571456005
  0
LINE
  5
232
100
AcDbEntity
  8
0
100
AcDbLine
 62
7
  6
BYLAYER
 10
46.128100853
 20
69.5851915167
 11
38.3499586437
 21
65.0945058242
  0
LINE
  5
233
100
AcDbEntity
  8
0
100
AcDbLine
 62
7
  6
BYLAYER
 10
28.874767225
 20
59.6240341623
 11
21.0966250157
 21
55.1333484697
  0
LINE
  5
234
100
AcDbEntity
  8
0
100
AcDbLine
 62
7
  6
BYLAYER
 10
14.7821339925
 20
34.8554140839
 11
14.9200189939
 21
34.7758079422
  0
LINE
  5
235
100
AcDbEntity
  8
0
100
AcDbLine
 62
7
  6
BYLAYER
 10
7.6367888249
 20
46.3384861468
 11
12.6466685105
 21
40.9873331741
  0
LINE
  5
236
100
AcDbEntity
  8
0
100
AcDbLine
 62
7
  6
BYLAYER
 10
12.750967195
 20
40.9271176628
 11
12.5040420455
 21
41.1908633674
  0
LINE
  5
237
100
AcDbEntity
  8
0
100
AcDbLine
 62
7
  6
BYLAYER
 10
12.6466685105
 20
35.2718162542
 11
7.6367888249
 21
27.6067727654
  0
LINE
  5
238
100
AcDbEntity
  8
0
100
AcDbLine
 62
7
  6
BYLAYER
 10
29.5818710622
 20
55.0514626015
 11
30.0767807474
 21
55.3371971359
  0
LINE
  5
239
100
AcDbEntity
  8
0
100
AcDbLine
 62
7
  6
BYLAYER
 10
12.6466685105
 20
40.9873331741
 11
12.750967195
 21
40.9271176628
  0
LINE
  5
23A
100
AcDbEntity
  8
0
100
AcDbLine
 62
7
  6
BYLAYER
 10
14.9200189939
 20
39.7960299812
 11
12.5040420455
 21
41.1908633674
  0
LINE
  5
23B
100
AcDbEntity
  8
0
100
AcDbLine
 62
7
  6
BYLAYER
 10
22.1324831382
 20
16.1310306349
 11
22.1324831382
 21
17.3557842606
  0
LINE
  5
23C
100
AcDbEntity
  8
0
100
AcDbLine
 62
7
  6
BYLAYER
 10
29.8646419419
 20
69.9933948784
 11
29.1575381047
 21
67.5438946817
  0
LINE
  5
23D
100
AcDbEntity
  8
0
100
AcDbLine
 62
7
  6
BYLAYER
 10
31.5617111702
 20
54.4798915514
 11
29.5818710622
 21
53.3368371552
  0
LINE
  5
23E
100
AcDbEntity
  8
0
100
AcDbLine
 62
7
  6
BYLAYER
 10
31.5617111702
 20
53.6633891342
 11
29.8293610905
 21
52.6632223196
  0
LINE
  5
23F
100
AcDbEntity
  8
0
100
AcDbLine
 62
7
  6
BYLAYER
 10
29.900072063
 20
52.6223982442
 11
31.561711759
 21
53.5817406434
  0
LINE
  5
240
100
AcDbEntity
  8
0
100
AcDbLine
 62
7
  6
BYLAYER
 10
37.1478779989
 20
56.562055302
 11
29.5818710622
 21
52.1938452351
  0
LINE
  5
241
100
AcDbEntity
  8
0
100
AcDbLine
 62
7
  6
BYLAYER
 10
37.6428548065
 20
56.2762867738
 11
29.5818710622
 21
51.6223034197
  0
LINE
  5
242
100
AcDbEntity
  8
0
100
AcDbLine
 62
7
  6
BYLAYER
 10
7.6367888249
 20
46.3384861468
 11
14.9200189939
 21
42.1336063752
  0
LINE
  5
243
100
AcDbEntity
  8
0
100
AcDbLine
 62
7
  6
BYLAYER
 10
45.4669097663
 20
25.1123244185
 11
43.0627367008
 21
26.5003429839
  0
LINE
  5
244
100
AcDbEntity
  8
0
100
AcDbLine
 62
7
  6
BYLAYER
 10
43.0627367008
 20
26.6554765614
 11
40.6514076954
 21
28.0476265171
  0
LINE
  5
245
100
AcDbEntity
  8
0
100
AcDbLine
 62
7
  6
BYLAYER
 10
23.4406252371
 20
14.3811728883
 11
23.4406252371
 21
16.0141777225
  0
LINE
  5
246
100
AcDbEntity
  8
0
100
AcDbLine
 62
7
  6
BYLAYER
 10
15.5210622603
 20
45.5225507545
 11
7.0357455585
 21
50.4214398088
  0
LINE
  5
247
100
AcDbEntity
  8
0
100
AcDbLine
 62
7
  6
BYLAYER
 10
42.4735145723
 20
72.1386906233
 11
42.3545404884
 21
71.9207478898
  0
LINE
  5
248
100
AcDbEntity
  8
0
100
AcDbLine
 62
7
  6
BYLAYER
 10
12.750967195
 20
36.6676967201
 11
13.4580710322
 21
37.075940874
  0
LINE
  5
249
100
AcDbEntity
  8
0
100
AcDbLine
 62
7
  6
BYLAYER
 10
14.9200189939
 20
37.6866153673
 11
13.8133936691
 21
37.0477087519
  0
LINE
  5
24A
100
AcDbEntity
  8
0
100
AcDbLine
 62
7
  6
BYLAYER
 10
16.2658945946
 20
47.2099448003
 11
7.7805778929
 21
52.1088338546
  0
LINE
  5
24B
100
AcDbEntity
  8
0
100
AcDbLine
 62
7
  6
BYLAYER
 10
16.2658945946
 20
47.2099448003
 11
17.702526597
 21
46.2371196121
  0
LINE
  5
24C
100
AcDbEntity
  8
0
100
AcDbLine
 62
7
  6
BYLAYER
 10
29.1575381047
 20
67.5438946817
 11
29.1575381047
 21
61.1751758281
  0
LINE
  5
24D
100
AcDbEntity
  8
0
100
AcDbLine
 62
7
  6
BYLAYER
 10
29.5818710622
 20
51.6223034197
 11
29.5818710622
 21
57.9910222733
  0
LINE
  5
24E
100
AcDbEntity
  8
0
100
AcDbLine
 62
7
  6
BYLAYER
 10
29.6631390046
 20
34.1960714815
 11
29.6631390046
 21
40.5647903351
  0
LINE
  5
24F
100
AcDbEntity
  8
0
100
AcDbLine
 62
7
  6
BYLAYER
 10
30.0767807474
 20
55.3371971359
 11
30.0767807474
 21
60.6444628472
  0
LINE
  5
250
100
AcDbEntity
  8
0
100
AcDbLine
 62
7
  6
BYLAYER
 10
14.0750301553
 20
34.44716993
 11
14.7821339925
 21
34.8554140839
  0
LINE
  5
251
100
AcDbEntity
  8
0
100
AcDbLine
 62
7
  6
BYLAYER
 10
48.6608442118
 20
30.8208513612
 11
50.3105710512
 21
29.8684026736
  0
LINE
  5
252
100
AcDbEntity
  8
0
100
AcDbLine
 62
7
  6
BYLAYER
 10
49.5334917954
 20
32.1958186806
 11
48.5462652161
 21
32.7657813176
  0
LINE
  5
253
100
AcDbEntity
  8
0
100
AcDbLine
 62
7
  6
BYLAYER
 10
52.0783306443
 20
30.8890130583
 11
49.6741575788
 21
32.2770316237
  0
LINE
  5
254
100
AcDbEntity
  8
0
100
AcDbLine
 62
7
  6
BYLAYER
 10
31.5617111702
 20
54.4798915514
 11
31.5617111702
 21
53.6633891342
  0
LINE
  5
255
100
AcDbEntity
  8
0
100
AcDbLine
 62
7
  6
BYLAYER
 10
31.561711759
 20
53.3368999713
 11
31.561711759
 21
53.5817406434
  0
LINE
  5
256
100
AcDbEntity
  8
0
100
AcDbLine
 62
7
  6
BYLAYER
 10
37.6428548065
 20
62.6450056275
 11
38.3499586437
 21
65.0945058242
  0
LINE
  5
257
100
AcDbEntity
  8
0
100
AcDbLine
 62
7
  6
BYLAYER
 10
47.8372605034
 20
68.7553696237
 11
46.400628501
 21
66.123674591
  0
LINE
  5
258
100
AcDbEntity
  8
0
100
AcDbLine
 62
7
  6
BYLAYER
 10
29.6631390046
 20
40.5647903351
 11
38.5019369697
 21
45.6678422585
  0
LINE
  5
259
100
AcDbEntity
  8
0
100
AcDbLine
 62
7
  6
BYLAYER
 10
37.299850437
 20
39.9931326875
 11
38.5019369697
 21
39.2991234048
  0
LINE
  5
25A
100
AcDbEntity
  8
0
100
AcDbLine
 62
7
  6
BYLAYER
 10
36.8650270433
 20
41.1301344262
 11
37.2892928784
 21
40.8851899734
  0
LINE
  5
25B
100
AcDbEntity
  8
0
100
AcDbLine
 62
7
  6
BYLAYER
 10
20.8240973677
 20
51.3571456005
 11
12.3387806659
 21
56.2560346548
  0
LINE
  5
25C
100
AcDbEntity
  8
0
100
AcDbLine
 62
7
  6
BYLAYER
 10
19.3874653653
 20
52.3299707887
 11
10.9021486635
 21
57.2288598429
  0
LINE
  5
25D
100
AcDbEntity
  8
0
100
AcDbLine
 62
7
  6
BYLAYER
 10
10.9021486635
 20
57.2288598429
 11
12.3387806659
 21
56.2560346548
  0
LINE
  5
25E
100
AcDbEntity
  8
0
100
AcDbLine
 62
7
  6
BYLAYER
 10
20.8240973677
 20
51.3571456005
 11
19.3874653653
 21
52.3299707887
  0
LINE
  5
25F
100
AcDbEntity
  8
0
100
AcDbLine
 62
7
  6
BYLAYER
 10
37.2892928784
 20
40.8851899734
 11
37.299850437
 21
40.8912853464
  0
LINE
  5
260
100
AcDbEntity
  8
0
100
AcDbLine
 62
7
  6
BYLAYER
 10
36.8650270433
 20
40.2319817673
 11
29.6631390046
 21
36.0739945893
  0
LINE
  5
261
100
AcDbEntity
  8
0
100
AcDbLine
 62
7
  6
BYLAYER
 10
50.9391906528
 20
35.9378494659
 11
48.6538056621
 21
37.2572872559
  0
LINE
  5
262
100
AcDbEntity
  8
0
100
AcDbLine
 62
7
  6
BYLAYER
 10
53.3511175512
 20
34.5632612369
 11
50.9469444857
 21
35.9512798023
  0
LINE
  5
263
100
AcDbEntity
  8
0
100
AcDbLine
 62
7
  6
BYLAYER
 10
52.0127934809
 20
36.5666443334
 11
49.5378251302
 21
37.9955356511
  0
LINE
  5
264
100
AcDbEntity
  8
0
100
AcDbLine
 62
7
  6
BYLAYER
 10
54.5531940745
 20
35.2572762985
 11
52.149021009
 21
36.6452948639
  0
LINE
  5
265
100
AcDbEntity
  8
0
100
AcDbLine
 62
7
  6
BYLAYER
 10
28.874767225
 20
59.6240341623
 11
29.5818710622
 21
57.9910222733
  0
LINE
  5
266
100
AcDbEntity
  8
0
100
AcDbLine
 62
7
  6
BYLAYER
 10
36.8650270433
 20
40.2319817673
 11
36.8650270433
 21
44.7227775131
  0
LINE
  5
267
100
AcDbEntity
  8
0
100
AcDbLine
 62
7
  6
BYLAYER
 10
37.2892928784
 20
44.967726045
 11
37.2892928784
 21
40.8851899734
  0
LINE
  5
268
100
AcDbEntity
  8
0
100
AcDbLine
 62
7
  6
BYLAYER
 10
37.299850437
 20
44.9738214179
 11
37.299850437
 21
39.9931326875
  0
LINE
  5
269
100
AcDbEntity
  8
0
100
AcDbLine
 62
7
  6
BYLAYER
 10
37.6428548065
 20
62.6450056275
 11
37.6428548065
 21
56.2762867738
  0
LINE
  5
26A
100
AcDbEntity
  8
0
100
AcDbLine
 62
7
  6
BYLAYER
 10
38.5019369697
 20
45.6678422585
 11
38.5019369697
 21
39.2991234048
  0
LINE
  5
26B
100
AcDbEntity
  8
0
100
AcDbLine
 62
7
  6
BYLAYER
 10
23.4406252371
 20
14.3811728883
 11
21.8849967952
 21
11.4973818869
  0
LINE
  5
26C
100
AcDbEntity
  8
0
100
AcDbLine
 62
7
  6
BYLAYER
 10
49.5221992717
 20
64.6081065364
 11
50.9588312741
 21
67.2398015691
  0
LINE
  5
26D
100
AcDbEntity
  8
0
100
AcDbLine
 62
7
  6
BYLAYER
 10
38.5019369697
 20
39.2991234048
 11
29.6631390046
 21
34.1960714815
  0
LINE
  5
26E
100
AcDbEntity
  8
0
100
AcDbLine
 62
7
  6
BYLAYER
 10
21.0966250157
 20
55.1333484697
 11
12.6113083139
 21
60.0322375239
  0
LINE
  5
26F
100
AcDbEntity
  8
0
100
AcDbLine
 62
7
  6
BYLAYER
 10
29.7585614177
 20
52.2958568505
 11
29.5818710622
 21
52.3978667671
  0
LINE
  5
270
100
AcDbEntity
  8
0
100
AcDbLine
 62
7
  6
BYLAYER
 10
29.5818710622
 20
52.8061075216
 11
30.1121133363
 21
52.4999789275
  0
LINE
  5
271
100
AcDbEntity
  8
0
100
AcDbLine
 62
7
  6
BYLAYER
 10
31.7737530323
 20
53.4593213267
 11
31.561711759
 21
53.5817406434
  0
LINE
  5
272
100
AcDbEntity
  8
0
100
AcDbLine
 62
7
  6
BYLAYER
 10
31.844463416
 20
53.5001457421
 11
31.5617111702
 21
53.6633891342
  0
LINE
  5
273
100
AcDbEntity
  8
0
100
AcDbLine
 62
7
  6
BYLAYER
 10
31.5617111702
 20
54.4798915514
 11
30.0767807474
 21
55.3371971359
  0
LINE
  5
274
100
AcDbEntity
  8
0
100
AcDbLine
 62
7
  6
BYLAYER
 10
43.0627367008
 20
29.4397996573
 11
43.0627367008
 21
26.5003429839
  0
LINE
  5
275
100
AcDbEntity
  8
0
100
AcDbLine
 62
7
  6
BYLAYER
 10
28.874767225
 20
59.6240341623
 11
20.3894505232
 21
64.5229232165
  0
LINE
  5
276
100
AcDbEntity
  8
0
100
AcDbLine
 62
7
  6
BYLAYER
 10
45.4669097663
 20
30.8278413384
 11
45.4669097663
 21
25.1123244185
  0
LINE
  5
277
100
AcDbEntity
  8
0
100
AcDbLine
 62
7
  6
BYLAYER
 10
49.5221992717
 20
37.9865141113
 11
47.9049521341
 21
36.8545077628
  0
LINE
  5
278
100
AcDbEntity
  8
0
100
AcDbLine
 62
7
  6
BYLAYER
 10
49.5221992717
 20
37.9865141113
 11
50.9364069461
 21
38.803002419
  0
LINE
  5
279
100
AcDbEntity
  8
0
100
AcDbLine
 62
7
  6
BYLAYER
 10
37.6428548065
 20
56.2762867738
 11
37.1478779989
 21
56.562055302
  0
LINE
  5
27A
100
AcDbEntity
  8
0
100
AcDbLine
 62
7
  6
BYLAYER
 10
30.0767807474
 20
60.6444628472
 11
29.1575381047
 21
61.1751758281
  0
LINE
  5
27B
100
AcDbEntity
  8
0
100
AcDbLine
 62
7
  6
BYLAYER
 10
52.149021009
 20
36.6452948639
 11
50.9469444857
 21
35.9512798023
  0
LINE
  5
27C
100
AcDbEntity
  8
0
100
AcDbLine
 62
7
  6
BYLAYER
 10
22.1324831382
 20
17.3557842606
 11
45.4669097663
 21
30.8278413384
  0
LINE
  5
27D
100
AcDbEntity
  8
0
100
AcDbLine
 62
7
  6
BYLAYER
 10
54.5531940745
 20
35.2572762985
 11
53.3511175512
 21
34.5632612369
  0
LINE
  5
27E
100
AcDbEntity
  8
0
100
AcDbLine
 62
7
  6
BYLAYER
 10
49.6741575788
 20
32.2770316237
 11
48.6308825039
 21
31.6747000738
  0
LINE
  5
27F
100
AcDbEntity
  8
0
100
AcDbLine
 62
7
  6
BYLAYER
 10
52.3506146205
 20
43.7020028124
 11
50.9364069461
 21
38.803002419
  0
LINE
  5
280
100
AcDbEntity
  8
0
100
AcDbLine
 62
7
  6
BYLAYER
 10
50.9469444857
 20
35.9512798023
 11
49.6741575788
 21
32.2770316237
  0
LINE
  5
281
100
AcDbEntity
  8
0
100
AcDbLine
 62
7
  6
BYLAYER
 10
52.0783306443
 20
30.8890130583
 11
50.3105710512
 21
29.8684026736
  0
LINE
  5
282
100
AcDbEntity
  8
0
100
AcDbLine
 62
7
  6
BYLAYER
 10
37.6428548065
 20
62.6450056275
 11
29.1575381047
 21
67.5438946817
  0
LINE
  5
283
100
AcDbEntity
  8
0
100
AcDbLine
 62
7
  6
BYLAYER
 10
52.3506146205
 20
43.7020028124
 11
52.3506146205
 21
66.5640704921
  0
LINE
  5
284
100
AcDbEntity
  8
0
100
AcDbLine
 62
7
  6
BYLAYER
 10
54.5531940745
 20
30.3582617957
 11
54.5531940745
 21
35.2572762985
  0
LINE
  5
285
100
AcDbEntity
  8
0
100
AcDbLine
 62
7
  6
BYLAYER
 10
48.6933239136
 20
28.7363963252
 11
50.3105710512
 21
29.8684026736
  0
LINE
  5
286
100
AcDbEntity
  8
0
100
AcDbLine
 62
7
  6
BYLAYER
 10
45.4669097663
 20
25.1123244185
 11
54.5531940745
 21
30.3582617957
  0
LINE
  5
287
100
AcDbEntity
  8
0
100
AcDbLine
 62
7
  6
BYLAYER
 10
38.3499586437
 20
65.0945058242
 11
29.8646419419
 21
69.9933948784
  0
LINE
  5
288
100
AcDbEntity
  8
0
100
AcDbLine
 62
7
  6
BYLAYER
 10
52.0783306443
 20
30.8890130583
 11
53.3511175512
 21
34.5632612369
  0
LINE
  5
289
100
AcDbEntity
  8
0
100
AcDbLine
 62
7
  6
BYLAYER
 10
46.400628501
 20
66.123674591
 11
49.5221992717
 21
64.6081065364
  0
LINE
  5
28A
100
AcDbEntity
  8
0
100
AcDbLine
 62
7
  6
BYLAYER
 10
49.5221992717
 20
64.6081065364
 11
46.5247419171
 21
66.3386501968
  0
LINE
  5
28B
100
AcDbEntity
  8
0
100
AcDbLine
 62
7
  6
BYLAYER
 10
46.128100853
 20
69.5851915167
 11
47.8372605034
 21
68.7553696237
  0
LINE
  5
28C
100
AcDbEntity
  8
0
100
AcDbLine
 62
7
  6
BYLAYER
 10
50.9588312741
 20
67.2398015691
 11
52.3506146205
 21
66.5640704921
  0
LINE
  5
28D
100
AcDbEntity
  8
0
100
AcDbLine
 62
7
  6
BYLAYER
 10
43.8652979187
 20
71.4629595463
 11
42.4735145723
 21
72.1386906233
  0
LINE
  5
28E
100
AcDbEntity
  8
0
100
AcDbLine
 62
7
  6
BYLAYER
 10
39.3519438016
 20
73.6542586779
 11
37.6427841513
 21
74.484080571
  0
LINE
  5
28F
100
AcDbEntity
  8
0
100
AcDbLine
 62
7
  6
BYLAYER
 10
46.128100853
 20
69.5851915167
 11
37.6427841513
 21
74.484080571
  0
LINE
  5
290
100
AcDbEntity
  8
0
100
AcDbLine
 62
7
  6
BYLAYER
 10
47.8372605034
 20
68.7553696237
 11
39.3519438016
 21
73.6542586779
  0
LINE
  5
291
100
AcDbEntity
  8
0
100
AcDbLine
 62
7
  6
BYLAYER
 10
50.9588312741
 20
67.2398015691
 11
42.4735145723
 21
72.1386906233
  0
LINE
  5
292
100
AcDbEntity
  8
0
100
AcDbLine
 62
7
  6
BYLAYER
 10
52.3506146205
 20
66.5640704921
 11
43.8652979187
 21
71.4629595463
  0
ARC
  5
293
100
AcDbEntity
  8
0
100
AcDbCircle
 62
7
  6
BYLAYER
 10
10.3628439323
 20
29.6118296476
 40
38.3404757287
100
AcDbArc
 50
358.6916439331
 51
359.9978438721
  0
SPLINE
  5
294
100
AcDbEntity
  8
0
100
AcDbSpline
 62
7
  6
BYLAYER
 70
0
 71
3
 72
22
 73
18
 74
0
 42
0.0000001
 43
0.0000001
 44
0.0000000001
 40
0.0
 40
0.0
 40
0.0
 40
0.0
 40
0.0428172557
 40
0.0874043966
 40
0.1351937451
 40
0.1871084902
 40
0.2435630966
 40
0.3045288646
 40
0.3696341758
 40
0.4382520021
 40
0.5095591902
 40
0.5826037103
 40
0.7296226254
 40
0.8016209794
 40
0.871228373
 40
0.9376186325
 40
1.0
 40
1.0
 40
1.0
 40
1.0
 10
16.5738182256
 20
60.2363760878
 30
0.0
 10
16.5738189323
 20
60.1438619603
 30
0.0
 10
16.5985412568
 20
59.9542045497
 30
0.0
 10
16.7073119363
 20
59.6803503189
 30
0.0
 10
16.8838308007
 20
59.4207560065
 30
0.0
 10
17.1230329677
 20
59.1805042639
 30
0.0
 10
17.4194718072
 20
58.9639040221
 30
0.0
 10
17.7668018337
 20
58.7750093611
 30
0.0
 10
18.1577404676
 20
58.6174856951
 30
0.0
 10
18.5840868167
 20
58.494623023
 30
0.0
 10
19.0368744555
 20
58.4089326618
 30
0.0
 10
19.6639094284
 20
58.3465845898
 30
0.0
 10
20.2984100901
 20
58.3641065661
 30
0.0
 10
20.9149634849
 20
58.4617823839
 30
0.0
 10
21.3512692378
 20
58.5725296177
 30
0.0
 10
21.7548996497
 20
58.7188570341
 30
0.0
 10
22.0051745213
 20
58.8422010405
 30
0.0
 10
22.1219026167
 20
58.9095936355
 30
0.0
  0
SPLINE
  5
295
100
AcDbEntity
  8
0
100
AcDbSpline
 62
7
  6
BYLAYER
 70
0
 71
3
 72
22
 73
18
 74
0
 42
0.0000001
 43
0.0000001
 44
0.0000000001
 40
0.0
 40
0.0
 40
0.0
 40
0.0
 40
0.0428172557
 40
0.0874043966
 40
0.1351937451
 40
0.1871084902
 40
0.2435630966
 40
0.3045288646
 40
0.3696341758
 40
0.4382520021
 40
0.5095591902
 40
0.5826037103
 40
0.7296226254
 40
0.8016209794
 40
0.871228373
 40
0.9376186325
 40
1.0
 40
1.0
 40
1.0
 40
1.0
 10
34.0392830048
 20
70.3200066884
 30
0.0
 10
34.0392837115
 20
70.227492561
 30
0.0
 10
34.064006036
 20
70.0378351503
 30
0.0
 10
34.1727767155
 20
69.7639809196
 30
0.0
 10
34.3492955799
 20
69.5043866071
 30
0.0
 10
34.5884977469
 20
69.2641348645
 30
0.0
 10
34.8849365864
 20
69.0475346227
 30
0.0
 10
35.2322666128
 20
68.8586399617
 30
0.0
 10
35.6232052467
 20
68.7011162957
 30
0.0
 10
36.0495515959
 20
68.5782536236
 30
0.0
 10
36.5023392347
 20
68.4925632624
 30
0.0
 10
37.1293742076
 20
68.4302151905
 30
0.0
 10
37.7638748693
 20
68.4477371667
 30
0.0
 10
38.3804282641
 20
68.5454129845
 30
0.0
 10
38.8167340169
 20
68.6561602183
 30
0.0
 10
39.2203644288
 20
68.8024876347
 30
0.0
 10
39.4706393005
 20
68.9258316412
 30
0.0
 10
39.5873673959
 20
68.9932242362
 30
0.0
  0
SPLINE
  5
296
100
AcDbEntity
  8
0
100
AcDbSpline
 62
7
  6
BYLAYER
 70
0
 71
3
 72
11
 73
7
 74
0
 42
0.0000001
 43
0.0000001
 44
0.0000000001
 40
0.0
 40
0.0
 40
0.0
 40
0.0
 40
0.2236789245
 40
0.4669371638
 40
0.7270541347
 40
1.0
 40
1.0
 40
1.0
 40
1.0
 10
48.6443525199
 20
37.373386675
 30
0.0
 10
48.6704909074
 20
37.1912269557
 30
0.0
 10
48.6904797053
 20
36.8056343422
 30
0.0
 10
48.6352126978
 20
36.2084168319
 30
0.0
 10
48.4979886407
 20
35.5831674001
 30
0.0
 10
48.3569557446
 20
35.1668884831
 30
0.0
 10
48.2742678986
 20
34.9581081626
 30
0.0
  0
SPLINE
  5
297
100
AcDbEntity
  8
0
100
AcDbSpline
 62
7
  6
BYLAYER
 70
0
 71
3
 72
14
 73
10
 74
0
 42
0.0000001
 43
0.0000001
 44
0.0000000001
 40
0.0
 40
0.0
 40
0.0
 40
0.0
 40
0.2892474192
 40
0.4225699703
 40
0.5485178763
 40
0.6678936333
 40
0.7818670822
 40
0.8919561178
 40
1.0
 40
1.0
 40
1.0
 40
1.0
 10
22.1219026167
 20
58.9095936355
 30
0.0
 10
22.2645444804
 20
58.9919474624
 30
0.0
 10
22.4643242794
 20
59.1295289651
 30
0.0
 10
22.6903867763
 20
59.3458384562
 30
0.0
 10
22.8279612415
 20
59.5126062616
 30
0.0
 10
22.9366892465
 20
59.6866870723
 30
0.0
 10
23.0153758809
 20
59.8665629657
 30
0.0
 10
23.0631239629
 20
60.0503840515
 30
0.0
 10
23.0737742643
 20
60.1748518257
 30
0.0
 10
23.0737737943
 20
60.2363760877
 30
0.0
  0
SPLINE
  5
298
100
AcDbEntity
  8
0
100
AcDbSpline
 62
7
  6
BYLAYER
 70
0
 71
3
 72
14
 73
10
 74
0
 42
0.0000001
 43
0.0000001
 44
0.0000000001
 40
0.0
 40
0.0
 40
0.0
 40
0.0
 40
0.2892474192
 40
0.4225699703
 40
0.5485178763
 40
0.6678936333
 40
0.7818670822
 40
0.8919561178
 40
1.0
 40
1.0
 40
1.0
 40
1.0
 10
39.5873673959
 20
68.9932242362
 30
0.0
 10
39.7300092596
 20
69.075578063
 30
0.0
 10
39.9297890586
 20
69.2131595657
 30
0.0
 10
40.1558515555
 20
69.4294690568
 30
0.0
 10
40.2934260207
 20
69.5962368622
 30
0.0
 10
40.4021540257
 20
69.7703176729
 30
0.0
 10
40.4808406601
 20
69.9501935663
 30
0.0
 10
40.5285887421
 20
70.1340146522
 30
0.0
 10
40.5392390435
 20
70.2584824263
 30
0.0
 10
40.5392385735
 20
70.3200066883
 30
0.0
  0
SPLINE
  5
299
100
AcDbEntity
  8
0
100
AcDbSpline
 62
7
  6
BYLAYER
 70
0
 71
3
 72
9
 73
5
 74
0
 42
0.0000001
 43
0.0000001
 44
0.0000000001
 40
0.0
 40
0.0
 40
0.0
 40
0.0
 40
0.4836373667
 40
1.0
 40
1.0
 40
1.0
 40
1.0
 10
47.9049521341
 20
36.8545077628
 30
0.0
 10
48.1788432137
 20
35.7098946978
 30
0.0
 10
48.5822744739
 20
33.3026067343
 30
0.0
 10
48.7033196338
 20
30.8669496632
 30
0.0
 10
48.7033196338
 20
29.6103868368
 30
0.0
  0
SPLINE
  5
29A
100
AcDbEntity
  8
0
100
AcDbSpline
 62
7
  6
BYLAYER
 70
0
 71
3
 72
14
 73
10
 74
0
 42
0.0000001
 43
0.0000001
 44
0.0000000001
 40
0.0
 40
0.0
 40
0.0
 40
0.0
 40
0.2892474192
 40
0.4225699703
 40
0.5485178763
 40
0.6678936333
 40
0.7818670822
 40
0.8919561178
 40
1.0
 40
1.0
 40
1.0
 40
1.0
 10
17.5256894032
 20
61.5631585399
 30
0.0
 10
17.3830475395
 20
61.4808047131
 30
0.0
 10
17.1832677405
 20
61.3432232104
 30
0.0
 10
16.9572052436
 20
61.1269137193
 30
0.0
 10
16.8196307784
 20
60.9601459138
 30
0.0
 10
16.7109027734
 20
60.7860651032
 30
0.0
 10
16.632216139
 20
60.6061892098
 30
0.0
 10
16.584468057
 20
60.4223681239
 30
0.0
 10
16.5738177556
 20
60.2979003497
 30
0.0
 10
16.5738182256
 20
60.2363760878
 30
0.0
  0
SPLINE
  5
29B
100
AcDbEntity
  8
0
100
AcDbSpline
 62
7
  6
BYLAYER
 70
0
 71
3
 72
14
 73
10
 74
0
 42
0.0000001
 43
0.0000001
 44
0.0000000001
 40
0.0
 40
0.0
 40
0.0
 40
0.0
 40
0.2892474192
 40
0.4225699703
 40
0.5485178763
 40
0.6678936333
 40
0.7818670822
 40
0.8919561178
 40
1.0
 40
1.0
 40
1.0
 40
1.0
 10
34.9911541824
 20
71.6467891405
 30
0.0
 10
34.8485123187
 20
71.5644353137
 30
0.0
 10
34.6487325196
 20
71.426853811
 30
0.0
 10
34.4226700228
 20
71.2105443199
 30
0.0
 10
34.2850955576
 20
71.0437765145
 30
0.0
 10
34.1763675525
 20
70.8696957038
 30
0.0
 10
34.0976809182
 20
70.6898198104
 30
0.0
 10
34.0499328361
 20
70.5059987245
 30
0.0
 10
34.0392825348
 20
70.3815309504
 30
0.0
 10
34.0392830048
 20
70.3200066884
 30
0.0
  0
SPLINE
  5
29C
100
AcDbEntity
  8
0
100
AcDbSpline
 62
7
  6
BYLAYER
 70
0
 71
3
 72
10
 73
6
 74
0
 42
0.0000001
 43
0.0000001
 44
0.0000000001
 40
0.0
 40
0.0
 40
0.0
 40
0.0
 40
0.4999337095
 40
0.7521418863
 40
1.0
 40
1.0
 40
1.0
 40
1.0
 10
36.2798307793
 20
68.5926025491
 30
0.0
 10
36.615996299
 20
68.6559943407
 30
0.0
 10
37.1327038907
 20
68.7014052146
 30
0.0
 10
37.8167139738
 20
68.6685477136
 30
0.0
 10
38.156163909
 20
68.6202556378
 30
0.0
 10
38.3226742
 20
68.5880185549
 30
0.0
  0
SPLINE
  5
29D
100
AcDbEntity
  8
0
100
AcDbSpline
 62
7
  6
BYLAYER
 70
0
 71
3
 72
22
 73
18
 74
0
 42
0.0000001
 43
0.0000001
 44
0.0000000001
 40
0.0
 40
0.0
 40
0.0
 40
0.0
 40
0.0428172557
 40
0.0874043966
 40
0.1351937451
 40
0.1871084902
 40
0.2435630966
 40
0.3045288646
 40
0.3696341758
 40
0.4382520021
 40
0.5095591902
 40
0.5826037103
 40
0.7296226254
 40
0.8016209794
 40
0.871228373
 40
0.9376186325
 40
1.0
 40
1.0
 40
1.0
 40
1.0
 10
40.5392385735
 20
70.3200066883
 30
0.0
 10
40.5392378667
 20
70.4125208157
 30
0.0
 10
40.5145155422
 20
70.6021782264
 30
0.0
 10
40.4057448627
 20
70.8760324571
 30
0.0
 10
40.2292259984
 20
71.1356267696
 30
0.0
 10
39.9900238313
 20
71.3758785122
 30
0.0
 10
39.6935849918
 20
71.592478754
 30
0.0
 10
39.3462549654
 20
71.781373415
 30
0.0
 10
38.9553163315
 20
71.938897081
 30
0.0
 10
38.5289699824
 20
72.0617597531
 30
0.0
 10
38.0761823436
 20
72.1474501143
 30
0.0
 10
37.4491473707
 20
72.2097981862
 30
0.0
 10
36.8146467089
 20
72.19227621
 30
0.0
 10
36.1980933142
 20
72.0946003922
 30
0.0
 10
35.7617875613
 20
71.9838531584
 30
0.0
 10
35.3581571494
 20
71.8375257419
 30
0.0
 10
35.1078822777
 20
71.7141817355
 30
0.0
 10
34.9911541824
 20
71.6467891405
 30
0.0
  0
SPLINE
  5
29E
100
AcDbEntity
  8
0
100
AcDbSpline
 62
7
  6
BYLAYER
 70
0
 71
3
 72
22
 73
18
 74
0
 42
0.0000001
 43
0.0000001
 44
0.0000000001
 40
0.0
 40
0.0
 40
0.0
 40
0.0
 40
0.0428172557
 40
0.0874043966
 40
0.1351937451
 40
0.1871084902
 40
0.2435630966
 40
0.3045288646
 40
0.3696341758
 40
0.4382520021
 40
0.5095591902
 40
0.5826037103
 40
0.7296226254
 40
0.8016209794
 40
0.871228373
 40
0.9376186325
 40
1.0
 40
1.0
 40
1.0
 40
1.0
 10
23.0737737943
 20
60.2363760877
 30
0.0
 10
23.0737730876
 20
60.3288902151
 30
0.0
 10
23.0490507631
 20
60.5185476258
 30
0.0
 10
22.9402800836
 20
60.7924018565
 30
0.0
 10
22.7637612192
 20
61.0519961689
 30
0.0
 10
22.5245590522
 20
61.2922479116
 30
0.0
 10
22.2281202127
 20
61.5088481533
 30
0.0
 10
21.8807901862
 20
61.6977428144
 30
0.0
 10
21.4898515523
 20
61.8552664803
 30
0.0
 10
21.0635052032
 20
61.9781291525
 30
0.0
 10
20.6107175644
 20
62.0638195137
 30
0.0
 10
19.9836825915
 20
62.1261675856
 30
0.0
 10
19.3491819298
 20
62.1086456093
 30
0.0
 10
18.732628535
 20
62.0109697915
 30
0.0
 10
18.2963227821
 20
61.9002225577
 30
0.0
 10
17.8926923702
 20
61.7538951413
 30
0.0
 10
17.6424174986
 20
61.6305511349
 30
0.0
 10
17.5256894032
 20
61.5631585399
 30
0.0
  0
SPLINE
  5
29F
100
AcDbEntity
  8
0
100
AcDbSpline
 62
7
  6
BYLAYER
 70
0
 71
3
 72
10
 73
6
 74
0
 42
0.0000001
 43
0.0000001
 44
0.0000000001
 40
0.0
 40
0.0
 40
0.0
 40
0.0
 40
0.4999337095
 40
0.7521418863
 40
1.0
 40
1.0
 40
1.0
 40
1.0
 10
18.8143660001
 20
58.5089719485
 30
0.0
 10
19.1505315198
 20
58.57236374
 30
0.0
 10
19.6672391115
 20
58.6177746139
 30
0.0
 10
20.3512491946
 20
58.584917113
 30
0.0
 10
20.6906991298
 20
58.5366250372
 30
0.0
 10
20.8572094209
 20
58.5043879543
 30
0.0
  0
ENDSEC
  0
SECTION
  2
OBJECTS
  0
DICTIONARY
  5
C
100
AcDbDictionary
280
0
281
1
  3
ACAD_GROUP
350
D
  3
ACAD_MLINESTYLE
350
17
  3
ACAD_LAYOUT
350
1A
  3
ACAD_PLOTSETTINGS
350
19
  3
ACAD_PLOTSTYLENAME
350
E
  0
DICTIONARY
  5
D
102
{ACAD_REACTORS
330
C
102
}
100
AcDbDictionary
280
0
281
1
  0
ACDBDICTIONARYWDFLT
  5
E
102
{ACAD_REACTORS
330
C
102
}
100
AcDbDictionary
281
1
  3
Normal
350
F
100
AcDbDictionaryWithDefault
340
F
  0
DICTIONARY
  5
17
102
{ACAD_REACTORS
330
C
102
}
100
AcDbDictionary
280
0
281
1
  3
Standard
350
18
  0
DICTIONARY
  5
19
102
{ACAD_REACTORS
330
C
102
}
100
AcDbDictionary
281
1
  0
DICTIONARY
  5
1A
102
{ACAD_REACTORS
330
C
102
}
100
AcDbDictionary
281
1
  3
Model
350
2A0
  3
Layout1
350
2A1
  0
ACDBPLACEHOLDER
  5
F
102
{ACAD_REACTORS
330
E
102
}
  0
MLINESTYLE
  5
18
102
{ACAD_REACTORS
330
17
102
}
100
AcDbMlineStyle
  2
STANDARD
 70
0
  3

 62
256
 51
90.0
 52
90.0
 71
2
 49
0.5
 62
256
  6
BYLAYER
 49
-0.5
 62
256
  6
BYLAYER
  0
LAYOUT
  5
2A0
102
{ACAD_REACTORS
330
1A
102
}
100
AcDbPlotSettings
  1

  2
none_device
  4

  6

 40
0.0
 41
0.0
 42
0.0
 43
0.0
 44
210.0
 45
297.0
 46
0.0
 47
0.0
 48
0.0
 49
0.0
140
0.0
141
0.0
142
1.0
143
1.0
 70
1024
 72
1
 73
0
 74
0
  7

 75
0
147
1.0
148
0.0
149
0.0
100
AcDbLayout
  1
Model
 70
0
 71
0
 10
0.0
 20
0.0
 11
210.0
 21
297.0
 12
0.0
 22
0.0
 32
0.0
 14
0.0
 24
0.0
 34
0.0
 15
0.0
 25
0.0
 35
0.0
146
0.0
 13
0.0
 23
0.0
 33
0.0
 16
1.0
 26
0.0
 36
0.0
 17
0.0
 27
1.0
 37
0.0
 76
0
330
210
345
0
346
0
  0
LAYOUT
  5
2A1
102
{ACAD_REACTORS
330
1A
102
}
100
AcDbPlotSettings
  1

  2
none_device
  4

  6

 40
0.0
 41
0.0
 42
0.0
 43
0.0
 44
210.0
 45
297.0
 46
0.0
 47
0.0
 48
0.0
 49
0.0
140
0.0
141
0.0
142
1.0
143
1.0
 70
0
 72
1
 73
0
 74
0
  7

 75
0
147
1.0
148
0.0
149
0.0
100
AcDbLayout
  1
Layout1
 70
0
 71
1
 10
0.0
 20
0.0
 11
210.0
 21
297.0
 12
0.0
 22
0.0
 32
0.0
 14
0.0
 24
0.0
 34
0.0
 15
0.0
 25
0.0
 35
0.0
146
0.0
 13
0.0
 23
0.0
 33
0.0
 16
1.0
 26
0.0
 36
0.0
 17
0.0
 27
1.0
 37
0.0
 76
0
330
211
345
0
346
0
  0
ENDSEC
  0
EOF
