999
DXF file: C:\Users\sesa63760\Dev\_Creo\CAD\MCADID0005720_3D-CAD\mcadid0005720_3d-simplified_3.dxf
999
Pro/ENGINEER 2019471 by Parametric Technology Corporation
  0
SECTION
  2
HEADER
  9
$ACADVER
  1
AC1024
  9
$DWGCODEPAGE
  3
ANSI_1252
  9
$EXTMAX
 10
33.1188266413
 20
46.8394833927
 30
0.0
  9
$EXTMIN
 10
0.0
 20
0.0
 30
0.0
  9
$LIMMIN
 10
0.0
 20
0.0
  9
$LIMMAX
 10
33.1188266413
 20
46.8394833927
  9
$VIEWCTR
 10
16.5594133206
 20
23.4197416963
  9
$VIEWSIZE
 40
46.8394833927
  9
$CLAYER
  8
0
  9
$LTSCALE
 40
3.0532403989
  9
$CELTYPE
  6
BYLAYER
  9
$DIMSCALE
 40
1.0
  9
$DIMASZ
 40
0.3942717457
  9
$DIMEXO
 40
1.0
  9
$DIMDLI
 40
2.1095115484
  9
$DIMEXE
 40
1.0
  9
$DIMCEN
 40
0.4996211562
  9
$DIMLFAC
 40
1.0
  9
$DIMBLK
  1
_FILLED
  9
$DIMALT
 70
0
  9
$DIMALTF
 40
0.0393700787
  9
$DIMTXT
 40
0.551980444
  9
$DIMTOL
 70
1
  9
$DIMLIM
 70
0
  9
$DIMTFAC
 40
1.0
  9
$DIMTP
 40
0.01
  9
$DIMTM
 40
0.01
  9
$DIMGAP
 40
0.625
  9
$DIMDSEP
 70
46
  9
$AUNITS
 70
0
  9
$PDMODE
 70
3
  9
$PDSIZE
 40
0.3125
  9
$HANDSEED
  5
3DB
  9
$TILEMODE
 70
1
  9
$MEASUREMENT
 70
1
  9
$INSUNITS
 70
4
  0
ENDSEC
  0
SECTION
  2
CLASSES
  0
CLASS
  1
ACDBDICTIONARYWDFLT
  2
AcDbDictionaryWithDefault
  3
AutoCAD 2000
 90
0
 91
1
280
0
281
0
  0
CLASS
  1
ACDBPLACEHOLDER
  2
AcDbPlaceHolder
  3
AutoCAD 2000
 90
0
 91
1
280
0
281
0
  0
CLASS
  1
LAYOUT
  2
AcDbLayout
  3
AutoCAD 2000
 90
0
 91
0
280
0
281
0
  0
ENDSEC
  0
SECTION
  2
TABLES
  0
TABLE
  2
VPORT
  5
8
100
AcDbSymbolTable
 70
2
  0
VPORT
  5
1F4
100
AcDbSymbolTableRecord
100
AcDbViewportTableRecord
  2
*ACTIVE
 70
0
 10
0.0
 20
0.0
 11
1.0
 21
1.0
 12
16.5594133206
 22
23.4197416963
 13
0.0
 23
0.0
 14
1.0
 24
1.0
 15
0.0
 25
0.0
 16
0.0
 26
0.0
 36
1.0
 17
0.0
 27
0.0
 37
0.0
 40
46.8394833927
 41
0.7070707071
 42
50.0
 43
0.0
 44
0.0
 50
0.0
 51
0.0
 71
0
 72
100
 73
1
 74
1
 75
0
 76
0
 77
0
 78
0
  0
ENDTAB
  0
TABLE
  2
LTYPE
  5
5
100
AcDbSymbolTable
 70
6
  0
LTYPE
  5
14
100
AcDbSymbolTableRecord
100
AcDbLinetypeTableRecord
  2
BYBLOCK
 70
0
  3

 72
65
 73
0
 40
0.0
  0
LTYPE
  5
15
100
AcDbSymbolTableRecord
100
AcDbLinetypeTableRecord
  2
BYLAYER
 70
0
  3

 72
65
 73
0
 40
0.0
  0
LTYPE
  5
16
100
AcDbSymbolTableRecord
100
AcDbLinetypeTableRecord
  2
CONTINUOUS
 70
64
  3
Solid line
 72
65
 73
0
 40
0.0
  0
LTYPE
  5
1F5
100
AcDbSymbolTableRecord
100
AcDbLinetypeTableRecord
  2
CENTER
 70
64
  3
____ _ ____ _ ____ _ ____ _ ____ _ ____ _ ____
 72
65
 73
4
 40
0.6
 49
0.375
 74
0
 49
-0.075
 74
0
 49
0.075
 74
0
 49
-0.075
 74
0
  0
LTYPE
  5
1F6
100
AcDbSymbolTableRecord
100
AcDbLinetypeTableRecord
  2
HIDDEN
 70
64
  3
- - - - - - - - - - - - - - - - - - - -
 72
65
 73
2
 40
0.2
 49
0.1
 74
0
 49
-0.1
 74
0
  0
LTYPE
  5
1F7
100
AcDbSymbolTableRecord
100
AcDbLinetypeTableRecord
  2
PHANTOM
 70
64
  3
_____ _ _ _____ _ _ _____ _ _ _____
 72
65
 73
6
 40
0.8
 49
0.45
 74
0
 49
-0.05
 74
0
 49
0.1
 74
0
 49
-0.05
 74
0
 49
0.1
 74
0
 49
-0.05
 74
0
  0
LTYPE
  5
1F8
100
AcDbSymbolTableRecord
100
AcDbLinetypeTableRecord
  2
DOT
 70
64
  3
. . . . . . . . . . . . . . . . . . . .
 72
65
 73
2
 40
0.2
 49
0.1
 74
0
 49
-0.1
 74
0
  0
LTYPE
  5
1F9
100
AcDbSymbolTableRecord
100
AcDbLinetypeTableRecord
  2
DASHED
 70
64
  3
- - - - - - - - - - - - - - - - - - - -
 72
65
 73
2
 40
0.2
 49
0.1
 74
0
 49
-0.1
 74
0
  0
ENDTAB
  0
TABLE
  2
LAYER
  5
2
100
AcDbSymbolTable
 70
36
  0
LAYER
  5
10
100
AcDbSymbolTableRecord
100
AcDbLayerTableRecord
  2
0
 70
0
 62
7
  6
CONTINUOUS
370
-3
390
F
  0
LAYER
  5
1FA
100
AcDbSymbolTableRecord
100
AcDbLayerTableRecord
  2
DEFAULT_1
 70
0
 62
7
  6
CENTER
370
-3
390
F
  0
LAYER
  5
1FB
100
AcDbSymbolTableRecord
100
AcDbLayerTableRecord
  2
DEFAULT_2
 70
0
 62
7
  6
HIDDEN
370
-3
390
F
  0
LAYER
  5
1FC
100
AcDbSymbolTableRecord
100
AcDbLayerTableRecord
  2
DEFAULT_3
 70
0
 62
7
  6
PHANTOM
370
-3
390
F
  0
LAYER
  5
1FD
100
AcDbSymbolTableRecord
100
AcDbLayerTableRecord
  2
00_COMPONENTS
 70
0
 62
7
  6
CONTINUOUS
370
-3
390
F
  0
LAYER
  5
1FE
100
AcDbSymbolTableRecord
100
AcDbLayerTableRecord
  2
01_1_DEFAULT_DATUMS
 70
0
 62
7
  6
CONTINUOUS
370
-3
390
F
  0
LAYER
  5
1FF
100
AcDbSymbolTableRecord
100
AcDbLayerTableRecord
  2
01_PLANES
 70
0
 62
7
  6
CONTINUOUS
370
-3
390
F
  0
LAYER
  5
200
100
AcDbSymbolTableRecord
100
AcDbLayerTableRecord
  2
02_COORD_SYS
 70
0
 62
7
  6
CONTINUOUS
370
-3
390
F
  0
LAYER
  5
201
100
AcDbSymbolTableRecord
100
AcDbLayerTableRecord
  2
03_AXES
 70
0
 62
7
  6
CONTINUOUS
370
-3
390
F
  0
LAYER
  5
202
100
AcDbSymbolTableRecord
100
AcDbLayerTableRecord
  2
04_POINTS
 70
0
 62
7
  6
CONTINUOUS
370
-3
390
F
  0
LAYER
  5
203
100
AcDbSymbolTableRecord
100
AcDbLayerTableRecord
  2
05_CURVES
 70
0
 62
7
  6
CONTINUOUS
370
-3
390
F
  0
LAYER
  5
204
100
AcDbSymbolTableRecord
100
AcDbLayerTableRecord
  2
06_SURFS
 70
0
 62
7
  6
CONTINUOUS
370
-3
390
F
  0
LAYER
  5
205
100
AcDbSymbolTableRecord
100
AcDbLayerTableRecord
  2
07_COSMETICS
 70
0
 62
7
  6
CONTINUOUS
370
-3
390
F
  0
LAYER
  5
206
100
AcDbSymbolTableRecord
100
AcDbLayerTableRecord
  2
10_NOTES
 70
0
 62
7
  6
CONTINUOUS
370
-3
390
F
  0
LAYER
  5
207
100
AcDbSymbolTableRecord
100
AcDbLayerTableRecord
  2
11_NOTES_PUB
 70
0
 62
7
  6
CONTINUOUS
370
-3
390
F
  0
LAYER
  5
208
100
AcDbSymbolTableRecord
100
AcDbLayerTableRecord
  2
13_REF_GTOL
 70
0
 62
7
  6
CONTINUOUS
370
-3
390
F
  0
LAYER
  5
209
100
AcDbSymbolTableRecord
100
AcDbLayerTableRecord
  2
16_MISC
 70
0
 62
7
  6
CONTINUOUS
370
-3
390
F
  0
LAYER
  5
20A
100
AcDbSymbolTableRecord
100
AcDbLayerTableRecord
  2
17_NO_PRINT
 70
0
 62
7
  6
CONTINUOUS
370
-3
390
F
  0
LAYER
  5
20B
100
AcDbSymbolTableRecord
100
AcDbLayerTableRecord
  2
18_DATUM_CAMS_JOINTS
 70
0
 62
7
  6
CONTINUOUS
370
-3
390
F
  0
LAYER
  5
20C
100
AcDbSymbolTableRecord
100
AcDbLayerTableRecord
  2
19_DATUM_FUNCTIONAL
 70
0
 62
7
  6
CONTINUOUS
370
-3
390
F
  0
LAYER
  5
20D
100
AcDbSymbolTableRecord
100
AcDbLayerTableRecord
  2
20_DATUM_KINEMATIC_SCHEME
 70
0
 62
7
  6
CONTINUOUS
370
-3
390
F
  0
LAYER
  5
20E
100
AcDbSymbolTableRecord
100
AcDbLayerTableRecord
  2
INTFCLR_1
 70
0
 62
7
  6
CONTINUOUS
370
-3
390
F
  0
LAYER
  5
20F
100
AcDbSymbolTableRecord
100
AcDbLayerTableRecord
  2
INTFCLR_8
 70
0
 62
7
  6
CONTINUOUS
370
-3
390
F
  0
LAYER
  5
210
100
AcDbSymbolTableRecord
100
AcDbLayerTableRecord
  2
INTF_1
 70
0
 62
7
  6
CONTINUOUS
370
-3
390
F
  0
LAYER
  5
211
100
AcDbSymbolTableRecord
100
AcDbLayerTableRecord
  2
INTF_2
 70
0
 62
7
  6
CONTINUOUS
370
-3
390
F
  0
LAYER
  5
212
100
AcDbSymbolTableRecord
100
AcDbLayerTableRecord
  2
INTF_3
 70
0
 62
7
  6
CONTINUOUS
370
-3
390
F
  0
LAYER
  5
213
100
AcDbSymbolTableRecord
100
AcDbLayerTableRecord
  2
INTF_4
 70
0
 62
7
  6
CONTINUOUS
370
-3
390
F
  0
LAYER
  5
214
100
AcDbSymbolTableRecord
100
AcDbLayerTableRecord
  2
INTF_5
 70
0
 62
7
  6
CONTINUOUS
370
-3
390
F
  0
LAYER
  5
215
100
AcDbSymbolTableRecord
100
AcDbLayerTableRecord
  2
INTF_6
 70
0
 62
7
  6
CONTINUOUS
370
-3
390
F
  0
LAYER
  5
216
100
AcDbSymbolTableRecord
100
AcDbLayerTableRecord
  2
white
 70
0
 62
7
  6
CONTINUOUS
370
-3
390
F
  0
ENDTAB
  0
TABLE
  2
STYLE
  5
3
100
AcDbSymbolTable
 70
1
  0
STYLE
  5
11
100
AcDbSymbolTableRecord
100
AcDbTextStyleTableRecord
  2
STANDARD
 70
0
 40
0.0
 41
1.0
 50
0.0
 71
0
 42
0.2
  3
ARIAL.TTF
  4

  0
STYLE
  5
217
100
AcDbSymbolTableRecord
100
AcDbTextStyleTableRecord
  2
TEXTSTYLE_1
 70
0
 40
0.0
 41
0.8
 50
0.0
 71
0
 42
0.2
  3
gdt
  4

  0
ENDTAB
  0
TABLE
  2
VIEW
  5
6
100
AcDbSymbolTable
 70
0
  0
ENDTAB
  0
TABLE
  2
UCS
  5
7
100
AcDbSymbolTable
 70
0
  0
ENDTAB
  0
TABLE
  2
APPID
  5
9
100
AcDbSymbolTable
 70
1
  0
APPID
  5
218
100
AcDbSymbolTableRecord
100
AcDbRegAppTableRecord
  2
ACAD
 70
0
  0
ENDTAB
  0
TABLE
  2
BLOCK_RECORD
  5
1
100
AcDbSymbolTable
 70
0
  0
BLOCK_RECORD
  5
219
100
AcDbSymbolTableRecord
100
AcDbBlockTableRecord
  2
*Model_Space
  0
BLOCK_RECORD
  5
21A
100
AcDbSymbolTableRecord
100
AcDbBlockTableRecord
  2
*Paper_Space
  0
BLOCK_RECORD
  5
21B
100
AcDbSymbolTableRecord
100
AcDbBlockTableRecord
  2
_FILLED
  0
ENDTAB
  0
TABLE
  2
DIMSTYLE
  5
A
100
AcDbSymbolTable
 70
1
100
AcDbDimStyleTable
 71
0
  0
DIMSTYLE
105
21C
100
AcDbSymbolTableRecord
100
AcDbDimStyleTableRecord
  2
STANDARD
 70
0
  3

  4

 40
1.0
 41
0.3942717457
 42
1.0
 43
0.38
 44
1.0
 45
0.0
 46
0.0
 47
0.01
 48
0.01
140
0.551980444
141
0.09
142
0.0
143
25.4
144
1.0
145
0.0
146
1.0
147
0.625
 71
1
 72
0
 73
0
 74
0
 75
0
 76
0
 77
1
 78
8
 79
2
170
0
171
1
172
0
173
0
174
0
175
0
176
0
177
0
178
0
270
2
179
2
271
2
272
2
273
2
274
2
275
0
280
0
281
0
282
0
283
1
284
8
285
0
286
0
287
3
288
0
340
11
278
46
341
21B
342
21B
343
21B
344
21B
  0
ENDTAB
  0
ENDSEC
  0
SECTION
  2
BLOCKS
  0
BLOCK
  5
20
100
AcDbEntity
  8
0
100
AcDbBlockBegin
  2
*Model_Space
 70
0
 10
0.0
 20
0.0
 30
0.0
  3
*Model_Space
  1

  0
ENDBLK
  5
21
100
AcDbEntity
  8
0
100
AcDbBlockEnd
  0
BLOCK
  5
1C
100
AcDbEntity
  8
0
100
AcDbBlockBegin
  2
*Paper_Space
 70
0
 10
0.0
 20
0.0
 30
0.0
  3
*Paper_Space
  1

  0
ENDBLK
  5
1D
100
AcDbEntity
  8
0
100
AcDbBlockEnd
  0
BLOCK
  5
21D
100
AcDbEntity
  8
0
100
AcDbBlockBegin
  2
_FILLED
 70
64
 10
0.0
 20
0.0
  3
_FILLED
  1

  0
SOLID
  5
21E
100
AcDbEntity
  8
0
  6
BYBLOCK
 62
0
100
AcDbTrace
 10
0.0
 20
0.0
 11
-1.0
 21
0.25
 12
-1.0
 22
-0.25
 13
-1.0
 23
-0.25
  0
ENDBLK
  5
21F
100
AcDbEntity
  8
0
  6
BYBLOCK
 62
0
100
AcDbBlockEnd
  0
ENDSEC
  0
SECTION
  2
ENTITIES
  0
LINE
  5
220
100
AcDbEntity
  8
INTFCLR_1
100
AcDbLine
 62
7
  6
BYLAYER
 10
4.0797330058
 20
36.4162456711
 11
5.0577622177
 21
36.8370727567
  0
LINE
  5
221
100
AcDbEntity
  8
INTFCLR_1
100
AcDbLine
 62
7
  6
BYLAYER
 10
4.9682703624
 20
34.2581157374
 11
3.9687228054
 21
32.4714990869
  0
LINE
  5
222
100
AcDbEntity
  8
INTFCLR_1
100
AcDbLine
 62
7
  6
BYLAYER
 10
3.9687228054
 20
32.4714990867
 11
3.9417138567
 21
32.4388395588
  0
LINE
  5
223
100
AcDbEntity
  8
INTFCLR_1
100
AcDbLine
 62
7
  6
BYLAYER
 10
3.9179126011
 20
16.6986689088
 11
4.7180618727
 21
15.6318032113
  0
LINE
  5
224
100
AcDbEntity
  8
INTFCLR_1
100
AcDbLine
 62
7
  6
BYLAYER
 10
3.9179126008
 20
27.2298728147
 11
3.9179126011
 21
16.6986689088
  0
LINE
  5
225
100
AcDbEntity
  8
INTFCLR_1
100
AcDbLine
 62
7
  6
BYLAYER
 10
4.3522548369
 20
26.5337357358
 11
4.3522548369
 21
31.3337357353
  0
LINE
  5
226
100
AcDbEntity
  8
INTFCLR_1
100
AcDbLine
 62
7
  6
BYLAYER
 10
4.6119348199
 20
27.5115789388
 11
4.6119348199
 21
32.9424643278
  0
LINE
  5
227
100
AcDbEntity
  8
INTFCLR_1
100
AcDbLine
 62
7
  6
BYLAYER
 10
4.7180618735
 20
15.6318032112
 11
4.7180618728
 21
10.2318042769
  0
LINE
  5
228
100
AcDbEntity
  8
INTFCLR_1
100
AcDbLine
 62
7
  6
BYLAYER
 10
3.9179126008
 20
27.2298728147
 11
3.9417138569
 21
32.4388395594
  0
LINE
  5
229
100
AcDbEntity
  8
INTFCLR_1
100
AcDbLine
 62
7
  6
BYLAYER
 10
3.9417138569
 20
32.4388395594
 11
4.0797330061
 21
36.4162456706
  0
LINE
  5
22A
100
AcDbEntity
  8
INTFCLR_1
100
AcDbLine
 62
7
  6
BYLAYER
 10
5.0577622177
 20
36.8370727572
 11
4.9682703624
 21
34.2581157376
  0
LINE
  5
22B
100
AcDbEntity
  8
INTFCLR_1
100
AcDbLine
 62
7
  6
BYLAYER
 10
4.5633369878
 20
26.6517495654
 11
3.9820566423
 21
16.8337357373
  0
LINE
  5
22C
100
AcDbEntity
  8
INTFCLR_1
100
AcDbLine
 62
7
  6
BYLAYER
 10
29.3180618728
 20
10.2318042769
 11
28.0966805257
 21
10.2318042769
  0
LINE
  5
22D
100
AcDbEntity
  8
INTFCLR_1
100
AcDbLine
 62
7
  6
BYLAYER
 10
4.7180618728
 20
10.2318042769
 11
5.9394432197
 21
10.2318042769
  0
LINE
  5
22E
100
AcDbEntity
  8
INTFCLR_1
100
AcDbLine
 62
7
  6
BYLAYER
 10
4.0797330061
 20
36.4162456706
 11
4.2110298182
 21
33.9089728203
  0
LINE
  5
22F
100
AcDbEntity
  8
INTFCLR_1
100
AcDbLine
 62
7
  6
BYLAYER
 10
4.9119124281
 20
32.9337354967
 11
4.9119124281
 21
27.5837811644
  0
LINE
  5
230
100
AcDbEntity
  8
INTFCLR_1
100
AcDbLine
 62
7
  6
BYLAYER
 10
5.5721637879
 20
31.0337357379
 11
5.5721637879
 21
26.8337357379
  0
LINE
  5
231
100
AcDbEntity
  8
00_COMPONENTS
100
AcDbLine
 62
7
  6
BYLAYER
 10
5.9180618728
 20
19.4337357381
 11
5.9180618728
 21
21.9337357377
  0
LINE
  5
232
100
AcDbEntity
  8
INTFCLR_1
100
AcDbLine
 62
7
  6
BYLAYER
 10
5.9180618729
 20
11.9818042774
 11
5.9180618731
 21
27.2298728147
  0
LINE
  5
233
100
AcDbEntity
  8
00_COMPONENTS
100
AcDbLine
 62
7
  6
BYLAYER
 10
5.9477354829
 20
20.2337357379
 11
5.9477354829
 21
21.0337357379
  0
LINE
  5
234
100
AcDbEntity
  8
INTFCLR_1
100
AcDbLine
 62
7
  6
BYLAYER
 10
5.9608245669
 20
15.0837357366
 11
5.9608245668
 21
11.9818042772
  0
LINE
  5
235
100
AcDbEntity
  8
INTFCLR_1
100
AcDbLine
 62
7
  6
BYLAYER
 10
5.9420123596
 20
32.4714990862
 11
5.9180618728
 21
27.2298728147
  0
LINE
  5
236
100
AcDbEntity
  8
INTFCLR_1
100
AcDbLine
 62
7
  6
BYLAYER
 10
5.96835323
 20
34.2581157414
 11
5.9420123596
 21
32.4714990862
  0
LINE
  5
237
100
AcDbEntity
  8
INTFCLR_1
100
AcDbLine
 62
7
  6
BYLAYER
 10
6.0578450855
 20
36.8370727547
 11
5.96835323
 21
34.2581157414
  0
LINE
  5
238
100
AcDbEntity
  8
INTFCLR_1
100
AcDbLine
 62
7
  6
BYLAYER
 10
4.7180618728
 20
11.9818042772
 11
5.9608245668
 21
11.9818042769
  0
LINE
  5
239
100
AcDbEntity
  8
INTFCLR_1
100
AcDbLine
 62
7
  6
BYLAYER
 10
28.0752988826
 20
11.9818042782
 11
29.3180618728
 21
11.9818042782
  0
LINE
  5
23A
100
AcDbEntity
  8
INTFCLR_1
100
AcDbLine
 62
7
  6
BYLAYER
 10
6.2111790903
 20
33.9089728157
 11
6.0578450855
 21
36.8370727547
  0
LINE
  5
23B
100
AcDbEntity
  8
INTFCLR_1
100
AcDbLine
 62
7
  6
BYLAYER
 10
6.4465126042
 20
31.0066799988
 11
6.4464865621
 21
31.0198084564
  0
LINE
  5
23C
100
AcDbEntity
  8
INTFCLR_1
100
AcDbLine
 62
7
  6
BYLAYER
 10
6.3521055766
 20
26.533735735
 11
6.3521055766
 21
26.8337357357
  0
LINE
  5
23D
100
AcDbEntity
  8
INTFCLR_1
100
AcDbLine
 62
7
  6
BYLAYER
 10
6.3521055766
 20
31.0337357361
 11
6.3521055766
 21
31.3337357368
  0
LINE
  5
23E
100
AcDbEntity
  8
INTFCLR_1
100
AcDbLine
 62
7
  6
BYLAYER
 10
6.4461473883
 20
31.0198084571
 11
6.4461473883
 21
31.0187215001
  0
LINE
  5
23F
100
AcDbEntity
  8
INTFCLR_1
100
AcDbLine
 62
7
  6
BYLAYER
 10
6.4461473883
 20
26.8476630186
 11
6.4461473878
 21
26.8618989066
  0
LINE
  5
240
100
AcDbEntity
  8
INTFCLR_1
100
AcDbLine
 62
7
  6
BYLAYER
 10
6.4461473883
 20
26.8337357392
 11
6.4461473883
 21
26.8476630186
  0
LINE
  5
241
100
AcDbEntity
  8
INTFCLR_1
100
AcDbLine
 62
7
  6
BYLAYER
 10
6.4461473883
 20
31.0198084574
 11
6.4461473883
 21
31.0337357367
  0
LINE
  5
242
100
AcDbEntity
  8
INTFCLR_1
100
AcDbLine
 62
7
  6
BYLAYER
 10
6.4461473878
 20
26.8618989066
 11
6.4461473883
 21
31.0187215001
  0
LINE
  5
243
100
AcDbEntity
  8
00_COMPONENTS
100
AcDbLine
 62
7
  6
BYLAYER
 10
6.5214654251
 20
28.8337357379
 11
6.5214654251
 21
29.8337357379
  0
LINE
  5
244
100
AcDbEntity
  8
INTFCLR_1
100
AcDbLine
 62
7
  6
BYLAYER
 10
6.5631676618
 20
26.6463683348
 11
6.5631676619
 21
33.0603928796
  0
LINE
  5
245
100
AcDbEntity
  8
INTFCLR_1
100
AcDbLine
 62
7
  6
BYLAYER
 10
6.7205410998
 20
27.8264040324
 11
6.7205410998
 21
33.0087495725
  0
LINE
  5
246
100
AcDbEntity
  8
INTFCLR_1
100
AcDbLine
 62
7
  6
BYLAYER
 10
6.7689270238
 20
27.8601034046
 11
6.7689270238
 21
33.0037435406
  0
LINE
  5
247
100
AcDbEntity
  8
00_COMPONENTS
100
AcDbLine
 62
7
  6
BYLAYER
 10
6.9138874815
 20
20.2337357379
 11
6.9138874815
 21
21.0337357379
  0
LINE
  5
248
100
AcDbEntity
  8
INTFCLR_1
100
AcDbLine
 62
7
  6
BYLAYER
 10
7.0205410996
 20
33.0174126625
 11
7.0205410996
 21
27.7644903534
  0
LINE
  5
249
100
AcDbEntity
  8
00_COMPONENTS
100
AcDbLine
 62
7
  6
BYLAYER
 10
7.0270797528
 20
21.0337357379
 11
7.0270797528
 21
20.2337357376
  0
LINE
  5
24A
100
AcDbEntity
  8
INTFCLR_1
100
AcDbLine
 62
7
  6
BYLAYER
 10
6.4463170006
 20
29.1780448689
 11
6.4461473878
 21
26.861868947
  0
LINE
  5
24B
100
AcDbEntity
  8
INTFCLR_1
100
AcDbLine
 62
7
  6
BYLAYER
 10
6.5631676621
 20
26.646368332
 11
5.9822059139
 21
16.8337357373
  0
LINE
  5
24C
100
AcDbEntity
  8
INTFCLR_1
100
AcDbLine
 62
7
  6
BYLAYER
 10
7.4180618728
 20
28.4837357372
 11
7.4180618728
 21
31.9837357383
  0
LINE
  5
24D
100
AcDbEntity
  8
INTFCLR_1
100
AcDbLine
 62
7
  6
BYLAYER
 10
7.4680618731
 20
28.0823187986
 11
7.4680618732
 21
32.9720274311
  0
LINE
  5
24E
100
AcDbEntity
  8
INTFCLR_1
100
AcDbLine
 62
7
  6
BYLAYER
 10
7.8180618728
 20
28.0337357385
 11
7.8180618728
 21
28.4837357372
  0
LINE
  5
24F
100
AcDbEntity
  8
INTFCLR_1
100
AcDbLine
 62
7
  6
BYLAYER
 10
7.8180618728
 20
31.9837357383
 11
7.8180618728
 21
32.4337357387
  0
LINE
  5
250
100
AcDbEntity
  8
INTFCLR_1
100
AcDbLine
 62
7
  6
BYLAYER
 10
8.0680618734
 20
31.9837357383
 11
8.0680618734
 21
28.4837357375
  0
LINE
  5
251
100
AcDbEntity
  8
INTFCLR_1
100
AcDbLine
 62
7
  6
BYLAYER
 10
8.4680618728
 20
31.9837357373
 11
8.4680618728
 21
28.4837357374
  0
LINE
  5
252
100
AcDbEntity
  8
INTFCLR_1
100
AcDbLine
 62
7
  6
BYLAYER
 10
5.9608244416
 20
15.0837357373
 11
4.7180618735
 21
15.0837357373
  0
LINE
  5
253
100
AcDbEntity
  8
INTFCLR_1
100
AcDbLine
 62
7
  6
BYLAYER
 10
28.0752992768
 20
15.0837357391
 11
29.3180618722
 21
15.0837357391
  0
LINE
  5
254
100
AcDbEntity
  8
00_COMPONENTS
100
AcDbLine
 62
7
  6
BYLAYER
 10
5.9180618728
 20
21.9337357377
 11
7.0270797528
 21
21.0337357379
  0
LINE
  5
255
100
AcDbEntity
  8
INTFCLR_1
100
AcDbLine
 62
7
  6
BYLAYER
 10
4.2110298182
 20
33.9089728203
 11
4.6119348198
 21
32.9424643254
  0
LINE
  5
256
100
AcDbEntity
  8
INTFCLR_1
100
AcDbLine
 62
7
  6
BYLAYER
 10
10.3180618722
 20
28.4837357375
 11
10.3180618722
 21
31.9837357383
  0
LINE
  5
257
100
AcDbEntity
  8
INTFCLR_1
100
AcDbLine
 62
7
  6
BYLAYER
 10
6.768927023
 20
27.8601138557
 11
7.4680618731
 21
28.0823187986
  0
LINE
  5
258
100
AcDbEntity
  8
INTFCLR_1
100
AcDbLine
 62
7
  6
BYLAYER
 10
30.0540671031
 20
16.8337357379
 11
28.0539178318
 21
16.8337357379
  0
LINE
  5
259
100
AcDbEntity
  8
INTFCLR_1
100
AcDbLine
 62
7
  6
BYLAYER
 10
5.9822059143
 20
16.8337357379
 11
3.9820566423
 21
16.8337357379
  0
LINE
  5
25A
100
AcDbEntity
  8
00_COMPONENTS
100
AcDbLine
 62
7
  6
BYLAYER
 10
11.3396893005
 20
29.8337357379
 11
11.3396893005
 21
28.8337357379
  0
LINE
  5
25B
100
AcDbEntity
  8
INTFCLR_1
100
AcDbLine
 62
7
  6
BYLAYER
 10
11.5180618737
 20
31.9837357383
 11
11.5180618737
 21
28.4837357375
  0
LINE
  5
25C
100
AcDbEntity
  8
INTFCLR_1
100
AcDbLine
 62
7
  6
BYLAYER
 10
11.9180618728
 20
31.9837357373
 11
11.9180618728
 21
28.4837357374
  0
LINE
  5
25D
100
AcDbEntity
  8
INTFCLR_1
100
AcDbLine
 62
7
  6
BYLAYER
 10
6.2111790905
 20
33.9089728191
 11
6.5631676593
 21
33.0603928762
  0
LINE
  5
25E
100
AcDbEntity
  8
INTFCLR_1
100
AcDbLine
 62
7
  6
BYLAYER
 10
13.1680618728
 20
30.2535079033
 11
13.1680618728
 21
26.7337357373
  0
LINE
  5
25F
100
AcDbEntity
  8
INTFCLR_1
100
AcDbLine
 62
7
  6
BYLAYER
 10
13.3680618729
 20
28.4837357374
 11
13.3680618729
 21
31.9837357373
  0
LINE
  5
260
100
AcDbEntity
  8
INTFCLR_1
100
AcDbLine
 62
7
  6
BYLAYER
 10
5.9858712862
 20
19.8337357379
 11
28.0502524567
 21
19.8337357379
  0
LINE
  5
261
100
AcDbEntity
  8
INTFCLR_1
100
AcDbLine
 62
7
  6
BYLAYER
 10
13.7680618723
 20
28.4837357375
 11
13.7680618723
 21
31.9837357383
  0
LINE
  5
262
100
AcDbEntity
  8
INTFCLR_1
100
AcDbLine
 62
7
  6
BYLAYER
 10
14.0180618728
 20
32.4337357387
 11
14.0180618728
 21
31.9837357383
  0
LINE
  5
263
100
AcDbEntity
  8
INTFCLR_1
100
AcDbLine
 62
7
  6
BYLAYER
 10
14.0180618728
 20
28.4837357372
 11
14.0180618728
 21
28.0337357385
  0
LINE
  5
264
100
AcDbEntity
  8
INTFCLR_1
100
AcDbLine
 62
7
  6
BYLAYER
 10
14.3680618731
 20
32.9720274311
 11
14.3680618727
 21
28.0823187986
  0
LINE
  5
265
100
AcDbEntity
  8
INTFCLR_1
100
AcDbLine
 62
7
  6
BYLAYER
 10
14.4180618728
 20
31.9837357383
 11
14.4180618728
 21
28.4837357372
  0
LINE
  5
266
100
AcDbEntity
  8
00_COMPONENTS
100
AcDbLine
 62
7
  6
BYLAYER
 10
7.0270797528
 20
20.2337357376
 11
5.9180618728
 21
19.4337357381
  0
LINE
  5
267
100
AcDbEntity
  8
INTFCLR_1
100
AcDbLine
 62
7
  6
BYLAYER
 10
19.6680618739
 20
28.0823187979
 11
18.9689270236
 21
27.8601138557
  0
LINE
  5
268
100
AcDbEntity
  8
00_COMPONENTS
100
AcDbLine
 62
7
  6
BYLAYER
 10
5.9477354831
 20
20.2337357379
 11
6.9138874815
 21
20.2337357379
  0
LINE
  5
269
100
AcDbEntity
  8
00_COMPONENTS
100
AcDbLine
 62
7
  6
BYLAYER
 10
27.1222362642
 20
20.2337357379
 11
28.0883882625
 21
20.2337357379
  0
LINE
  5
26A
100
AcDbEntity
  8
00_COMPONENTS
100
AcDbLine
 62
7
  6
BYLAYER
 10
28.0883882625
 20
21.0337357379
 11
27.1222362642
 21
21.0337357379
  0
LINE
  5
26B
100
AcDbEntity
  8
00_COMPONENTS
100
AcDbLine
 62
7
  6
BYLAYER
 10
6.9138874815
 20
21.0337357379
 11
5.9477354831
 21
21.0337357379
  0
LINE
  5
26C
100
AcDbEntity
  8
INTFCLR_1
100
AcDbLine
 62
7
  6
BYLAYER
 10
14.8155826475
 20
33.0173924702
 11
14.8155826475
 21
27.7644903534
  0
LINE
  5
26D
100
AcDbEntity
  8
INTFCLR_1
100
AcDbLine
 62
7
  6
BYLAYER
 10
15.067196721
 20
27.8601138558
 11
15.067196721
 21
33.0037435782
  0
LINE
  5
26E
100
AcDbEntity
  8
INTFCLR_1
100
AcDbLine
 62
7
  6
BYLAYER
 10
15.1155826458
 20
27.8264002523
 11
15.1155826458
 21
33.0085556187
  0
LINE
  5
26F
100
AcDbEntity
  8
INTFCLR_1
100
AcDbLine
 62
7
  6
BYLAYER
 10
15.2180618735
 20
30.1925556591
 11
15.2180618728
 21
36.5728981059
  0
LINE
  5
270
100
AcDbEntity
  8
INTFCLR_1
100
AcDbLine
 62
7
  6
BYLAYER
 10
15.222103633
 20
30.0304480042
 11
15.222103633
 21
31.891443355
  0
LINE
  5
271
100
AcDbEntity
  8
INTFCLR_1
100
AcDbLine
 62
7
  6
BYLAYER
 10
15.6180618728
 20
28.4837357372
 11
15.6180618728
 21
31.4810482509
  0
LINE
  5
272
100
AcDbEntity
  8
INTFCLR_1
100
AcDbLine
 62
7
  6
BYLAYER
 10
5.985871289
 20
21.5337357379
 11
28.0502524595
 21
21.5337357379
  0
LINE
  5
273
100
AcDbEntity
  8
INTFCLR_1
100
AcDbLine
 62
7
  6
BYLAYER
 10
18.4180618728
 20
31.4810482509
 11
18.4180618728
 21
28.4837357372
  0
LINE
  5
274
100
AcDbEntity
  8
INTFCLR_1
100
AcDbLine
 62
7
  6
BYLAYER
 10
18.8140201127
 20
30.0304480042
 11
18.8140201127
 21
31.891443355
  0
LINE
  5
275
100
AcDbEntity
  8
INTFCLR_1
100
AcDbLine
 62
7
  6
BYLAYER
 10
18.8180618728
 20
36.5728981059
 11
18.8180618746
 21
30.1925556575
  0
LINE
  5
276
100
AcDbEntity
  8
INTFCLR_1
100
AcDbLine
 62
7
  6
BYLAYER
 10
18.9205410998
 20
27.8264040324
 11
18.9205410998
 21
33.0087495725
  0
LINE
  5
277
100
AcDbEntity
  8
INTFCLR_1
100
AcDbLine
 62
7
  6
BYLAYER
 10
18.9689270247
 20
33.0037435407
 11
18.9689270247
 21
27.8601034049
  0
LINE
  5
278
100
AcDbEntity
  8
INTFCLR_1
100
AcDbLine
 62
7
  6
BYLAYER
 10
19.2205410984
 20
27.7644903534
 11
19.2205410984
 21
33.0174126625
  0
LINE
  5
279
100
AcDbEntity
  8
INTFCLR_1
100
AcDbLine
 62
7
  6
BYLAYER
 10
19.6180618728
 20
28.4837357372
 11
19.6180618728
 21
31.9837357383
  0
LINE
  5
27A
100
AcDbEntity
  8
INTFCLR_1
100
AcDbLine
 62
7
  6
BYLAYER
 10
19.6680618741
 20
32.9720274311
 11
19.6680618739
 21
28.0823187986
  0
LINE
  5
27B
100
AcDbEntity
  8
INTFCLR_1
100
AcDbLine
 62
7
  6
BYLAYER
 10
20.0180618728
 20
28.0337357385
 11
20.0180618728
 21
28.4837357372
  0
LINE
  5
27C
100
AcDbEntity
  8
INTFCLR_1
100
AcDbLine
 62
7
  6
BYLAYER
 10
20.0180618728
 20
31.9837357383
 11
20.0180618728
 21
32.4337357387
  0
LINE
  5
27D
100
AcDbEntity
  8
INTFCLR_1
100
AcDbLine
 62
7
  6
BYLAYER
 10
20.2680618729
 20
28.4837357375
 11
20.2680618729
 21
31.9837357383
  0
LINE
  5
27E
100
AcDbEntity
  8
INTFCLR_1
100
AcDbLine
 62
7
  6
BYLAYER
 10
20.6680618726
 20
28.4837357374
 11
20.6680618726
 21
31.9837357373
  0
LINE
  5
27F
100
AcDbEntity
  8
INTFCLR_1
100
AcDbLine
 62
7
  6
BYLAYER
 10
20.8680618728
 20
30.253507903
 11
20.8680618728
 21
26.7337357373
  0
LINE
  5
280
100
AcDbEntity
  8
INTFCLR_1
100
AcDbLine
 62
7
  6
BYLAYER
 10
6.4469752479
 20
26.5337357392
 11
4.3522548369
 21
26.5337357379
  0
LINE
  5
281
100
AcDbEntity
  8
INTFCLR_1
100
AcDbLine
 62
7
  6
BYLAYER
 10
27.5891484968
 20
26.53373574
 11
29.6838689087
 21
26.5337357379
  0
LINE
  5
282
100
AcDbEntity
  8
INTFCLR_1
100
AcDbLine
 62
7
  6
BYLAYER
 10
6.5631676621
 20
26.6463683348
 11
27.4729560836
 21
26.6463683297
  0
LINE
  5
283
100
AcDbEntity
  8
INTFCLR_1
100
AcDbLine
 62
7
  6
BYLAYER
 10
29.4727867559
 20
26.6517495651
 11
4.5633369913
 21
26.6517495651
  0
LINE
  5
284
100
AcDbEntity
  8
INTFCLR_1
100
AcDbLine
 62
7
  6
BYLAYER
 10
4.5642717063
 20
26.7242634358
 11
29.4718520408
 21
26.7242634358
  0
LINE
  5
285
100
AcDbEntity
  8
INTFCLR_1
100
AcDbLine
 62
7
  6
BYLAYER
 10
13.1680618728
 20
26.7337357373
 11
20.8680618728
 21
26.7337357373
  0
LINE
  5
286
100
AcDbEntity
  8
INTFCLR_1
100
AcDbLine
 62
7
  6
BYLAYER
 10
29.4678253105
 20
26.7347594479
 11
4.5682984351
 21
26.7347594479
  0
LINE
  5
287
100
AcDbEntity
  8
INTFCLR_1
100
AcDbLine
 62
7
  6
BYLAYER
 10
29.4692316225
 20
26.7753575399
 11
4.5668921232
 21
26.7753575399
  0
LINE
  5
288
100
AcDbEntity
  8
INTFCLR_1
100
AcDbLine
 62
7
  6
BYLAYER
 10
29.4702970407
 20
26.8174853139
 11
4.565826706
 21
26.8174853139
  0
LINE
  5
289
100
AcDbEntity
  8
INTFCLR_1
100
AcDbLine
 62
7
  6
BYLAYER
 10
4.5702808839
 20
26.8325948549
 11
29.465842854
 21
26.8325948549
  0
LINE
  5
28A
100
AcDbEntity
  8
INTFCLR_1
100
AcDbLine
 62
7
  6
BYLAYER
 10
28.4639599577
 20
26.8337357379
 11
27.5899763576
 21
26.8337357379
  0
LINE
  5
28B
100
AcDbEntity
  8
INTFCLR_1
100
AcDbLine
 62
7
  6
BYLAYER
 10
6.4461473881
 20
26.8337357379
 11
5.572163788
 21
26.8337357379
  0
LINE
  5
28C
100
AcDbEntity
  8
INTFCLR_1
100
AcDbLine
 62
7
  6
BYLAYER
 10
29.4618424206
 20
26.8358124019
 11
4.574281325
 21
26.8358124019
  0
LINE
  5
28D
100
AcDbEntity
  8
INTFCLR_1
100
AcDbLine
 62
7
  6
BYLAYER
 10
5.8760313533
 20
26.8487499753
 11
6.4461473883
 21
26.8487499753
  0
LINE
  5
28E
100
AcDbEntity
  8
INTFCLR_1
100
AcDbLine
 62
7
  6
BYLAYER
 10
27.5899763574
 20
26.8487499758
 11
28.1600923917
 21
26.8487499758
  0
LINE
  5
28F
100
AcDbEntity
  8
INTFCLR_1
100
AcDbLine
 62
7
  6
BYLAYER
 10
29.4632487318
 20
26.8764104936
 11
4.5728750149
 21
26.8764104936
  0
LINE
  5
290
100
AcDbEntity
  8
INTFCLR_1
100
AcDbLine
 62
7
  6
BYLAYER
 10
29.4643268858
 20
26.9185382679
 11
4.5717968602
 21
26.9185382679
  0
LINE
  5
291
100
AcDbEntity
  8
INTFCLR_1
100
AcDbLine
 62
7
  6
BYLAYER
 10
4.5762637758
 20
26.93364781
 11
29.4598599639
 21
26.93364781
  0
LINE
  5
292
100
AcDbEntity
  8
INTFCLR_1
100
AcDbLine
 62
7
  6
BYLAYER
 10
29.4558595307
 20
26.9368653539
 11
4.5802642149
 21
26.9368653539
  0
LINE
  5
293
100
AcDbEntity
  8
INTFCLR_1
100
AcDbLine
 62
7
  6
BYLAYER
 10
29.4572658452
 20
26.9774634443
 11
4.5788578967
 21
26.9774634443
  0
LINE
  5
294
100
AcDbEntity
  8
INTFCLR_1
100
AcDbLine
 62
7
  6
BYLAYER
 10
29.4583440003
 20
27.0195912209
 11
4.5777797541
 21
27.0195912209
  0
LINE
  5
295
100
AcDbEntity
  8
INTFCLR_1
100
AcDbLine
 62
7
  6
BYLAYER
 10
4.582246664
 20
27.0347007617
 11
29.4538770742
 21
27.0347007617
  0
LINE
  5
296
100
AcDbEntity
  8
INTFCLR_1
100
AcDbLine
 62
7
  6
BYLAYER
 10
29.4498766408
 20
27.0379183089
 11
4.5862471048
 21
27.0379183089
  0
LINE
  5
297
100
AcDbEntity
  8
INTFCLR_1
100
AcDbLine
 62
7
  6
BYLAYER
 10
29.4512829552
 20
27.0785163988
 11
4.5848407867
 21
27.0785163988
  0
LINE
  5
298
100
AcDbEntity
  8
INTFCLR_1
100
AcDbLine
 62
7
  6
BYLAYER
 10
29.4523611073
 20
27.1206441749
 11
4.5837626387
 21
27.1206441749
  0
LINE
  5
299
100
AcDbEntity
  8
INTFCLR_1
100
AcDbLine
 62
7
  6
BYLAYER
 10
4.5882295514
 20
27.1357537172
 11
29.4478941842
 21
27.1357537172
  0
LINE
  5
29A
100
AcDbEntity
  8
INTFCLR_1
100
AcDbLine
 62
7
  6
BYLAYER
 10
29.4438937509
 20
27.1389712629
 11
4.5922299947
 21
27.1389712629
  0
LINE
  5
29B
100
AcDbEntity
  8
INTFCLR_1
100
AcDbLine
 62
7
  6
BYLAYER
 10
29.4453000653
 20
27.179569351
 11
4.5908236769
 21
27.179569351
  0
LINE
  5
29C
100
AcDbEntity
  8
INTFCLR_1
100
AcDbLine
 62
7
  6
BYLAYER
 10
29.4463782139
 20
27.2216971279
 11
4.5897455321
 21
27.2216971279
  0
LINE
  5
29D
100
AcDbEntity
  8
INTFCLR_1
100
AcDbLine
 62
7
  6
BYLAYER
 10
30.1182111448
 20
27.2298728155
 11
28.1180618726
 21
27.2298728174
  0
LINE
  5
29E
100
AcDbEntity
  8
INTFCLR_1
100
AcDbLine
 62
7
  6
BYLAYER
 10
5.9180618731
 20
27.2298728147
 11
3.9179126008
 21
27.2298728147
  0
LINE
  5
29F
100
AcDbEntity
  8
INTFCLR_1
100
AcDbLine
 62
7
  6
BYLAYER
 10
4.5942124418
 20
27.2368066699
 11
29.4419112942
 21
27.2368066699
  0
LINE
  5
2A0
100
AcDbEntity
  8
INTFCLR_1
100
AcDbLine
 62
7
  6
BYLAYER
 10
29.437910861
 20
27.2400242159
 11
4.5982128846
 21
27.2400242159
  0
LINE
  5
2A1
100
AcDbEntity
  8
INTFCLR_1
100
AcDbLine
 62
7
  6
BYLAYER
 10
29.4393171755
 20
27.280622304
 11
4.5968065663
 21
27.280622304
  0
LINE
  5
2A2
100
AcDbEntity
  8
INTFCLR_1
100
AcDbLine
 62
7
  6
BYLAYER
 10
29.4403953297
 20
27.3227500819
 11
4.5957284163
 21
27.3227500819
  0
LINE
  5
2A3
100
AcDbEntity
  8
INTFCLR_1
100
AcDbLine
 62
7
  6
BYLAYER
 10
4.6001953319
 20
27.3378596247
 11
29.4359284041
 21
27.3378596247
  0
LINE
  5
2A4
100
AcDbEntity
  8
INTFCLR_1
100
AcDbLine
 62
7
  6
BYLAYER
 10
29.4319279711
 20
27.3410771699
 11
4.6041957745
 21
27.3410771699
  0
LINE
  5
2A5
100
AcDbEntity
  8
INTFCLR_1
100
AcDbLine
 62
7
  6
BYLAYER
 10
29.4333342823
 20
27.3816752623
 11
4.6027894644
 21
27.3816752623
  0
LINE
  5
2A6
100
AcDbEntity
  8
INTFCLR_1
100
AcDbLine
 62
7
  6
BYLAYER
 10
29.4344124368
 20
27.4238030359
 11
4.6017113092
 21
27.4238030359
  0
LINE
  5
2A7
100
AcDbEntity
  8
INTFCLR_1
100
AcDbLine
 62
7
  6
BYLAYER
 10
14.3680618727
 20
28.0823187986
 11
15.0671967229
 21
27.8601138553
  0
LINE
  5
2A8
100
AcDbEntity
  8
00_COMPONENTS
100
AcDbLine
 62
7
  6
BYLAYER
 10
28.1180618728
 20
19.4337357381
 11
27.0090439928
 21
20.2337357376
  0
LINE
  5
2A9
100
AcDbEntity
  8
INTFCLR_1
100
AcDbLine
 62
7
  6
BYLAYER
 10
22.1180618731
 20
31.9837357373
 11
22.1180618731
 21
28.4837357374
  0
LINE
  5
2AA
100
AcDbEntity
  8
INTFCLR_1
100
AcDbLine
 62
7
  6
BYLAYER
 10
4.6061782248
 20
27.4389125798
 11
29.4299455141
 21
27.4389125798
  0
LINE
  5
2AB
100
AcDbEntity
  8
INTFCLR_1
100
AcDbLine
 62
7
  6
BYLAYER
 10
29.4259450812
 20
27.4421301219
 11
4.6101786644
 21
27.4421301219
  0
LINE
  5
2AC
100
AcDbEntity
  8
INTFCLR_1
100
AcDbLine
 62
7
  6
BYLAYER
 10
29.4273513926
 20
27.4827282131
 11
4.6087723538
 21
27.4827282131
  0
LINE
  5
2AD
100
AcDbEntity
  8
INTFCLR_1
100
AcDbLine
 62
7
  6
BYLAYER
 10
29.4284295441
 20
27.5248559889
 11
4.6076942019
 21
27.5248559889
  0
LINE
  5
2AE
100
AcDbEntity
  8
INTFCLR_1
100
AcDbLine
 62
7
  6
BYLAYER
 10
4.6127339586
 20
27.5399655317
 11
29.4239626244
 21
27.5399655317
  0
LINE
  5
2AF
100
AcDbEntity
  8
INTFCLR_1
100
AcDbLine
 62
7
  6
BYLAYER
 10
29.4209684197
 20
27.5690395719
 11
4.7753753769
 21
27.5690395719
  0
LINE
  5
2B0
100
AcDbEntity
  8
INTFCLR_1
100
AcDbLine
 62
7
  6
BYLAYER
 10
29.4213685046
 20
27.5837811615
 11
4.7248135237
 21
27.5837811615
  0
LINE
  5
2B1
100
AcDbEntity
  8
INTFCLR_1
100
AcDbLine
 62
7
  6
BYLAYER
 10
29.4224466557
 20
27.6259089429
 11
4.647074006
 21
27.6259089429
  0
LINE
  5
2B2
100
AcDbEntity
  8
INTFCLR_1
100
AcDbLine
 62
7
  6
BYLAYER
 10
14.8155826464
 20
27.7644903534
 11
7.0205410998
 21
27.7644903534
  0
LINE
  5
2B3
100
AcDbEntity
  8
INTFCLR_1
100
AcDbLine
 62
7
  6
BYLAYER
 10
19.2205410998
 20
27.7644903529
 11
27.0155826464
 21
27.7644903529
  0
LINE
  5
2B4
100
AcDbEntity
  8
INTFCLR_1
100
AcDbLine
 62
7
  6
BYLAYER
 10
26.2180618723
 20
28.0337357379
 11
20.0180618724
 21
28.0337357379
  0
LINE
  5
2B5
100
AcDbEntity
  8
INTFCLR_1
100
AcDbLine
 62
7
  6
BYLAYER
 10
14.0180618706
 20
28.0337357379
 11
7.8180618707
 21
28.0337357379
  0
LINE
  5
2B6
100
AcDbEntity
  8
INTFCLR_1
100
AcDbLine
 62
7
  6
BYLAYER
 10
14.3680618725
 20
28.0823187979
 11
7.4680618739
 21
28.0823187979
  0
LINE
  5
2B7
100
AcDbEntity
  8
INTFCLR_1
100
AcDbLine
 62
7
  6
BYLAYER
 10
19.6680618739
 20
28.0823187986
 11
26.5680618725
 21
28.0823187986
  0
LINE
  5
2B8
100
AcDbEntity
  8
INTFCLR_1
100
AcDbLine
 62
7
  6
BYLAYER
 10
26.6180618768
 20
28.4837357379
 11
26.2180618723
 21
28.4837357379
  0
LINE
  5
2B9
100
AcDbEntity
  8
INTFCLR_1
100
AcDbLine
 62
7
  6
BYLAYER
 10
20.0180618724
 20
28.4837357379
 11
19.6180618761
 21
28.4837357379
  0
LINE
  5
2BA
100
AcDbEntity
  8
INTFCLR_1
100
AcDbLine
 62
7
  6
BYLAYER
 10
18.4180618708
 20
28.4837357379
 11
15.6180618722
 21
28.4837357379
  0
LINE
  5
2BB
100
AcDbEntity
  8
INTFCLR_1
100
AcDbLine
 62
7
  6
BYLAYER
 10
14.4180618751
 20
28.4837357379
 11
14.0180618706
 21
28.4837357379
  0
LINE
  5
2BC
100
AcDbEntity
  8
INTFCLR_1
100
AcDbLine
 62
7
  6
BYLAYER
 10
7.8180618707
 20
28.4837357379
 11
7.4180618744
 21
28.4837357379
  0
LINE
  5
2BD
100
AcDbEntity
  8
INTFCLR_1
100
AcDbLine
 62
7
  6
BYLAYER
 10
8.0680618734
 20
28.4837357375
 11
10.3180618722
 21
28.4837357375
  0
LINE
  5
2BE
100
AcDbEntity
  8
INTFCLR_1
100
AcDbLine
 62
7
  6
BYLAYER
 10
11.5180618737
 20
28.4837357375
 11
13.7680618723
 21
28.4837357375
  0
LINE
  5
2BF
100
AcDbEntity
  8
INTFCLR_1
100
AcDbLine
 62
7
  6
BYLAYER
 10
20.2680618734
 20
28.4837357375
 11
22.518061872
 21
28.4837357375
  0
LINE
  5
2C0
100
AcDbEntity
  8
INTFCLR_1
100
AcDbLine
 62
7
  6
BYLAYER
 10
23.7180618734
 20
28.4837357374
 11
25.9680618723
 21
28.4837357375
  0
LINE
  5
2C1
100
AcDbEntity
  8
INTFCLR_1
100
AcDbLine
 62
7
  6
BYLAYER
 10
22.5180618727
 20
31.9837357383
 11
22.5180618727
 21
28.4837357375
  0
LINE
  5
2C2
100
AcDbEntity
  8
00_COMPONENTS
100
AcDbLine
 62
7
  6
BYLAYER
 10
22.696434445
 20
28.8337357379
 11
22.696434445
 21
29.8337357379
  0
LINE
  5
2C3
100
AcDbEntity
  8
INTFCLR_1
100
AcDbLine
 62
7
  6
BYLAYER
 10
27.4729560863
 20
33.0603928762
 11
27.8249446551
 21
33.9089728191
  0
LINE
  5
2C4
100
AcDbEntity
  8
00_COMPONENTS
100
AcDbLine
 62
7
  6
BYLAYER
 10
6.521465425
 20
28.8337357379
 11
11.3396893003
 21
28.8337357379
  0
LINE
  5
2C5
100
AcDbEntity
  8
00_COMPONENTS
100
AcDbLine
 62
7
  6
BYLAYER
 10
22.6964344452
 20
28.8337357379
 11
27.4729560835
 21
28.8337357379
  0
LINE
  5
2C6
100
AcDbEntity
  8
INTFCLR_1
100
AcDbLine
 62
7
  6
BYLAYER
 10
20.8680618728
 20
29.7535079039
 11
13.1680618728
 21
29.7535079039
  0
LINE
  5
2C7
100
AcDbEntity
  8
INTFCLR_1
100
AcDbLine
 62
7
  6
BYLAYER
 10
20.8680618728
 20
29.7550756482
 11
13.1680618728
 21
29.7550756482
  0
LINE
  5
2C8
100
AcDbEntity
  8
00_COMPONENTS
100
AcDbLine
 62
7
  6
BYLAYER
 10
27.4729560835
 20
29.8337357379
 11
22.6964344452
 21
29.8337357379
  0
LINE
  5
2C9
100
AcDbEntity
  8
00_COMPONENTS
100
AcDbLine
 62
7
  6
BYLAYER
 10
11.3396893003
 20
29.8337357379
 11
6.521465425
 21
29.8337357379
  0
LINE
  5
2CA
100
AcDbEntity
  8
INTFCLR_1
100
AcDbLine
 62
7
  6
BYLAYER
 10
23.7180618734
 20
28.4837357374
 11
23.7180618734
 21
31.9837357373
  0
LINE
  5
2CB
100
AcDbEntity
  8
INTFCLR_1
100
AcDbLine
 62
7
  6
BYLAYER
 10
6.446698841
 20
29.4422971762
 11
7.6160818912
 21
29.5526834925
  0
LINE
  5
2CC
100
AcDbEntity
  8
INTFCLR_1
100
AcDbLine
 62
7
  6
BYLAYER
 10
7.6721079346
 20
29.2907670956
 11
6.4463170006
 21
29.1780448689
  0
LINE
  5
2CD
100
AcDbEntity
  8
INTFCLR_1
100
AcDbLine
 62
7
  6
BYLAYER
 10
30.0626196416
 20
30.2337357379
 11
28.0624703698
 21
30.2337357379
  0
LINE
  5
2CE
100
AcDbEntity
  8
INTFCLR_1
100
AcDbLine
 62
7
  6
BYLAYER
 10
3.973504104
 20
30.2337357379
 11
5.973653375
 21
30.2337357379
  0
LINE
  5
2CF
100
AcDbEntity
  8
INTFCLR_1
100
AcDbLine
 62
7
  6
BYLAYER
 10
20.8680618728
 20
30.2535079032
 11
13.1680618728
 21
30.2535079032
  0
LINE
  5
2D0
100
AcDbEntity
  8
INTFCLR_1
100
AcDbLine
 62
7
  6
BYLAYER
 10
28.1600923922
 20
31.0187215006
 11
27.5899763574
 21
31.0187215006
  0
LINE
  5
2D1
100
AcDbEntity
  8
INTFCLR_1
100
AcDbLine
 62
7
  6
BYLAYER
 10
6.4461473883
 20
31.0187215001
 11
5.8760313537
 21
31.0187215001
  0
LINE
  5
2D2
100
AcDbEntity
  8
INTFCLR_1
100
AcDbLine
 62
7
  6
BYLAYER
 10
5.572163788
 20
31.0337357379
 11
6.4461473883
 21
31.0337357371
  0
LINE
  5
2D3
100
AcDbEntity
  8
INTFCLR_1
100
AcDbLine
 62
7
  6
BYLAYER
 10
27.5899763574
 20
31.0337357371
 11
28.4639599577
 21
31.0337357379
  0
LINE
  5
2D4
100
AcDbEntity
  8
INTFCLR_1
100
AcDbLine
 62
7
  6
BYLAYER
 10
27.589806747
 20
29.1779985457
 11
26.3640188026
 21
29.2907666291
  0
LINE
  5
2D5
100
AcDbEntity
  8
INTFCLR_1
100
AcDbLine
 62
7
  6
BYLAYER
 10
26.420044215
 20
29.552682095
 11
27.5894247165
 21
29.4422950314
  0
LINE
  5
2D6
100
AcDbEntity
  8
INTFCLR_1
100
AcDbLine
 62
7
  6
BYLAYER
 10
27.2671967227
 20
27.8601138557
 11
26.5680618725
 21
28.0823187979
  0
LINE
  5
2D7
100
AcDbEntity
  8
INTFCLR_1
100
AcDbLine
 62
7
  6
BYLAYER
 10
25.5680618731
 20
31.9837357373
 11
25.5680618731
 21
28.4837357374
  0
LINE
  5
2D8
100
AcDbEntity
  8
INTFCLR_1
100
AcDbLine
 62
7
  6
BYLAYER
 10
29.4205683318
 20
32.9337357375
 11
29.8250939274
 21
33.9089728161
  0
LINE
  5
2D9
100
AcDbEntity
  8
00_COMPONENTS
100
AcDbLine
 62
7
  6
BYLAYER
 10
27.0090439928
 20
21.0337357379
 11
28.1180618728
 21
21.9337357377
  0
LINE
  5
2DA
100
AcDbEntity
  8
INTFCLR_1
100
AcDbLine
 62
7
  6
BYLAYER
 10
18.8180618746
 20
31.2957428138
 11
15.218061871
 21
31.2957428138
  0
LINE
  5
2DB
100
AcDbEntity
  8
INTFCLR_1
100
AcDbLine
 62
7
  6
BYLAYER
 10
29.6838689087
 20
31.3337357379
 11
27.5891484337
 21
31.3337357379
  0
LINE
  5
2DC
100
AcDbEntity
  8
INTFCLR_1
100
AcDbLine
 62
7
  6
BYLAYER
 10
6.446975312
 20
31.3337357379
 11
4.3522548369
 21
31.3337357379
  0
LINE
  5
2DD
100
AcDbEntity
  8
INTFCLR_1
100
AcDbLine
 62
7
  6
BYLAYER
 10
15.6180618722
 20
31.4810482509
 11
18.4180618708
 21
31.4810482509
  0
LINE
  5
2DE
100
AcDbEntity
  8
INTFCLR_1
100
AcDbLine
 62
7
  6
BYLAYER
 10
18.814028689
 20
31.8994104929
 11
15.2220942748
 21
31.8994104929
  0
LINE
  5
2DF
100
AcDbEntity
  8
INTFCLR_1
100
AcDbLine
 62
7
  6
BYLAYER
 10
25.9680618723
 20
31.9837357379
 11
23.7180618735
 21
31.9837357383
  0
LINE
  5
2E0
100
AcDbEntity
  8
INTFCLR_1
100
AcDbLine
 62
7
  6
BYLAYER
 10
22.518061872
 20
31.9837357379
 11
20.2680618734
 21
31.9837357383
  0
LINE
  5
2E1
100
AcDbEntity
  8
INTFCLR_1
100
AcDbLine
 62
7
  6
BYLAYER
 10
13.7680618723
 20
31.9837357379
 11
11.5180618737
 21
31.9837357383
  0
LINE
  5
2E2
100
AcDbEntity
  8
INTFCLR_1
100
AcDbLine
 62
7
  6
BYLAYER
 10
10.3180618722
 20
31.9837357379
 11
8.0680618734
 21
31.9837357383
  0
LINE
  5
2E3
100
AcDbEntity
  8
INTFCLR_1
100
AcDbLine
 62
7
  6
BYLAYER
 10
7.4180618744
 20
31.9837357379
 11
7.8180618707
 21
31.9837357379
  0
LINE
  5
2E4
100
AcDbEntity
  8
INTFCLR_1
100
AcDbLine
 62
7
  6
BYLAYER
 10
14.0180618706
 20
31.9837357379
 11
14.4180618751
 21
31.9837357379
  0
LINE
  5
2E5
100
AcDbEntity
  8
INTFCLR_1
100
AcDbLine
 62
7
  6
BYLAYER
 10
19.6180618761
 20
31.9837357379
 11
20.0180618724
 21
31.9837357379
  0
LINE
  5
2E6
100
AcDbEntity
  8
INTFCLR_1
100
AcDbLine
 62
7
  6
BYLAYER
 10
26.2180618723
 20
31.9837357379
 11
26.6180618768
 21
31.9837357379
  0
LINE
  5
2E7
100
AcDbEntity
  8
INTFCLR_1
100
AcDbLine
 62
7
  6
BYLAYER
 10
25.9680618728
 20
31.9837357383
 11
25.9680618728
 21
28.4837357375
  0
LINE
  5
2E8
100
AcDbEntity
  8
INTFCLR_1
100
AcDbLine
 62
7
  6
BYLAYER
 10
26.2180618728
 20
32.4337357387
 11
26.2180618728
 21
31.9837357383
  0
LINE
  5
2E9
100
AcDbEntity
  8
INTFCLR_1
100
AcDbLine
 62
7
  6
BYLAYER
 10
26.2180618728
 20
28.4837357372
 11
26.2180618728
 21
28.0337357385
  0
LINE
  5
2EA
100
AcDbEntity
  8
INTFCLR_1
100
AcDbLine
 62
7
  6
BYLAYER
 10
26.5680618725
 20
28.0823187986
 11
26.5680618692
 21
32.9720274311
  0
LINE
  5
2EB
100
AcDbEntity
  8
INTFCLR_1
100
AcDbLine
 62
7
  6
BYLAYER
 10
26.6180618728
 20
31.9837357383
 11
26.6180618728
 21
28.4837357372
  0
LINE
  5
2EC
100
AcDbEntity
  8
00_COMPONENTS
100
AcDbLine
 62
7
  6
BYLAYER
 10
27.0090439928
 20
20.2337357376
 11
27.0090439928
 21
21.0337357379
  0
LINE
  5
2ED
100
AcDbEntity
  8
INTFCLR_1
100
AcDbLine
 62
7
  6
BYLAYER
 10
27.0155826463
 20
27.7644903534
 11
27.0155826463
 21
33.0173924702
  0
LINE
  5
2EE
100
AcDbEntity
  8
00_COMPONENTS
100
AcDbLine
 62
7
  6
BYLAYER
 10
27.1222362642
 20
21.0337357379
 11
27.1222362642
 21
20.2337357379
  0
LINE
  5
2EF
100
AcDbEntity
  8
INTFCLR_1
100
AcDbLine
 62
7
  6
BYLAYER
 10
26.5680618692
 20
32.9720274309
 11
27.2671746953
 21
33.0037425412
  0
LINE
  5
2F0
100
AcDbEntity
  8
INTFCLR_1
100
AcDbLine
 62
7
  6
BYLAYER
 10
15.0671967198
 20
33.0037435408
 11
14.3680618731
 21
32.9720274311
  0
LINE
  5
2F1
100
AcDbEntity
  8
INTFCLR_1
100
AcDbLine
 62
7
  6
BYLAYER
 10
30.0626196424
 20
32.4337357379
 11
28.0624703709
 21
32.4337357379
  0
LINE
  5
2F2
100
AcDbEntity
  8
INTFCLR_1
100
AcDbLine
 62
7
  6
BYLAYER
 10
3.973504104
 20
32.4337357379
 11
5.9738923542
 21
32.4337357379
  0
LINE
  5
2F3
100
AcDbEntity
  8
INTFCLR_1
100
AcDbLine
 62
7
  6
BYLAYER
 10
7.8180618707
 20
32.4337357379
 11
14.0180618706
 21
32.4337357379
  0
LINE
  5
2F4
100
AcDbEntity
  8
INTFCLR_1
100
AcDbLine
 62
7
  6
BYLAYER
 10
20.0180618724
 20
32.4337357379
 11
26.2180618723
 21
32.4337357379
  0
LINE
  5
2F5
100
AcDbEntity
  8
INTFCLR_1
100
AcDbLine
 62
7
  6
BYLAYER
 10
30.0636003286
 20
32.4714990873
 11
28.0941113858
 21
32.4714990818
  0
LINE
  5
2F6
100
AcDbEntity
  8
INTFCLR_1
100
AcDbLine
 62
7
  6
BYLAYER
 10
5.9420123598
 20
32.4714990836
 11
3.9687228054
 21
32.4714990867
  0
LINE
  5
2F7
100
AcDbEntity
  8
INTFCLR_1
100
AcDbLine
 62
7
  6
BYLAYER
 10
29.4205683353
 20
32.9337357379
 11
4.9119124273
 21
32.9337356175
  0
LINE
  5
2F8
100
AcDbEntity
  8
INTFCLR_1
100
AcDbLine
 62
7
  6
BYLAYER
 10
26.5680618692
 20
32.9720274311
 11
19.6680618741
 21
32.9720274311
  0
LINE
  5
2F9
100
AcDbEntity
  8
INTFCLR_1
100
AcDbLine
 62
7
  6
BYLAYER
 10
14.3680618716
 20
32.9720274311
 11
7.4680618765
 21
32.9720274311
  0
LINE
  5
2FA
100
AcDbEntity
  8
INTFCLR_1
100
AcDbLine
 62
7
  6
BYLAYER
 10
27.0155826472
 20
33.0173923514
 11
19.2205410969
 21
33.017392227
  0
LINE
  5
2FB
100
AcDbEntity
  8
INTFCLR_1
100
AcDbLine
 62
7
  6
BYLAYER
 10
14.8155826496
 20
33.0173923514
 11
7.0205410993
 21
33.017392227
  0
LINE
  5
2FC
100
AcDbEntity
  8
INTFCLR_1
100
AcDbLine
 62
7
  6
BYLAYER
 10
27.4729560863
 20
33.0603928729
 11
6.5631676593
 21
33.0603928796
  0
LINE
  5
2FD
100
AcDbEntity
  8
INTFCLR_1
100
AcDbLine
 62
7
  6
BYLAYER
 10
15.2180618728
 20
33.0971441878
 11
18.8180618728
 21
33.0971441878
  0
LINE
  5
2FE
100
AcDbEntity
  8
INTFCLR_1
100
AcDbLine
 62
7
  6
BYLAYER
 10
7.4680618732
 20
32.9720274311
 11
6.768927024
 21
33.0037435406
  0
LINE
  5
2FF
100
AcDbEntity
  8
INTFCLR_1
100
AcDbLine
 62
7
  6
BYLAYER
 10
18.9689270254
 20
33.0037435407
 11
19.6680618741
 21
32.9720274309
  0
LINE
  5
300
100
AcDbEntity
  8
INTFCLR_1
100
AcDbLine
 62
7
  6
BYLAYER
 10
28.0539178318
 20
16.8337357374
 11
27.4729560836
 21
26.6463683318
  0
LINE
  5
301
100
AcDbEntity
  8
INTFCLR_1
100
AcDbLine
 62
7
  6
BYLAYER
 10
28.0677705162
 20
34.2581157376
 11
28.0941113858
 21
32.4714990817
  0
LINE
  5
302
100
AcDbEntity
  8
INTFCLR_1
100
AcDbLine
 62
7
  6
BYLAYER
 10
28.0941113858
 20
32.4714990818
 11
28.1180618726
 21
27.2298728173
  0
LINE
  5
303
100
AcDbEntity
  8
00_COMPONENTS
100
AcDbLine
 62
7
  6
BYLAYER
 10
27.2560673029
 20
28.8337357379
 11
27.2560673029
 21
29.8337357379
  0
LINE
  5
304
100
AcDbEntity
  8
INTFCLR_1
100
AcDbLine
 62
7
  6
BYLAYER
 10
27.2671967219
 20
27.8601138555
 11
27.2671967219
 21
33.0037435782
  0
LINE
  5
305
100
AcDbEntity
  8
INTFCLR_1
100
AcDbLine
 62
7
  6
BYLAYER
 10
27.3155826458
 20
27.8264001984
 11
27.3155826458
 21
33.0085556395
  0
LINE
  5
306
100
AcDbEntity
  8
INTFCLR_1
100
AcDbLine
 62
7
  6
BYLAYER
 10
27.4729560838
 20
33.0603928729
 11
27.4729560838
 21
26.6463683297
  0
LINE
  5
307
100
AcDbEntity
  8
00_COMPONENTS
100
AcDbLine
 62
7
  6
BYLAYER
 10
27.4729560838
 20
29.8337357379
 11
27.4729560838
 21
28.8337357379
  0
LINE
  5
308
100
AcDbEntity
  8
INTFCLR_1
100
AcDbLine
 62
7
  6
BYLAYER
 10
27.5899763574
 20
31.0337357371
 11
27.5899763574
 21
31.0198090161
  0
LINE
  5
309
100
AcDbEntity
  8
INTFCLR_1
100
AcDbLine
 62
7
  6
BYLAYER
 10
27.5899763578
 20
26.8476660358
 11
27.5899763574
 21
26.8337357379
  0
LINE
  5
30A
100
AcDbEntity
  8
INTFCLR_1
100
AcDbLine
 62
7
  6
BYLAYER
 10
27.5899763574
 20
31.0187215006
 11
27.5899763578
 21
26.8618689903
  0
LINE
  5
30B
100
AcDbEntity
  8
INTFCLR_1
100
AcDbLine
 62
7
  6
BYLAYER
 10
27.5899763578
 20
26.8618689903
 11
27.5899763578
 21
26.8476660358
  0
LINE
  5
30C
100
AcDbEntity
  8
INTFCLR_1
100
AcDbLine
 62
7
  6
BYLAYER
 10
27.5899763574
 20
31.0187215006
 11
27.5899763574
 21
31.0198090161
  0
LINE
  5
30D
100
AcDbEntity
  8
INTFCLR_1
100
AcDbLine
 62
7
  6
BYLAYER
 10
27.5899763578
 20
26.8618690007
 11
27.589806747
 21
29.1779985457
  0
LINE
  5
30E
100
AcDbEntity
  8
INTFCLR_1
100
AcDbLine
 62
7
  6
BYLAYER
 10
27.684018169
 20
31.3337357366
 11
27.684018169
 21
31.0337357373
  0
LINE
  5
30F
100
AcDbEntity
  8
INTFCLR_1
100
AcDbLine
 62
7
  6
BYLAYER
 10
27.684018169
 20
26.8337357377
 11
27.684018169
 21
26.5337357384
  0
LINE
  5
310
100
AcDbEntity
  8
INTFCLR_1
100
AcDbLine
 62
7
  6
BYLAYER
 10
28.0752991788
 20
11.9818042795
 11
28.0752991788
 21
15.0837357415
  0
LINE
  5
311
100
AcDbEntity
  8
00_COMPONENTS
100
AcDbLine
 62
7
  6
BYLAYER
 10
28.0883882627
 20
21.0337357379
 11
28.0883882627
 21
20.2337357379
  0
LINE
  5
312
100
AcDbEntity
  8
INTFCLR_1
100
AcDbLine
 62
7
  6
BYLAYER
 10
28.1180618726
 20
27.2298728174
 11
28.1180618729
 21
11.9818042794
  0
LINE
  5
313
100
AcDbEntity
  8
00_COMPONENTS
100
AcDbLine
 62
7
  6
BYLAYER
 10
28.1180618728
 20
21.9337357377
 11
28.1180618728
 21
19.4337357381
  0
LINE
  5
314
100
AcDbEntity
  8
INTFCLR_1
100
AcDbLine
 62
7
  6
BYLAYER
 10
27.5896372008
 20
31.0198084563
 11
27.5896111419
 21
31.0066799986
  0
LINE
  5
315
100
AcDbEntity
  8
INTFCLR_1
100
AcDbLine
 62
7
  6
BYLAYER
 10
27.8249446551
 20
33.9089728205
 11
27.9782786605
 21
36.837072758
  0
LINE
  5
316
100
AcDbEntity
  8
INTFCLR_1
100
AcDbLine
 62
7
  6
BYLAYER
 10
15.2180618728
 20
33.6712341659
 11
18.8180618728
 21
33.6712341659
  0
LINE
  5
317
100
AcDbEntity
  8
INTFCLR_1
100
AcDbLine
 62
7
  6
BYLAYER
 10
29.825093925
 20
33.9089728177
 11
27.8249446551
 21
33.9089728205
  0
LINE
  5
318
100
AcDbEntity
  8
INTFCLR_1
100
AcDbLine
 62
7
  6
BYLAYER
 10
6.2111790905
 20
33.9089728203
 11
4.2110298204
 21
33.9089728191
  0
LINE
  5
319
100
AcDbEntity
  8
INTFCLR_1
100
AcDbLine
 62
7
  6
BYLAYER
 10
29.0718864631
 20
34.2581157369
 11
28.0677705162
 21
34.2581157376
  0
LINE
  5
31A
100
AcDbEntity
  8
INTFCLR_1
100
AcDbLine
 62
7
  6
BYLAYER
 10
5.9683532297
 20
34.2581157383
 11
4.9682703624
 21
34.2581157374
  0
LINE
  5
31B
100
AcDbEntity
  8
INTFCLR_1
100
AcDbLine
 62
7
  6
BYLAYER
 10
27.9782786605
 20
36.8370727549
 11
28.0677705162
 21
34.2581157375
  0
LINE
  5
31C
100
AcDbEntity
  8
INTFCLR_1
100
AcDbLine
 62
7
  6
BYLAYER
 10
28.9823946079
 20
36.8370727564
 11
29.0718864632
 21
34.2581157376
  0
LINE
  5
31D
100
AcDbEntity
  8
INTFCLR_1
100
AcDbLine
 62
7
  6
BYLAYER
 10
28.4639599577
 20
26.8337357379
 11
28.4639599577
 21
31.0337357379
  0
LINE
  5
31E
100
AcDbEntity
  8
INTFCLR_1
100
AcDbLine
 62
7
  6
BYLAYER
 10
29.3180618728
 20
10.2318042769
 11
29.318061873
 21
15.6318032113
  0
LINE
  5
31F
100
AcDbEntity
  8
INTFCLR_1
100
AcDbLine
 62
7
  6
BYLAYER
 10
29.4205683353
 20
32.9337357375
 11
29.4205683304
 21
27.583781162
  0
LINE
  5
320
100
AcDbEntity
  8
INTFCLR_1
100
AcDbLine
 62
7
  6
BYLAYER
 10
29.8250939274
 20
33.9089728161
 11
29.956301508
 21
36.4145416821
  0
LINE
  5
321
100
AcDbEntity
  8
INTFCLR_1
100
AcDbLine
 62
7
  6
BYLAYER
 10
18.8180618728
 20
35.9376749006
 11
15.2180618728
 21
35.9376749006
  0
LINE
  5
322
100
AcDbEntity
  8
INTFCLR_1
100
AcDbLine
 62
7
  6
BYLAYER
 10
30.0540671033
 20
16.8337357405
 11
29.4727867576
 21
26.6517495649
  0
LINE
  5
323
100
AcDbEntity
  8
INTFCLR_1
100
AcDbLine
 62
7
  6
BYLAYER
 10
30.0944323856
 20
32.4339157611
 11
29.9563015087
 21
36.4145416824
  0
LINE
  5
324
100
AcDbEntity
  8
INTFCLR_1
100
AcDbLine
 62
7
  6
BYLAYER
 10
30.094432387
 20
32.4339157625
 11
30.1182111448
 21
27.2298728155
  0
LINE
  5
325
100
AcDbEntity
  8
INTFCLR_1
100
AcDbLine
 62
7
  6
BYLAYER
 10
29.6838689087
 20
31.3337357376
 11
29.6838689087
 21
26.5337357382
  0
LINE
  5
326
100
AcDbEntity
  8
INTFCLR_1
100
AcDbLine
 62
7
  6
BYLAYER
 10
30.1182111448
 20
27.2298728155
 11
30.1182111448
 21
16.6986689095
  0
LINE
  5
327
100
AcDbEntity
  8
INTFCLR_1
100
AcDbLine
 62
7
  6
BYLAYER
 10
18.8180618728
 20
36.4622131782
 11
15.2180618728
 21
36.4622131782
  0
LINE
  5
328
100
AcDbEntity
  8
INTFCLR_1
100
AcDbLine
 62
7
  6
BYLAYER
 10
18.8180618728
 20
36.5728981059
 11
15.2180618728
 21
36.5728981059
  0
LINE
  5
329
100
AcDbEntity
  8
INTFCLR_1
100
AcDbLine
 62
7
  6
BYLAYER
 10
28.982394608
 20
36.8370727566
 11
27.9782786605
 21
36.8370727549
  0
LINE
  5
32A
100
AcDbEntity
  8
INTFCLR_1
100
AcDbLine
 62
7
  6
BYLAYER
 10
5.0577622177
 20
36.8370727567
 11
6.0578450855
 21
36.837072758
  0
LINE
  5
32B
100
AcDbEntity
  8
INTFCLR_1
100
AcDbLine
 62
7
  6
BYLAYER
 10
29.3180618727
 20
15.6318032107
 11
30.1182111445
 21
16.6986689095
  0
LINE
  5
32C
100
AcDbEntity
  8
INTFCLR_1
100
AcDbLine
 62
7
  6
BYLAYER
 10
30.0636003287
 20
32.4714990869
 11
30.0944323856
 21
32.4339157611
  0
LINE
  5
32D
100
AcDbEntity
  8
INTFCLR_1
100
AcDbLine
 62
7
  6
BYLAYER
 10
29.0718864632
 20
34.2581157376
 11
30.0636003287
 21
32.4714990869
  0
LINE
  5
32E
100
AcDbEntity
  8
INTFCLR_1
100
AcDbLine
 62
7
  6
BYLAYER
 10
29.9563015087
 20
36.4145416824
 11
28.9823946079
 21
36.8370727564
  0
ARC
  5
32F
100
AcDbEntity
  8
INTFCLR_1
100
AcDbCircle
 62
7
  6
BYLAYER
 10
52.5412386313
 20
30.4308076381
 40
24.9582715285
100
AcDbArc
 50
178.6778738488
 51
178.9770957213
  0
ARC
  5
330
100
AcDbEntity
  8
INTFCLR_1
100
AcDbCircle
 62
7
  6
BYLAYER
 10
-18.4858647922
 20
30.4312020616
 40
24.9390174588
100
AcDbArc
 50
1.0227877881
 51
1.3222406715
  0
ARC
  5
331
100
AcDbEntity
  8
INTFCLR_1
100
AcDbCircle
 62
7
  6
BYLAYER
 10
11.8183054032
 20
31.8872029443
 40
3.4038142342
100
AcDbArc
 50
0.2054880723
 51
2.7976666987
  0
ARC
  5
332
100
AcDbEntity
  8
INTFCLR_1
100
AcDbCircle
 62
7
  6
BYLAYER
 10
22.2012432343
 20
31.887641041
 40
3.3872340971
100
AcDbArc
 50
177.1957347202
 51
179.800916889
  0
ARC
  5
333
100
AcDbEntity
  8
INTFCLR_1
100
AcDbCircle
 62
7
  6
BYLAYER
 10
28.6778303649
 20
28.9337129361
 40
2.3412014979
100
AcDbArc
 50
168.963812118
 51
242.2724977721
  0
ARC
  5
334
100
AcDbEntity
  8
INTFCLR_1
100
AcDbCircle
 62
7
  6
BYLAYER
 10
5.3582933807
 20
28.9337129361
 40
2.3412014979
100
AcDbArc
 50
297.7275022279
 51
11.0361878988
  0
ARC
  5
335
100
AcDbEntity
  8
INTFCLR_1
100
AcDbCircle
 62
7
  6
BYLAYER
 10
5.3816601541
 20
28.9378730028
 40
2.3174739082
100
AcDbArc
 50
8.7588080575
 51
15.3843586241
  0
ARC
  5
336
100
AcDbEntity
  8
INTFCLR_1
100
AcDbCircle
 62
7
  6
BYLAYER
 10
28.6423271341
 20
28.9404660824
 40
2.3050748613
100
AcDbArc
 50
164.5977732026
 51
171.2589582541
  0
SPLINE
  5
337
100
AcDbEntity
  8
INTFCLR_1
100
AcDbSpline
 62
7
  6
BYLAYER
 70
0
 71
3
 72
43
 73
39
 74
0
 42
0.0000001
 43
0.0000001
 44
0.0000000001
 40
0.0
 40
0.0
 40
0.0
 40
0.0
 40
0.0019652471
 40
0.0076788702
 40
0.0171298861
 40
0.0302350858
 40
0.0469435394
 40
0.0671060725
 40
0.0905649068
 40
0.1170905757
 40
0.146526355
 40
0.1786826217
 40
0.2132884081
 40
0.2500658119
 40
0.2887305807
 40
0.3290627678
 40
0.3706876847
 40
0.4132827566
 40
0.4565230688
 40
0.5000817876
 40
0.5436317619
 40
0.5868462606
 40
0.6294018287
 40
0.6709805994
 40
0.7112671222
 40
0.7498924811
 40
0.7866390014
 40
0.8212251683
 40
0.8533822057
 40
0.8828436737
 40
0.9093963435
 40
0.932865137
 40
0.9530279978
 40
0.9697354944
 40
0.9828435503
 40
0.992303154
 40
0.9980282697
 40
1.0
 40
1.0
 40
1.0
 40
1.0
 10
30.0626196736
 20
32.4337203381
 30
0.0
 10
30.0640612716
 20
32.4337203381
 30
0.0
 10
30.0632882812
 20
32.4250225228
 30
0.0
 10
30.0658007548
 20
32.4154493571
 30
0.0
 10
30.0660068078
 20
32.39307312
 30
0.0
 10
30.067454861
 20
32.365017937
 30
0.0
 10
30.0683651641
 20
32.328092878
 30
0.0
 10
30.0694370326
 20
32.2839493947
 30
0.0
 10
30.0703935995
 20
32.2324689739
 30
0.0
 10
30.0713172311
 20
32.1742285597
 30
0.0
 10
30.0721702168
 20
32.1095924224
 30
0.0
 10
30.0729553267
 20
32.0390323001
 30
0.0
 10
30.0736629517
 20
31.9630843601
 30
0.0
 10
30.0742879985
 20
31.8823616674
 30
0.0
 10
30.0748255673
 20
31.7974375683
 30
0.0
 10
30.0752713634
 20
31.7089570565
 30
0.0
 10
30.0756217496
 20
31.6175930303
 30
0.0
 10
30.0758738216
 20
31.5240954343
 30
0.0
 10
30.076025706
 20
31.4291790887
 30
0.0
 10
30.0760763202
 20
31.3335621713
 30
0.0
 10
30.076025344
 20
31.2379641895
 30
0.0
 10
30.0758732095
 20
31.1431021721
 30
0.0
 10
30.0756210894
 20
31.0496863401
 30
0.0
 10
30.0752709001
 20
30.958418639
 30
0.0
 10
30.0748255297
 20
30.8700343825
 30
0.0
 10
30.0742885603
 20
30.7851953417
 30
0.0
 10
30.0736642059
 20
30.7045386008
 30
0.0
 10
30.0729572195
 20
30.6286271378
 30
0.0
 10
30.0721724415
 20
30.5580619935
 30
0.0
 10
30.071319343
 20
30.4933866372
 30
0.0
 10
30.0703953089
 20
30.4351002741
 30
0.0
 10
30.0694385214
 20
30.3835925023
 30
0.0
 10
30.0683667406
 20
30.3394421114
 30
0.0
 10
30.0674569369
 20
30.3025156004
 30
0.0
 10
30.0660087424
 20
30.2744524948
 30
0.0
 10
30.0658045941
 20
30.2520584188
 30
0.0
 10
30.0632865859
 20
30.2424710541
 30
0.0
 10
30.0640660639
 20
30.2337510071
 30
0.0
 10
30.0626197103
 20
30.2337510071
 30
0.0
  0
SPLINE
  5
338
100
AcDbEntity
  8
INTFCLR_1
100
AcDbSpline
 62
7
  6
BYLAYER
 70
0
 71
3
 72
43
 73
39
 74
0
 42
0.0000001
 43
0.0000001
 44
0.0000000001
 40
0.0
 40
0.0
 40
0.0
 40
0.0
 40
0.0019653645
 40
0.0076789859
 40
0.0171299994
 40
0.0302351967
 40
0.0469436472
 40
0.0671061764
 40
0.0905650064
 40
0.1170906704
 40
0.1465264444
 40
0.1786827053
 40
0.2132884856
 40
0.2500658829
 40
0.2887306451
 40
0.3290628252
 40
0.3706877349
 40
0.4132827996
 40
0.4565231044
 40
0.5000818158
 40
0.5436317829
 40
0.5868462743
 40
0.6294018354
 40
0.6709805992
 40
0.7112671154
 40
0.7498924681
 40
0.7866389825
 40
0.8212251439
 40
0.8533821762
 40
0.8828436397
 40
0.9093963054
 40
0.9328650955
 40
0.9530279534
 40
0.9697354477
 40
0.982843502
 40
0.9923031046
 40
0.99802822
 40
1.0
 40
1.0
 40
1.0
 40
1.0
 10
28.0624703315
 20
30.2337508883
 30
0.0
 10
28.0639120158
 20
30.2337508883
 30
0.0
 10
28.0631390022
 20
30.2424488623
 30
0.0
 10
28.0656514761
 20
30.2520221321
 30
0.0
 10
28.0658575386
 20
30.2743983458
 30
0.0
 10
28.0673055877
 20
30.3024535375
 30
0.0
 10
28.0682158923
 20
30.3393785921
 30
0.0
 10
28.0692877603
 20
30.3835220758
 30
0.0
 10
28.0702443274
 20
30.4350024951
 30
0.0
 10
28.071167959
 20
30.4932429084
 30
0.0
 10
28.0720209447
 20
30.5578790449
 30
0.0
 10
28.0728060545
 20
30.6284391664
 30
0.0
 10
28.0735136796
 20
30.7043871057
 30
0.0
 10
28.0741387264
 20
30.7851097977
 30
0.0
 10
28.0746762952
 20
30.8700338962
 30
0.0
 10
28.0751220913
 20
30.9585144075
 30
0.0
 10
28.0754724776
 20
31.0498784333
 30
0.0
 10
28.0757245496
 20
31.1433760289
 30
0.0
 10
28.075876434
 20
31.2382923743
 30
0.0
 10
28.0759270481
 20
31.3339092915
 30
0.0
 10
28.075876072
 20
31.4295072732
 30
0.0
 10
28.0757239375
 20
31.5243692907
 30
0.0
 10
28.0754718174
 20
31.6177851228
 30
0.0
 10
28.0751216282
 20
31.7090528242
 30
0.0
 10
28.0746762578
 20
31.797437081
 30
0.0
 10
28.0741392884
 20
31.8822761222
 30
0.0
 10
28.073514934
 20
31.9629328636
 30
0.0
 10
28.0728079476
 20
32.0388443273
 30
0.0
 10
28.0720231696
 20
32.1094094723
 30
0.0
 10
28.0711700711
 20
32.1740848294
 30
0.0
 10
28.070246037
 20
32.2323711935
 30
0.0
 10
28.0692892494
 20
32.2838789661
 30
0.0
 10
28.0682174689
 20
32.3280293586
 30
0.0
 10
28.0673076646
 20
32.3649558692
 30
0.0
 10
28.0658594717
 20
32.39301898
 30
0.0
 10
28.0656553196
 20
32.4154130481
 30
0.0
 10
28.0631373108
 20
32.4250004578
 30
0.0
 10
28.0639167992
 20
32.4337205734
 30
0.0
 10
28.0624704089
 20
32.4337205734
 30
0.0
  0
SPLINE
  5
339
100
AcDbEntity
  8
INTFCLR_1
100
AcDbSpline
 62
7
  6
BYLAYER
 70
0
 71
3
 72
43
 73
39
 74
0
 42
0.0000001
 43
0.0000001
 44
0.0000000001
 40
0.0
 40
0.0
 40
0.0
 40
0.0
 40
0.0019653584
 40
0.0076789804
 40
0.0171299945
 40
0.030235192
 40
0.0469436428
 40
0.0671061724
 40
0.0905650028
 40
0.1170906672
 40
0.1465264416
 40
0.1786827028
 40
0.2132884834
 40
0.250065881
 40
0.2887306435
 40
0.3290628238
 40
0.3706877338
 40
0.4132827986
 40
0.4565231037
 40
0.5000818152
 40
0.5436317824
 40
0.5868462739
 40
0.629401835
 40
0.6709805987
 40
0.7112671148
 40
0.7498924673
 40
0.7866389815
 40
0.8212251426
 40
0.8533821746
 40
0.8828436378
 40
0.9093963031
 40
0.9328650927
 40
0.9530279501
 40
0.9697354438
 40
0.9828434976
 40
0.9923030997
 40
0.9980282145
 40
1.0
 40
1.0
 40
1.0
 40
1.0
 10
28.0624704089
 20
32.4337205734
 30
0.0
 10
28.0610287291
 20
32.4337205734
 30
0.0
 10
28.0618017327
 20
32.4250226095
 30
0.0
 10
28.059289267
 20
32.4154493422
 30
0.0
 10
28.0590832003
 20
32.3930731275
 30
0.0
 10
28.0576351531
 20
32.365017935
 30
0.0
 10
28.0567248477
 20
32.3280928798
 30
0.0
 10
28.0556529801
 20
32.2839493952
 30
0.0
 10
28.0546964129
 20
32.232468975
 30
0.0
 10
28.0537727813
 20
32.1742285608
 30
0.0
 10
28.0529197956
 20
32.1095924236
 30
0.0
 10
28.0521346857
 20
32.0390323014
 30
0.0
 10
28.0514270607
 20
31.9630843614
 30
0.0
 10
28.0508020139
 20
31.8823616687
 30
0.0
 10
28.0502644451
 20
31.7974375696
 30
0.0
 10
28.049818649
 20
31.7089570577
 30
0.0
 10
28.0494682628
 20
31.6175930314
 30
0.0
 10
28.0492161908
 20
31.5240954353
 30
0.0
 10
28.0490643064
 20
31.4291790896
 30
0.0
 10
28.0490136922
 20
31.3335621721
 30
0.0
 10
28.0490646684
 20
31.2379641902
 30
0.0
 10
28.0492168029
 20
31.1431021726
 30
0.0
 10
28.049468923
 20
31.0496863405
 30
0.0
 10
28.0498191122
 20
30.9584186392
 30
0.0
 10
28.0502644827
 20
30.8700343827
 30
0.0
 10
28.0508014521
 20
30.7851953418
 30
0.0
 10
28.0514258064
 20
30.7045386008
 30
0.0
 10
28.0521327929
 20
30.6286271378
 30
0.0
 10
28.0529175709
 20
30.5580619935
 30
0.0
 10
28.0537706694
 20
30.4933866372
 30
0.0
 10
28.0546947035
 20
30.435100274
 30
0.0
 10
28.055651491
 20
30.3835925024
 30
0.0
 10
28.0567232718
 20
30.3394421109
 30
0.0
 10
28.0576330755
 20
30.3025156015
 30
0.0
 10
28.05908127
 20
30.274452492
 30
0.0
 10
28.0592854183
 20
30.252058425
 30
0.0
 10
28.0618034348
 20
30.2424710131
 30
0.0
 10
28.0610239371
 20
30.2337508883
 30
0.0
 10
28.0624703315
 20
30.2337508883
 30
0.0
  0
SPLINE
  5
33A
100
AcDbEntity
  8
INTFCLR_1
100
AcDbSpline
 62
7
  6
BYLAYER
 70
0
 71
3
 72
27
 73
23
 74
0
 42
0.0000001
 43
0.0000001
 44
0.0000000001
 40
0.0
 40
0.0
 40
0.0
 40
0.0
 40
0.0784384659
 40
0.1563913534
 40
0.2333663258
 40
0.3088789324
 40
0.3826613411
 40
0.4540547857
 40
0.5226103644
 40
0.5879097377
 40
0.6495560577
 40
0.7071782348
 40
0.7604299899
 40
0.8089908071
 40
0.852567975
 40
0.8908987056
 40
0.9237500902
 40
0.9509158879
 40
0.9721813426
 40
0.9874972278
 40
0.9967692003
 40
1.0
 40
1.0
 40
1.0
 40
1.0
 10
28.0752990305
 20
11.9818042785
 30
0.0
 10
28.0752990305
 20
11.9360339979
 30
0.0
 10
28.075342639
 20
11.8447767745
 30
0.0
 10
28.0755391184
 20
11.7086033733
 30
0.0
 10
28.0758649393
 20
11.5741375155
 30
0.0
 10
28.0763184217
 20
11.4421055912
 30
0.0
 10
28.076896941
 20
11.3133311102
 30
0.0
 10
28.0775971245
 20
11.1886168422
 30
0.0
 10
28.0784138379
 20
11.0688534093
 30
0.0
 10
28.0793416771
 20
10.9547785407
 30
0.0
 10
28.0803746953
 20
10.8470848416
 30
0.0
 10
28.08150585
 20
10.7464220159
 30
0.0
 10
28.0827288245
 20
10.6533982321
 30
0.0
 10
28.0840319819
 20
10.5685662429
 30
0.0
 10
28.0854177105
 20
10.4924615921
 30
0.0
 10
28.0868408064
 20
10.4254702023
 30
0.0
 10
28.0883961406
 20
10.3682278192
 30
0.0
 10
28.0897621673
 20
10.3204683512
 30
0.0
 10
28.0917452278
 20
10.2842191964
 30
0.0
 10
28.0922862952
 20
10.255409714
 30
0.0
 10
28.0954668037
 20
10.2429623599
 30
0.0
 10
28.0947952949
 20
10.2317914882
 30
0.0
 10
28.0966805257
 20
10.2317914882
 30
0.0
  0
SPLINE
  5
33B
100
AcDbEntity
  8
INTFCLR_1
100
AcDbSpline
 62
7
  6
BYLAYER
 70
0
 71
3
 72
27
 73
23
 74
0
 42
0.0000001
 43
0.0000001
 44
0.0000000001
 40
0.0
 40
0.0
 40
0.0
 40
0.0
 40
0.003227323
 40
0.0125024057
 40
0.0278415029
 40
0.0491548546
 40
0.0763904368
 40
0.1093272843
 40
0.1477516702
 40
0.1914204118
 40
0.2400592382
 40
0.2933670672
 40
0.3510167104
 40
0.4126561717
 40
0.4779111383
 40
0.5463886278
 40
0.6176778164
 40
0.6913386917
 40
0.7667286267
 40
0.8436061499
 40
0.9215174342
 40
1.0
 40
1.0
 40
1.0
 40
1.0
 10
28.0966805257
 20
10.2317914882
 30
0.0
 10
28.0985637278
 20
10.2317914882
 30
0.0
 10
28.0978945649
 20
10.242960566
 30
0.0
 10
28.1010764735
 20
10.2554182054
 30
0.0
 10
28.1016180003
 20
10.2842753616
 30
0.0
 10
28.1036044306
 20
10.3206039075
 30
0.0
 10
28.1049723329
 20
10.3684831488
 30
0.0
 10
28.1065298886
 20
10.4258703157
 30
0.0
 10
28.1079544375
 20
10.4930198097
 30
0.0
 10
28.1093410008
 20
10.5692780374
 30
0.0
 10
28.1106442345
 20
10.654241728
 30
0.0
 10
28.1118665883
 20
10.747359796
 30
0.0
 10
28.1129965286
 20
10.8480673864
 30
0.0
 10
28.1140278844
 20
10.9557472168
 30
0.0
 10
28.1149538075
 20
11.0697466211
 30
0.0
 10
28.1157685694
 20
11.189377754
 30
0.0
 10
28.1164669723
 20
11.3139147143
 30
0.0
 10
28.1170440558
 20
11.4424858702
 30
0.0
 10
28.1174965756
 20
11.5743184392
 30
0.0
 10
28.1178219482
 20
11.708631581
 30
0.0
 10
28.1180183876
 20
11.84474958
 30
0.0
 10
28.118062021
 20
11.9360082633
 30
0.0
 10
28.118062021
 20
11.9818042784
 30
0.0
  0
SPLINE
  5
33C
100
AcDbEntity
  8
INTFCLR_1
100
AcDbSpline
 62
7
  6
BYLAYER
 70
0
 71
3
 72
40
 73
36
 74
0
 42
0.0000001
 43
0.0000001
 44
0.0000000001
 40
0.0
 40
0.0
 40
0.0
 40
0.0
 40
0.0023332712
 40
0.0091283847
 40
0.0203561842
 40
0.0358973085
 40
0.05567922
 40
0.0794856778
 40
0.1071024178
 40
0.1382026896
 40
0.1726028275
 40
0.2100035667
 40
0.2500299115
 40
0.2922998986
 40
0.3364730806
 40
0.3822240745
 40
0.4290142918
 40
0.4764136735
 40
0.5239886323
 40
0.5713183979
 40
0.6179978542
 40
0.6636272784
 40
0.7076956271
 40
0.7498910219
 40
0.7898769544
 40
0.827273409
 40
0.8617032182
 40
0.8928408071
 40
0.9204739135
 40
0.9442824933
 40
0.9640638175
 40
0.9796087991
 40
0.99084789
 40
0.9976582605
 40
1.0
 40
1.0
 40
1.0
 40
1.0
 10
28.050252483
 20
19.8337473936
 30
0.0
 10
28.0489299218
 20
19.8337473936
 30
0.0
 10
28.0498370446
 20
19.8417912042
 30
0.0
 10
28.0474788585
 20
19.850541119
 30
0.0
 10
28.0474458602
 20
19.8710993241
 30
0.0
 10
28.0461759756
 20
19.896793468
 30
0.0
 10
28.0454454453
 20
19.9305585486
 30
0.0
 10
28.0445554796
 20
19.9708188353
 30
0.0
 10
28.0437807134
 20
20.0176195962
 30
0.0
 10
28.0430387954
 20
20.0703859372
 30
0.0
 10
28.042366711
 20
20.128712333
 30
0.0
 10
28.041761464
 20
20.1920952407
 30
0.0
 10
28.0412321828
 20
20.2599410215
 30
0.0
 10
28.0407830908
 20
20.3316259008
 30
0.0
 10
28.0404184282
 20
20.4065562866
 30
0.0
 10
28.0401418321
 20
20.4840492232
 30
0.0
 10
28.0399561567
 20
20.5633711403
 30
0.0
 10
28.0398631864
 20
20.6437270904
 30
0.0
 10
28.0398635814
 20
20.7243889254
 30
0.0
 10
28.039957162
 20
20.8046426321
 30
0.0
 10
28.0401430037
 20
20.8837933966
 30
0.0
 10
28.0404192656
 20
20.9610952193
 30
0.0
 10
28.040783213
 20
21.035854994
 30
0.0
 10
28.0412314276
 20
21.1074152665
 30
0.0
 10
28.0417599131
 20
21.1751934342
 30
0.0
 10
28.0423646978
 20
21.2385678298
 30
0.0
 10
28.0430367812
 20
21.2969297711
 30
0.0
 10
28.043779019
 20
21.3497433538
 30
0.0
 10
28.0445540122
 20
21.3965757479
 30
0.0
 10
28.0454439342
 20
21.4368462426
 30
0.0
 10
28.0461740495
 20
21.4706141851
 30
0.0
 10
28.0474440129
 20
21.4963168552
 30
0.0
 10
28.0474752314
 20
21.5168932362
 30
0.0
 10
28.0498388998
 20
21.5256576931
 30
0.0
 10
28.0489250708
 20
21.5337240834
 30
0.0
 10
28.0502524321
 20
21.5337240825
 30
0.0
  0
SPLINE
  5
33D
100
AcDbEntity
  8
INTFCLR_1
100
AcDbSpline
 62
7
  6
BYLAYER
 70
0
 71
3
 72
40
 73
36
 74
0
 42
0.0000001
 43
0.0000001
 44
0.0000000001
 40
0.0
 40
0.0
 40
0.0
 40
0.0
 40
0.002333272
 40
0.0091283861
 40
0.0203561861
 40
0.0358973108
 40
0.0556792226
 40
0.0794856806
 40
0.1071024207
 40
0.1382026925
 40
0.1726028303
 40
0.2100035693
 40
0.2500299139
 40
0.2922999007
 40
0.3364730822
 40
0.3822240757
 40
0.4290142925
 40
0.4764136737
 40
0.523988632
 40
0.5713183972
 40
0.617997853
 40
0.6636272767
 40
0.7076956251
 40
0.7498910195
 40
0.7898769517
 40
0.8272734061
 40
0.8617032153
 40
0.8928408042
 40
0.9204739107
 40
0.9442824906
 40
0.9640638151
 40
0.9796087972
 40
0.9908478886
 40
0.9976582597
 40
1.0
 40
1.0
 40
1.0
 40
1.0
 10
28.0502524321
 20
21.5337240825
 30
0.0
 10
28.0515749938
 20
21.5337240817
 30
0.0
 10
28.0506678701
 20
21.5256802716
 30
0.0
 10
28.0530260569
 20
21.516930354
 30
0.0
 10
28.0530590549
 20
21.4963721492
 30
0.0
 10
28.0543289396
 20
21.4706780041
 30
0.0
 10
28.0550594698
 20
21.4369129232
 30
0.0
 10
28.0559494355
 20
21.3966526361
 30
0.0
 10
28.0567242017
 20
21.3498518751
 30
0.0
 10
28.0574661197
 20
21.297085534
 30
0.0
 10
28.0581382041
 20
21.2387591384
 30
0.0
 10
28.058743451
 20
21.175376231
 30
0.0
 10
28.0592727323
 20
21.1075304506
 30
0.0
 10
28.0597218243
 20
21.0358455719
 30
0.0
 10
28.0600864868
 20
20.9609151867
 30
0.0
 10
28.0603630829
 20
20.883422251
 30
0.0
 10
28.0605487583
 20
20.8041003347
 30
0.0
 10
28.0606417286
 20
20.7237443854
 30
0.0
 10
28.0606413336
 20
20.6430825513
 30
0.0
 10
28.060547753
 20
20.5628288454
 30
0.0
 10
28.0603619113
 20
20.4836780817
 30
0.0
 10
28.0600856494
 20
20.4063762597
 30
0.0
 10
28.059721702
 20
20.3316164856
 30
0.0
 10
28.0592734874
 20
20.2600562138
 30
0.0
 10
28.058745002
 20
20.1922780464
 30
0.0
 10
28.0581402172
 20
20.1289036512
 30
0.0
 10
28.0574681338
 20
20.07054171
 30
0.0
 10
28.056725896
 20
20.0177281272
 30
0.0
 10
28.0559509029
 20
19.970895733
 30
0.0
 10
28.0550609809
 20
19.9306252379
 30
0.0
 10
28.0543308657
 20
19.8968572951
 30
0.0
 10
28.0530609022
 20
19.8711546239
 30
0.0
 10
28.053029684
 20
19.8505782431
 30
0.0
 10
28.0506660149
 20
19.8418137834
 30
0.0
 10
28.0515798447
 20
19.8337473936
 30
0.0
 10
28.050252483
 20
19.8337473936
 30
0.0
  0
SPLINE
  5
33E
100
AcDbEntity
  8
INTFCLR_1
100
AcDbSpline
 62
7
  6
BYLAYER
 70
0
 71
3
 72
14
 73
10
 74
0
 42
0.0000001
 43
0.0000001
 44
0.0000000001
 40
0.0
 40
0.0
 40
0.0
 40
0.0
 40
0.2608218656
 40
0.4837634434
 40
0.6677334418
 40
0.8118397864
 40
0.9154047569
 40
0.9780143013
 40
1.0
 40
1.0
 40
1.0
 40
1.0
 10
30.0641576304
 20
16.6265975558
 30
0.0
 10
30.0637457196
 20
16.6446441815
 30
0.0
 10
30.0629343359
 20
16.678142107
 30
0.0
 10
30.0615272431
 20
16.7242348884
 30
0.0
 10
30.0602525165
 20
16.7626219106
 30
0.0
 10
30.0585553043
 20
16.7917490471
 30
0.0
 10
30.057859278
 20
16.8148104659
 30
0.0
 10
30.0553739525
 20
16.8248784348
 30
0.0
 10
30.0555887205
 20
16.8337357405
 30
0.0
 10
30.0540671033
 20
16.8337357405
 30
0.0
  0
SPLINE
  5
33F
100
AcDbEntity
  8
INTFCLR_1
100
AcDbSpline
 62
7
  6
BYLAYER
 70
0
 71
3
 72
14
 73
10
 74
0
 42
0.0000001
 43
0.0000001
 44
0.0000000001
 40
0.0
 40
0.0
 40
0.0
 40
0.0
 40
0.0612107098
 40
0.154652906
 40
0.2778983904
 40
0.4279022866
 40
0.601061607
 40
0.7932732367
 40
1.0
 40
1.0
 40
1.0
 40
1.0
 10
29.4727867576
 20
26.6517495649
 30
0.0
 10
29.4726993018
 20
26.6532267213
 30
0.0
 10
29.4725664146
 20
26.6569636117
 30
0.0
 10
29.4724000994
 20
26.663679437
 30
0.0
 10
29.4722489434
 20
26.6725429305
 30
0.0
 10
29.4721128808
 20
26.6833337954
 30
0.0
 10
29.4719986382
 20
26.6957922759
 30
0.0
 10
29.4719087263
 20
26.709622213
 30
0.0
 10
29.471868107
 20
26.7192663052
 30
0.0
 10
29.471852057
 20
26.7242638119
 30
0.0
  0
SPLINE
  5
340
100
AcDbEntity
  8
INTFCLR_1
100
AcDbSpline
 62
7
  6
BYLAYER
 70
0
 71
3
 72
12
 73
8
 74
0
 42
0.0000001
 43
0.0000001
 44
0.0000000001
 40
0.0
 40
0.0
 40
0.0
 40
0.0
 40
0.3507182564
 40
0.6304362887
 40
0.8340540657
 40
0.9578798627
 40
1.0
 40
1.0
 40
1.0
 40
1.0
 10
29.4692316464
 20
26.7753591035
 30
0.0
 10
29.4691595924
 20
26.7706078564
 30
0.0
 10
29.4690752183
 20
26.7619773455
 30
0.0
 10
29.4686086143
 20
26.750989094
 30
0.0
 10
29.4688181249
 20
26.7420640299
 30
0.0
 10
29.4677206271
 20
26.7383161716
 30
0.0
 10
29.4683959856
 20
26.7347590506
 30
0.0
 10
29.4678253105
 20
26.7347590506
 30
0.0
  0
SPLINE
  5
341
100
AcDbEntity
  8
INTFCLR_1
100
AcDbSpline
 62
7
  6
BYLAYER
 70
0
 71
3
 72
15
 73
11
 74
0
 42
0.0000001
 43
0.0000001
 44
0.0000000001
 40
0.0
 40
0.0
 40
0.0
 40
0.0
 40
0.0175285096
 40
0.0690028961
 40
0.1535734167
 40
0.2696951882
 40
0.4152622495
 40
0.5876532946
 40
0.7837812635
 40
1.0
 40
1.0
 40
1.0
 40
1.0
 10
29.4678253105
 20
26.7347590506
 30
0.0
 10
29.4672534656
 20
26.7347590506
 30
0.0
 10
29.4679304991
 20
26.7383208906
 30
0.0
 10
29.4668321984
 20
26.742071177
 30
0.0
 10
29.4670410863
 20
26.7509951843
 30
0.0
 10
29.4665793379
 20
26.761986429
 30
0.0
 10
29.4664153819
 20
26.7762595057
 30
0.0
 10
29.4661712863
 20
26.792990104
 30
0.0
 10
29.4659909551
 20
26.8120785882
 30
0.0
 10
29.4658884415
 20
26.8255272251
 30
0.0
 10
29.4658429588
 20
26.8325809347
 30
0.0
  0
SPLINE
  5
342
100
AcDbEntity
  8
INTFCLR_1
100
AcDbSpline
 62
7
  6
BYLAYER
 70
0
 71
3
 72
12
 73
8
 74
0
 42
0.0000001
 43
0.0000001
 44
0.0000000001
 40
0.0
 40
0.0
 40
0.0
 40
0.0
 40
0.3507182785
 40
0.6304363024
 40
0.8340540729
 40
0.9578798653
 40
1.0
 40
1.0
 40
1.0
 40
1.0
 10
29.4632487565
 20
26.8764120584
 30
0.0
 10
29.4631767025
 20
26.8716608108
 30
0.0
 10
29.4630923284
 20
26.8630302995
 30
0.0
 10
29.4626257244
 20
26.8520420478
 30
0.0
 10
29.462835235
 20
26.8431169838
 30
0.0
 10
29.4617377373
 20
26.8393691255
 30
0.0
 10
29.4624130957
 20
26.8358120047
 30
0.0
 10
29.4618424206
 20
26.8358120047
 30
0.0
  0
SPLINE
  5
343
100
AcDbEntity
  8
INTFCLR_1
100
AcDbSpline
 62
7
  6
BYLAYER
 70
0
 71
3
 72
15
 73
11
 74
0
 42
0.0000001
 43
0.0000001
 44
0.0000000001
 40
0.0
 40
0.0
 40
0.0
 40
0.0
 40
0.0175285109
 40
0.0690029
 40
0.1535734244
 40
0.269695201
 40
0.4152622685
 40
0.5876533211
 40
0.7837812985
 40
1.0
 40
1.0
 40
1.0
 40
1.0
 10
29.4618424206
 20
26.8358120047
 30
0.0
 10
29.4612705757
 20
26.8358120047
 30
0.0
 10
29.4619476092
 20
26.8393738447
 30
0.0
 10
29.4608493085
 20
26.8431241311
 30
0.0
 10
29.4610581964
 20
26.8520481383
 30
0.0
 10
29.460596448
 20
26.8630393828
 30
0.0
 10
29.460432492
 20
26.8773124593
 30
0.0
 10
29.4601883964
 20
26.8940430574
 30
0.0
 10
29.4600080652
 20
26.9131315398
 30
0.0
 10
29.4599055517
 20
26.9265801751
 30
0.0
 10
29.4598600689
 20
26.9336338831
 30
0.0
  0
SPLINE
  5
344
100
AcDbEntity
  8
INTFCLR_1
100
AcDbSpline
 62
7
  6
BYLAYER
 70
0
 71
3
 72
12
 73
8
 74
0
 42
0.0000001
 43
0.0000001
 44
0.0000000001
 40
0.0
 40
0.0
 40
0.0
 40
0.0
 40
0.350718295
 40
0.6304363115
 40
0.8340540768
 40
0.9578798661
 40
1.0
 40
1.0
 40
1.0
 40
1.0
 10
29.4572658666
 20
26.977465012
 30
0.0
 10
29.4571938126
 20
26.972713764
 30
0.0
 10
29.4571094386
 20
26.9640832522
 30
0.0
 10
29.4566428345
 20
26.9530949999
 30
0.0
 10
29.4568523451
 20
26.9441699357
 30
0.0
 10
29.4557548473
 20
26.9404220774
 30
0.0
 10
29.4564302058
 20
26.9368649565
 30
0.0
 10
29.4558595307
 20
26.9368649565
 30
0.0
  0
SPLINE
  5
345
100
AcDbEntity
  8
INTFCLR_1
100
AcDbSpline
 62
7
  6
BYLAYER
 70
0
 71
3
 72
15
 73
11
 74
0
 42
0.0000001
 43
0.0000001
 44
0.0000000001
 40
0.0
 40
0.0
 40
0.0
 40
0.0
 40
0.0175285112
 40
0.0690029015
 40
0.1535734279
 40
0.2696952073
 40
0.4152622782
 40
0.5876533348
 40
0.7837813167
 40
1.0
 40
1.0
 40
1.0
 40
1.0
 10
29.4558595307
 20
26.9368649565
 30
0.0
 10
29.4552876857
 20
26.9368649565
 30
0.0
 10
29.4559647193
 20
26.9404267966
 30
0.0
 10
29.4548664186
 20
26.9441770829
 30
0.0
 10
29.4550753065
 20
26.9531010902
 30
0.0
 10
29.4546135581
 20
26.9640923348
 30
0.0
 10
29.4544496021
 20
26.9783654114
 30
0.0
 10
29.4542055065
 20
26.9950960097
 30
0.0
 10
29.4540251753
 20
27.0141844915
 30
0.0
 10
29.4539226618
 20
27.0276331261
 30
0.0
 10
29.453877179
 20
27.0346868334
 30
0.0
  0
SPLINE
  5
346
100
AcDbEntity
  8
INTFCLR_1
100
AcDbSpline
 62
7
  6
BYLAYER
 70
0
 71
3
 72
12
 73
8
 74
0
 42
0.0000001
 43
0.0000001
 44
0.0000000001
 40
0.0
 40
0.0
 40
0.0
 40
0.0
 40
0.3507183253
 40
0.6304363311
 40
0.8340540875
 40
0.9578798703
 40
1.0
 40
1.0
 40
1.0
 40
1.0
 10
29.4512829767
 20
27.0785179676
 30
0.0
 10
29.4512109227
 20
27.0737667192
 30
0.0
 10
29.4511265487
 20
27.065136207
 30
0.0
 10
29.4506599446
 20
27.0541479545
 30
0.0
 10
29.4508694551
 20
27.0452228906
 30
0.0
 10
29.4497719575
 20
27.0414750324
 30
0.0
 10
29.4504473159
 20
27.0379179117
 30
0.0
 10
29.4498766408
 20
27.0379179117
 30
0.0
  0
SPLINE
  5
347
100
AcDbEntity
  8
INTFCLR_1
100
AcDbSpline
 62
7
  6
BYLAYER
 70
0
 71
3
 72
15
 73
11
 74
0
 42
0.0000001
 43
0.0000001
 44
0.0000000001
 40
0.0
 40
0.0
 40
0.0
 40
0.0
 40
0.0175285119
 40
0.0690029021
 40
0.1535734274
 40
0.2696952049
 40
0.4152622733
 40
0.5876533269
 40
0.7837813056
 40
1.0
 40
1.0
 40
1.0
 40
1.0
 10
29.4498766408
 20
27.0379179117
 30
0.0
 10
29.4493047958
 20
27.0379179117
 30
0.0
 10
29.4499818295
 20
27.0414797518
 30
0.0
 10
29.4488835287
 20
27.0452300381
 30
0.0
 10
29.4490924166
 20
27.0541540452
 30
0.0
 10
29.4486306682
 20
27.0651452895
 30
0.0
 10
29.4484667122
 20
27.0794183658
 30
0.0
 10
29.4482226166
 20
27.0961489636
 30
0.0
 10
29.4480422854
 20
27.1152374454
 30
0.0
 10
29.4479397719
 20
27.1286860802
 30
0.0
 10
29.4478942891
 20
27.1357397878
 30
0.0
  0
SPLINE
  5
348
100
AcDbEntity
  8
INTFCLR_1
100
AcDbSpline
 62
7
  6
BYLAYER
 70
0
 71
3
 72
12
 73
8
 74
0
 42
0.0000001
 43
0.0000001
 44
0.0000000001
 40
0.0
 40
0.0
 40
0.0
 40
0.0
 40
0.3507181254
 40
0.6304362241
 40
0.8340540448
 40
0.9578798632
 40
1.0
 40
1.0
 40
1.0
 40
1.0
 10
29.4453000866
 20
27.1795709045
 30
0.0
 10
29.4452280327
 20
27.1748196611
 30
0.0
 10
29.4451436586
 20
27.1661891546
 30
0.0
 10
29.4446770547
 20
27.155200908
 30
0.0
 10
29.4448865651
 20
27.1462758456
 30
0.0
 10
29.4437890678
 20
27.1425279881
 30
0.0
 10
29.4444644258
 20
27.1389708683
 30
0.0
 10
29.4438937509
 20
27.1389708683
 30
0.0
  0
SPLINE
  5
349
100
AcDbEntity
  8
INTFCLR_1
100
AcDbSpline
 62
7
  6
BYLAYER
 70
0
 71
3
 72
15
 73
11
 74
0
 42
0.0000001
 43
0.0000001
 44
0.0000000001
 40
0.0
 40
0.0
 40
0.0
 40
0.0
 40
0.0175285146
 40
0.0690029064
 40
0.1535734324
 40
0.2696952099
 40
0.415262278
 40
0.5876533315
 40
0.7837813107
 40
1.0
 40
1.0
 40
1.0
 40
1.0
 10
29.4438937509
 20
27.1389708683
 30
0.0
 10
29.4433219058
 20
27.1389708683
 30
0.0
 10
29.4439989396
 20
27.1425327086
 30
0.0
 10
29.4429006387
 20
27.146282995
 30
0.0
 10
29.4431095266
 20
27.1552070021
 30
0.0
 10
29.4426477782
 20
27.1661982464
 30
0.0
 10
29.4424838222
 20
27.1804713225
 30
0.0
 10
29.4422397266
 20
27.1972019202
 30
0.0
 10
29.4420593954
 20
27.2162904017
 30
0.0
 10
29.4419568818
 20
27.2297390362
 30
0.0
 10
29.4419113991
 20
27.2367927436
 30
0.0
  0
SPLINE
  5
34A
100
AcDbEntity
  8
INTFCLR_1
100
AcDbSpline
 62
7
  6
BYLAYER
 70
0
 71
3
 72
12
 73
8
 74
0
 42
0.0000001
 43
0.0000001
 44
0.0000000001
 40
0.0
 40
0.0
 40
0.0
 40
0.0
 40
0.3507181413
 40
0.6304362335
 40
0.8340540494
 40
0.9578798646
 40
1.0
 40
1.0
 40
1.0
 40
1.0
 10
29.4393171967
 20
27.2806238586
 30
0.0
 10
29.4392451428
 20
27.2758726149
 30
0.0
 10
29.4391607687
 20
27.267242108
 30
0.0
 10
29.4386941648
 20
27.256253861
 30
0.0
 10
29.4389036752
 20
27.2473287985
 30
0.0
 10
29.4378061779
 20
27.2435809411
 30
0.0
 10
29.4384815359
 20
27.2400238212
 30
0.0
 10
29.437910861
 20
27.2400238212
 30
0.0
  0
SPLINE
  5
34B
100
AcDbEntity
  8
INTFCLR_1
100
AcDbSpline
 62
7
  6
BYLAYER
 70
0
 71
3
 72
15
 73
11
 74
0
 42
0.0000001
 43
0.0000001
 44
0.0000000001
 40
0.0
 40
0.0
 40
0.0
 40
0.0
 40
0.0175285149
 40
0.0690029071
 40
0.1535734337
 40
0.2696952119
 40
0.4152622808
 40
0.5876533352
 40
0.7837813155
 40
1.0
 40
1.0
 40
1.0
 40
1.0
 10
29.437910861
 20
27.2400238212
 30
0.0
 10
29.4373390159
 20
27.2400238212
 30
0.0
 10
29.4380160497
 20
27.2435856616
 30
0.0
 10
29.4369177488
 20
27.247335948
 30
0.0
 10
29.4371266367
 20
27.2562599551
 30
0.0
 10
29.4366648883
 20
27.2672511993
 30
0.0
 10
29.4365009323
 20
27.2815242754
 30
0.0
 10
29.4362568367
 20
27.2982548731
 30
0.0
 10
29.4360765055
 20
27.3173433543
 30
0.0
 10
29.4359739919
 20
27.3307919886
 30
0.0
 10
29.4359285092
 20
27.3378456958
 30
0.0
  0
SPLINE
  5
34C
100
AcDbEntity
  8
INTFCLR_1
100
AcDbSpline
 62
7
  6
BYLAYER
 70
0
 71
3
 72
12
 73
8
 74
0
 42
0.0000001
 43
0.0000001
 44
0.0000000001
 40
0.0
 40
0.0
 40
0.0
 40
0.0
 40
0.3507181624
 40
0.6304362467
 40
0.8340540563
 40
0.957879867
 40
1.0
 40
1.0
 40
1.0
 40
1.0
 10
29.4333343069
 20
27.3816768134
 30
0.0
 10
29.4332622529
 20
27.3769255693
 30
0.0
 10
29.4331778788
 20
27.3682950621
 30
0.0
 10
29.4327112749
 20
27.3573068148
 30
0.0
 10
29.4329207853
 20
27.3483817524
 30
0.0
 10
29.431823288
 20
27.3446338951
 30
0.0
 10
29.4324986459
 20
27.3410767753
 30
0.0
 10
29.4319279711
 20
27.3410767753
 30
0.0
  0
SPLINE
  5
34D
100
AcDbEntity
  8
INTFCLR_1
100
AcDbSpline
 62
7
  6
BYLAYER
 70
0
 71
3
 72
15
 73
11
 74
0
 42
0.0000001
 43
0.0000001
 44
0.0000000001
 40
0.0
 40
0.0
 40
0.0
 40
0.0
 40
0.0175285153
 40
0.0690029077
 40
0.1535734341
 40
0.2696952119
 40
0.4152622803
 40
0.5876533339
 40
0.7837813136
 40
1.0
 40
1.0
 40
1.0
 40
1.0
 10
29.4319279711
 20
27.3410767753
 30
0.0
 10
29.431356126
 20
27.3410767753
 30
0.0
 10
29.4320331598
 20
27.3446386156
 30
0.0
 10
29.4309348589
 20
27.348388902
 30
0.0
 10
29.4311437468
 20
27.357312909
 30
0.0
 10
29.4306819984
 20
27.3683041531
 30
0.0
 10
29.4305180424
 20
27.382577229
 30
0.0
 10
29.4302739468
 20
27.3993078264
 30
0.0
 10
29.4300936156
 20
27.4183963075
 30
0.0
 10
29.429991102
 20
27.4318449417
 30
0.0
 10
29.4299456193
 20
27.4388986488
 30
0.0
  0
SPLINE
  5
34E
100
AcDbEntity
  8
INTFCLR_1
100
AcDbSpline
 62
7
  6
BYLAYER
 70
0
 71
3
 72
12
 73
8
 74
0
 42
0.0000001
 43
0.0000001
 44
0.0000000001
 40
0.0
 40
0.0
 40
0.0
 40
0.0
 40
0.3507181776
 40
0.630436255
 40
0.8340540597
 40
0.9578798677
 40
1.0
 40
1.0
 40
1.0
 40
1.0
 10
29.427351417
 20
27.4827297669
 30
0.0
 10
29.427279363
 20
27.4779785224
 30
0.0
 10
29.4271949889
 20
27.4693480147
 30
0.0
 10
29.426728385
 20
27.4583597669
 30
0.0
 10
29.4269378954
 20
27.4494347044
 30
0.0
 10
29.4258403981
 20
27.445686847
 30
0.0
 10
29.4265157561
 20
27.4421297271
 30
0.0
 10
29.4259450812
 20
27.4421297271
 30
0.0
  0
SPLINE
  5
34F
100
AcDbEntity
  8
INTFCLR_1
100
AcDbSpline
 62
7
  6
BYLAYER
 70
0
 71
3
 72
15
 73
11
 74
0
 42
0.0000001
 43
0.0000001
 44
0.0000000001
 40
0.0
 40
0.0
 40
0.0
 40
0.0
 40
0.0175285156
 40
0.0690029091
 40
0.1535734374
 40
0.269695218
 40
0.4152622897
 40
0.5876533474
 40
0.7837813315
 40
1.0
 40
1.0
 40
1.0
 40
1.0
 10
29.4259450812
 20
27.4421297271
 30
0.0
 10
29.4253732361
 20
27.4421297271
 30
0.0
 10
29.4260502699
 20
27.4456915675
 30
0.0
 10
29.424951969
 20
27.4494418539
 30
0.0
 10
29.4251608569
 20
27.4583658609
 30
0.0
 10
29.4246991085
 20
27.4693571051
 30
0.0
 10
29.4245351525
 20
27.4836301811
 30
0.0
 10
29.4242910569
 20
27.5003607787
 30
0.0
 10
29.4241107257
 20
27.5194492591
 30
0.0
 10
29.4240082121
 20
27.5328978927
 30
0.0
 10
29.4239627294
 20
27.5399515991
 30
0.0
  0
SPLINE
  5
350
100
AcDbEntity
  8
INTFCLR_1
100
AcDbSpline
 62
7
  6
BYLAYER
 70
0
 71
3
 72
12
 73
8
 74
0
 42
0.0000001
 43
0.0000001
 44
0.0000000001
 40
0.0
 40
0.0
 40
0.0
 40
0.0
 40
0.3457345695
 40
0.6254893058
 40
0.8312688473
 40
0.9572241806
 40
1.0
 40
1.0
 40
1.0
 40
1.0
 10
29.4213685074
 20
27.5837811619
 30
0.0
 10
29.4213501133
 20
27.5820811333
 30
0.0
 10
29.4213356865
 20
27.5789730668
 30
0.0
 10
29.4211815211
 20
27.5749990063
 30
0.0
 10
29.4212972127
 20
27.5717323089
 30
0.0
 10
29.4208796189
 20
27.5703605434
 30
0.0
 10
29.4211787671
 20
27.5690395732
 30
0.0
 10
29.4209684197
 20
27.5690395732
 30
0.0
  0
SPLINE
  5
351
100
AcDbEntity
  8
INTFCLR_1
100
AcDbSpline
 62
7
  6
BYLAYER
 70
0
 71
3
 72
12
 73
8
 74
0
 42
0.0000001
 43
0.0000001
 44
0.0000000001
 40
0.0
 40
0.0
 40
0.0
 40
0.0
 40
0.0427757383
 40
0.1687310323
 40
0.3745105765
 40
0.6542653547
 40
1.0
 40
1.0
 40
1.0
 40
1.0
 10
29.4209684197
 20
27.5690395732
 30
0.0
 10
29.4207580727
 20
27.5690395732
 30
0.0
 10
29.4210572201
 20
27.5703605423
 30
0.0
 10
29.4206396267
 20
27.5717323073
 30
0.0
 10
29.4207553181
 20
27.5749990048
 30
0.0
 10
29.4206011528
 20
27.5789730659
 30
0.0
 10
29.420586726
 20
27.5820811329
 30
0.0
 10
29.4205683318
 20
27.583781162
 30
0.0
  0
SPLINE
  5
352
100
AcDbEntity
  8
INTFCLR_1
100
AcDbSpline
 62
7
  6
BYLAYER
 70
0
 71
3
 72
43
 73
39
 74
0
 42
0.0000001
 43
0.0000001
 44
0.0000000001
 40
0.0
 40
0.0
 40
0.0
 40
0.0
 40
0.001971943
 40
0.0076888146
 40
0.0171436175
 40
0.0302521606
 40
0.0469638005
 40
0.0671303448
 40
0.0905942458
 40
0.1171260031
 40
0.1465638572
 40
0.178715001
 40
0.2133129065
 40
0.250085106
 40
0.2887484094
 40
0.3290818817
 40
0.3707086171
 40
0.4133023911
 40
0.4565348866
 40
0.5000808721
 40
0.5436181268
 40
0.586824848
 40
0.6293791746
 40
0.6709598602
 40
0.7112478282
 40
0.749871927
 40
0.7866134292
 40
0.8211918248
 40
0.8533437232
 40
0.8828070919
 40
0.9093657554
 40
0.9328398545
 40
0.9530071123
 40
0.9697181336
 40
0.9828297333
 40
0.9922932064
 40
0.9980215786
 40
1.0
 40
1.0
 40
1.0
 40
1.0
 10
30.0626196736
 20
32.4337203381
 30
0.0
 10
30.0611731643
 20
32.4337203381
 30
0.0
 10
30.0619549013
 20
32.4250079852
 30
0.0
 10
30.0594346729
 20
32.4154272601
 30
0.0
 10
30.0592321747
 20
32.3930428327
 30
0.0
 10
30.0577826046
 20
32.3649802091
 30
0.0
 10
30.056872918
 20
32.3280474014
 30
0.0
 10
30.0558008867
 20
32.2838949388
 30
0.0
 10
30.0548444182
 20
32.2324034018
 30
0.0
 10
30.0539208481
 20
32.1741532981
 30
0.0
 10
30.0530680615
 20
32.1095149469
 30
0.0
 10
30.0522832245
 20
32.0389628588
 30
0.0
 10
30.0515758652
 20
31.9630282953
 30
0.0
 10
30.0509510063
 20
31.8823162983
 30
0.0
 10
30.0504135482
 20
31.7973961729
 30
0.0
 10
30.0499678228
 20
31.7089144844
 30
0.0
 10
30.0496175038
 20
31.6175491596
 30
0.0
 10
30.0493655111
 20
31.5240569424
 30
0.0
 10
30.0492136988
 20
31.4291566504
 30
0.0
 10
30.0491631133
 20
31.3335641653
 30
0.0
 10
30.0492140565
 20
31.237990587
 30
0.0
 10
30.0493661148
 20
31.1431445431
 30
0.0
 10
30.0496181517
 20
31.049733949
 30
0.0
 10
30.0499682703
 20
30.9584647197
 30
0.0
 10
30.0504135677
 20
30.8700789478
 30
0.0
 10
30.0509504251
 20
30.785243476
 30
0.0
 10
30.0515745907
 20
30.7045970631
 30
0.0
 10
30.0522813099
 20
30.6286987715
 30
0.0
 10
30.0530658103
 20
30.5581417207
 30
0.0
 10
30.053918702
 20
30.4934643594
 30
0.0
 10
30.0548426661
 20
30.4351683283
 30
0.0
 10
30.0557993557
 20
30.3836490516
 30
0.0
 10
30.0568713013
 20
30.3394889755
 30
0.0
 10
30.0577805161
 20
30.3025540353
 30
0.0
 10
30.059230199
 20
30.2744830358
 30
0.0
 10
30.059430899
 20
30.2520805658
 30
0.0
 10
30.0619564887
 20
30.2424855386
 30
0.0
 10
30.0611684488
 20
30.2337510071
 30
0.0
 10
30.0626197103
 20
30.2337510071
 30
0.0
  0
SPLINE
  5
353
100
AcDbEntity
  8
INTFCLR_1
100
AcDbSpline
 62
7
  6
BYLAYER
 70
0
 71
3
 72
39
 73
35
 74
0
 42
0.0000001
 43
0.0000001
 44
0.0000000001
 40
0.0
 40
0.0
 40
0.0
 40
0.0
 40
0.0176329489
 40
0.0377255661
 40
0.0601593075
 40
0.0848024963
 40
0.111577679
 40
0.1403194066
 40
0.1708776686
 40
0.2030683387
 40
0.2367839125
 40
0.2718476374
 40
0.3080671124
 40
0.3452538984
 40
0.3832573949
 40
0.4218757866
 40
0.4608802609
 40
0.5000694771
 40
0.5392434464
 40
0.5782105124
 40
0.616782059
 40
0.6547416725
 40
0.6918947611
 40
0.7280919256
 40
0.7631466771
 40
0.796869632
 40
0.8290769812
 40
0.8596437794
 40
0.8883861175
 40
0.9151595243
 40
0.9398028886
 40
0.9622419062
 40
0.9823465469
 40
1.0
 40
1.0
 40
1.0
 40
1.0
 10
29.5892968696
 20
31.3337357376
 30
0.0
 10
29.5885476428
 20
31.3055315573
 30
0.0
 10
29.5871019295
 20
31.2451847214
 30
0.0
 10
29.5851495792
 20
31.1489446711
 30
0.0
 10
29.5832820632
 20
31.0414841151
 30
0.0
 10
29.5815095615
 20
30.9233280268
 30
0.0
 10
29.5798420329
 20
30.7950762177
 30
0.0
 10
29.5782883548
 20
30.6573577564
 30
0.0
 10
29.5768578281
 20
30.510972317
 30
0.0
 10
29.5755573485
 20
30.3566268222
 30
0.0
 10
29.5743933835
 20
30.1950709453
 30
0.0
 10
29.5733717506
 20
30.0270675754
 30
0.0
 10
29.5724980995
 20
29.8535090837
 30
0.0
 10
29.5717768371
 20
29.6752459847
 30
0.0
 10
29.5712117074
 20
29.4931438463
 30
0.0
 10
29.5708058945
 20
29.3081328303
 30
0.0
 10
29.5705617278
 20
29.121224283
 30
0.0
 10
29.570480432
 20
28.9334266256
 30
0.0
 10
29.5705622591
 20
28.7456888247
 30
0.0
 10
29.5708066706
 20
28.5589394864
 30
0.0
 10
29.5712123158
 20
28.3741334992
 30
0.0
 10
29.5717769182
 20
28.1922304508
 30
0.0
 10
29.5724974494
 20
28.0141271837
 30
0.0
 10
29.5733703516
 20
27.840672665
 30
0.0
 10
29.574391429
 20
27.6727075389
 30
0.0
 10
29.5755552123
 20
27.51112752
 30
0.0
 10
29.5768558133
 20
27.3567298672
 30
0.0
 10
29.5782864781
 20
27.2103031039
 30
0.0
 10
29.579840027
 20
27.0725728464
 30
0.0
 10
29.5815072298
 20
26.9443226173
 30
0.0
 10
29.5832794526
 20
26.8261606427
 30
0.0
 10
29.5851470418
 20
26.7186721221
 30
0.0
 10
29.5871002343
 20
26.6223715871
 30
0.0
 10
29.5885470501
 20
26.561972715
 30
0.0
 10
29.5892971481
 20
26.5337357381
 30
0.0
  0
SPLINE
  5
354
100
AcDbEntity
  8
INTFCLR_1
100
AcDbSpline
 62
7
  6
BYLAYER
 70
0
 71
3
 72
27
 73
23
 74
0
 42
0.0000001
 43
0.0000001
 44
0.0000000001
 40
0.0
 40
0.0
 40
0.0
 40
0.0
 40
0.0784079996
 40
0.1563574182
 40
0.2333435619
 40
0.3088694946
 40
0.3826590652
 40
0.4540520525
 40
0.5226036678
 40
0.5878986412
 40
0.6495424176
 40
0.7071635594
 40
0.7604151574
 40
0.8089762219
 40
0.8525541688
 40
0.8908872593
 40
0.9237432773
 40
0.9509160314
 40
0.9721880255
 40
0.9875071004
 40
0.9967781918
 40
1.0
 40
1.0
 40
1.0
 40
1.0
 10
28.0752992275
 20
15.0837357416
 30
0.0
 10
28.0752992275
 20
15.129487575
 30
0.0
 10
28.0752555085
 20
15.2207236611
 30
0.0
 10
28.0750593024
 20
15.3568817867
 30
0.0
 10
28.0747335746
 20
15.4913579471
 30
0.0
 10
28.0742801477
 20
15.6234064127
 30
0.0
 10
28.073701657
 20
15.7521906972
 30
0.0
 10
28.0730015302
 20
15.8769047397
 30
0.0
 10
28.0721849122
 20
15.9966612732
 30
0.0
 10
28.0712571873
 20
16.1107281086
 30
0.0
 10
28.0702242811
 20
16.2184155765
 30
0.0
 10
28.0690932216
 20
16.3190747496
 30
0.0
 10
28.0678703334
 20
16.4120966213
 30
0.0
 10
28.0665672452
 20
16.4969278769
 30
0.0
 10
28.065181603
 20
16.5730333908
 30
0.0
 10
28.0637584497
 20
16.6400283391
 30
0.0
 10
28.062203242
 20
16.6972780009
 30
0.0
 10
28.0608364193
 20
16.7450474601
 30
0.0
 10
28.0588544815
 20
16.7813054711
 30
0.0
 10
28.0583096192
 20
16.8101201935
 30
0.0
 10
28.0551364607
 20
16.8225646991
 30
0.0
 10
28.0557985725
 20
16.833722489
 30
0.0
 10
28.053918616
 20
16.833722489
 30
0.0
  0
SPLINE
  5
355
100
AcDbEntity
  8
INTFCLR_1
100
AcDbSpline
 62
7
  6
BYLAYER
 70
0
 71
3
 72
14
 73
10
 74
0
 42
0.0000001
 43
0.0000001
 44
0.0000000001
 40
0.0
 40
0.0
 40
0.0
 40
0.0
 40
0.2516983075
 40
0.4721585834
 40
0.6577397943
 40
0.805380114
 40
0.9126511601
 40
0.9778129221
 40
1.0
 40
1.0
 40
1.0
 40
1.0
 10
4.6119348198
 20
27.5115789382
 30
0.0
 10
4.6118783113
 20
27.505748383
 30
0.0
 10
4.6117655755
 20
27.4948014977
 30
0.0
 10
4.6115278693
 20
27.4796022816
 30
0.0
 10
4.6113621303
 20
27.4666748307
 30
0.0
 10
4.6109351467
 20
27.456745381
 30
0.0
 10
4.6110970053
 20
27.4487051948
 30
0.0
 10
4.6101179416
 20
27.4453253597
 30
0.0
 10
4.6106926491
 20
27.4421301458
 30
0.0
 10
4.6101786644
 20
27.4421301458
 30
0.0
  0
SPLINE
  5
356
100
AcDbEntity
  8
INTFCLR_1
100
AcDbSpline
 62
7
  6
BYLAYER
 70
0
 71
3
 72
12
 73
8
 74
0
 42
0.0000001
 43
0.0000001
 44
0.0000000001
 40
0.0
 40
0.0
 40
0.0
 40
0.0
 40
0.0421204503
 40
0.1659495419
 40
0.3695736268
 40
0.6493009581
 40
1.0
 40
1.0
 40
1.0
 40
1.0
 10
4.6101786644
 20
27.4421301458
 30
0.0
 10
4.609608013
 20
27.4421301458
 30
0.0
 10
4.6102833216
 20
27.4456871612
 30
0.0
 10
4.6091858627
 20
27.4494349366
 30
0.0
 10
4.6093953549
 20
27.4583598438
 30
0.0
 10
4.6089287725
 20
27.4693475054
 30
0.0
 10
4.6088443946
 20
27.4779774549
 30
0.0
 10
4.6087723481
 20
27.4827282094
 30
0.0
  0
SPLINE
  5
357
100
AcDbEntity
  8
INTFCLR_1
100
AcDbSpline
 62
7
  6
BYLAYER
 70
0
 71
3
 72
15
 73
11
 74
0
 42
0.0000001
 43
0.0000001
 44
0.0000000001
 40
0.0
 40
0.0
 40
0.0
 40
0.0
 40
0.2161663164
 40
0.4123092785
 40
0.5847123674
 40
0.7302886875
 40
0.8464172172
 40
0.9309923743
 40
0.9824697235
 40
1.0
 40
1.0
 40
1.0
 40
1.0
 10
4.6061780672
 20
27.4388920783
 30
0.0
 10
4.6061325988
 20
27.4318405919
 30
0.0
 10
4.6060300991
 20
27.4183941535
 30
0.0
 10
4.6058497862
 20
27.3993078861
 30
0.0
 10
4.6056056879
 20
27.3825773241
 30
0.0
 10
4.6054417329
 20
27.3683043635
 30
0.0
 10
4.604979982
 20
27.3573132615
 30
0.0
 10
4.6051888776
 20
27.3483893998
 30
0.0
 10
4.6040905635
 20
27.3446391522
 30
0.0
 10
4.6047676355
 20
27.3410773127
 30
0.0
 10
4.6041957745
 20
27.3410773127
 30
0.0
  0
SPLINE
  5
358
100
AcDbEntity
  8
INTFCLR_1
100
AcDbSpline
 62
7
  6
BYLAYER
 70
0
 71
3
 72
12
 73
8
 74
0
 42
0.0000001
 43
0.0000001
 44
0.0000000001
 40
0.0
 40
0.0
 40
0.0
 40
0.0
 40
0.0421189245
 40
0.1659472724
 40
0.3695714024
 40
0.6492995181
 40
1.0
 40
1.0
 40
1.0
 40
1.0
 10
4.6041957745
 20
27.3410773127
 30
0.0
 10
4.6036251453
 20
27.3410773127
 30
0.0
 10
4.6043004111
 20
27.3446342585
 30
0.0
 10
4.60320298
 20
27.3483819984
 30
0.0
 10
4.6034124615
 20
27.3573068849
 30
0.0
 10
4.6029458832
 20
27.3682945436
 30
0.0
 10
4.6028615048
 20
27.3769244998
 30
0.0
 10
4.6027894581
 20
27.3816752604
 30
0.0
  0
SPLINE
  5
359
100
AcDbEntity
  8
INTFCLR_1
100
AcDbSpline
 62
7
  6
BYLAYER
 70
0
 71
3
 72
15
 73
11
 74
0
 42
0.0000001
 43
0.0000001
 44
0.0000000001
 40
0.0
 40
0.0
 40
0.0
 40
0.0
 40
0.2161663275
 40
0.4123092931
 40
0.5847123843
 40
0.7302887051
 40
0.8464172336
 40
0.9309923874
 40
0.9824697311
 40
1.0
 40
1.0
 40
1.0
 40
1.0
 10
4.6001951773
 20
27.3378391226
 30
0.0
 10
4.6001497088
 20
27.3307876361
 30
0.0
 10
4.6000472092
 20
27.3173411976
 30
0.0
 10
4.5998668963
 20
27.2982549303
 30
0.0
 10
4.599622798
 20
27.2815243685
 30
0.0
 10
4.599458843
 20
27.2672514083
 30
0.0
 10
4.5989970922
 20
27.2562603067
 30
0.0
 10
4.5992059876
 20
27.2473364456
 30
0.0
 10
4.5981076739
 20
27.2435861986
 30
0.0
 10
4.5987847453
 20
27.2400243599
 30
0.0
 10
4.5982128846
 20
27.2400243599
 30
0.0
  0
SPLINE
  5
35A
100
AcDbEntity
  8
INTFCLR_1
100
AcDbSpline
 62
7
  6
BYLAYER
 70
0
 71
3
 72
12
 73
8
 74
0
 42
0.0000001
 43
0.0000001
 44
0.0000000001
 40
0.0
 40
0.0
 40
0.0
 40
0.0
 40
0.042118941
 40
0.1659472969
 40
0.3695714265
 40
0.6492995338
 40
1.0
 40
1.0
 40
1.0
 40
1.0
 10
4.5982128846
 20
27.2400243599
 30
0.0
 10
4.5976422553
 20
27.2400243599
 30
0.0
 10
4.5983175214
 20
27.2435813061
 30
0.0
 10
4.5972200901
 20
27.2473290458
 30
0.0
 10
4.5974295718
 20
27.2562539315
 30
0.0
 10
4.5969629934
 20
27.2672415888
 30
0.0
 10
4.596878615
 20
27.2758715438
 30
0.0
 10
4.5968065684
 20
27.2806223037
 30
0.0
  0
SPLINE
  5
35B
100
AcDbEntity
  8
INTFCLR_1
100
AcDbSpline
 62
7
  6
BYLAYER
 70
0
 71
3
 72
15
 73
11
 74
0
 42
0.0000001
 43
0.0000001
 44
0.0000000001
 40
0.0
 40
0.0
 40
0.0
 40
0.0
 40
0.2161663703
 40
0.4123093209
 40
0.5847123994
 40
0.7302887102
 40
0.8464172319
 40
0.9309923826
 40
0.9824697268
 40
1.0
 40
1.0
 40
1.0
 40
1.0
 10
4.5942122874
 20
27.2367861722
 30
0.0
 10
4.5941668189
 20
27.229734684
 30
0.0
 10
4.5940643193
 20
27.2162882441
 30
0.0
 10
4.5938840063
 20
27.1972019755
 30
0.0
 10
4.5936399081
 20
27.1804714144
 30
0.0
 10
4.5934759531
 20
27.1661984546
 30
0.0
 10
4.5930142022
 20
27.1552073533
 30
0.0
 10
4.5932230977
 20
27.1462834922
 30
0.0
 10
4.5921247838
 20
27.142533245
 30
0.0
 10
4.5928018556
 20
27.1389714058
 30
0.0
 10
4.5922299947
 20
27.1389714058
 30
0.0
  0
SPLINE
  5
35C
100
AcDbEntity
  8
INTFCLR_1
100
AcDbSpline
 62
7
  6
BYLAYER
 70
0
 71
3
 72
12
 73
8
 74
0
 42
0.0000001
 43
0.0000001
 44
0.0000000001
 40
0.0
 40
0.0
 40
0.0
 40
0.0
 40
0.042118929
 40
0.1659472787
 40
0.3695714083
 40
0.6492995216
 40
1.0
 40
1.0
 40
1.0
 40
1.0
 10
4.5922299947
 20
27.1389714058
 30
0.0
 10
4.5916593655
 20
27.1389714058
 30
0.0
 10
4.5923346313
 20
27.1425283513
 30
0.0
 10
4.5912372003
 20
27.1462760906
 30
0.0
 10
4.5914466818
 20
27.1552009758
 30
0.0
 10
4.5909801035
 20
27.1661886328
 30
0.0
 10
4.5908957251
 20
27.1748185876
 30
0.0
 10
4.5908236785
 20
27.1795693474
 30
0.0
  0
SPLINE
  5
35D
100
AcDbEntity
  8
INTFCLR_1
100
AcDbSpline
 62
7
  6
BYLAYER
 70
0
 71
3
 72
15
 73
11
 74
0
 42
0.0000001
 43
0.0000001
 44
0.0000000001
 40
0.0
 40
0.0
 40
0.0
 40
0.0
 40
0.2161661748
 40
0.4123091807
 40
0.5847123064
 40
0.7302886556
 40
0.8464172062
 40
0.9309923757
 40
0.9824697285
 40
1.0
 40
1.0
 40
1.0
 40
1.0
 10
4.5882293975
 20
27.1357331969
 30
0.0
 10
4.5881839291
 20
27.1286817168
 30
0.0
 10
4.5880814295
 20
27.1152352847
 30
0.0
 10
4.5879011166
 20
27.0961490237
 30
0.0
 10
4.5876570183
 20
27.0794184619
 30
0.0
 10
4.5874930633
 20
27.0651455018
 30
0.0
 10
4.5870313124
 20
27.0541544003
 30
0.0
 10
4.5872402078
 20
27.0452305394
 30
0.0
 10
4.5861418941
 20
27.0414802924
 30
0.0
 10
4.5868189655
 20
27.0379184539
 30
0.0
 10
4.5862471048
 20
27.0379184539
 30
0.0
  0
SPLINE
  5
35E
100
AcDbEntity
  8
INTFCLR_1
100
AcDbSpline
 62
7
  6
BYLAYER
 70
0
 71
3
 72
12
 73
8
 74
0
 42
0.0000001
 43
0.0000001
 44
0.0000000001
 40
0.0
 40
0.0
 40
0.0
 40
0.0
 40
0.0421189425
 40
0.1659472987
 40
0.369571428
 40
0.6492995344
 40
1.0
 40
1.0
 40
1.0
 40
1.0
 10
4.5862471048
 20
27.0379184539
 30
0.0
 10
4.5856764754
 20
27.0379184539
 30
0.0
 10
4.5863517416
 20
27.0414754001
 30
0.0
 10
4.5852543103
 20
27.0452231399
 30
0.0
 10
4.5854637919
 20
27.0541480255
 30
0.0
 10
4.5849972136
 20
27.0651356828
 30
0.0
 10
4.5849128352
 20
27.0737656379
 30
0.0
 10
4.5848407885
 20
27.0785163978
 30
0.0
  0
SPLINE
  5
35F
100
AcDbEntity
  8
INTFCLR_1
100
AcDbSpline
 62
7
  6
BYLAYER
 70
0
 71
3
 72
15
 73
11
 74
0
 42
0.0000001
 43
0.0000001
 44
0.0000000001
 40
0.0
 40
0.0
 40
0.0
 40
0.0
 40
0.2161662106
 40
0.4123092037
 40
0.5847123186
 40
0.7302886595
 40
0.8464172046
 40
0.9309923715
 40
0.9824697249
 40
1.0
 40
1.0
 40
1.0
 40
1.0
 10
4.5822465076
 20
27.0346802454
 30
0.0
 10
4.5822010392
 20
27.0276287638
 30
0.0
 10
4.5820985396
 20
27.0141823303
 30
0.0
 10
4.5819182266
 20
26.995096068
 30
0.0
 10
4.5816741284
 20
26.9783655065
 30
0.0
 10
4.5815101733
 20
26.9640925465
 30
0.0
 10
4.5810484225
 20
26.9531014451
 30
0.0
 10
4.5812573179
 20
26.944177584
 30
0.0
 10
4.5801590041
 20
26.9404273368
 30
0.0
 10
4.5808360757
 20
26.9368654978
 30
0.0
 10
4.5802642149
 20
26.9368654978
 30
0.0
  0
SPLINE
  5
360
100
AcDbEntity
  8
INTFCLR_1
100
AcDbSpline
 62
7
  6
BYLAYER
 70
0
 71
3
 72
12
 73
8
 74
0
 42
0.0000001
 43
0.0000001
 44
0.0000000001
 40
0.0
 40
0.0
 40
0.0
 40
0.0
 40
0.0421189325
 40
0.1659472837
 40
0.369571413
 40
0.6492995245
 40
1.0
 40
1.0
 40
1.0
 40
1.0
 10
4.5802642149
 20
26.9368654978
 30
0.0
 10
4.5796935857
 20
26.9368654978
 30
0.0
 10
4.5803688515
 20
26.9404224436
 30
0.0
 10
4.5792714204
 20
26.9441701831
 30
0.0
 10
4.579480902
 20
26.9530950686
 30
0.0
 10
4.5790143236
 20
26.9640827259
 30
0.0
 10
4.5789299452
 20
26.972712681
 30
0.0
 10
4.5788578986
 20
26.9774634409
 30
0.0
  0
SPLINE
  5
361
100
AcDbEntity
  8
INTFCLR_1
100
AcDbSpline
 62
7
  6
BYLAYER
 70
0
 71
3
 72
15
 73
11
 74
0
 42
0.0000001
 43
0.0000001
 44
0.0000000001
 40
0.0
 40
0.0
 40
0.0
 40
0.0
 40
0.2161662867
 40
0.4123092587
 40
0.5847123557
 40
0.7302886822
 40
0.8464172162
 40
0.9309923757
 40
0.9824697252
 40
1.0
 40
1.0
 40
1.0
 40
1.0
 10
4.5762636177
 20
26.9336273058
 30
0.0
 10
4.5762181493
 20
26.9265758207
 30
0.0
 10
4.5761156496
 20
26.9131293837
 30
0.0
 10
4.5759353367
 20
26.8940431177
 30
0.0
 10
4.5756912384
 20
26.8773125557
 30
0.0
 10
4.5755272834
 20
26.8630395953
 30
0.0
 10
4.5750655325
 20
26.8520484934
 30
0.0
 10
4.5752744281
 20
26.843124632
 30
0.0
 10
4.5741761141
 20
26.8393743846
 30
0.0
 10
4.5748531859
 20
26.8358125453
 30
0.0
 10
4.574281325
 20
26.8358125453
 30
0.0
  0
SPLINE
  5
362
100
AcDbEntity
  8
INTFCLR_1
100
AcDbSpline
 62
7
  6
BYLAYER
 70
0
 71
3
 72
12
 73
8
 74
0
 42
0.0000001
 43
0.0000001
 44
0.0000000001
 40
0.0
 40
0.0
 40
0.0
 40
0.0
 40
0.0421189298
 40
0.16594728
 40
0.3695714099
 40
0.6492995229
 40
1.0
 40
1.0
 40
1.0
 40
1.0
 10
4.574281325
 20
26.8358125453
 30
0.0
 10
4.5737106958
 20
26.8358125453
 30
0.0
 10
4.5743859616
 20
26.8393694913
 30
0.0
 10
4.5732885304
 20
26.8431172311
 30
0.0
 10
4.573498012
 20
26.8520421174
 30
0.0
 10
4.5730314337
 20
26.8630297756
 30
0.0
 10
4.5729470553
 20
26.8716597315
 30
0.0
 10
4.5728750087
 20
26.8764104919
 30
0.0
  0
SPLINE
  5
363
100
AcDbEntity
  8
INTFCLR_1
100
AcDbSpline
 62
7
  6
BYLAYER
 70
0
 71
3
 72
15
 73
11
 74
0
 42
0.0000001
 43
0.0000001
 44
0.0000000001
 40
0.0
 40
0.0
 40
0.0
 40
0.0
 40
0.2161662883
 40
0.4123092556
 40
0.5847123492
 40
0.7302886735
 40
0.846417207
 40
0.9309923677
 40
0.9824697203
 40
1.0
 40
1.0
 40
1.0
 40
1.0
 10
4.5702807277
 20
26.8325743502
 30
0.0
 10
4.5702352593
 20
26.8255228651
 30
0.0
 10
4.5701327597
 20
26.8120764283
 30
0.0
 10
4.5699524468
 20
26.7929901626
 30
0.0
 10
4.5697083485
 20
26.776259601
 30
0.0
 10
4.5695443935
 20
26.7619866409
 30
0.0
 10
4.5690826426
 20
26.7509955391
 30
0.0
 10
4.5692915382
 20
26.7420716776
 30
0.0
 10
4.568193224
 20
26.73832143
 30
0.0
 10
4.5688702961
 20
26.7347595902
 30
0.0
 10
4.5682984351
 20
26.7347595902
 30
0.0
  0
SPLINE
  5
364
100
AcDbEntity
  8
INTFCLR_1
100
AcDbSpline
 62
7
  6
BYLAYER
 70
0
 71
3
 72
12
 73
8
 74
0
 42
0.0000001
 43
0.0000001
 44
0.0000000001
 40
0.0
 40
0.0
 40
0.0
 40
0.0
 40
0.0421189186
 40
0.1659472631
 40
0.3695713929
 40
0.6492995116
 40
1.0
 40
1.0
 40
1.0
 40
1.0
 10
4.5682984351
 20
26.7347595902
 30
0.0
 10
4.567727806
 20
26.7347595902
 30
0.0
 10
4.5684030715
 20
26.7383165356
 30
0.0
 10
4.5673056406
 20
26.7420642751
 30
0.0
 10
4.5675151221
 20
26.7509891611
 30
0.0
 10
4.5670485438
 20
26.7619768191
 30
0.0
 10
4.5669641653
 20
26.7706067749
 30
0.0
 10
4.5668921187
 20
26.7753575353
 30
0.0
  0
SPLINE
  5
365
100
AcDbEntity
  8
INTFCLR_1
100
AcDbSpline
 62
7
  6
BYLAYER
 70
0
 71
3
 72
14
 73
10
 74
0
 42
0.0000001
 43
0.0000001
 44
0.0000000001
 40
0.0
 40
0.0
 40
0.0
 40
0.0
 40
0.2067285026
 40
0.39893947
 40
0.5720982231
 40
0.7221016934
 40
0.8453469318
 40
0.9387890929
 40
1.0
 40
1.0
 40
1.0
 40
1.0
 10
4.5642716808
 20
26.7242639884
 30
0.0
 10
4.5642556305
 20
26.7192664275
 30
0.0
 10
4.5642150231
 20
26.7096222859
 30
0.0
 10
4.5641251061
 20
26.6957923029
 30
0.0
 10
4.5640108644
 20
26.6833338321
 30
0.0
 10
4.5638748015
 20
26.6725429711
 30
0.0
 10
4.5637236459
 20
26.6636794731
 30
0.0
 10
4.5635573299
 20
26.6569636336
 30
0.0
 10
4.5634244441
 20
26.6532267302
 30
0.0
 10
4.5633369878
 20
26.6517495654
 30
0.0
  0
SPLINE
  5
366
100
AcDbEntity
  8
INTFCLR_1
100
AcDbSpline
 62
7
  6
BYLAYER
 70
0
 71
3
 72
43
 73
39
 74
0
 42
0.0000001
 43
0.0000001
 44
0.0000000001
 40
0.0
 40
0.0
 40
0.0
 40
0.0
 40
0.0019715347
 40
0.0076885073
 40
0.017143423
 40
0.0302520914
 40
0.0469638692
 40
0.0671305594
 40
0.0905946227
 40
0.1171265558
 40
0.1465646074
 40
0.1787159313
 40
0.2133140041
 40
0.2500863677
 40
0.2887498391
 40
0.329083527
 40
0.3707104657
 40
0.4133044423
 40
0.4565371321
 40
0.5000833046
 40
0.5436207449
 40
0.5868276565
 40
0.6293821788
 40
0.6709630582
 40
0.71125123
 40
0.7498754846
 40
0.7866171418
 40
0.8211956997
 40
0.8533477736
 40
0.8828113355
 40
0.9093701756
 40
0.9328444386
 40
0.9530118428
 40
0.9697230018
 40
0.982834726
 40
0.992298311
 40
0.9980267835
 40
1.0
 40
1.0
 40
1.0
 40
1.0
 10
3.9735043642
 20
30.2336592917
 30
0.0
 10
3.9740023753
 20
30.2350313521
 30
0.0
 10
3.9754828981
 20
30.2404708023
 30
0.0
 10
3.9758612913
 20
30.2531514134
 30
0.0
 10
3.9772697981
 20
30.2737931572
 30
0.0
 10
3.9781925404
 20
30.302620912
 30
0.0
 10
3.9793051476
 20
30.3392637431
 30
0.0
 10
3.9803051807
 20
30.383524666
 30
0.0
 10
3.9812859854
 20
30.4349859305
 30
0.0
 10
3.9822018124
 20
30.4932527942
 30
0.0
 10
3.9830571289
 20
30.5578935984
 30
0.0
 10
3.9838412861
 20
30.6284532795
 30
0.0
 10
3.9845489336
 20
30.7043944665
 30
0.0
 10
3.9851737822
 20
30.7851139126
 30
0.0
 10
3.9857113077
 20
30.8700417635
 30
0.0
 10
3.9861570678
 20
30.95853155
 30
0.0
 10
3.9865074197
 20
31.0499052379
 30
0.0
 10
3.9867594346
 20
31.1434059895
 30
0.0
 10
3.9869112606
 20
31.2383149249
 30
0.0
 10
3.9869618504
 20
31.3339161011
 30
0.0
 10
3.9869109027
 20
31.429498366
 30
0.0
 10
3.9867588306
 20
31.5243530399
 30
0.0
 10
3.9865067714
 20
31.6177721463
 30
0.0
 10
3.9861566197
 20
31.7090497096
 30
0.0
 10
3.9857112877
 20
31.7974435466
 30
0.0
 10
3.9851743631
 20
31.8822867124
 30
0.0
 10
3.9845502078
 20
31.9629405491
 30
0.0
 10
3.9838432008
 20
32.0388454479
 30
0.0
 10
3.9830593805
 20
32.1094100813
 30
0.0
 10
3.982203956
 20
32.1740898919
 30
0.0
 10
3.9812877458
 20
32.2324026907
 30
0.0
 10
3.9803067014
 20
32.2838917056
 30
0.0
 10
3.9793067703
 20
32.3281601702
 30
0.0
 10
3.9781946078
 20
32.3648053684
 30
0.0
 10
3.977272028
 20
32.3936411847
 30
0.0
 10
3.9758636273
 20
32.4143001537
 30
0.0
 10
3.9754855374
 20
32.4269966618
 30
0.0
 10
3.9740047259
 20
32.4324460653
 30
0.0
 10
3.9735071717
 20
32.4338195518
 30
0.0
  0
SPLINE
  5
367
100
AcDbEntity
  8
INTFCLR_1
100
AcDbSpline
 62
7
  6
BYLAYER
 70
0
 71
3
 72
43
 73
39
 74
0
 42
0.0000001
 43
0.0000001
 44
0.0000000001
 40
0.0
 40
0.0
 40
0.0
 40
0.0
 40
0.0019758303
 40
0.0076915758
 40
0.0171453922
 40
0.0302530983
 40
0.046964055
 40
0.0671300636
 40
0.0905935908
 40
0.1171251268
 40
0.1465629219
 40
0.1787140977
 40
0.2133121251
 40
0.2500845419
 40
0.2887481584
 40
0.3290821035
 40
0.3707093533
 40
0.4133036876
 40
0.4565367606
 40
0.5000833265
 40
0.5436211589
 40
0.5868284496
 40
0.6293833228
 40
0.6709645044
 40
0.7112529231
 40
0.7498773126
 40
0.7866190157
 40
0.8211975243
 40
0.8533494474
 40
0.8828127514
 40
0.9093711961
 40
0.9328449246
 40
0.9530116478
 40
0.9697219858
 40
0.9828327478
 40
0.9922952332
 40
0.998022478
 40
1.0
 40
1.0
 40
1.0
 40
1.0
 10
3.9735071717
 20
32.4338195518
 30
0.0
 10
3.9730075159
 20
32.4324446441
 30
0.0
 10
3.9715255687
 20
32.4270032636
 30
0.0
 10
3.9711467274
 20
32.4143211449
 30
0.0
 10
3.9697383815
 20
32.3936818307
 30
0.0
 10
3.9688155678
 20
32.3648561636
 30
0.0
 10
3.9677029645
 20
32.3282151277
 30
0.0
 10
3.9667029045
 20
32.2839556753
 30
0.0
 10
3.9657220808
 20
32.2324955688
 30
0.0
 10
3.9648062314
 20
32.1742295464
 30
0.0
 10
3.9639508937
 20
32.1095892956
 30
0.0
 10
3.9631667161
 20
32.0390299066
 30
0.0
 10
3.9624590499
 20
31.9630887815
 30
0.0
 10
3.9618341842
 20
31.8823691797
 30
0.0
 10
3.9612966435
 20
31.7974409486
 30
0.0
 10
3.9608508705
 20
31.7089505908
 30
0.0
 10
3.9605005082
 20
31.6175761741
 30
0.0
 10
3.9602484859
 20
31.5240746001
 30
0.0
 10
3.9600966554
 20
31.4291647811
 30
0.0
 10
3.9600460641
 20
31.3335626957
 30
0.0
 10
3.9600970134
 20
31.2379795246
 30
0.0
 10
3.9602490901
 20
31.1431239761
 30
0.0
 10
3.9605011568
 20
31.0497040618
 30
0.0
 10
3.9608513189
 20
30.9584257887
 30
0.0
 10
3.9612966638
 20
30.8700314019
 30
0.0
 10
3.9618336035
 20
30.7851878765
 30
0.0
 10
3.9624577758
 20
30.7045338997
 30
0.0
 10
3.9631648015
 20
30.6286290731
 30
0.0
 10
3.9639486421
 20
30.5580647376
 30
0.0
 10
3.9648040877
 20
30.4933854822
 30
0.0
 10
3.9657203204
 20
30.4350735234
 30
0.0
 10
3.9667013837
 20
30.3835856637
 30
0.0
 10
3.9677013418
 20
30.3393186678
 30
0.0
 10
3.9688135004
 20
30.3026752643
 30
0.0
 10
3.9697361518
 20
30.2738415357
 30
0.0
 10
3.9711443911
 20
30.2531849966
 30
0.0
 10
3.9715229302
 20
30.2404869747
 30
0.0
 10
3.9730051657
 20
30.2350356333
 30
0.0
 10
3.9735043642
 20
30.2336592917
 30
0.0
  0
SPLINE
  5
368
100
AcDbEntity
  8
INTFCLR_1
100
AcDbSpline
 62
7
  6
BYLAYER
 70
0
 71
3
 72
27
 73
23
 74
0
 42
0.0000001
 43
0.0000001
 44
0.0000000001
 40
0.0
 40
0.0
 40
0.0
 40
0.0
 40
0.0784440829
 40
0.1564038438
 40
0.2333866007
 40
0.3089075516
 40
0.3826990803
 40
0.4541012567
 40
0.5226650604
 40
0.5879718127
 40
0.6496243433
 40
0.7072512562
 40
0.7605059903
 40
0.8090677809
 40
0.8526437063
 40
0.8909708132
 40
0.9238160639
 40
0.9509732017
 40
0.9722272029
 40
0.9875290313
 40
0.9967843914
 40
1.0
 40
1.0
 40
1.0
 40
1.0
 10
5.9180616131
 20
11.9818042816
 30
0.0
 10
5.9180614406
 20
11.9360292023
 30
0.0
 10
5.918104616
 20
11.8447616573
 30
0.0
 10
5.9183007713
 20
11.7085718991
 30
0.0
 10
5.9186262577
 20
11.5740881492
 30
0.0
 10
5.9190794863
 20
11.4420371029
 30
0.0
 10
5.9196578082
 20
11.3132430542
 30
0.0
 10
5.9203578596
 20
11.1885094268
 30
0.0
 10
5.9211744888
 20
11.0687278014
 30
0.0
 10
5.9221023309
 20
10.9546364486
 30
0.0
 10
5.923135293
 20
10.8469283489
 30
0.0
 10
5.9242668079
 20
10.746254482
 30
0.0
 10
5.9254889496
 20
10.6532211122
 30
0.0
 10
5.9267953279
 20
10.5683893527
 30
0.0
 10
5.9281714793
 20
10.4922697715
 30
0.0
 10
5.9296247526
 20
10.4253277353
 30
0.0
 10
5.9310915056
 20
10.3679605517
 30
0.0
 10
5.9327066498
 20
10.3205896705
 30
0.0
 10
5.934044875
 20
10.2833880803
 30
0.0
 10
5.9360593282
 20
10.2568213561
 30
0.0
 10
5.9366190724
 20
10.2404527119
 30
0.0
 10
5.9387291451
 20
10.2334930733
 30
0.0
 10
5.9394432197
 20
10.2317349107
 30
0.0
  0
SPLINE
  5
369
100
AcDbEntity
  8
INTFCLR_1
100
AcDbSpline
 62
7
  6
BYLAYER
 70
0
 71
3
 72
27
 73
23
 74
0
 42
0.0000001
 43
0.0000001
 44
0.0000000001
 40
0.0
 40
0.0
 40
0.0
 40
0.0
 40
0.0032073233
 40
0.0124672983
 40
0.027793667
 40
0.0490967233
 40
0.0763246143
 40
0.1092561251
 40
0.1476775053
 40
0.1913454426
 40
0.239985502
 40
0.2932964002
 40
0.3509507134
 40
0.412596182
 40
0.4778582092
 40
0.5463435219
 40
0.617640996
 40
0.6913105203
 40
0.7667084259
 40
0.8435934764
 40
0.9215115816
 40
1.0
 40
1.0
 40
1.0
 40
1.0
 10
5.9394432197
 20
10.2317349107
 30
0.0
 10
5.9401567154
 20
10.2334881131
 30
0.0
 10
5.9422706324
 20
10.2404443337
 30
0.0
 10
5.942825469
 20
10.256826821
 30
0.0
 10
5.9448457774
 20
10.283438037
 30
0.0
 10
5.9461844279
 20
10.3207243885
 30
0.0
 10
5.9478027119
 20
10.3682152996
 30
0.0
 10
5.9492712382
 20
10.4257292079
 30
0.0
 10
5.9507261166
 20
10.4928302801
 30
0.0
 10
5.9521030649
 20
10.5691042764
 30
0.0
 10
5.9534095373
 20
10.6540682082
 30
0.0
 10
5.9546310636
 20
10.7471960542
 30
0.0
 10
5.9557613751
 20
10.8479146045
 30
0.0
 10
5.9567926884
 20
10.9556085159
 30
0.0
 10
5.9577186319
 20
11.069623888
 30
0.0
 10
5.9585333315
 20
11.1892725546
 30
0.0
 10
5.9592316295
 20
11.313828126
 30
0.0
 10
5.9598085463
 20
11.4424181179
 30
0.0
 10
5.9602608554
 20
11.5742691883
 30
0.0
 10
5.9605859159
 20
11.708599848
 30
0.0
 10
5.9607821584
 20
11.8447341889
 30
0.0
 10
5.9608251955
 20
11.9360033208
 30
0.0
 10
5.9608250021
 20
11.9818042831
 30
0.0
  0
SPLINE
  5
36A
100
AcDbEntity
  8
INTFCLR_1
100
AcDbSpline
 62
7
  6
BYLAYER
 70
0
 71
3
 72
43
 73
39
 74
0
 42
0.0000001
 43
0.0000001
 44
0.0000000001
 40
0.0
 40
0.0
 40
0.0
 40
0.0
 40
0.001968871
 40
0.0076846614
 40
0.0171385494
 40
0.0302463534
 40
0.0469574338
 40
0.0671235903
 40
0.0905872886
 40
0.1171190167
 40
0.1465570237
 40
0.1787084285
 40
0.2133066999
 40
0.2500793736
 40
0.2887432576
 40
0.32907748
 40
0.3707050124
 40
0.4132996319
 40
0.45653299
 40
0.5000798382
 40
0.5436179477
 40
0.5868255079
 40
0.6293806406
 40
0.6709620689
 40
0.7112507194
 40
0.7498753218
 40
0.7866172183
 40
0.8211958993
 40
0.8533479723
 40
0.882811402
 40
0.909369946
 40
0.9328437468
 40
0.953010514
 40
0.9697208673
 40
0.9828316157
 40
0.9922940586
 40
0.9980212325
 40
1.0
 40
1.0
 40
1.0
 40
1.0
 10
5.9736522966
 20
30.2336638857
 30
0.0
 10
5.9731546924
 20
30.2350339984
 30
0.0
 10
5.9716738654
 20
30.2404704092
 30
0.0
 10
5.9712965159
 20
30.2531476447
 30
0.0
 10
5.9698874162
 20
30.2737868456
 30
0.0
 10
5.9689649315
 20
30.302612615
 30
0.0
 10
5.9678522012
 20
30.3392536739
 30
0.0
 10
5.9668521862
 20
30.3835131896
 30
0.0
 10
5.9658713473
 20
30.434973354
 30
0.0
 10
5.9649555029
 20
30.4932394436
 30
0.0
 10
5.964100164
 20
30.557879764
 30
0.0
 10
5.9633159873
 20
30.6284392249
 30
0.0
 10
5.9626083215
 20
30.704380422
 30
0.0
 10
5.9619834565
 20
30.7851000949
 30
0.0
 10
5.9614459166
 20
30.8700283958
 30
0.0
 10
5.9610001445
 20
30.9585188206
 30
0.0
 10
5.9606497833
 20
31.0498932996
 30
0.0
 10
5.9603977623
 20
31.1433949287
 30
0.0
 10
5.9602459332
 20
31.238304794
 30
0.0
 10
5.9601953434
 20
31.3339069156
 30
0.0
 10
5.9602462943
 20
31.4294901115
 30
0.0
 10
5.9603983728
 20
31.5243456723
 30
0.0
 10
5.9606504412
 20
31.6177655856
 30
0.0
 10
5.9610006052
 20
31.7090438429
 30
0.0
 10
5.961445952
 20
31.7974381974
 30
0.0
 10
5.9619828937
 20
31.8822816732
 30
0.0
 10
5.9626070679
 20
31.9629355822
 30
0.0
 10
5.9633140955
 20
32.038840324
 30
0.0
 10
5.9640979381
 20
32.1094045574
 30
0.0
 10
5.9649533853
 20
32.1740836931
 30
0.0
 10
5.9658696204
 20
32.232395514
 30
0.0
 10
5.9668506832
 20
32.2838832178
 30
0.0
 10
5.9678506489
 20
32.328150039
 30
0.0
 10
5.9689627907
 20
32.3647932548
 30
0.0
 10
5.9698854894
 20
32.3936267705
 30
0.0
 10
5.9712936192
 20
32.4142831057
 30
0.0
 10
5.9716723845
 20
32.4269818586
 30
0.0
 10
5.9731548762
 20
32.4324339838
 30
0.0
 10
5.9736544681
 20
32.4338111653
 30
0.0
  0
SPLINE
  5
36B
100
AcDbEntity
  8
INTFCLR_1
100
AcDbSpline
 62
7
  6
BYLAYER
 70
0
 71
3
 72
43
 73
39
 74
0
 42
0.0000001
 43
0.0000001
 44
0.0000000001
 40
0.0
 40
0.0
 40
0.0
 40
0.0
 40
0.0019690041
 40
0.0076848815
 40
0.0171388435
 40
0.0302467079
 40
0.0469578346
 40
0.0671240239
 40
0.0905877408
 40
0.1171194743
 40
0.1465574733
 40
0.1787088597
 40
0.2133071028
 40
0.250079739
 40
0.2887435768
 40
0.3290777427
 40
0.3707052134
 40
0.4132997669
 40
0.4565330566
 40
0.5000798354
 40
0.5436178756
 40
0.5868253678
 40
0.6293804351
 40
0.6709618025
 40
0.7112503974
 40
0.7498749545
 40
0.7866168142
 40
0.8211954674
 40
0.8533475222
 40
0.882810944
 40
0.9093694933
 40
0.9328433126
 40
0.9530101125
 40
0.9697205122
 40
0.982831321
 40
0.992293838
 40
0.9980210989
 40
1.0
 40
1.0
 40
1.0
 40
1.0
 10
5.9736544681
 20
32.4338111653
 30
0.0
 10
5.9741520828
 20
32.4324409528
 30
0.0
 10
5.9756328749
 20
32.427004365
 30
0.0
 10
5.9760102884
 20
32.4143269322
 30
0.0
 10
5.9774193494
 20
32.3936875574
 30
0.0
 10
5.9783418497
 20
32.3648616607
 30
0.0
 10
5.9794545708
 20
32.3282204975
 30
0.0
 10
5.9804545859
 20
32.2839609111
 30
0.0
 10
5.9814354215
 20
32.2325007051
 30
0.0
 10
5.9823512637
 20
32.1742346042
 30
0.0
 10
5.9832066002
 20
32.1095942997
 30
0.0
 10
5.9839907747
 20
32.0390348793
 30
0.0
 10
5.9846984385
 20
31.9630937445
 30
0.0
 10
5.9853233017
 20
31.8823741543
 30
0.0
 10
5.9858608399
 20
31.7974459568
 30
0.0
 10
5.9863066106
 20
31.7089556533
 30
0.0
 10
5.9866569708
 20
31.6175813101
 30
0.0
 10
5.986908991
 20
31.5240798255
 30
0.0
 10
5.9870608196
 20
31.4291701104
 30
0.0
 10
5.9871114093
 20
31.3335681415
 30
0.0
 10
5.9870604585
 20
31.2379850979
 30
0.0
 10
5.9869083806
 20
31.1431296864
 30
0.0
 10
5.9866563129
 20
31.0497099164
 30
0.0
 10
5.98630615
 20
30.9584317931
 30
0.0
 10
5.9858608046
 20
30.8700375579
 30
0.0
 10
5.9853238645
 20
30.7851941838
 30
0.0
 10
5.9846996921
 20
30.7045403558
 30
0.0
 10
5.9839926665
 20
30.6286356754
 30
0.0
 10
5.9832088261
 20
30.558071482
 30
0.0
 10
5.9823533813
 20
30.4933923619
 30
0.0
 10
5.9814371485
 20
30.4350805297
 30
0.0
 10
5.980456089
 20
30.3835927846
 30
0.0
 10
5.9794561232
 20
30.3393258926
 30
0.0
 10
5.9783439904
 20
30.3026825727
 30
0.0
 10
5.9774212763
 20
30.2738489296
 30
0.0
 10
5.976013185
 20
30.2531924203
 30
0.0
 10
5.9756343558
 20
30.2404934697
 30
0.0
 10
5.9741518991
 20
30.2350411671
 30
0.0
 10
5.9736522966
 20
30.2336638857
 30
0.0
  0
SPLINE
  5
36C
100
AcDbEntity
  8
INTFCLR_1
100
AcDbSpline
 62
7
  6
BYLAYER
 70
0
 71
3
 72
40
 73
36
 74
0
 42
0.0000001
 43
0.0000001
 44
0.0000000001
 40
0.0
 40
0.0
 40
0.0
 40
0.0
 40
0.0023332111
 40
0.0091283246
 40
0.0203561241
 40
0.0358972484
 40
0.0556791599
 40
0.0794856176
 40
0.1071023576
 40
0.1382026294
 40
0.1726027673
 40
0.2100035064
 40
0.2500298513
 40
0.2922998384
 40
0.3364730203
 40
0.3822240143
 40
0.4290142316
 40
0.4764136132
 40
0.523988572
 40
0.5713183377
 40
0.617997794
 40
0.6636272181
 40
0.7076955669
 40
0.7498909616
 40
0.7898768941
 40
0.8272733487
 40
0.8617031579
 40
0.8928407469
 40
0.9204738532
 40
0.944282433
 40
0.9640637572
 40
0.9796087389
 40
0.9908478298
 40
0.9976582003
 40
1.0
 40
1.0
 40
1.0
 40
1.0
 10
5.9858712881
 20
21.5337239853
 30
0.0
 10
5.9871938152
 20
21.5337239862
 30
0.0
 10
5.9862867034
 20
21.5256802371
 30
0.0
 10
5.98864489
 20
21.5169303657
 30
0.0
 10
5.9886778842
 20
21.4963721508
 30
0.0
 10
5.9899477706
 20
21.4706780112
 30
0.0
 10
5.9906783002
 20
21.436912929
 30
0.0
 10
5.9915682661
 20
21.3966526429
 30
0.0
 10
5.9923430323
 20
21.3498518819
 30
0.0
 10
5.9930849503
 20
21.2970855409
 30
0.0
 10
5.9937570347
 20
21.2387591451
 30
0.0
 10
5.9943622817
 20
21.1753762375
 30
0.0
 10
5.9948915629
 20
21.1075304567
 30
0.0
 10
5.9953406549
 20
21.0358455774
 30
0.0
 10
5.9957053175
 20
20.9609151915
 30
0.0
 10
5.9959819136
 20
20.883422255
 30
0.0
 10
5.996167589
 20
20.804100338
 30
0.0
 10
5.9962605593
 20
20.7237443879
 30
0.0
 10
5.9962601643
 20
20.6430825529
 30
0.0
 10
5.9961665837
 20
20.5628288462
 30
0.0
 10
5.9959807419
 20
20.4836780816
 30
0.0
 10
5.99570448
 20
20.4063762589
 30
0.0
 10
5.9953405326
 20
20.3316164842
 30
0.0
 10
5.9948923181
 20
20.2600562118
 30
0.0
 10
5.9943638326
 20
20.192278044
 30
0.0
 10
5.9937590478
 20
20.1289036484
 30
0.0
 10
5.9930869644
 20
20.0705417071
 30
0.0
 10
5.9923447266
 20
20.0177281243
 30
0.0
 10
5.9915697334
 20
19.9708957304
 30
0.0
 10
5.9906798117
 20
19.9306252352
 30
0.0
 10
5.9899496957
 20
19.8968572943
 30
0.0
 10
5.9886797341
 20
19.8711546199
 30
0.0
 10
5.9886485114
 20
19.8505782488
 30
0.0
 10
5.9862848436
 20
19.8418137483
 30
0.0
 10
5.9871986835
 20
19.8337472964
 30
0.0
 10
5.9858712881
 20
19.8337472964
 30
0.0
  0
SPLINE
  5
36D
100
AcDbEntity
  8
INTFCLR_1
100
AcDbSpline
 62
7
  6
BYLAYER
 70
0
 71
3
 72
27
 73
23
 74
0
 42
0.0000001
 43
0.0000001
 44
0.0000000001
 40
0.0
 40
0.0
 40
0.0
 40
0.0
 40
0.0032216807
 40
0.0125008563
 40
0.027849783
 40
0.0491854195
 40
0.0763757002
 40
0.1092582038
 40
0.1476324002
 40
0.1912635266
 40
0.2398836292
 40
0.2931910858
 40
0.3508533916
 40
0.4125100709
 40
0.4777784083
 40
0.5462671709
 40
0.6175706017
 40
0.6912556357
 40
0.7666795312
 40
0.8435917641
 40
0.9215241638
 40
1.0
 40
1.0
 40
1.0
 40
1.0
 10
5.982205165
 20
16.8337230846
 30
0.0
 10
5.9803252823
 20
16.8337230847
 30
0.0
 10
5.9809876305
 20
16.822558721
 30
0.0
 10
5.977810573
 20
16.8100973707
 30
0.0
 10
5.9772659937
 20
16.7812177972
 30
0.0
 10
5.9752816082
 20
16.7448978088
 30
0.0
 10
5.9739143774
 20
16.6970650458
 30
0.0
 10
5.9723590425
 20
16.6397657959
 30
0.0
 10
5.970935533
 20
16.572700294
 30
0.0
 10
5.9695494047
 20
16.4965053027
 30
0.0
 10
5.9682459772
 20
16.411575932
 30
0.0
 10
5.9670230705
 20
16.3184629602
 30
0.0
 10
5.9658924462
 20
16.2177396017
 30
0.0
 10
5.9648604687
 20
16.110036082
 30
0.0
 10
5.9639340544
 20
15.9960138881
 30
0.0
 10
5.9631189105
 20
15.8763617816
 30
0.0
 10
5.9624201749
 20
15.7517976226
 30
0.0
 10
5.9618427918
 20
15.6231860869
 30
0.0
 10
5.9613900576
 20
15.4913012413
 30
0.0
 10
5.9610645749
 20
15.3569376339
 30
0.0
 10
5.9608682952
 20
15.220792938
 30
0.0
 10
5.9608245046
 20
15.1295271687
 30
0.0
 10
5.9608245046
 20
15.0837357368
 30
0.0
  0
SPLINE
  5
36E
100
AcDbEntity
  8
INTFCLR_1
100
AcDbSpline
 62
7
  6
BYLAYER
 70
0
 71
3
 72
27
 73
23
 74
0
 42
0.0000001
 43
0.0000001
 44
0.0000000001
 40
0.0
 40
0.0
 40
0.0
 40
0.0
 40
0.0784635394
 40
0.1564417345
 40
0.2334547533
 40
0.3090286793
 40
0.3826863944
 40
0.4539865902
 40
0.5224909442
 40
0.5877774791
 40
0.6494430093
 40
0.7071035951
 40
0.7604001254
 40
0.8090016869
 40
0.8526098761
 40
0.8909644845
 40
0.9238354109
 40
0.9510175629
 40
0.9722927175
 40
0.9876057647
 40
0.9968544192
 40
1.0
 40
1.0
 40
1.0
 40
1.0
 10
5.9608245668
 20
11.9818042769
 30
0.0
 10
5.9604685118
 20
11.9360280898
 30
0.0
 10
5.9597586068
 20
11.8447588687
 30
0.0
 10
5.9586926959
 20
11.7085597553
 30
0.0
 10
5.9576268744
 20
11.5740465653
 30
0.0
 10
5.9565612316
 20
11.4420541292
 30
0.0
 10
5.9554958116
 20
11.3133948044
 30
0.0
 10
5.9544306679
 20
11.1888601862
 30
0.0
 10
5.9533658084
 20
11.0692097038
 30
0.0
 10
5.9523013139
 20
10.9551805537
 30
0.0
 10
5.9512373632
 20
10.8474782072
 30
0.0
 10
5.9501740743
 20
10.7467714938
 30
0.0
 10
5.9491121295
 20
10.6536870217
 30
0.0
 10
5.9480508006
 20
10.5688017697
 30
0.0
 10
5.9469944076
 20
10.4926342623
 30
0.0
 10
5.9459321282
 20
10.4256467674
 30
0.0
 10
5.9449007296
 20
10.368239634
 30
0.0
 10
5.9438024681
 20
10.3208109841
 30
0.0
 10
5.9429178565
 20
10.2835965119
 30
0.0
 10
5.9415952353
 20
10.2569248986
 30
0.0
 10
5.9412644169
 20
10.2406899721
 30
0.0
 10
5.939897626
 20
10.2335912199
 30
0.0
 10
5.9394432197
 20
10.2318042769
 30
0.0
  0
SPLINE
  5
36F
100
AcDbEntity
  8
INTFCLR_1
100
AcDbSpline
 62
7
  6
BYLAYER
 70
0
 71
3
 72
27
 73
23
 74
0
 42
0.0000001
 43
0.0000001
 44
0.0000000001
 40
0.0
 40
0.0
 40
0.0
 40
0.0
 40
0.0031432524
 40
0.0123941407
 40
0.0277273663
 40
0.0490532641
 40
0.0762374764
 40
0.1091167028
 40
0.1474899629
 40
0.1911222722
 40
0.2397456822
 40
0.2930583678
 40
0.3507277095
 40
0.4123931338
 40
0.4776719699
 40
0.5461727322
 40
0.6174895446
 40
0.6911892648
 40
0.7666288246
 40
0.8435576102
 40
0.9215068928
 40
1.0
 40
1.0
 40
1.0
 40
1.0
 10
5.9394432197
 20
10.2318042769
 30
0.0
 10
5.93898905
 20
10.2335898717
 30
0.0
 10
5.937621717
 20
10.2406884641
 30
0.0
 10
5.9372911471
 20
10.2569352677
 30
0.0
 10
5.9359663497
 20
10.2836493802
 30
0.0
 10
5.935081688
 20
10.320906518
 30
0.0
 10
5.9339830885
 20
10.3683708033
 30
0.0
 10
5.9329518112
 20
10.4257948729
 30
0.0
 10
5.9318893948
 20
10.4928121648
 30
0.0
 10
5.9308327979
 20
10.5690173754
 30
0.0
 10
5.9297713054
 20
10.6539388733
 30
0.0
 10
5.9287093073
 20
10.7470506283
 30
0.0
 10
5.9276460854
 20
10.8477718161
 30
0.0
 10
5.9265823091
 20
10.9554747204
 30
0.0
 10
5.9255180171
 20
11.0694972242
 30
0.0
 10
5.9244532388
 20
11.1891508159
 30
0.0
 10
5.9233879109
 20
11.3137175408
 30
0.0
 10
5.9223229399
 20
11.4423326777
 30
0.0
 10
5.9212581718
 20
11.5742220893
 30
0.0
 10
5.9201935015
 20
11.7085908806
 30
0.0
 10
5.9191279695
 20
11.8447412352
 30
0.0
 10
5.9184180618
 20
11.9360108395
 30
0.0
 10
5.9180618729
 20
11.9818042772
 30
0.0
  0
SPLINE
  5
370
100
AcDbEntity
  8
INTFCLR_1
100
AcDbSpline
 62
7
  6
BYLAYER
 70
0
 71
3
 72
20
 73
16
 74
0
 42
0.0000001
 43
0.0000001
 44
0.0000000001
 40
0.0
 40
0.0
 40
0.0
 40
0.0
 40
0.119545057
 40
0.2373113089
 40
0.3516282207
 40
0.4608813414
 40
0.5635923444
 40
0.6582138922
 40
0.743371588
 40
0.8178552311
 40
0.880611967
 40
0.9307387677
 40
0.9675885998
 40
0.9906819434
 40
1.0
 40
1.0
 40
1.0
 40
1.0
 10
4.9119124273
 20
32.9337356175
 30
0.0
 10
4.899941947
 20
32.9337356175
 30
0.0
 10
4.876179079
 20
32.9337774961
 30
0.0
 10
4.8409697125
 20
32.9339649799
 30
0.0
 10
4.8067917234
 20
32.9342738895
 30
0.0
 10
4.7741229083
 20
32.9346998117
 30
0.0
 10
4.7434272336
 20
32.9352357175
 30
0.0
 10
4.7151498603
 20
32.9358755321
 30
0.0
 10
4.6896924511
 20
32.9366020265
 30
0.0
 10
4.6674600333
 20
32.9374243578
 30
0.0
 10
4.6486529609
 20
32.9382642728
 30
0.0
 10
4.6338610258
 20
32.9392786985
 30
0.0
 10
4.62246814
 20
32.9399972533
 30
0.0
 10
4.6163541565
 20
32.9413099501
 30
0.0
 10
4.6122957557
 20
32.9416024789
 30
0.0
 10
4.6119382633
 20
32.9424643275
 30
0.0
  0
SPLINE
  5
371
100
AcDbEntity
  8
INTFCLR_1
100
AcDbSpline
 62
7
  6
BYLAYER
 70
0
 71
3
 72
24
 73
20
 74
0
 42
0.0000001
 43
0.0000001
 44
0.0000000001
 40
0.0
 40
0.0
 40
0.0
 40
0.0
 40
0.122440058
 40
0.228827415
 40
0.3326641234
 40
0.4295224332
 40
0.5237110438
 40
0.606826095
 40
0.6766608809
 40
0.7365284411
 40
0.7854633954
 40
0.8223861031
 40
0.8473916072
 40
0.8594943186
 40
0.8628423857
 40
0.8770854796
 40
0.9037173723
 40
0.9434603446
 40
1.0
 40
1.0
 40
1.0
 40
1.0
 10
19.2205410969
 20
33.017392227
 30
0.0
 10
19.2062947179
 20
33.0173834986
 30
0.0
 10
19.1796697595
 20
33.0173340271
 30
0.0
 10
19.140963443
 20
33.0171023925
 30
0.0
 10
19.1052353221
 20
33.0167455004
 30
0.0
 10
19.0709264504
 20
33.0162431682
 30
0.0
 10
19.039037943
 20
33.0156180406
 30
0.0
 10
19.0102744384
 20
33.0149055588
 30
0.0
 10
18.9855744815
 20
33.0140753226
 30
0.0
 10
18.9646637553
 20
33.0132603473
 30
0.0
 10
18.9481280138
 20
33.0121635566
 30
0.0
 10
18.9342880045
 20
33.0116350603
 30
0.0
 10
18.9277307988
 20
33.0098369549
 30
0.0
 10
18.9201752384
 20
33.0102347052
 30
0.0
 10
18.9218560832
 20
33.0064708372
 30
0.0
 10
18.9280477417
 20
33.0073528238
 30
0.0
 10
18.9366527634
 20
33.0052428231
 30
0.0
 10
18.9512861611
 20
33.0048125728
 30
0.0
 10
18.9623557417
 20
33.004053948
 30
0.0
 10
18.9689270254
 20
33.0037435407
 30
0.0
  0
SPLINE
  5
372
100
AcDbEntity
  8
INTFCLR_1
100
AcDbSpline
 62
7
  6
BYLAYER
 70
0
 71
3
 72
24
 73
20
 74
0
 42
0.0000001
 43
0.0000001
 44
0.0000000001
 40
0.0
 40
0.0
 40
0.0
 40
0.0
 40
0.1224400603
 40
0.2288274511
 40
0.3326642283
 40
0.4295225674
 40
0.5237111986
 40
0.6068262005
 40
0.6766609327
 40
0.7365284697
 40
0.7854634027
 40
0.8223861087
 40
0.8473916271
 40
0.8594943487
 40
0.8628424168
 40
0.8770855145
 40
0.9037174038
 40
0.9434603565
 40
1.0
 40
1.0
 40
1.0
 40
1.0
 10
7.0205410993
 20
33.017392227
 30
0.0
 10
7.0062947208
 20
33.0173834986
 30
0.0
 10
6.9796697596
 20
33.017334027
 30
0.0
 10
6.940963433
 20
33.0171023924
 30
0.0
 10
6.9052352987
 20
33.0167455001
 30
0.0
 10
6.870926415
 20
33.0162431674
 30
0.0
 10
6.8390379092
 20
33.01561804
 30
0.0
 10
6.8102744158
 20
33.0149055583
 30
0.0
 10
6.7855744748
 20
33.0140753224
 30
0.0
 10
6.7646637614
 20
33.0132603473
 30
0.0
 10
6.7481280256
 20
33.0121635568
 30
0.0
 10
6.7342880188
 20
33.011635061
 30
0.0
 10
6.7277308107
 20
33.0098369546
 30
0.0
 10
6.7201752468
 20
33.0102347071
 30
0.0
 10
6.7218560894
 20
33.0064708364
 30
0.0
 10
6.7280477498
 20
33.0073528235
 30
0.0
 10
6.7366527677
 20
33.0052428228
 30
0.0
 10
6.751286161
 20
33.0048125721
 30
0.0
 10
6.7623557372
 20
33.0040539478
 30
0.0
 10
6.7689270192
 20
33.0037435407
 30
0.0
  0
SPLINE
  5
373
100
AcDbEntity
  8
INTFCLR_1
100
AcDbSpline
 62
7
  6
BYLAYER
 70
0
 71
3
 72
18
 73
14
 74
0
 42
0.0000001
 43
0.0000001
 44
0.0000000001
 40
0.0
 40
0.0
 40
0.0
 40
0.0
 40
0.0332812208
 40
0.0827293215
 40
0.1441295144
 40
0.2224787954
 40
0.3138090161
 40
0.3976951961
 40
0.5043095599
 40
0.6185608752
 40
0.7407838607
 40
0.8747582436
 40
1.0
 40
1.0
 40
1.0
 40
1.0
 10
4.7248135237
 20
27.5837811615
 30
0.0
 10
4.726305535
 20
27.582272172
 30
0.0
 10
4.7306117974
 20
27.579149371
 30
0.0
 10
4.7386983786
 20
27.5747311939
 30
0.0
 10
4.7502795217
 20
27.571076226
 30
0.0
 10
4.7649247321
 20
27.5690436742
 30
0.0
 10
4.7811247481
 20
27.5689095124
 30
0.0
 10
4.7990569453
 20
27.5702036579
 30
0.0
 10
4.8183388475
 20
27.5726785322
 30
0.0
 10
4.8399210916
 20
27.5762536551
 30
0.0
 10
4.863250469
 20
27.5799497459
 30
0.0
 10
4.8873917829
 20
27.5829935298
 30
0.0
 10
4.9039268071
 20
27.5837869581
 30
0.0
 10
4.9119124125
 20
27.5837811637
 30
0.0
  0
SPLINE
  5
374
100
AcDbEntity
  8
INTFCLR_1
100
AcDbSpline
 62
7
  6
BYLAYER
 70
0
 71
3
 72
13
 73
9
 74
0
 42
0.0000001
 43
0.0000001
 44
0.0000000001
 40
0.0
 40
0.0
 40
0.0
 40
0.0
 40
0.2923927593
 40
0.5399515401
 40
0.7378185386
 40
0.8820614909
 40
0.9698547538
 40
1.0
 40
1.0
 40
1.0
 40
1.0
 10
29.4213685074
 20
27.5837811619
 30
0.0
 10
29.4214129779
 20
27.5878912198
 30
0.0
 10
29.421521729
 20
27.5954578516
 30
0.0
 10
29.4216302907
 20
27.6059136361
 30
0.0
 10
29.421964969
 20
27.6139784119
 30
0.0
 10
29.4217940204
 20
27.6205356163
 30
0.0
 10
29.4226116944
 20
27.6232926767
 30
0.0
 10
29.4220875555
 20
27.6259214936
 30
0.0
 10
29.422511321
 20
27.6259214936
 30
0.0
  0
SPLINE
  5
375
100
AcDbEntity
  8
INTFCLR_1
100
AcDbSpline
 62
7
  6
BYLAYER
 70
0
 71
3
 72
12
 73
8
 74
0
 42
0.0000001
 43
0.0000001
 44
0.0000000001
 40
0.0
 40
0.0
 40
0.0
 40
0.0
 40
0.1725392172
 40
0.3536495787
 40
0.549919122
 40
0.7650510699
 40
1.0
 40
1.0
 40
1.0
 40
1.0
 10
4.647074006
 20
27.6259089429
 30
0.0
 10
4.6522907542
 20
27.6259089429
 30
0.0
 10
4.6630188038
 20
27.624638977
 30
0.0
 10
4.6788078455
 20
27.6190981735
 30
0.0
 10
4.6944382584
 20
27.6101887233
 30
0.0
 10
4.7099505455
 20
27.5982299937
 30
0.0
 10
4.7198364205
 20
27.588849812
 30
0.0
 10
4.7248135231
 20
27.5837811616
 30
0.0
  0
SPLINE
  5
376
100
AcDbEntity
  8
INTFCLR_1
100
AcDbSpline
 62
7
  6
BYLAYER
 70
0
 71
3
 72
16
 73
12
 74
0
 42
0.0000001
 43
0.0000001
 44
0.0000000001
 40
0.0
 40
0.0
 40
0.0
 40
0.0
 40
0.1620354367
 40
0.3139301128
 40
0.4534258346
 40
0.5758636769
 40
0.6845709298
 40
0.7793176721
 40
0.8581001727
 40
0.9288768817
 40
1.0
 40
1.0
 40
1.0
 40
1.0
 10
4.6127339585
 20
27.5399655316
 30
0.0
 10
4.6128991071
 20
27.5453445217
 30
0.0
 10
4.6134480768
 20
27.5557609298
 30
0.0
 10
4.6150067956
 20
27.5707466563
 30
0.0
 10
4.6172680165
 20
27.5843145187
 30
0.0
 10
4.6202292233
 20
27.5962786455
 30
0.0
 10
4.6238973245
 20
27.6064887073
 30
0.0
 10
4.6283307006
 20
27.6148008933
 30
0.0
 10
4.6336213708
 20
27.6210648486
 30
0.0
 10
4.6399353177
 20
27.6250693655
 30
0.0
 10
4.6447118633
 20
27.6259089429
 30
0.0
 10
4.647074006
 20
27.6259089429
 30
0.0
  0
SPLINE
  5
377
100
AcDbEntity
  8
INTFCLR_1
100
AcDbSpline
 62
7
  6
BYLAYER
 70
0
 71
3
 72
16
 73
12
 74
0
 42
0.0000001
 43
0.0000001
 44
0.0000000001
 40
0.0
 40
0.0
 40
0.0
 40
0.0
 40
0.014425054
 40
0.0564202939
 40
0.1254308412
 40
0.220130003
 40
0.3386946662
 40
0.4788336598
 40
0.6378389596
 40
0.8126341287
 40
1.0
 40
1.0
 40
1.0
 40
1.0
 10
29.422511321
 20
27.6259214936
 30
0.0
 10
29.4229248554
 20
27.6259214936
 30
0.0
 10
29.4224217251
 20
27.6233582528
 30
0.0
 10
29.4232156622
 20
27.6206671103
 30
0.0
 10
29.423054793
 20
27.6142694389
 30
0.0
 10
29.4233824971
 20
27.6063958115
 30
0.0
 10
29.4234930557
 20
27.5961844423
 30
0.0
 10
29.423661543
 20
27.5842386495
 30
0.0
 10
29.4237836773
 20
27.5706433107
 30
0.0
 10
29.423890413
 20
27.5557058588
 30
0.0
 10
29.4239411435
 20
27.5453229215
 30
0.0
 10
29.4239627294
 20
27.5399515991
 30
0.0
  0
SPLINE
  5
378
100
AcDbEntity
  8
INTFCLR_1
100
AcDbSpline
 62
7
  6
BYLAYER
 70
0
 71
3
 72
13
 73
9
 74
0
 42
0.0000001
 43
0.0000001
 44
0.0000000001
 40
0.0
 40
0.0
 40
0.0
 40
0.0
 40
0.2923673101
 40
0.5399355019
 40
0.7378097162
 40
0.882057627
 40
0.9698537797
 40
1.0
 40
1.0
 40
1.0
 40
1.0
 10
29.427351417
 20
27.4827297669
 30
0.0
 10
29.4273958819
 20
27.4868393152
 30
0.0
 10
29.427504625
 20
27.494405444
 30
0.0
 10
29.4276131811
 20
27.5048607188
 30
0.0
 10
29.4279478596
 20
27.5129254912
 30
0.0
 10
29.4277769121
 20
27.5194826831
 30
0.0
 10
29.4285945827
 20
27.5222397347
 30
0.0
 10
29.4280704475
 20
27.5248685402
 30
0.0
 10
29.4284942111
 20
27.5248685402
 30
0.0
  0
SPLINE
  5
379
100
AcDbEntity
  8
INTFCLR_1
100
AcDbSpline
 62
7
  6
BYLAYER
 70
0
 71
3
 72
13
 73
9
 74
0
 42
0.0000001
 43
0.0000001
 44
0.0000000001
 40
0.0
 40
0.0
 40
0.0
 40
0.0
 40
0.0303776359
 40
0.1181571442
 40
0.2623722263
 40
0.4601950056
 40
0.707690563
 40
1.0
 40
1.0
 40
1.0
 40
1.0
 10
4.6076299241
 20
27.5248787277
 30
0.0
 10
4.6080570574
 20
27.5248787277
 30
0.0
 10
4.6075261738
 20
27.5222424868
 30
0.0
 10
4.608348256
 20
27.5194819513
 30
0.0
 10
4.6081752747
 20
27.512924968
 30
0.0
 10
4.6085108186
 20
27.5048599331
 30
0.0
 10
4.6086190433
 20
27.4944044577
 30
0.0
 10
4.6087278798
 20
27.4868380681
 30
0.0
 10
4.6087723481
 20
27.4827282094
 30
0.0
  0
SPLINE
  5
37A
100
AcDbEntity
  8
INTFCLR_1
100
AcDbSpline
 62
7
  6
BYLAYER
 70
0
 71
3
 72
16
 73
12
 74
0
 42
0.0000001
 43
0.0000001
 44
0.0000000001
 40
0.0
 40
0.0
 40
0.0
 40
0.0
 40
0.1873970247
 40
0.3621560232
 40
0.5211320201
 40
0.6612462378
 40
0.7797905261
 40
0.874473113
 40
0.9434728016
 40
0.9854603381
 40
1.0
 40
1.0
 40
1.0
 40
1.0
 10
4.6061780672
 20
27.4388920783
 30
0.0
 10
4.6061996608
 20
27.4442653351
 30
0.0
 10
4.6062504392
 20
27.4546501403
 30
0.0
 10
4.6063571765
 20
27.4695895077
 30
0.0
 10
4.606479293
 20
27.4831848813
 30
0.0
 10
4.6066478417
 20
27.4951308944
 30
0.0
 10
4.6067582209
 20
27.50534236
 30
0.0
 10
4.6070864078
 20
27.5132164445
 30
0.0
 10
4.6069244211
 20
27.5196136534
 30
0.0
 10
4.607721101
 20
27.5223084849
 30
0.0
 10
4.6072130233
 20
27.5248787277
 30
0.0
 10
4.6076299241
 20
27.5248787277
 30
0.0
  0
SPLINE
  5
37B
100
AcDbEntity
  8
INTFCLR_1
100
AcDbSpline
 62
7
  6
BYLAYER
 70
0
 71
3
 72
16
 73
12
 74
0
 42
0.0000001
 43
0.0000001
 44
0.0000000001
 40
0.0
 40
0.0
 40
0.0
 40
0.0
 40
0.0144250316
 40
0.0564201747
 40
0.1254306183
 40
0.2201297442
 40
0.3386944329
 40
0.4788335034
 40
0.6378389026
 40
0.8126341504
 40
1.0
 40
1.0
 40
1.0
 40
1.0
 10
29.4284942111
 20
27.5248685402
 30
0.0
 10
29.4289077448
 20
27.5248685402
 30
0.0
 10
29.4284046153
 20
27.5223053048
 30
0.0
 10
29.4291985514
 20
27.519614167
 30
0.0
 10
29.4290376824
 20
27.5132165032
 30
0.0
 10
29.4293653867
 20
27.5053428794
 30
0.0
 10
29.4294759453
 20
27.4951315085
 30
0.0
 10
29.4296444327
 20
27.4831857104
 30
0.0
 10
29.4297665671
 20
27.4695903648
 30
0.0
 10
29.4298733029
 20
27.4546529089
 30
0.0
 10
29.4299240334
 20
27.4442699704
 30
0.0
 10
29.4299456193
 20
27.4388986488
 30
0.0
  0
SPLINE
  5
37C
100
AcDbEntity
  8
INTFCLR_1
100
AcDbSpline
 62
7
  6
BYLAYER
 70
0
 71
3
 72
13
 73
9
 74
0
 42
0.0000001
 43
0.0000001
 44
0.0000000001
 40
0.0
 40
0.0
 40
0.0
 40
0.0
 40
0.2923673008
 40
0.5399354824
 40
0.7378096953
 40
0.8820576112
 40
0.9698537699
 40
1.0
 40
1.0
 40
1.0
 40
1.0
 10
29.4333343069
 20
27.3816768134
 30
0.0
 10
29.4333787718
 20
27.3857863617
 30
0.0
 10
29.433487515
 20
27.3933524903
 30
0.0
 10
29.433596071
 20
27.403807765
 30
0.0
 10
29.4339307495
 20
27.4118725375
 30
0.0
 10
29.4337598019
 20
27.4184297297
 30
0.0
 10
29.4345774728
 20
27.4211867815
 30
0.0
 10
29.4340533373
 20
27.4238155875
 30
0.0
 10
29.4344771009
 20
27.4238155875
 30
0.0
  0
SPLINE
  5
37D
100
AcDbEntity
  8
INTFCLR_1
100
AcDbSpline
 62
7
  6
BYLAYER
 70
0
 71
3
 72
13
 73
9
 74
0
 42
0.0000001
 43
0.0000001
 44
0.0000000001
 40
0.0
 40
0.0
 40
0.0
 40
0.0
 40
0.0303776713
 40
0.11815709
 40
0.2623720786
 40
0.4601948368
 40
0.7076904674
 40
1.0
 40
1.0
 40
1.0
 40
1.0
 10
4.6016470343
 20
27.4238257779
 30
0.0
 10
4.6020741681
 20
27.4238257779
 30
0.0
 10
4.6015432835
 20
27.4211895378
 30
0.0
 10
4.602365366
 20
27.4184290036
 30
0.0
 10
4.6021923844
 20
27.4118720236
 30
0.0
 10
4.6025279286
 20
27.4038069895
 30
0.0
 10
4.6026361533
 20
27.3933515121
 30
0.0
 10
4.6027449898
 20
27.3857851204
 30
0.0
 10
4.6027894581
 20
27.3816752604
 30
0.0
  0
SPLINE
  5
37E
100
AcDbEntity
  8
INTFCLR_1
100
AcDbSpline
 62
7
  6
BYLAYER
 70
0
 71
3
 72
16
 73
12
 74
0
 42
0.0000001
 43
0.0000001
 44
0.0000000001
 40
0.0
 40
0.0
 40
0.0
 40
0.0
 40
0.1873970108
 40
0.3621560208
 40
0.5211320311
 40
0.6612462566
 40
0.7797905439
 40
0.8744731202
 40
0.9434727884
 40
0.9854603067
 40
1.0
 40
1.0
 40
1.0
 40
1.0
 10
4.6001951773
 20
27.3378391226
 30
0.0
 10
4.6002167709
 20
27.3432123794
 30
0.0
 10
4.6002675493
 20
27.3535971852
 30
0.0
 10
4.6003742866
 20
27.368536554
 30
0.0
 10
4.6004964031
 20
27.3821319294
 30
0.0
 10
4.6006649519
 20
27.394077944
 30
0.0
 10
4.600775331
 20
27.4042894101
 30
0.0
 10
4.6011035181
 20
27.4121634943
 30
0.0
 10
4.600941531
 20
27.4185607019
 30
0.0
 10
4.6017382117
 20
27.4212555338
 30
0.0
 10
4.6012301325
 20
27.4238257779
 30
0.0
 10
4.6016470343
 20
27.4238257779
 30
0.0
  0
SPLINE
  5
37F
100
AcDbEntity
  8
INTFCLR_1
100
AcDbSpline
 62
7
  6
BYLAYER
 70
0
 71
3
 72
16
 73
12
 74
0
 42
0.0000001
 43
0.0000001
 44
0.0000000001
 40
0.0
 40
0.0
 40
0.0
 40
0.0
 40
0.0144250358
 40
0.0564201814
 40
0.1254306274
 40
0.2201297537
 40
0.3386944409
 40
0.4788335083
 40
0.6378389036
 40
0.8126341481
 40
1.0
 40
1.0
 40
1.0
 40
1.0
 10
29.4344771009
 20
27.4238155875
 30
0.0
 10
29.4348906348
 20
27.4238155875
 30
0.0
 10
29.4343875052
 20
27.4212523518
 30
0.0
 10
29.4351814413
 20
27.4185612137
 30
0.0
 10
29.4350205723
 20
27.4121635497
 30
0.0
 10
29.4353482766
 20
27.4042899258
 30
0.0
 10
29.4354588352
 20
27.3940785551
 30
0.0
 10
29.4356273226
 20
27.3821327571
 30
0.0
 10
29.435749457
 20
27.3685374118
 30
0.0
 10
29.4358561928
 20
27.3535999559
 30
0.0
 10
29.4359069233
 20
27.3432170174
 30
0.0
 10
29.4359285092
 20
27.3378456958
 30
0.0
  0
SPLINE
  5
380
100
AcDbEntity
  8
INTFCLR_1
100
AcDbSpline
 62
7
  6
BYLAYER
 70
0
 71
3
 72
13
 73
9
 74
0
 42
0.0000001
 43
0.0000001
 44
0.0000000001
 40
0.0
 40
0.0
 40
0.0
 40
0.0
 40
0.2923673023
 40
0.5399354716
 40
0.7378096787
 40
0.8820575946
 40
0.9698537552
 40
1.0
 40
1.0
 40
1.0
 40
1.0
 10
29.4393171967
 20
27.2806238586
 30
0.0
 10
29.4393616617
 20
27.2847334071
 30
0.0
 10
29.4394704049
 20
27.2922995358
 30
0.0
 10
29.4395789609
 20
27.3027548105
 30
0.0
 10
29.4399136395
 20
27.3108195831
 30
0.0
 10
29.4397426917
 20
27.3173767754
 30
0.0
 10
29.4405603629
 20
27.3201338275
 30
0.0
 10
29.4400362269
 20
27.3227626341
 30
0.0
 10
29.4404599908
 20
27.3227626341
 30
0.0
  0
SPLINE
  5
381
100
AcDbEntity
  8
INTFCLR_1
100
AcDbSpline
 62
7
  6
BYLAYER
 70
0
 71
3
 72
13
 73
9
 74
0
 42
0.0000001
 43
0.0000001
 44
0.0000000001
 40
0.0
 40
0.0
 40
0.0
 40
0.0
 40
0.0303776717
 40
0.1181571874
 40
0.2623722783
 40
0.4601950589
 40
0.7076906075
 40
1.0
 40
1.0
 40
1.0
 40
1.0
 10
4.5956641442
 20
27.3227728221
 30
0.0
 10
4.596091278
 20
27.3227728221
 30
0.0
 10
4.5955603939
 20
27.32013658
 30
0.0
 10
4.5963824763
 20
27.3173760438
 30
0.0
 10
4.5962094949
 20
27.3108190602
 30
0.0
 10
4.5965450389
 20
27.3027540253
 30
0.0
 10
4.5966532634
 20
27.2922985507
 30
0.0
 10
4.5967621002
 20
27.2847321618
 30
0.0
 10
4.5968065684
 20
27.2806223037
 30
0.0
  0
SPLINE
  5
382
100
AcDbEntity
  8
INTFCLR_1
100
AcDbSpline
 62
7
  6
BYLAYER
 70
0
 71
3
 72
16
 73
12
 74
0
 42
0.0000001
 43
0.0000001
 44
0.0000000001
 40
0.0
 40
0.0
 40
0.0
 40
0.0
 40
0.1873969593
 40
0.3621560022
 40
0.5211320452
 40
0.6612462953
 40
0.7797905959
 40
0.8744731728
 40
0.9434728276
 40
0.9854603323
 40
1.0
 40
1.0
 40
1.0
 40
1.0
 10
4.5942122874
 20
27.2367861722
 30
0.0
 10
4.594233881
 20
27.2421594271
 30
0.0
 10
4.5942846594
 20
27.2525442317
 30
0.0
 10
4.5943913967
 20
27.2674836
 30
0.0
 10
4.5945135132
 20
27.2810789771
 30
0.0
 10
4.594682062
 20
27.2930249929
 30
0.0
 10
4.5947924412
 20
27.3032364596
 30
0.0
 10
4.5951206282
 20
27.3111105432
 30
0.0
 10
4.5949586413
 20
27.3175077498
 30
0.0
 10
4.5957553214
 20
27.3202025802
 30
0.0
 10
4.5952472432
 20
27.3227728221
 30
0.0
 10
4.5956641442
 20
27.3227728221
 30
0.0
  0
SPLINE
  5
383
100
AcDbEntity
  8
INTFCLR_1
100
AcDbSpline
 62
7
  6
BYLAYER
 70
0
 71
3
 72
16
 73
12
 74
0
 42
0.0000001
 43
0.0000001
 44
0.0000000001
 40
0.0
 40
0.0
 40
0.0
 40
0.0
 40
0.0144250434
 40
0.0564201916
 40
0.1254306406
 40
0.2201297678
 40
0.3386944542
 40
0.4788335196
 40
0.6378389123
 40
0.8126341551
 40
1.0
 40
1.0
 40
1.0
 40
1.0
 10
29.4404599908
 20
27.3227626341
 30
0.0
 10
29.4408735249
 20
27.3227626341
 30
0.0
 10
29.440370395
 20
27.3201993978
 30
0.0
 10
29.4411643313
 20
27.3175082594
 30
0.0
 10
29.4410034622
 20
27.3111105954
 30
0.0
 10
29.4413311665
 20
27.3032369715
 30
0.0
 10
29.4414417251
 20
27.293025601
 30
0.0
 10
29.4416102125
 20
27.2810798033
 30
0.0
 10
29.4417323469
 20
27.2674844584
 30
0.0
 10
29.4418390827
 20
27.2525470031
 30
0.0
 10
29.4418898132
 20
27.2421640649
 30
0.0
 10
29.4419113991
 20
27.2367927436
 30
0.0
  0
SPLINE
  5
384
100
AcDbEntity
  8
INTFCLR_1
100
AcDbSpline
 62
7
  6
BYLAYER
 70
0
 71
3
 72
13
 73
9
 74
0
 42
0.0000001
 43
0.0000001
 44
0.0000000001
 40
0.0
 40
0.0
 40
0.0
 40
0.0
 40
0.2923672915
 40
0.5399354497
 40
0.7378096477
 40
0.8820575571
 40
0.9698537137
 40
1.0
 40
1.0
 40
1.0
 40
1.0
 10
29.4453000866
 20
27.1795709045
 30
0.0
 10
29.4453445516
 20
27.183680453
 30
0.0
 10
29.4454532948
 20
27.1912465818
 30
0.0
 10
29.4455618508
 20
27.2017018565
 30
0.0
 10
29.4458965294
 20
27.2097666291
 30
0.0
 10
29.4457255816
 20
27.2163238213
 30
0.0
 10
29.446543253
 20
27.2190808741
 30
0.0
 10
29.4460191164
 20
27.2217096819
 30
0.0
 10
29.4464428809
 20
27.2217096819
 30
0.0
  0
SPLINE
  5
385
100
AcDbEntity
  8
INTFCLR_1
100
AcDbSpline
 62
7
  6
BYLAYER
 70
0
 71
3
 72
13
 73
9
 74
0
 42
0.0000001
 43
0.0000001
 44
0.0000000001
 40
0.0
 40
0.0
 40
0.0
 40
0.0
 40
0.0303776929
 40
0.1181571609
 40
0.2623721964
 40
0.4601949478
 40
0.7076905012
 40
1.0
 40
1.0
 40
1.0
 40
1.0
 10
4.5896812546
 20
27.2217198699
 30
0.0
 10
4.5901083888
 20
27.2217198699
 30
0.0
 10
4.5895775032
 20
27.2190836277
 30
0.0
 10
4.5903995866
 20
27.2163230921
 30
0.0
 10
4.5902266047
 20
27.2097661099
 30
0.0
 10
4.590562149
 20
27.2017010754
 30
0.0
 10
4.5906703735
 20
27.1912455985
 30
0.0
 10
4.5907792102
 20
27.1836792074
 30
0.0
 10
4.5908236785
 20
27.1795693474
 30
0.0
  0
SPLINE
  5
386
100
AcDbEntity
  8
INTFCLR_1
100
AcDbSpline
 62
7
  6
BYLAYER
 70
0
 71
3
 72
16
 73
12
 74
0
 42
0.0000001
 43
0.0000001
 44
0.0000000001
 40
0.0
 40
0.0
 40
0.0
 40
0.0
 40
0.1873972436
 40
0.3621562386
 40
0.5211322386
 40
0.6612464516
 40
0.7797907111
 40
0.8744732437
 40
0.9434728519
 40
0.9854603219
 40
1.0
 40
1.0
 40
1.0
 40
1.0
 10
4.5882293975
 20
27.1357331969
 30
0.0
 10
4.5882509911
 20
27.1411064615
 30
0.0
 10
4.5883017694
 20
27.1514912757
 30
0.0
 10
4.5884085069
 20
27.1664306535
 30
0.0
 10
4.5885306234
 20
27.1800260306
 30
0.0
 10
4.5886991722
 20
27.1919720462
 30
0.0
 10
4.5888095514
 20
27.2021835119
 30
0.0
 10
4.5891377384
 20
27.2100575941
 30
0.0
 10
4.5889757518
 20
27.2164547983
 30
0.0
 10
4.5897724313
 20
27.2191496282
 30
0.0
 10
4.5892643532
 20
27.2217198699
 30
0.0
 10
4.5896812546
 20
27.2217198699
 30
0.0
  0
SPLINE
  5
387
100
AcDbEntity
  8
INTFCLR_1
100
AcDbSpline
 62
7
  6
BYLAYER
 70
0
 71
3
 72
16
 73
12
 74
0
 42
0.0000001
 43
0.0000001
 44
0.0000000001
 40
0.0
 40
0.0
 40
0.0
 40
0.0
 40
0.0144250646
 40
0.0564202161
 40
0.1254306693
 40
0.2201297983
 40
0.3386944844
 40
0.4788335469
 40
0.637838943
 40
0.8126341886
 40
1.0
 40
1.0
 40
1.0
 40
1.0
 10
29.4464428809
 20
27.2217096819
 30
0.0
 10
29.4468564156
 20
27.2217096819
 30
0.0
 10
29.4463532842
 20
27.219146444
 30
0.0
 10
29.4471472216
 20
27.2164553048
 30
0.0
 10
29.446986352
 20
27.2100576403
 30
0.0
 10
29.4473140565
 20
27.2021840159
 30
0.0
 10
29.447424615
 20
27.191972645
 30
0.0
 10
29.4475931025
 20
27.1800268468
 30
0.0
 10
29.4477152369
 20
27.1664315012
 30
0.0
 10
29.4478219725
 20
27.1514940461
 30
0.0
 10
29.4478727033
 20
27.1411111084
 30
0.0
 10
29.4478942891
 20
27.1357397878
 30
0.0
  0
SPLINE
  5
388
100
AcDbEntity
  8
INTFCLR_1
100
AcDbSpline
 62
7
  6
BYLAYER
 70
0
 71
3
 72
13
 73
9
 74
0
 42
0.0000001
 43
0.0000001
 44
0.0000000001
 40
0.0
 40
0.0
 40
0.0
 40
0.0
 40
0.2923670019
 40
0.5399352463
 40
0.7378095208
 40
0.8820574937
 40
0.9698536921
 40
1.0
 40
1.0
 40
1.0
 40
1.0
 10
29.4512829767
 20
27.0785179676
 30
0.0
 10
29.4513274416
 20
27.0826275104
 30
0.0
 10
29.4514361847
 20
27.0901936336
 30
0.0
 10
29.4515447406
 20
27.1006489026
 30
0.0
 10
29.4518794193
 20
27.1087136753
 30
0.0
 10
29.4517084714
 20
27.1152708678
 30
0.0
 10
29.452526143
 20
27.1180279209
 30
0.0
 10
29.4520020061
 20
27.1206567292
 30
0.0
 10
29.4524257708
 20
27.1206567292
 30
0.0
  0
SPLINE
  5
389
100
AcDbEntity
  8
INTFCLR_1
100
AcDbSpline
 62
7
  6
BYLAYER
 70
0
 71
3
 72
13
 73
9
 74
0
 42
0.0000001
 43
0.0000001
 44
0.0000000001
 40
0.0
 40
0.0
 40
0.0
 40
0.0
 40
0.030377605
 40
0.1181569912
 40
0.262371948
 40
0.4601946993
 40
0.7076903547
 40
1.0
 40
1.0
 40
1.0
 40
1.0
 10
4.5836983645
 20
27.1206669147
 30
0.0
 10
4.5841254974
 20
27.1206669147
 30
0.0
 10
4.5835946144
 20
27.1180306772
 30
0.0
 10
4.5844166959
 20
27.1152701446
 30
0.0
 10
4.5842437147
 20
27.1087131657
 30
0.0
 10
4.5845792588
 20
27.1006481319
 30
0.0
 10
4.5846874835
 20
27.0901926529
 30
0.0
 10
4.5847963202
 20
27.0826262593
 30
0.0
 10
4.5848407885
 20
27.0785163978
 30
0.0
  0
SPLINE
  5
38A
100
AcDbEntity
  8
INTFCLR_1
100
AcDbSpline
 62
7
  6
BYLAYER
 70
0
 71
3
 72
16
 73
12
 74
0
 42
0.0000001
 43
0.0000001
 44
0.0000000001
 40
0.0
 40
0.0
 40
0.0
 40
0.0
 40
0.187397203
 40
0.3621562291
 40
0.5211322602
 40
0.6612464967
 40
0.7797907686
 40
0.8744733012
 40
0.9434728954
 40
0.9854603514
 40
1.0
 40
1.0
 40
1.0
 40
1.0
 10
4.5822465076
 20
27.0346802454
 30
0.0
 10
4.5822681012
 20
27.0400535086
 30
0.0
 10
4.5823188795
 20
27.0504383221
 30
0.0
 10
4.582425617
 20
27.0653776998
 30
0.0
 10
4.5825477335
 20
27.0789730788
 30
0.0
 10
4.5827162823
 20
27.0909190958
 30
0.0
 10
4.5828266616
 20
27.1011305622
 30
0.0
 10
4.5831548485
 20
27.1090046439
 30
0.0
 10
4.5829928621
 20
27.1154018471
 30
0.0
 10
4.583789541
 20
27.1180966754
 30
0.0
 10
4.583281464
 20
27.1206669147
 30
0.0
 10
4.5836983645
 20
27.1206669147
 30
0.0
  0
SPLINE
  5
38B
100
AcDbEntity
  8
INTFCLR_1
100
AcDbSpline
 62
7
  6
BYLAYER
 70
0
 71
3
 72
16
 73
12
 74
0
 42
0.0000001
 43
0.0000001
 44
0.0000000001
 40
0.0
 40
0.0
 40
0.0
 40
0.0
 40
0.0144250684
 40
0.0564202217
 40
0.1254306763
 40
0.2201298042
 40
0.338694487
 40
0.4788335445
 40
0.6378389342
 40
0.8126341737
 40
1.0
 40
1.0
 40
1.0
 40
1.0
 10
29.4524257708
 20
27.1206567292
 30
0.0
 10
29.4528393056
 20
27.1206567292
 30
0.0
 10
29.452336174
 20
27.118093491
 30
0.0
 10
29.4531301115
 20
27.1154023515
 30
0.0
 10
29.4529692419
 20
27.1090046868
 30
0.0
 10
29.4532969464
 20
27.1011310623
 30
0.0
 10
29.4534075049
 20
27.0909196915
 30
0.0
 10
29.4535759924
 20
27.0789738935
 30
0.0
 10
29.4536981268
 20
27.0653785482
 30
0.0
 10
29.4538048624
 20
27.0504410927
 30
0.0
 10
29.4538555932
 20
27.0400581545
 30
0.0
 10
29.453877179
 20
27.0346868334
 30
0.0
  0
SPLINE
  5
38C
100
AcDbEntity
  8
INTFCLR_1
100
AcDbSpline
 62
7
  6
BYLAYER
 70
0
 71
3
 72
13
 73
9
 74
0
 42
0.0000001
 43
0.0000001
 44
0.0000000001
 40
0.0
 40
0.0
 40
0.0
 40
0.0
 40
0.2923670138
 40
0.5399352414
 40
0.737809507
 40
0.8820574778
 40
0.969853677
 40
1.0
 40
1.0
 40
1.0
 40
1.0
 10
29.4572658666
 20
26.977465012
 30
0.0
 10
29.4573103315
 20
26.9815745552
 30
0.0
 10
29.4574190746
 20
26.9891406787
 30
0.0
 10
29.4575276305
 20
26.999595948
 30
0.0
 10
29.4578623092
 20
27.0076607208
 30
0.0
 10
29.4576913612
 20
27.0142179134
 30
0.0
 10
29.4585090331
 20
27.0169749669
 30
0.0
 10
29.4579848958
 20
27.0196037758
 30
0.0
 10
29.4584086606
 20
27.0196037758
 30
0.0
  0
SPLINE
  5
38D
100
AcDbEntity
  8
INTFCLR_1
100
AcDbSpline
 62
7
  6
BYLAYER
 70
0
 71
3
 72
13
 73
9
 74
0
 42
0.0000001
 43
0.0000001
 44
0.0000000001
 40
0.0
 40
0.0
 40
0.0
 40
0.0
 40
0.0303775493
 40
0.1181568915
 40
0.262371801
 40
0.4601945346
 40
0.7076902117
 40
1.0
 40
1.0
 40
1.0
 40
1.0
 10
4.5777154744
 20
27.0196139591
 30
0.0
 10
4.5781426065
 20
27.0196139591
 30
0.0
 10
4.5776117254
 20
27.0169777241
 30
0.0
 10
4.5784338055
 20
27.0142171931
 30
0.0
 10
4.5782608249
 20
27.0076602155
 30
0.0
 10
4.5785963688
 20
26.9995951822
 30
0.0
 10
4.5787045936
 20
26.9891397007
 30
0.0
 10
4.5788134303
 20
26.9815733046
 30
0.0
 10
4.5788578986
 20
26.9774634409
 30
0.0
  0
SPLINE
  5
38E
100
AcDbEntity
  8
INTFCLR_1
100
AcDbSpline
 62
7
  6
BYLAYER
 70
0
 71
3
 72
16
 73
12
 74
0
 42
0.0000001
 43
0.0000001
 44
0.0000000001
 40
0.0
 40
0.0
 40
0.0
 40
0.0
 40
0.1873971076
 40
0.3621561768
 40
0.5211322493
 40
0.6612465167
 40
0.7797908072
 40
0.8744733447
 40
0.9434729288
 40
0.9854603733
 40
1.0
 40
1.0
 40
1.0
 40
1.0
 10
4.5762636177
 20
26.9336273058
 30
0.0
 10
4.5762852113
 20
26.9390005652
 30
0.0
 10
4.5763359897
 20
26.9493853753
 30
0.0
 10
4.5764427271
 20
26.9643247499
 30
0.0
 10
4.5765648437
 20
26.9779201297
 30
0.0
 10
4.5767333925
 20
26.989866147
 30
0.0
 10
4.5768437718
 20
27.0000776132
 30
0.0
 10
4.5771719587
 20
27.0079516937
 30
0.0
 10
4.5770099724
 20
27.0143488953
 30
0.0
 10
4.5778066508
 20
27.017043722
 30
0.0
 10
4.5772985746
 20
27.0196139591
 30
0.0
 10
4.5777154744
 20
27.0196139591
 30
0.0
  0
SPLINE
  5
38F
100
AcDbEntity
  8
INTFCLR_1
100
AcDbSpline
 62
7
  6
BYLAYER
 70
0
 71
3
 72
16
 73
12
 74
0
 42
0.0000001
 43
0.0000001
 44
0.0000000001
 40
0.0
 40
0.0
 40
0.0
 40
0.0
 40
0.0144250766
 40
0.0564202334
 40
0.1254306924
 40
0.2201298232
 40
0.3386945077
 40
0.4788335661
 40
0.6378389568
 40
0.8126341985
 40
1.0
 40
1.0
 40
1.0
 40
1.0
 10
29.4584086606
 20
27.0196037758
 30
0.0
 10
29.4588221957
 20
27.0196037758
 30
0.0
 10
29.4583190638
 20
27.017040537
 30
0.0
 10
29.4591130015
 20
27.0143493973
 30
0.0
 10
29.4589521318
 20
27.0079517325
 30
0.0
 10
29.4592798363
 20
27.000078108
 30
0.0
 10
29.4593903948
 20
26.9898667374
 30
0.0
 10
29.4595588823
 20
26.9779209398
 30
0.0
 10
29.4596810167
 20
26.9643255948
 30
0.0
 10
29.4597877523
 20
26.9493881405
 30
0.0
 10
29.459838483
 20
26.9390052034
 30
0.0
 10
29.4598600689
 20
26.9336338831
 30
0.0
  0
SPLINE
  5
390
100
AcDbEntity
  8
INTFCLR_1
100
AcDbSpline
 62
7
  6
BYLAYER
 70
0
 71
3
 72
13
 73
9
 74
0
 42
0.0000001
 43
0.0000001
 44
0.0000000001
 40
0.0
 40
0.0
 40
0.0
 40
0.0
 40
0.2923670541
 40
0.5399353071
 40
0.7378095936
 40
0.8820575811
 40
0.9698537905
 40
1.0
 40
1.0
 40
1.0
 40
1.0
 10
29.4632487565
 20
26.8764120584
 30
0.0
 10
29.4632932214
 20
26.8805216017
 30
0.0
 10
29.4634019645
 20
26.8880877253
 30
0.0
 10
29.4635105205
 20
26.8985429949
 30
0.0
 10
29.4638451988
 20
26.9066077676
 30
0.0
 10
29.4636742518
 20
26.9131649605
 30
0.0
 10
29.4644919216
 20
26.9159220124
 30
0.0
 10
29.4639677875
 20
26.9185508178
 30
0.0
 10
29.4643915507
 20
26.9185508178
 30
0.0
  0
SPLINE
  5
391
100
AcDbEntity
  8
INTFCLR_1
100
AcDbSpline
 62
7
  6
BYLAYER
 70
0
 71
3
 72
13
 73
9
 74
0
 42
0.0000001
 43
0.0000001
 44
0.0000000001
 40
0.0
 40
0.0
 40
0.0
 40
0.0
 40
0.0303776791
 40
0.1181571515
 40
0.2623721967
 40
0.4601949704
 40
0.7076905627
 40
1.0
 40
1.0
 40
1.0
 40
1.0
 10
4.5717325848
 20
26.9185610093
 30
0.0
 10
4.5721597187
 20
26.9185610093
 30
0.0
 10
4.5716288338
 20
26.9159247678
 30
0.0
 10
4.5724509167
 20
26.9131642325
 30
0.0
 10
4.572277935
 20
26.9066072506
 30
0.0
 10
4.5726134792
 20
26.898542216
 30
0.0
 10
4.5727217038
 20
26.8880867404
 30
0.0
 10
4.5728305404
 20
26.8805203505
 30
0.0
 10
4.5728750087
 20
26.8764104919
 30
0.0
  0
SPLINE
  5
392
100
AcDbEntity
  8
INTFCLR_1
100
AcDbSpline
 62
7
  6
BYLAYER
 70
0
 71
3
 72
16
 73
12
 74
0
 42
0.0000001
 43
0.0000001
 44
0.0000000001
 40
0.0
 40
0.0
 40
0.0
 40
0.0
 40
0.1873970524
 40
0.3621560409
 40
0.5211320295
 40
0.6612462397
 40
0.7797905203
 40
0.8744730992
 40
0.9434727801
 40
0.9854603106
 40
1.0
 40
1.0
 40
1.0
 40
1.0
 10
4.5702807277
 20
26.8325743502
 30
0.0
 10
4.5703023214
 20
26.8379476084
 30
0.0
 10
4.5703530997
 20
26.8483324152
 30
0.0
 10
4.5704598371
 20
26.8632717846
 30
0.0
 10
4.5705819536
 20
26.876867159
 30
0.0
 10
4.5707505023
 20
26.8888131728
 30
0.0
 10
4.5708608815
 20
26.8990246388
 30
0.0
 10
4.5711890684
 20
26.9068987236
 30
0.0
 10
4.5710270815
 20
26.9132959324
 30
0.0
 10
4.571823762
 20
26.9159907648
 30
0.0
 10
4.5713156832
 20
26.9185610093
 30
0.0
 10
4.5717325848
 20
26.9185610093
 30
0.0
  0
SPLINE
  5
393
100
AcDbEntity
  8
INTFCLR_1
100
AcDbSpline
 62
7
  6
BYLAYER
 70
0
 71
3
 72
16
 73
12
 74
0
 42
0.0000001
 43
0.0000001
 44
0.0000000001
 40
0.0
 40
0.0
 40
0.0
 40
0.0
 40
0.0144250209
 40
0.0564201852
 40
0.1254306543
 40
0.2201297973
 40
0.3386944949
 40
0.4788335669
 40
0.6378389718
 40
0.8126342296
 40
1.0
 40
1.0
 40
1.0
 40
1.0
 10
29.4643915507
 20
26.9185508178
 30
0.0
 10
29.4648050842
 20
26.9185508178
 30
0.0
 10
29.4643019546
 20
26.9159875823
 30
0.0
 10
29.465095891
 20
26.9132964442
 30
0.0
 10
29.4649350219
 20
26.9068987789
 30
0.0
 10
29.4652627262
 20
26.8990251544
 30
0.0
 10
29.4653732848
 20
26.8888137838
 30
0.0
 10
29.4655417722
 20
26.8768679863
 30
0.0
 10
29.4656639066
 20
26.8632726416
 30
0.0
 10
29.4657706422
 20
26.848335189
 30
0.0
 10
29.4658213729
 20
26.8379522534
 30
0.0
 10
29.4658429588
 20
26.8325809347
 30
0.0
  0
SPLINE
  5
394
100
AcDbEntity
  8
INTFCLR_1
100
AcDbSpline
 62
7
  6
BYLAYER
 70
0
 71
3
 72
13
 73
9
 74
0
 42
0.0000001
 43
0.0000001
 44
0.0000000001
 40
0.0
 40
0.0
 40
0.0
 40
0.0
 40
0.2923356929
 40
0.5398727298
 40
0.7377183996
 40
0.8819426199
 40
0.9697232548
 40
1.0
 40
1.0
 40
1.0
 40
1.0
 10
29.4692316464
 20
26.7753591035
 30
0.0
 10
29.4692761125
 20
26.779468765
 30
0.0
 10
29.4693849109
 20
26.7870350517
 30
0.0
 10
29.4694932766
 20
26.7974904092
 30
0.0
 10
29.4698284594
 20
26.805555246
 30
0.0
 10
29.469656354
 20
26.8121120327
 30
0.0
 10
29.4704765086
 20
26.8148708896
 30
0.0
 10
29.4699485573
 20
26.81750372
 30
0.0
 10
29.4703742133
 20
26.81750372
 30
0.0
  0
SPLINE
  5
395
100
AcDbEntity
  8
INTFCLR_1
100
AcDbSpline
 62
7
  6
BYLAYER
 70
0
 71
3
 72
13
 73
9
 74
0
 42
0.0000001
 43
0.0000001
 44
0.0000000001
 40
0.0
 40
0.0
 40
0.0
 40
0.0
 40
0.0304108036
 40
0.1181813391
 40
0.2623852518
 40
0.4601982262
 40
0.7076885725
 40
1.0
 40
1.0
 40
1.0
 40
1.0
 10
4.5657497298
 20
26.8175096204
 30
0.0
 10
4.5661773451
 20
26.8175096204
 30
0.0
 10
4.5656455493
 20
26.8148724634
 30
0.0
 10
4.5664681895
 20
26.8121115481
 30
0.0
 10
4.566294948
 20
26.8055548575
 30
0.0
 10
4.5666306124
 20
26.7974898569
 30
0.0
 10
4.5667387955
 20
26.7870341949
 30
0.0
 10
4.5668476485
 20
26.779467572
 30
0.0
 10
4.5668921187
 20
26.7753575353
 30
0.0
  0
SPLINE
  5
396
100
AcDbEntity
  8
INTFCLR_1
100
AcDbSpline
 62
7
  6
BYLAYER
 70
0
 71
3
 72
16
 73
12
 74
0
 42
0.0000001
 43
0.0000001
 44
0.0000000001
 40
0.0
 40
0.0
 40
0.0
 40
0.0
 40
0.1848718318
 40
0.3585795301
 40
0.5174212614
 40
0.6580159616
 40
0.7773767945
 40
0.8729671214
 40
0.942764958
 40
0.9852893278
 40
1.0
 40
1.0
 40
1.0
 40
1.0
 10
4.5642716808
 20
26.7242639884
 30
0.0
 10
4.5642901417
 20
26.7300121571
 30
0.0
 10
4.5643357767
 20
26.7411620845
 30
0.0
 10
4.5644379218
 20
26.7572468193
 30
0.0
 10
4.5645578259
 20
26.7719675649
 30
0.0
 10
4.5647298374
 20
26.7849578113
 30
0.0
 10
4.5648378166
 20
26.7961003711
 30
0.0
 10
4.5651896293
 20
26.8047147736
 30
0.0
 10
4.5649933701
 20
26.8117296608
 30
0.0
 10
4.5658737935
 20
26.814683602
 30
0.0
 10
4.5652923326
 20
26.8175096204
 30
0.0
 10
4.5657497298
 20
26.8175096204
 30
0.0
  0
SPLINE
  5
397
100
AcDbEntity
  8
INTFCLR_1
100
AcDbSpline
 62
7
  6
BYLAYER
 70
0
 71
3
 72
16
 73
12
 74
0
 42
0.0000001
 43
0.0000001
 44
0.0000000001
 40
0.0
 40
0.0
 40
0.0
 40
0.0
 40
0.0146488119
 40
0.0571752432
 40
0.1269749226
 40
0.2225682331
 40
0.3419326902
 40
0.4825328664
 40
0.6413829194
 40
0.8151044632
 40
1.0
 40
1.0
 40
1.0
 40
1.0
 10
29.4703742133
 20
26.81750372
 30
0.0
 10
29.4708296594
 20
26.81750372
 30
0.0
 10
29.4702510689
 20
26.8146817591
 30
0.0
 10
29.4711299451
 20
26.8117300092
 30
0.0
 10
29.4709343079
 20
26.8047149528
 30
0.0
 10
29.4712858491
 20
26.7961009758
 30
0.0
 10
29.4713939271
 20
26.7849586568
 30
0.0
 10
29.4715659048
 20
26.7719686809
 30
0.0
 10
29.4716858208
 20
26.7572479646
 30
0.0
 10
29.4717879734
 20
26.7411627848
 30
0.0
 10
29.4718335948
 20
26.7300123678
 30
0.0
 10
29.471852057
 20
26.7242638119
 30
0.0
  0
SPLINE
  5
398
100
AcDbEntity
  8
INTFCLR_1
100
AcDbSpline
 62
7
  6
BYLAYER
 70
0
 71
3
 72
10
 73
6
 74
0
 42
0.0000001
 43
0.0000001
 44
0.0000000001
 40
0.0
 40
0.0
 40
0.0
 40
0.0
 40
0.3483606867
 40
0.6820524627
 40
1.0
 40
1.0
 40
1.0
 40
1.0
 10
4.6127339523
 20
27.5399655321
 30
0.0
 10
4.6126049897
 20
27.536670388
 30
0.0
 10
4.6123638774
 20
27.5302183814
 30
0.0
 10
4.6120778913
 20
27.5207563563
 30
0.0
 10
4.6119639886
 20
27.5145885659
 30
0.0
 10
4.6119348199
 20
27.5115789388
 30
0.0
  0
SPLINE
  5
399
100
AcDbEntity
  8
INTFCLR_1
100
AcDbSpline
 62
7
  6
BYLAYER
 70
0
 71
3
 72
19
 73
15
 74
0
 42
0.0000001
 43
0.0000001
 44
0.0000000001
 40
0.0
 40
0.0
 40
0.0
 40
0.0
 40
0.1330754649
 40
0.2696567348
 40
0.3850020402
 40
0.4850731574
 40
0.5893973489
 40
0.6782413914
 40
0.7433471033
 40
0.8057180278
 40
0.8650292714
 40
0.9161245394
 40
0.9642398424
 40
1.0
 40
1.0
 40
1.0
 40
1.0
 10
4.9119124281
 20
27.5837811644
 30
0.0
 10
4.9034176824
 20
27.5836457305
 30
0.0
 10
4.8862023332
 20
27.5828056406
 30
0.0
 10
4.8618074842
 20
27.5797013552
 30
0.0
 10
4.839585717
 20
27.5763599203
 30
0.0
 10
4.8194484825
 20
27.5730123449
 30
0.0
 10
4.8009396921
 20
27.5701965463
 30
0.0
 10
4.7845177061
 20
27.5685327678
 30
0.0
 10
4.77069175
 20
27.56837779
 30
0.0
 10
4.7587840323
 20
27.5692893839
 30
0.0
 10
4.7479185672
 20
27.5713879758
 30
0.0
 10
4.7383550081
 20
27.574835278
 30
0.0
 10
4.7307699611
 20
27.5789552626
 30
0.0
 10
4.7264114023
 20
27.58215056
 30
0.0
 10
4.7248135144
 20
27.583781164
 30
0.0
  0
SPLINE
  5
39A
100
AcDbEntity
  8
INTFCLR_1
100
AcDbSpline
 62
7
  6
BYLAYER
 70
0
 71
3
 72
12
 73
8
 74
0
 42
0.0000001
 43
0.0000001
 44
0.0000000001
 40
0.0
 40
0.0
 40
0.0
 40
0.0
 40
0.2631740532
 40
0.488266514
 40
0.6856090807
 40
0.8576971966
 40
1.0
 40
1.0
 40
1.0
 40
1.0
 10
4.7248135144
 20
27.583781164
 30
0.0
 10
4.7186914911
 20
27.5886544369
 30
0.0
 10
4.707114919
 20
27.5974366718
 30
0.0
 10
4.6899445994
 20
27.6084600848
 30
0.0
 10
4.674331296
 20
27.6168027312
 30
0.0
 10
4.6602518048
 20
27.6226234659
 30
0.0
 10
4.6512332365
 20
27.6252275836
 30
0.0
 10
4.6470737718
 20
27.6260024379
 30
0.0
  0
SPLINE
  5
39B
100
AcDbEntity
  8
INTFCLR_1
100
AcDbSpline
 62
7
  6
BYLAYER
 70
0
 71
3
 72
15
 73
11
 74
0
 42
0.0000001
 43
0.0000001
 44
0.0000000001
 40
0.0
 40
0.0
 40
0.0
 40
0.0
 40
0.0896403475
 40
0.169736224
 40
0.2547635313
 40
0.3533091928
 40
0.4781322377
 40
0.6088010763
 40
0.7743254764
 40
1.0
 40
1.0
 40
1.0
 40
1.0
 10
4.6470737718
 20
27.6260024379
 30
0.0
 10
4.6440844949
 20
27.6257235478
 30
0.0
 10
4.6383948105
 20
27.624564354
 30
0.0
 10
4.6311052742
 20
27.6197947629
 30
0.0
 10
4.6255472156
 20
27.612788043
 30
0.0
 10
4.6211869573
 20
27.6033553219
 30
0.0
 10
4.6179859815
 20
27.5919028183
 30
0.0
 10
4.6155698903
 20
27.5779980358
 30
0.0
 10
4.6137413409
 20
27.5606053059
 30
0.0
 10
4.613043918
 20
27.547517525
 30
0.0
 10
4.6127339523
 20
27.5399655321
 30
0.0
  0
SPLINE
  5
39C
100
AcDbEntity
  8
INTFCLR_1
100
AcDbSpline
 62
7
  6
BYLAYER
 70
0
 71
3
 72
12
 73
8
 74
0
 42
0.0000001
 43
0.0000001
 44
0.0000000001
 40
0.0
 40
0.0
 40
0.0
 40
0.0
 40
0.2949565801
 40
0.5393139459
 40
0.73231169
 40
0.8802274354
 40
1.0
 40
1.0
 40
1.0
 40
1.0
 10
27.2671967227
 20
27.8601138557
 30
0.0
 10
27.2729858729
 20
27.8582738991
 30
0.0
 10
27.283469164
 20
27.8545630872
 30
0.0
 10
27.2971576936
 20
27.8481478775
 30
0.0
 10
27.3072465172
 20
27.8414402781
 30
0.0
 10
27.3138041823
 20
27.834383864
 30
0.0
 10
27.3156071329
 20
27.8288664486
 30
0.0
 10
27.3156071329
 20
27.8263997807
 30
0.0
  0
SPLINE
  5
39D
100
AcDbEntity
  8
INTFCLR_1
100
AcDbSpline
 62
7
  6
BYLAYER
 70
0
 71
3
 72
12
 73
8
 74
0
 42
0.0000001
 43
0.0000001
 44
0.0000000001
 40
0.0
 40
0.0
 40
0.0
 40
0.0
 40
0.0454679553
 40
0.1687780515
 40
0.3706169102
 40
0.6487205136
 40
1.0
 40
1.0
 40
1.0
 40
1.0
 10
27.3155690213
 20
33.0085554448
 30
0.0
 10
27.3155690213
 20
33.007815415
 30
0.0
 10
27.3116785693
 20
33.0072998643
 30
0.0
 10
27.3068219849
 20
33.0062420855
 30
0.0
 10
27.2964237955
 20
33.0054467635
 30
0.0
 10
27.283197578
 20
33.004501928
 30
0.0
 10
27.2728861947
 20
33.0040016422
 30
0.0
 10
27.2671746953
 20
33.0037425412
 30
0.0
  0
SPLINE
  5
39E
100
AcDbEntity
  8
INTFCLR_1
100
AcDbSpline
 62
7
  6
BYLAYER
 70
0
 71
3
 72
24
 73
20
 74
0
 42
0.0000001
 43
0.0000001
 44
0.0000000001
 40
0.0
 40
0.0
 40
0.0
 40
0.0
 40
0.0582368745
 40
0.0998269626
 40
0.1316292079
 40
0.1547589411
 40
0.1771204248
 40
0.2013557783
 40
0.2325976726
 40
0.2739195157
 40
0.3258362061
 40
0.3847533033
 40
0.453271808
 40
0.5311560017
 40
0.6162543022
 40
0.7046514486
 40
0.795413369
 40
0.8918503249
 40
1.0
 40
1.0
 40
1.0
 40
1.0
 10
18.9689270236
 20
27.8601138557
 30
0.0
 10
18.9619715128
 20
27.8578016626
 30
0.0
 10
18.9501178703
 20
27.8535773891
 30
0.0
 10
18.9352714225
 20
27.8460897355
 30
0.0
 10
18.9255026672
 20
27.8387291631
 30
0.0
 10
18.9200257597
 20
27.8301467626
 30
0.0
 10
18.9208874445
 20
27.8207886679
 30
0.0
 10
18.9269339425
 20
27.8127201369
 30
0.0
 10
18.9369482257
 20
27.8056293189
 30
0.0
 10
18.9510983264
 20
27.7988022433
 30
0.0
 10
18.9691647413
 20
27.7923814871
 30
0.0
 10
18.9909095604
 20
27.7862732387
 30
0.0
 10
19.016174939
 20
27.7807816373
 30
0.0
 10
19.0449210618
 20
27.7759723701
 30
0.0
 10
19.0763104294
 20
27.7719564735
 30
0.0
 10
19.1094212214
 20
27.7687626054
 30
0.0
 10
19.144033054
 20
27.7664189208
 30
0.0
 10
19.1811791302
 20
27.7648938865
 30
0.0
 10
19.2069293804
 20
27.7645478172
 30
0.0
 10
19.2205410998
 20
27.7644903529
 30
0.0
  0
SPLINE
  5
39F
100
AcDbEntity
  8
INTFCLR_1
100
AcDbSpline
 62
7
  6
BYLAYER
 70
0
 71
3
 72
25
 73
21
 74
0
 42
0.0000001
 43
0.0000001
 44
0.0000000001
 40
0.0
 40
0.0
 40
0.0
 40
0.0
 40
0.0932134801
 40
0.1857191271
 40
0.2750068471
 40
0.3608426777
 40
0.4422343852
 40
0.5180313826
 40
0.5870807365
 40
0.648097197
 40
0.7005091134
 40
0.7447997437
 40
0.7814755308
 40
0.8099049306
 40
0.8320153177
 40
0.8515962923
 40
0.8764683163
 40
0.9094563383
 40
0.9510046443
 40
1.0
 40
1.0
 40
1.0
 40
1.0
 10
19.2205410984
 20
27.7644903534
 30
0.0
 10
19.2088155132
 20
27.7644976925
 30
0.0
 10
19.1854523114
 20
27.7648089825
 30
0.0
 10
19.1508819643
 20
27.7661811213
 30
0.0
 10
19.1172831473
 20
27.768360652
 30
0.0
 10
19.0851444626
 20
27.7712873657
 30
0.0
 10
19.0547854662
 20
27.7749179672
 30
0.0
 10
19.0266456918
 20
27.7792077062
 30
0.0
 10
19.0012077156
 20
27.7841004929
 30
0.0
 10
18.9788932952
 20
27.7895289746
 30
0.0
 10
18.9599334748
 20
27.7954384803
 30
0.0
 10
18.9444122092
 20
27.8018876547
 30
0.0
 10
18.9324250726
 20
27.8087590287
 30
0.0
 10
18.9240506895
 20
27.8159900787
 30
0.0
 10
18.9198237144
 20
27.8242563972
 30
0.0
 10
18.9213962213
 20
27.8329898549
 30
0.0
 10
18.9278825035
 20
27.8406086512
 30
0.0
 10
18.9382341857
 20
27.8477113206
 30
0.0
 10
18.9523192775
 20
27.8543931582
 30
0.0
 10
18.9630594476
 20
27.8582173065
 30
0.0
 10
18.9689270247
 20
27.8601034049
 30
0.0
  0
SPLINE
  5
3A0
100
AcDbEntity
  8
INTFCLR_1
100
AcDbSpline
 62
7
  6
BYLAYER
 70
0
 71
3
 72
25
 73
21
 74
0
 42
0.0000001
 43
0.0000001
 44
0.0000000001
 40
0.0
 40
0.0
 40
0.0
 40
0.0
 40
0.0504573739
 40
0.090304669
 40
0.1186681955
 40
0.1350687102
 40
0.139921264
 40
0.1485996587
 40
0.1692724029
 40
0.201532584
 40
0.2449455813
 40
0.2987558039
 40
0.3625782982
 40
0.4356661314
 40
0.5170005756
 40
0.6052037742
 40
0.6985765302
 40
0.7965089115
 40
0.8974654433
 40
1.0
 40
1.0
 40
1.0
 40
1.0
 10
18.9689270247
 20
33.0037435407
 30
0.0
 10
18.9630625325
 20
33.0040606917
 30
0.0
 10
18.9525249598
 20
33.0047510164
 30
0.0
 10
18.9388980906
 20
33.0055021681
 30
0.0
 10
18.9287685188
 20
33.0070659335
 30
0.0
 10
18.9236050957
 20
33.0069467549
 30
0.0
 10
18.9194962868
 20
33.0092799237
 30
0.0
 10
18.9259815141
 20
33.0103615333
 30
0.0
 10
18.9312553579
 20
33.0110739362
 30
0.0
 10
18.9433967065
 20
33.0120538202
 30
0.0
 10
18.9580415255
 20
33.0129005609
 30
0.0
 10
18.9769172879
 20
33.0137513897
 30
0.0
 10
18.9990514737
 20
33.0145277157
 30
0.0
 10
19.0244615916
 20
33.0152389437
 30
0.0
 10
19.0526902054
 20
33.015864452
 30
0.0
 10
19.0832891782
 20
33.0163949512
 30
0.0
 10
19.115819773
 20
33.0168222846
 30
0.0
 10
19.1498367315
 20
33.0171405501
 30
0.0
 10
19.184920798
 20
33.0173453225
 30
0.0
 10
19.2086064388
 20
33.0174030669
 30
0.0
 10
19.2205410984
 20
33.0174126625
 30
0.0
  0
SPLINE
  5
3A1
100
AcDbEntity
  8
INTFCLR_1
100
AcDbSpline
 62
7
  6
BYLAYER
 70
0
 71
3
 72
20
 73
16
 74
0
 42
0.0000001
 43
0.0000001
 44
0.0000000001
 40
0.0
 40
0.0
 40
0.0
 40
0.0
 40
0.1203106102
 40
0.2388864764
 40
0.3539853411
 40
0.4639219439
 40
0.5671770956
 40
0.6621512675
 40
0.7474553375
 40
0.821865549
 40
0.8843182456
 40
0.9338864339
 40
0.9699176598
 40
0.9919383975
 40
1.0
 40
1.0
 40
1.0
 40
1.0
 10
27.0155826472
 20
33.0173923514
 30
0.0
 10
27.0276323008
 20
33.0173923514
 30
0.0
 10
27.0515578944
 20
33.0173498663
 30
0.0
 10
27.0870106687
 20
33.0171600452
 30
0.0
 10
27.1214236714
 20
33.0168467671
 30
0.0
 10
27.1543003541
 20
33.0164147354
 30
0.0
 10
27.1851611573
 20
33.0158709994
 30
0.0
 10
27.2135469256
 20
33.0152225701
 30
0.0
 10
27.239057757
 20
33.0144849814
 30
0.0
 10
27.2612539616
 20
33.0136558797
 30
0.0
 10
27.2800199247
 20
33.0127947271
 30
0.0
 10
27.2945173031
 20
33.0118000245
 30
0.0
 10
27.3059566001
 20
33.0110035806
 30
0.0
 10
27.3112557616
 20
33.0098372676
 30
0.0
 10
27.3155690213
 20
33.0093628509
 30
0.0
 10
27.3155690213
 20
33.0085554448
 30
0.0
  0
SPLINE
  5
3A2
100
AcDbEntity
  8
INTFCLR_1
100
AcDbSpline
 62
7
  6
BYLAYER
 70
0
 71
3
 72
20
 73
16
 74
0
 42
0.0000001
 43
0.0000001
 44
0.0000000001
 40
0.0
 40
0.0
 40
0.0
 40
0.0
 40
0.0255254883
 40
0.0578654014
 40
0.0981454646
 40
0.1492677476
 40
0.2125202408
 40
0.2846488992
 40
0.3667327766
 40
0.4601866369
 40
0.5599113667
 40
0.6641614844
 40
0.7735621151
 40
0.8871279897
 40
1.0
 40
1.0
 40
1.0
 40
1.0
 10
27.3156071329
 20
27.8263997807
 30
0.0
 10
27.3156071329
 20
27.8237132495
 30
0.0
 10
27.3134266839
 20
27.8176378751
 30
0.0
 10
27.3059419693
 20
27.8102929803
 30
0.0
 10
27.2948372363
 20
27.8033909788
 30
0.0
 10
27.2799058243
 20
27.7968139721
 30
0.0
 10
27.2612606984
 20
27.7906171741
 30
0.0
 10
27.2390878176
 20
27.7848870349
 30
0.0
 10
27.2135371746
 20
27.7796803782
 30
0.0
 10
27.1849209772
 20
27.7751112514
 30
0.0
 10
27.1538452815
 20
27.7712899775
 30
0.0
 10
27.1209957413
 20
27.7682805896
 30
0.0
 10
27.0866216081
 20
27.7660970886
 30
0.0
 10
27.0512957048
 20
27.7647815403
 30
0.0
 10
27.0274623086
 20
27.7644903529
 30
0.0
 10
27.0155826464
 20
27.7644903529
 30
0.0
  0
SPLINE
  5
3A3
100
AcDbEntity
  8
INTFCLR_1
100
AcDbSpline
 62
7
  6
BYLAYER
 70
0
 71
3
 72
24
 73
20
 74
0
 42
0.0000001
 43
0.0000001
 44
0.0000000001
 40
0.0
 40
0.0
 40
0.0
 40
0.0
 40
0.0582368745
 40
0.0998269625
 40
0.1316292078
 40
0.1547589411
 40
0.1771204248
 40
0.2013557783
 40
0.2325976726
 40
0.2739195158
 40
0.3258362062
 40
0.3847533034
 40
0.4532718081
 40
0.5311560018
 40
0.6162543023
 40
0.7046514487
 40
0.7954133691
 40
0.8918503249
 40
1.0
 40
1.0
 40
1.0
 40
1.0
 10
6.7689270237
 20
27.8601138557
 30
0.0
 10
6.7619715128
 20
27.8578016626
 30
0.0
 10
6.7501178703
 20
27.8535773892
 30
0.0
 10
6.7352714226
 20
27.8460897355
 30
0.0
 10
6.7255026672
 20
27.8387291631
 30
0.0
 10
6.7200257597
 20
27.8301467626
 30
0.0
 10
6.7208874445
 20
27.8207886679
 30
0.0
 10
6.7269339425
 20
27.8127201369
 30
0.0
 10
6.7369482257
 20
27.8056293189
 30
0.0
 10
6.7510983264
 20
27.7988022433
 30
0.0
 10
6.7691647413
 20
27.7923814871
 30
0.0
 10
6.7909095604
 20
27.7862732387
 30
0.0
 10
6.816174939
 20
27.7807816373
 30
0.0
 10
6.8449210618
 20
27.7759723701
 30
0.0
 10
6.8763104294
 20
27.7719564734
 30
0.0
 10
6.9094212214
 20
27.7687626054
 30
0.0
 10
6.944033054
 20
27.7664189208
 30
0.0
 10
6.9811791302
 20
27.7648938865
 30
0.0
 10
7.0069293804
 20
27.7645478172
 30
0.0
 10
7.0205410998
 20
27.7644903529
 30
0.0
  0
SPLINE
  5
3A4
100
AcDbEntity
  8
INTFCLR_1
100
AcDbSpline
 62
7
  6
BYLAYER
 70
0
 71
3
 72
20
 73
16
 74
0
 42
0.0000001
 43
0.0000001
 44
0.0000000001
 40
0.0
 40
0.0
 40
0.0
 40
0.0
 40
0.1203106121
 40
0.2388864799
 40
0.3539853463
 40
0.4639219505
 40
0.5671771035
 40
0.6621512765
 40
0.7474553474
 40
0.8218655597
 40
0.8843182569
 40
0.9338864456
 40
0.9699176719
 40
0.9919384097
 40
1.0
 40
1.0
 40
1.0
 40
1.0
 10
14.8155826496
 20
33.0173923514
 30
0.0
 10
14.8276323031
 20
33.0173923514
 30
0.0
 10
14.8515578966
 20
33.0173498663
 30
0.0
 10
14.8870106707
 20
33.0171600452
 30
0.0
 10
14.9214236732
 20
33.0168467671
 30
0.0
 10
14.9543003557
 20
33.0164147354
 30
0.0
 10
14.9851611586
 20
33.0158709994
 30
0.0
 10
15.0135469267
 20
33.0152225701
 30
0.0
 10
15.0390577578
 20
33.0144849814
 30
0.0
 10
15.0612539622
 20
33.0136558797
 30
0.0
 10
15.080019925
 20
33.012794727
 30
0.0
 10
15.0945173033
 20
33.0118000247
 30
0.0
 10
15.1059566001
 20
33.0110035801
 30
0.0
 10
15.1112557608
 20
33.0098372687
 30
0.0
 10
15.1155690177
 20
33.0093628506
 30
0.0
 10
15.1155690177
 20
33.0085554457
 30
0.0
  0
SPLINE
  5
3A5
100
AcDbEntity
  8
INTFCLR_1
100
AcDbSpline
 62
7
  6
BYLAYER
 70
0
 71
3
 72
20
 73
16
 74
0
 42
0.0000001
 43
0.0000001
 44
0.0000000001
 40
0.0
 40
0.0
 40
0.0
 40
0.0
 40
0.0255254883
 40
0.0578654014
 40
0.0981454646
 40
0.1492677476
 40
0.2125202409
 40
0.2846488993
 40
0.3667327767
 40
0.4601866369
 40
0.5599113667
 40
0.6641614844
 40
0.7735621151
 40
0.8871279898
 40
1.0
 40
1.0
 40
1.0
 40
1.0
 10
15.1156071329
 20
27.8263997807
 30
0.0
 10
15.1156071329
 20
27.8237132495
 30
0.0
 10
15.1134266839
 20
27.8176378751
 30
0.0
 10
15.1059419692
 20
27.8102929803
 30
0.0
 10
15.0948372363
 20
27.8033909788
 30
0.0
 10
15.0799058243
 20
27.7968139721
 30
0.0
 10
15.0612606984
 20
27.7906171741
 30
0.0
 10
15.0390878176
 20
27.7848870349
 30
0.0
 10
15.0135371746
 20
27.7796803782
 30
0.0
 10
14.9849209772
 20
27.7751112514
 30
0.0
 10
14.9538452814
 20
27.7712899775
 30
0.0
 10
14.9209957413
 20
27.7682805896
 30
0.0
 10
14.886621608
 20
27.7660970886
 30
0.0
 10
14.8512957048
 20
27.7647815403
 30
0.0
 10
14.8274623086
 20
27.7644903529
 30
0.0
 10
14.8155826464
 20
27.7644903529
 30
0.0
  0
SPLINE
  5
3A6
100
AcDbEntity
  8
INTFCLR_1
100
AcDbSpline
 62
7
  6
BYLAYER
 70
0
 71
3
 72
12
 73
8
 74
0
 42
0.0000001
 43
0.0000001
 44
0.0000000001
 40
0.0
 40
0.0
 40
0.0
 40
0.0
 40
0.2949565805
 40
0.5393139461
 40
0.7323116901
 40
0.8802274355
 40
1.0
 40
1.0
 40
1.0
 40
1.0
 10
15.0671967227
 20
27.8601138557
 30
0.0
 10
15.0729858729
 20
27.8582738991
 30
0.0
 10
15.083469164
 20
27.8545630872
 30
0.0
 10
15.0971576936
 20
27.8481478775
 30
0.0
 10
15.1072465172
 20
27.8414402781
 30
0.0
 10
15.1138041823
 20
27.834383864
 30
0.0
 10
15.1156071329
 20
27.8288664486
 30
0.0
 10
15.1156071329
 20
27.8263997807
 30
0.0
  0
SPLINE
  5
3A7
100
AcDbEntity
  8
INTFCLR_1
100
AcDbSpline
 62
7
  6
BYLAYER
 70
0
 71
3
 72
12
 73
8
 74
0
 42
0.0000001
 43
0.0000001
 44
0.0000000001
 40
0.0
 40
0.0
 40
0.0
 40
0.0
 40
0.0454679002
 40
0.1687780025
 40
0.3706168701
 40
0.6487204861
 40
1.0
 40
1.0
 40
1.0
 40
1.0
 10
15.1155690177
 20
33.0085554457
 30
0.0
 10
15.1155690177
 20
33.0078154169
 30
0.0
 10
15.1116785696
 20
33.0072998612
 30
0.0
 10
15.1068219838
 20
33.0062420872
 30
0.0
 10
15.0964237951
 20
33.0054467627
 30
0.0
 10
15.0831975765
 20
33.0045019282
 30
0.0
 10
15.0728861928
 20
33.0040016424
 30
0.0
 10
15.067174693
 20
33.0037425414
 30
0.0
  0
SPLINE
  5
3A8
100
AcDbEntity
  8
INTFCLR_1
100
AcDbSpline
 62
7
  6
BYLAYER
 70
0
 71
3
 72
25
 73
21
 74
0
 42
0.0000001
 43
0.0000001
 44
0.0000000001
 40
0.0
 40
0.0
 40
0.0
 40
0.0
 40
0.0932134832
 40
0.1857191301
 40
0.2750068501
 40
0.3608426807
 40
0.4422343881
 40
0.5180313855
 40
0.5870807394
 40
0.6480971998
 40
0.7005091162
 40
0.7447997464
 40
0.7814755335
 40
0.8099049333
 40
0.8320153204
 40
0.851596295
 40
0.8764683189
 40
0.9094563409
 40
0.9510046469
 40
1.0
 40
1.0
 40
1.0
 40
1.0
 10
7.0205410996
 20
27.7644903534
 30
0.0
 10
7.008815514
 20
27.7644976925
 30
0.0
 10
6.9854523118
 20
27.7648089825
 30
0.0
 10
6.9508819643
 20
27.7661811213
 30
0.0
 10
6.9172831473
 20
27.768360652
 30
0.0
 10
6.8851444626
 20
27.7712873657
 30
0.0
 10
6.8547854662
 20
27.7749179672
 30
0.0
 10
6.8266456918
 20
27.7792077062
 30
0.0
 10
6.8012077156
 20
27.7841004929
 30
0.0
 10
6.7788932952
 20
27.7895289746
 30
0.0
 10
6.7599334748
 20
27.7954384803
 30
0.0
 10
6.7444122092
 20
27.8018876547
 30
0.0
 10
6.7324250726
 20
27.8087590287
 30
0.0
 10
6.7240506895
 20
27.8159900787
 30
0.0
 10
6.7198237144
 20
27.8242563972
 30
0.0
 10
6.7213962213
 20
27.8329898549
 30
0.0
 10
6.7278825035
 20
27.8406086512
 30
0.0
 10
6.7382341857
 20
27.8477113206
 30
0.0
 10
6.7523192772
 20
27.8543931581
 30
0.0
 10
6.763059447
 20
27.8582173063
 30
0.0
 10
6.7689270238
 20
27.8601034046
 30
0.0
  0
SPLINE
  5
3A9
100
AcDbEntity
  8
INTFCLR_1
100
AcDbSpline
 62
7
  6
BYLAYER
 70
0
 71
3
 72
25
 73
21
 74
0
 42
0.0000001
 43
0.0000001
 44
0.0000000001
 40
0.0
 40
0.0
 40
0.0
 40
0.0
 40
0.0504573755
 40
0.0903046696
 40
0.1186681951
 40
0.1350687086
 40
0.1399212613
 40
0.1485996572
 40
0.1692724025
 40
0.2015325845
 40
0.2449455825
 40
0.2987558056
 40
0.3625783005
 40
0.4356661342
 40
0.5170005788
 40
0.6052037776
 40
0.6985765338
 40
0.7965089151
 40
0.8974654468
 40
1.0
 40
1.0
 40
1.0
 40
1.0
 10
6.7689270238
 20
33.0037435406
 30
0.0
 10
6.7630625314
 20
33.0040606917
 30
0.0
 10
6.7525249586
 20
33.0047510164
 30
0.0
 10
6.7388980894
 20
33.0055021682
 30
0.0
 10
6.7287685182
 20
33.0070659337
 30
0.0
 10
6.723605095
 20
33.0069467548
 30
0.0
 10
6.7194962869
 20
33.009279924
 30
0.0
 10
6.7259815147
 20
33.0103615332
 30
0.0
 10
6.7312553587
 20
33.0110739364
 30
0.0
 10
6.7433967077
 20
33.0120538202
 30
0.0
 10
6.7580415269
 20
33.012900561
 30
0.0
 10
6.7769172895
 20
33.0137513898
 30
0.0
 10
6.7990514756
 20
33.0145277158
 30
0.0
 10
6.8244615937
 20
33.0152389437
 30
0.0
 10
6.8526902076
 20
33.015864452
 30
0.0
 10
6.8832891805
 20
33.0163949513
 30
0.0
 10
6.9158197754
 20
33.0168222847
 30
0.0
 10
6.9498367339
 20
33.0171405501
 30
0.0
 10
6.9849208
 20
33.0173453225
 30
0.0
 10
7.0086064404
 20
33.0174030669
 30
0.0
 10
7.0205410996
 20
33.0174126625
 30
0.0
  0
SPLINE
  5
3AA
100
AcDbEntity
  8
INTFCLR_1
100
AcDbSpline
 62
7
  6
BYLAYER
 70
0
 71
3
 72
28
 73
24
 74
0
 42
0.0000001
 43
0.0000001
 44
0.0000000001
 40
0.0
 40
0.0
 40
0.0
 40
0.0
 40
0.0499381706
 40
0.0975288971
 40
0.1439856501
 40
0.1916571549
 40
0.2355694927
 40
0.2796371938
 40
0.3240164489
 40
0.3690072073
 40
0.4124826911
 40
0.4566567788
 40
0.4989348124
 40
0.5420570695
 40
0.5855930103
 40
0.6274406007
 40
0.6719819984
 40
0.7195555543
 40
0.7693129378
 40
0.8206211397
 40
0.8768327412
 40
0.93483931
 40
1.0
 40
1.0
 40
1.0
 40
1.0
 10
20.8680618728
 20
27.8590312215
 30
0.0
 10
20.8111407781
 20
27.8684709177
 30
0.0
 10
20.7003393251
 20
27.8892076443
 30
0.0
 10
20.5382377753
 20
27.9268339416
 30
0.0
 10
20.3804915999
 20
27.9709497079
 30
0.0
 10
20.2290770946
 20
28.021287125
 30
0.0
 10
20.0830158881
 20
28.0783147678
 30
0.0
 10
19.9436718242
 20
28.1415185332
 30
0.0
 10
19.807166304
 20
28.213391484
 30
0.0
 10
19.6761694142
 20
28.2936147596
 30
0.0
 10
19.5512807743
 20
28.3826574184
 30
0.0
 10
19.4357677809
 20
28.4787738709
 30
0.0
 10
19.3284392932
 20
28.5833666513
 30
0.0
 10
19.2304245257
 20
28.6957842471
 30
0.0
 10
19.1425837624
 20
28.8157168922
 30
0.0
 10
19.0643126904
 20
28.9440075827
 30
0.0
 10
18.9950192898
 20
29.0826230733
 30
0.0
 10
18.9346189251
 20
29.2352326353
 30
0.0
 10
18.8853552301
 20
29.3999691531
 30
0.0
 10
18.8477716887
 20
29.5779531386
 30
0.0
 10
18.8231953098
 20
29.7678183231
 30
0.0
 10
18.8119954774
 20
29.9749346395
 30
0.0
 10
18.8143743706
 20
30.117359514
 30
0.0
 10
18.8180618746
 20
30.1925557561
 30
0.0
  0
SPLINE
  5
3AB
100
AcDbEntity
  8
INTFCLR_1
100
AcDbSpline
 62
7
  6
BYLAYER
 70
0
 71
3
 72
47
 73
43
 74
0
 42
0.0000001
 43
0.0000001
 44
0.0000000001
 40
0.0
 40
0.0
 40
0.0
 40
0.0
 40
0.0295468935
 40
0.0587818577
 40
0.0876809868
 40
0.116217308
 40
0.1443634224
 40
0.1721060906
 40
0.1994184087
 40
0.2262957719
 40
0.2527205653
 40
0.2786964546
 40
0.3042076071
 40
0.3292647971
 40
0.3538691398
 40
0.3780226918
 40
0.4017491755
 40
0.4250616779
 40
0.4479906847
 40
0.4705631895
 40
0.4928157681
 40
0.5147841314
 40
0.5365162513
 40
0.558064812
 40
0.5794832918
 40
0.600836637
 40
0.6221881245
 40
0.6436148973
 40
0.6651877193
 40
0.6869928769
 40
0.7091101186
 40
0.7316333379
 40
0.7546485805
 40
0.7782550678
 40
0.8025425851
 40
0.8276137188
 40
0.8535622983
 40
0.8804922504
 40
0.9084988958
 40
0.9376864237
 40
0.9681533909
 40
1.0
 40
1.0
 40
1.0
 40
1.0
 10
20.8680618729
 20
30.1426458791
 30
0.0
 10
20.8381499526
 20
30.1456158775
 30
0.0
 10
20.778682006
 20
30.1519380885
 30
0.0
 10
20.6901254375
 20
30.1626650702
 30
0.0
 10
20.6027624542
 20
30.1746137051
 30
0.0
 10
20.5166994463
 20
30.1878104242
 30
0.0
 10
20.4320348019
 20
30.2022837854
 30
0.0
 10
20.3488703172
 20
30.2180626016
 30
0.0
 10
20.2672887817
 20
30.235179733
 30
0.0
 10
20.1873816136
 20
30.253666752
 30
0.0
 10
20.1092147032
 20
30.2735614843
 30
0.0
 10
20.0328703884
 20
30.2948982258
 30
0.0
 10
19.9584089897
 20
30.3177172374
 30
0.0
 10
19.8858997552
 20
30.3420561714
 30
0.0
 10
19.8154017344
 20
30.3679560183
 30
0.0
 10
19.7469691478
 20
30.3954589802
 30
0.0
 10
19.6806532312
 20
30.4246084775
 30
0.0
 10
19.6164880165
 20
30.4554562764
 30
0.0
 10
19.5545146874
 20
30.4880522393
 30
0.0
 10
19.4947641221
 20
30.5224533402
 30
0.0
 10
19.4372740962
 20
30.5587147193
 30
0.0
 10
19.3820760565
 20
30.5968972919
 30
0.0
 10
19.3292002889
 20
30.6370655823
 30
0.0
 10
19.2786755859
 20
30.6792893055
 30
0.0
 10
19.2305303855
 20
30.7236429998
 30
0.0
 10
19.1847978298
 20
30.7702019895
 30
0.0
 10
19.1415063105
 20
30.8190520797
 30
0.0
 10
19.1006920853
 20
30.8702774299
 30
0.0
 10
19.0623873512
 20
30.923974451
 30
0.0
 10
19.026632567
 20
30.9802368032
 30
0.0
 10
18.9934640379
 20
31.0391738647
 30
0.0
 10
18.9629261963
 20
31.1008924295
 30
0.0
 10
18.935061295
 20
31.1655157532
 30
0.0
 10
18.9099194711
 20
31.2331637967
 30
0.0
 10
18.887549854
 20
31.3039739355
 30
0.0
 10
18.8680079923
 20
31.3780816312
 30
0.0
 10
18.8513495687
 20
31.4556405459
 30
0.0
 10
18.8376355598
 20
31.5368026273
 30
0.0
 10
18.8269277636
 20
31.6217362127
 30
0.0
 10
18.8192909798
 20
31.7106114662
 30
0.0
 10
18.8147908112
 20
31.8036091607
 30
0.0
 10
18.8139453107
 20
31.8670113193
 30
0.0
 10
18.8140306192
 20
31.8994097881
 30
0.0
  0
SPLINE
  5
3AC
100
AcDbEntity
  8
INTFCLR_1
100
AcDbSpline
 62
7
  6
BYLAYER
 70
0
 71
3
 72
28
 73
24
 74
0
 42
0.0000001
 43
0.0000001
 44
0.0000000001
 40
0.0
 40
0.0
 40
0.0
 40
0.0
 40
0.0571180291
 40
0.1129124509
 40
0.1674937452
 40
0.2202050439
 40
0.2711223108
 40
0.3206259953
 40
0.3684984146
 40
0.4145605581
 40
0.4579568315
 40
0.4999910937
 40
0.5415801454
 40
0.5829788855
 40
0.6231202549
 40
0.6632822924
 40
0.7042273635
 40
0.7466905188
 40
0.7912240737
 40
0.8376670336
 40
0.8881673344
 40
0.9406309597
 40
1.0
 40
1.0
 40
1.0
 40
1.0
 10
13.1680618728
 20
30.1426458787
 30
0.0
 10
13.2258765819
 20
30.1483863859
 30
0.0
 10
13.3400217903
 20
30.1612667053
 30
0.0
 10
13.5087017852
 20
30.1853951397
 30
0.0
 10
13.6720858362
 20
30.2143054532
 30
0.0
 10
13.8294431891
 20
30.2482086757
 30
0.0
 10
13.9802611662
 20
30.2873436946
 30
0.0
 10
14.1243778638
 20
30.3320914938
 30
0.0
 10
14.261267996
 20
30.3828015305
 30
0.0
 10
14.3891631279
 20
30.4392194817
 30
0.0
 10
14.5077219275
 20
30.5013680661
 30
0.0
 10
14.6175190391
 20
30.5697121976
 30
0.0
 10
14.7197505298
 20
30.6456107897
 30
0.0
 10
14.8133121569
 20
30.7291500631
 30
0.0
 10
14.8974679249
 20
30.8202010408
 30
0.0
 10
14.9719801558
 20
30.9187341885
 30
0.0
 10
15.0374765017
 20
31.0262608143
 30
0.0
 10
15.0938237991
 20
31.1438048375
 30
0.0
 10
15.1403833201
 20
31.2715193654
 30
0.0
 10
15.1771418956
 20
31.410841654
 30
0.0
 10
15.2032979381
 20
31.5607223926
 30
0.0
 10
15.2191744058
 20
31.7252114414
 30
0.0
 10
15.2222521067
 20
31.8390220291
 30
0.0
 10
15.2220931286
 20
31.8994104928
 30
0.0
  0
SPLINE
  5
3AD
100
AcDbEntity
  8
INTFCLR_1
100
AcDbSpline
 62
7
  6
BYLAYER
 70
0
 71
3
 72
28
 73
24
 74
0
 42
0.0000001
 43
0.0000001
 44
0.0000000001
 40
0.0
 40
0.0
 40
0.0
 40
0.0
 40
0.0486027739
 40
0.0959415177
 40
0.142266962
 40
0.18940557
 40
0.2333407319
 40
0.2771607743
 40
0.3214668341
 40
0.3662061974
 40
0.4103849542
 40
0.454052206
 40
0.4956348864
 40
0.539112797
 40
0.5840702569
 40
0.6276656463
 40
0.6730522959
 40
0.7200677025
 40
0.7703698109
 40
0.8219467383
 40
0.8778741577
 40
0.935392332
 40
1.0
 40
1.0
 40
1.0
 40
1.0
 10
13.1680618729
 20
27.8590312225
 30
0.0
 10
13.2234607767
 20
27.8682184812
 30
0.0
 10
13.3324675938
 20
27.8885573635
 30
0.0
 10
13.4926826491
 20
27.9255216929
 30
0.0
 10
13.6494799927
 20
27.9690953375
 30
0.0
 10
13.8002928655
 20
28.0188832506
 30
0.0
 10
13.9456862396
 20
28.075210453
 30
0.0
 10
14.084901531
 20
28.137857586
 30
0.0
 10
14.2210688933
 20
28.2089483087
 30
0.0
 10
14.3527603774
 20
28.2888665774
 30
0.0
 10
14.4779582936
 20
28.3773708991
 30
0.0
 10
14.5934176646
 20
28.4726396313
 30
0.0
 10
14.7006084195
 20
28.5759581841
 30
0.0
 10
14.8001306266
 20
28.6887204661
 30
0.0
 10
14.89093295
 20
28.8115522971
 30
0.0
 10
14.9717966884
 20
28.9437185753
 30
0.0
 10
15.0419687239
 20
29.0845346677
 30
0.0
 10
15.1024993416
 20
29.2381196595
 30
0.0
 10
15.1516264459
 20
29.4032105729
 30
0.0
 10
15.1890029482
 20
29.5818641609
 30
0.0
 10
15.213195756
 20
29.7711876247
 30
0.0
 10
15.2241152039
 20
29.9767803314
 30
0.0
 10
15.2217180773
 20
30.1179976972
 30
0.0
 10
15.2180618735
 20
30.1925556591
 30
0.0
  0
SPLINE
  5
3AE
100
AcDbEntity
  8
INTFCLR_1
100
AcDbSpline
 62
7
  6
BYLAYER
 70
0
 71
3
 72
40
 73
36
 74
0
 42
0.0000001
 43
0.0000001
 44
0.0000000001
 40
0.0
 40
0.0
 40
0.0
 40
0.0
 40
0.002363348
 40
0.0091525836
 40
0.0203755897
 40
0.0359158239
 40
0.0557009677
 40
0.0795131846
 40
0.1071355551
 40
0.1382366966
 40
0.1726326947
 40
0.2100255436
 40
0.2500451653
 40
0.2923118851
 40
0.3364834849
 40
0.3822308274
 40
0.4290164885
 40
0.4764108249
 40
0.5239807003
 40
0.5713057803
 40
0.6179813456
 40
0.6636080208
 40
0.7076758885
 40
0.7498691532
 40
0.7898494104
 40
0.8272389005
 40
0.8616654499
 40
0.8928048465
 40
0.9204444899
 40
0.9442595683
 40
0.9640446703
 40
0.9795891097
 40
0.9908235931
 40
0.9976281564
 40
1.0
 40
1.0
 40
1.0
 40
1.0
 10
5.9858712881
 20
21.5337909212
 30
0.0
 10
5.9845315763
 20
21.5337909203
 30
0.0
 10
5.9854766426
 20
21.5257111983
 30
0.0
 10
5.9830886646
 20
21.5169516091
 30
0.0
 10
5.9830706884
 20
21.4963990543
 30
0.0
 10
5.9817937895
 20
21.4707043739
 30
0.0
 10
5.9810655697
 20
21.4369320387
 30
0.0
 10
5.9801743516
 20
21.3966604373
 30
0.0
 10
5.9793996938
 20
21.3498491441
 30
0.0
 10
5.9786575914
 20
21.2970774405
 30
0.0
 10
5.9779855467
 20
21.2387529199
 30
0.0
 10
5.9773803203
 20
21.1753758055
 30
0.0
 10
5.9768510452
 20
21.1075349832
 30
0.0
 10
5.976401924
 20
21.0358511936
 30
0.0
 10
5.9760372292
 20
20.9609199086
 30
0.0
 10
5.9757606105
 20
20.8834266079
 30
0.0
 10
5.9755749217
 20
20.8041061501
 30
0.0
 10
5.9754819405
 20
20.7237523922
 30
0.0
 10
5.9754823249
 20
20.6430927993
 30
0.0
 10
5.9755758963
 20
20.5628407117
 30
0.0
 10
5.9757617334
 20
20.483690327
 30
0.0
 10
5.9760380034
 20
20.4063866418
 30
0.0
 10
5.9764019727
 20
20.3316242004
 30
0.0
 10
5.9768502103
 20
20.2600631642
 30
0.0
 10
5.9773786864
 20
20.1922881966
 30
0.0
 10
5.9779834498
 20
20.1289179773
 30
0.0
 10
5.9786554961
 20
20.070556353
 30
0.0
 10
5.9793979241
 20
20.0177358597
 30
0.0
 10
5.9801728223
 20
19.9708914656
 30
0.0
 10
5.9810640027
 20
19.9306084144
 30
0.0
 10
5.9817918438
 20
19.8968322889
 30
0.0
 10
5.9830687756
 20
19.8711284724
 30
0.0
 10
5.9830851074
 20
19.8505574039
 30
0.0
 10
5.9854783792
 20
19.8417830824
 30
0.0
 10
5.9845267604
 20
19.8336807481
 30
0.0
 10
5.9858712881
 20
19.8336807481
 30
0.0
  0
LINE
  5
3AF
100
AcDbEntity
  8
INTFCLR_1
100
AcDbLine
 62
7
  6
BYLAYER
 10
5.8754224672
 20
26.8337357384
 11
5.8760313533
 21
26.8487499753
  0
LINE
  5
3B0
100
AcDbEntity
  8
INTFCLR_1
100
AcDbLine
 62
7
  6
BYLAYER
 10
6.446699055
 20
29.4423195115
 11
6.449181064
 21
30.8763652116
  0
LINE
  5
3B1
100
AcDbEntity
  8
INTFCLR_1
100
AcDbLine
 62
7
  6
BYLAYER
 10
6.4465816707
 20
26.8607929501
 11
5.8760313533
 21
26.8487499754
  0
LINE
  5
3B2
100
AcDbEntity
  8
INTFCLR_1
100
AcDbLine
 62
7
  6
BYLAYER
 10
5.8760313537
 20
31.0187215002
 11
6.4465126042
 21
31.0066799986
  0
SPLINE
  5
3B3
100
AcDbEntity
  8
INTFCLR_1
100
AcDbSpline
 62
7
  6
BYLAYER
 70
0
 71
3
 72
21
 73
17
 74
0
 42
0.0000001
 43
0.0000001
 44
0.0000000001
 40
0.0
 40
0.0
 40
0.0
 40
0.0
 40
0.0494529838
 40
0.1035518255
 40
0.1620379331
 40
0.2246316235
 40
0.2909244647
 40
0.3606633556
 40
0.4335468469
 40
0.5092240436
 40
0.587319634
 40
0.6674291377
 40
0.7491249394
 40
0.8320522283
 40
0.91581163
 40
1.0
 40
1.0
 40
1.0
 40
1.0
 10
6.4491812795
 20
30.8763645115
 30
0.0
 10
6.4497648847
 20
30.8443458538
 30
0.0
 10
6.4508987199
 20
30.7772989185
 30
0.0
 10
6.4524309665
 20
30.67238009
 30
0.0
 10
6.4538735863
 20
30.5589498103
 30
0.0
 10
6.4552159094
 20
30.4376213965
 30
0.0
 10
6.456451872
 20
30.3090046059
 30
0.0
 10
6.4575752725
 20
30.1737232412
 30
0.0
 10
6.458581111
 20
30.0323638233
 30
0.0
 10
6.459464332
 20
29.8855919891
 30
0.0
 10
6.4602202754
 20
29.7341400804
 30
0.0
 10
6.4608449053
 20
29.5787901103
 30
0.0
 10
6.4613351127
 20
29.4203108096
 30
0.0
 10
6.4616885637
 20
29.2594675969
 30
0.0
 10
6.4619034009
 20
29.0970100421
 30
0.0
 10
6.4619537672
 20
28.9882530938
 30
0.0
 10
6.4619553681
 20
28.9337357295
 30
0.0
  0
SPLINE
  5
3B4
100
AcDbEntity
  8
INTFCLR_1
100
AcDbSpline
 62
7
  6
BYLAYER
 70
0
 71
3
 72
22
 73
18
 74
0
 42
0.0000001
 43
0.0000001
 44
0.0000000001
 40
0.0
 40
0.0
 40
0.0
 40
0.0
 40
0.0817606406
 40
0.1631061761
 40
0.243597476
 40
0.3227997895
 40
0.4004042297
 40
0.47588914
 40
0.5488476851
 40
0.6188986513
 40
0.6856857356
 40
0.7488768957
 40
0.8081480461
 40
0.8631239846
 40
0.9136028739
 40
0.959310625
 40
1.0
 40
1.0
 40
1.0
 40
1.0
 10
6.4619553681
 20
28.9337357295
 30
0.0
 10
6.4619560604
 20
28.877238218
 30
0.0
 10
6.4619068877
 20
28.7645300301
 30
0.0
 10
6.4616833972
 20
28.596201593
 30
0.0
 10
6.4613109573
 20
28.4296412541
 30
0.0
 10
6.4607915194
 20
28.2656664593
 30
0.0
 10
6.4601277065
 20
28.1051516833
 30
0.0
 10
6.4593229776
 20
27.9489521191
 30
0.0
 10
6.4583821563
 20
27.7979729446
 30
0.0
 10
6.4573104786
 20
27.6530050906
 30
0.0
 10
6.4561137259
 20
27.5147878227
 30
0.0
 10
6.4547982771
 20
27.3840209554
 30
0.0
 10
6.4533715699
 20
27.2614173959
 30
0.0
 10
6.4518416868
 20
27.1476001237
 30
0.0
 10
6.4502163828
 20
27.0431576541
 30
0.0
 10
6.4485070121
 20
26.9485901374
 30
0.0
 10
6.4472362388
 20
26.8889021402
 30
0.0
 10
6.4465816707
 20
26.8607929501
 30
0.0
  0
SPLINE
  5
3B5
100
AcDbEntity
  8
INTFCLR_1
100
AcDbSpline
 62
7
  6
BYLAYER
 70
0
 71
3
 72
38
 73
34
 74
0
 42
0.0000001
 43
0.0000001
 44
0.0000000001
 40
0.0
 40
0.0
 40
0.0
 40
0.0
 40
0.0189832469
 40
0.0404381957
 40
0.0642575462
 40
0.090302456
 40
0.1184761392
 40
0.1486174305
 40
0.1805610683
 40
0.2141436386
 40
0.2491990057
 40
0.2855501302
 40
0.3230086557
 40
0.3613783059
 40
0.4004674036
 40
0.4400830927
 40
0.47999979
 40
0.5200111631
 40
0.559914049
 40
0.599509362
 40
0.6385789307
 40
0.6769351481
 40
0.7143898026
 40
0.7507451611
 40
0.7858078719
 40
0.8193953547
 40
0.8513360101
 40
0.8814688413
 40
0.9096411613
 40
0.9356977434
 40
0.9595348408
 40
0.9810063947
 40
1.0
 40
1.0
 40
1.0
 40
1.0
 10
5.6661922857
 20
31.0337357378
 30
0.0
 10
5.6668504761
 20
31.0071661091
 30
0.0
 10
5.6681208934
 20
30.9505640883
 30
0.0
 10
5.669836393
 20
30.8606155871
 30
0.0
 10
5.6714714723
 20
30.760777342
 30
0.0
 10
5.6730172483
 20
30.6515300087
 30
0.0
 10
5.6744652152
 20
30.533429501
 30
0.0
 10
5.6758075161
 20
30.4070686553
 30
0.0
 10
5.6770365608
 20
30.2731335333
 30
0.0
 10
5.6781458358
 20
30.1323171217
 30
0.0
 10
5.6791296119
 20
29.9853288695
 30
0.0
 10
5.679982751
 20
29.8329131267
 30
0.0
 10
5.6807007151
 20
29.6758564277
 30
0.0
 10
5.6812797171
 20
29.5149657908
 30
0.0
 10
5.6817167316
 20
29.3510545268
 30
0.0
 10
5.6820093692
 20
29.1849769723
 30
0.0
 10
5.6821560438
 20
29.0176079793
 30
0.0
 10
5.6821560237
 20
28.849836828
 30
0.0
 10
5.682009376
 20
28.6825156997
 30
0.0
 10
5.6817169192
 20
28.5165133516
 30
0.0
 10
5.6812802296
 20
28.3526767635
 30
0.0
 10
5.6807016095
 20
28.191837694
 30
0.0
 10
5.6799839717
 20
28.0347992925
 30
0.0
 10
5.6791310295
 20
27.8823727585
 30
0.0
 10
5.6781473483
 20
27.7353614177
 30
0.0
 10
5.6770382103
 20
27.5945320205
 30
0.0
 10
5.6758095067
 20
27.4606060383
 30
0.0
 10
5.6744677193
 20
27.3342631171
 30
0.0
 10
5.6730201273
 20
27.216160016
 30
0.0
 10
5.6714742319
 20
27.1068734001
 30
0.0
 10
5.6698384738
 20
27.0069707204
 30
0.0
 10
5.6681220298
 20
26.9169596281
 30
0.0
 10
5.6668508353
 20
26.8603198644
 30
0.0
 10
5.6661922857
 20
26.8337357377
 30
0.0
  0
SPLINE
  5
3B6
100
AcDbEntity
  8
INTFCLR_1
100
AcDbSpline
 62
7
  6
BYLAYER
 70
0
 71
3
 72
39
 73
35
 74
0
 42
0.0000001
 43
0.0000001
 44
0.0000000001
 40
0.0
 40
0.0
 40
0.0
 40
0.0
 40
0.0176299724
 40
0.0377142236
 40
0.0601416713
 40
0.0847822992
 40
0.1115602002
 40
0.1403088206
 40
0.1708762006
 40
0.2030762959
 40
0.2368003548
 40
0.2718711542
 40
0.3080961131
 40
0.3452855385
 40
0.3832871667
 40
0.4218988226
 40
0.4608931893
 40
0.5000705763
 40
0.5392327176
 40
0.5781896562
 40
0.6167543925
 40
0.6547119807
 40
0.6918675393
 40
0.7280701492
 40
0.7631321061
 40
0.7968637665
 40
0.8290807385
 40
0.8596566363
 40
0.8884056888
 40
0.9151816291
 40
0.9398223362
 40
0.9622550476
 40
0.982351372
 40
1.0
 40
1.0
 40
1.0
 40
1.0
 10
4.4468256969
 20
31.3337357354
 30
0.0
 10
4.4475747972
 20
31.3055363162
 30
0.0
 10
4.4490202851
 20
31.2452076291
 30
0.0
 10
4.4509719606
 20
31.14899579
 30
0.0
 10
4.4528391861
 20
31.0415627878
 30
0.0
 10
4.4546117156
 20
30.9234165194
 30
0.0
 10
4.4562795716
 20
30.7951534329
 30
0.0
 10
4.4578337171
 20
30.6574050067
 30
0.0
 10
4.459264714
 20
30.5109788704
 30
0.0
 10
4.4605655738
 20
30.3565901295
 30
0.0
 10
4.4617297963
 20
30.1949942759
 30
0.0
 10
4.4627515677
 20
30.0269572349
 30
0.0
 10
4.4636252486
 20
29.8533744254
 30
0.0
 10
4.4643464428
 20
29.6751013174
 30
0.0
 10
4.4649114336
 20
29.4930087225
 30
0.0
 10
4.4653170884
 20
29.3080276465
 30
0.0
 10
4.4655611344
 20
29.1211649777
 30
0.0
 10
4.4656423858
 20
28.9334213467
 30
0.0
 10
4.4655606039
 20
28.7457376038
 30
0.0
 10
4.465316314
 20
28.5590342929
 30
0.0
 10
4.4649108286
 20
28.3742586478
 30
0.0
 10
4.4643463685
 20
28.1923657846
 30
0.0
 10
4.4636259099
 20
28.0142530924
 30
0.0
 10
4.4627529815
 20
27.840774379
 30
0.0
 10
4.4617317655
 20
27.6727750812
 30
0.0
 10
4.4605677205
 20
27.5111542072
 30
0.0
 10
4.4592667349
 20
27.3567126692
 30
0.0
 10
4.4578356005
 20
27.2102452077
 30
0.0
 10
4.4562815924
 20
27.0724855962
 30
0.0
 10
4.4546140749
 20
26.9442248247
 30
0.0
 10
4.4528418364
 20
26.8260731397
 30
0.0
 10
4.4509745456
 20
26.7186122672
 30
0.0
 10
4.449022096
 20
26.6223428409
 30
0.0
 10
4.4475755893
 20
26.5619649949
 30
0.0
 10
4.4468256963
 20
26.5337357359
 30
0.0
  0
SPLINE
  5
3B7
100
AcDbEntity
  8
INTFCLR_1
100
AcDbSpline
 62
7
  6
BYLAYER
 70
0
 71
3
 72
39
 73
35
 74
0
 42
0.0000001
 43
0.0000001
 44
0.0000000001
 40
0.0
 40
0.0
 40
0.0
 40
0.0
 40
0.0176299735
 40
0.0377142247
 40
0.0601416724
 40
0.0847823003
 40
0.1115602013
 40
0.1403088216
 40
0.1708762016
 40
0.2030762969
 40
0.2368003558
 40
0.2718711551
 40
0.3080961139
 40
0.3452855393
 40
0.3832871675
 40
0.4218988233
 40
0.4608931899
 40
0.5000705769
 40
0.5392327181
 40
0.5781896567
 40
0.6167543929
 40
0.6547119811
 40
0.6918675396
 40
0.7280701495
 40
0.7631321064
 40
0.7968637668
 40
0.8290807388
 40
0.8596566365
 40
0.888405689
 40
0.9151816293
 40
0.9398223364
 40
0.9622550479
 40
0.9823513723
 40
1.0
 40
1.0
 40
1.0
 40
1.0
 10
6.4469749692
 20
26.5337357351
 30
0.0
 10
6.4477240696
 20
26.5619351562
 30
0.0
 10
6.4491695574
 20
26.6222638452
 30
0.0
 10
6.451121233
 20
26.7184756861
 30
0.0
 10
6.4529884586
 20
26.8259086883
 30
0.0
 10
6.4547609881
 20
26.9440549567
 30
0.0
 10
6.456428844
 20
27.0723180431
 30
0.0
 10
6.4579829895
 20
27.2100664691
 30
0.0
 10
6.4594139864
 20
27.3564926053
 30
0.0
 10
6.4607148462
 20
27.5108813461
 30
0.0
 10
6.4618790688
 20
27.6724771996
 30
0.0
 10
6.4629008401
 20
27.8405142405
 30
0.0
 10
6.463774521
 20
28.0140970498
 30
0.0
 10
6.4644957153
 20
28.1923701576
 30
0.0
 10
6.465060706
 20
28.3744627523
 30
0.0
 10
6.4654663609
 20
28.5594438281
 30
0.0
 10
6.4657104068
 20
28.7463064968
 30
0.0
 10
6.4657916583
 20
28.9340501276
 30
0.0
 10
6.4657098763
 20
29.1217338703
 30
0.0
 10
6.4654655865
 20
29.3084371811
 30
0.0
 10
6.4650601011
 20
29.4932128261
 30
0.0
 10
6.4644956409
 20
29.6751056891
 30
0.0
 10
6.4637751823
 20
29.8532183812
 30
0.0
 10
6.4629022539
 20
30.0266970946
 30
0.0
 10
6.4618810379
 20
30.1946963923
 30
0.0
 10
6.4607169929
 20
30.3563172663
 30
0.0
 10
6.4594160074
 20
30.5107588042
 30
0.0
 10
6.457984873
 20
30.6572262657
 30
0.0
 10
6.4564308648
 20
30.7949858773
 30
0.0
 10
6.4547633473
 20
30.9232466488
 30
0.0
 10
6.4529911088
 20
31.041398334
 30
0.0
 10
6.451123818
 20
31.1488592066
 30
0.0
 10
6.4491713685
 20
31.2451286326
 30
0.0
 10
6.4477248617
 20
31.3055064782
 30
0.0
 10
6.4469749687
 20
31.3337357369
 30
0.0
  0
LINE
  5
3B8
100
AcDbEntity
  8
INTFCLR_1
100
AcDbLine
 62
7
  6
BYLAYER
 10
5.8760313537
 20
31.0187215001
 11
5.8754224677
 21
31.0337357371
  0
LINE
  5
3B9
100
AcDbEntity
  8
INTFCLR_1
100
AcDbLine
 62
7
  6
BYLAYER
 10
6.446699055
 20
29.4423195115
 11
6.4464865705
 21
29.1780448686
  0
SPLINE
  5
3BA
100
AcDbEntity
  8
INTFCLR_1
100
AcDbSpline
 62
7
  6
BYLAYER
 70
0
 71
3
 72
13
 73
9
 74
0
 42
0.0000001
 43
0.0000001
 44
0.0000000001
 40
0.0
 40
0.0
 40
0.0
 40
0.0
 40
0.2414556546
 40
0.4505918612
 40
0.5935187764
 40
0.7313670345
 40
0.8821734911
 40
1.0
 40
1.0
 40
1.0
 40
1.0
 10
6.4569351229
 20
26.8664095995
 30
0.0
 10
6.4561697502
 20
26.8660092077
 30
0.0
 10
6.4547391362
 20
26.8652661969
 30
0.0
 10
6.4528442323
 20
26.8643089981
 30
0.0
 10
6.4512802291
 20
26.8635164535
 30
0.0
 10
6.4498565947
 20
26.8629173522
 30
0.0
 10
6.4485230023
 20
26.8623380627
 30
0.0
 10
6.4476079472
 20
26.8620347449
 30
0.0
 10
6.447198279
 20
26.8619355393
 30
0.0
  0
SPLINE
  5
3BB
100
AcDbEntity
  8
INTFCLR_1
100
AcDbSpline
 62
7
  6
BYLAYER
 70
0
 71
3
 72
12
 73
8
 74
0
 42
0.0000001
 43
0.0000001
 44
0.0000000001
 40
0.0
 40
0.0
 40
0.0
 40
0.0
 40
0.2481568887
 40
0.5007631397
 40
0.6442057603
 40
0.764625461
 40
1.0
 40
1.0
 40
1.0
 40
1.0
 10
6.447198279
 20
26.8619355393
 30
0.0
 10
6.4472849744
 20
26.8619203773
 30
0.0
 10
6.4474610971
 20
26.8618763687
 30
0.0
 10
6.4476548193
 20
26.8617686191
 30
0.0
 10
6.4478167383
 20
26.8616465038
 30
0.0
 10
6.4477815865
 20
26.8614435916
 30
0.0
 10
6.447650696
 20
26.8613900066
 30
0.0
 10
6.4475770644
 20
26.8613506755
 30
0.0
  0
SPLINE
  5
3BC
100
AcDbEntity
  8
INTFCLR_1
100
AcDbSpline
 62
7
  6
BYLAYER
 70
0
 71
3
 72
67
 73
63
 74
0
 42
0.0000001
 43
0.0000001
 44
0.0000000001
 40
0.0
 40
0.0
 40
0.0
 40
0.0
 40
0.0020415993
 40
0.004096174
 40
0.0060907341
 40
0.0079843449
 40
0.0097837491
 40
0.0114656793
 40
0.0130109713
 40
0.0145364531
 40
0.0163749022
 40
0.0186419868
 40
0.021847065
 40
0.0255071785
 40
0.0292320919
 40
0.0327061376
 40
0.0354937315
 40
0.0377522343
 40
0.0398975218
 40
0.0423718255
 40
0.0455102427
 40
0.0487616542
 40
0.0527689856
 40
0.0569055132
 40
0.0616413654
 40
0.0667843164
 40
0.0731819058
 40
0.077859703
 40
0.0839575652
 40
0.0922548629
 40
0.1010688293
 40
0.1070457547
 40
0.1152042386
 40
0.1271949858
 40
0.1404345642
 40
0.151708072
 40
0.168313365
 40
0.1869494005
 40
0.2073058206
 40
0.2311740359
 40
0.2547712189
 40
0.2775359681
 40
0.3046556257
 40
0.3347979835
 40
0.3709861015
 40
0.4106542395
 40
0.452404431
 40
0.494257786
 40
0.536456162
 40
0.5786748227
 40
0.6206241748
 40
0.6620068251
 40
0.7026557438
 40
0.7423127312
 40
0.7807662754
 40
0.8178617501
 40
0.8533361666
 40
0.8870636377
 40
0.9187025022
 40
0.9483239721
 40
0.9752707715
 40
1.0
 40
1.0
 40
1.0
 40
1.0
 10
6.4475770644
 20
26.8613506755
 30
0.0
 10
6.4500261558
 20
26.8626378033
 30
0.0
 10
6.4549357539
 20
26.8652283266
 30
0.0
 10
6.4621577476
 20
26.8692269528
 30
0.0
 10
6.469048647
 20
26.8734014122
 30
0.0
 10
6.4753810476
 20
26.8778088584
 30
0.0
 10
6.4809366776
 20
26.882546321
 30
0.0
 10
6.4854034307
 20
26.8877446087
 30
0.0
 10
6.4883354051
 20
26.8935855406
 30
0.0
 10
6.4891143522
 20
26.9003589355
 30
0.0
 10
6.4868654431
 20
26.9078324426
 30
0.0
 10
6.4814069087
 20
26.9161903384
 30
0.0
 10
6.472745314
 20
26.9250972006
 30
0.0
 10
6.4618174205
 20
26.9344075832
 30
0.0
 10
6.4502831892
 20
26.9435351694
 30
0.0
 10
6.4398063649
 20
26.9521461087
 30
0.0
 10
6.4322546828
 20
26.9609772031
 30
0.0
 10
6.4275351792
 20
26.9696013259
 30
0.0
 10
6.4253352642
 20
26.9787854484
 30
0.0
 10
6.4260578224
 20
26.9894417579
 30
0.0
 10
6.4303339541
 20
27.0007885496
 30
0.0
 10
6.437116783
 20
27.0131477377
 30
0.0
 10
6.4455317224
 20
27.0261014557
 30
0.0
 10
6.4513206131
 20
27.0429930713
 30
0.0
 10
6.4499480416
 20
27.0621584856
 30
0.0
 10
6.4509342697
 20
27.0841555212
 30
0.0
 10
6.4510588022
 20
27.1061499618
 30
0.0
 10
6.4514580807
 20
27.1294159502
 30
0.0
 10
6.4518170676
 20
27.1552617679
 30
0.0
 10
6.4522643866
 20
27.1867105347
 30
0.0
 10
6.4526813175
 20
27.217996392
 30
0.0
 10
6.4530827083
 20
27.2490941621
 30
0.0
 10
6.4535231774
 20
27.2844969075
 30
0.0
 10
6.4540590428
 20
27.3297413637
 30
0.0
 10
6.4546105331
 20
27.3792073224
 30
0.0
 10
6.4551972878
 20
27.4349267728
 30
0.0
 10
6.455819565
 20
27.4979593808
 30
0.0
 10
6.4565061092
 20
27.5733008554
 30
0.0
 10
6.4572169105
 20
27.6584850133
 30
0.0
 10
6.4579104953
 20
27.7503927375
 30
0.0
 10
6.4585542729
 20
27.8455646034
 30
0.0
 10
6.4591574539
 20
27.9451430867
 30
0.0
 10
6.4597371138
 20
28.0535916981
 30
0.0
 10
6.4603172387
 20
28.1802315258
 30
0.0
 10
6.4608559064
 20
28.3238770464
 30
0.0
 10
6.4613110621
 20
28.4832535588
 30
0.0
 10
6.461635599
 20
28.6503077865
 30
0.0
 10
6.4618124442
 20
28.8207911485
 30
0.0
 10
6.4618370502
 20
28.9919094575
 30
0.0
 10
6.4617083952
 20
29.163157813
 30
0.0
 10
6.4614266614
 20
29.3333005342
 30
0.0
 10
6.4609934148
 20
29.5013156581
 30
0.0
 10
6.4604112631
 20
29.6662237627
 30
0.0
 10
6.4596833606
 20
29.8271618035
 30
0.0
 10
6.4588136966
 20
29.9832835379
 30
0.0
 10
6.4578070935
 20
30.1337362215
 30
0.0
 10
6.4566685069
 20
30.2777831282
 30
0.0
 10
6.4554060299
 20
30.4144340562
 30
0.0
 10
6.4540251911
 20
30.5431516584
 30
0.0
 10
6.4525407748
 20
30.6626784796
 30
0.0
 10
6.4509573732
 20
30.7728393867
 30
0.0
 10
6.4497897176
 20
30.8428597286
 30
0.0
 10
6.4491811117
 20
30.8763665969
 30
0.0
  0
SPLINE
  5
3BD
100
AcDbEntity
  8
INTFCLR_1
100
AcDbSpline
 62
7
  6
BYLAYER
 70
0
 71
3
 72
48
 73
44
 74
0
 42
0.0000001
 43
0.0000001
 44
0.0000000001
 40
0.0
 40
0.0
 40
0.0
 40
0.0
 40
0.0112409423
 40
0.0221035754
 40
0.0323922572
 40
0.0420958277
 40
0.0514207648
 40
0.0604808825
 40
0.0693623501
 40
0.0781513754
 40
0.0869252844
 40
0.0957555464
 40
0.1047139949
 40
0.1138748501
 40
0.1233138942
 40
0.1331175649
 40
0.1433856169
 40
0.1542331035
 40
0.1657881311
 40
0.1782110267
 40
0.1916889067
 40
0.2064752376
 40
0.2228751144
 40
0.2412788617
 40
0.2621467319
 40
0.2859489085
 40
0.3131256336
 40
0.3441006587
 40
0.379605319
 40
0.4196882852
 40
0.462514134
 40
0.5059788447
 40
0.5498003594
 40
0.59406793
 40
0.6386050167
 40
0.6833534061
 40
0.7282876584
 40
0.773355632
 40
0.8185370084
 40
0.8638038045
 40
0.9091473968
 40
0.9545496569
 40
1.0
 40
1.0
 40
1.0
 40
1.0
 10
6.4491810622
 20
30.8763643655
 30
0.0
 10
6.4561146639
 20
30.8763643655
 30
0.0
 10
6.4697520375
 20
30.8759733582
 30
0.0
 10
6.4896681289
 20
30.8742598039
 30
0.0
 10
6.5085272824
 20
30.8716445749
 30
0.0
 10
6.526309476
 20
30.8683266146
 30
0.0
 10
6.5431987591
 20
30.8644432774
 30
0.0
 10
6.5594409564
 20
30.8600650536
 30
0.0
 10
6.5752098362
 20
30.8552395398
 30
0.0
 10
6.5906560963
 20
30.8499908488
 30
0.0
 10
6.6059192391
 20
30.8443224296
 30
0.0
 10
6.6211272463
 20
30.8382219084
 30
0.0
 10
6.6364027816
 20
30.8316621519
 30
0.0
 10
6.6518670688
 20
30.8246017049
 30
0.0
 10
6.6676452698
 20
30.8169835162
 30
0.0
 10
6.6838719042
 20
30.8087323962
 30
0.0
 10
6.7006973785
 20
30.799750653
 30
0.0
 10
6.71828791
 20
30.7899161936
 30
0.0
 10
6.7368340261
 20
30.7790752242
 30
0.0
 10
6.7565542064
 20
30.7670358995
 30
0.0
 10
6.7777193906
 20
30.753547093
 30
0.0
 10
6.8006573573
 20
30.738285097
 30
0.0
 10
6.8257747485
 20
30.7208245195
 30
0.0
 10
6.8535474021
 20
30.700624435
 30
0.0
 10
6.8844849508
 20
30.6770290246
 30
0.0
 10
6.9190585471
 20
30.6492977738
 30
0.0
 10
6.9576446099
 20
30.6166309185
 30
0.0
 10
7.0006462413
 20
30.5780419824
 30
0.0
 10
7.0481607175
 20
30.532606882
 30
0.0
 10
7.0991746053
 20
30.4803125531
 30
0.0
 10
7.1515144438
 20
30.4225237329
 30
0.0
 10
7.2031209416
 20
30.361036117
 30
0.0
 10
7.252929636
 20
30.2969532486
 30
0.0
 10
7.3006920106
 20
30.2305144635
 30
0.0
 10
7.3462538214
 20
30.1618604436
 30
0.0
 10
7.3894360569
 20
30.091202882
 30
0.0
 10
7.4301137455
 20
30.0186985961
 30
0.0
 10
7.4681831377
 20
29.9444911108
 30
0.0
 10
7.5035488033
 20
29.868731218
 30
0.0
 10
7.5361361235
 20
29.7915508106
 30
0.0
 10
7.5658748522
 20
29.7130827833
 30
0.0
 10
7.5927173289
 20
29.6334587906
 30
0.0
 10
7.6086166977
 20
29.5797062192
 30
0.0
 10
7.6160752151
 20
29.5526820523
 30
0.0
  0
SPLINE
  5
3BE
100
AcDbEntity
  8
INTFCLR_1
100
AcDbSpline
 62
7
  6
BYLAYER
 70
0
 71
3
 72
26
 73
22
 74
0
 42
0.0000001
 43
0.0000001
 44
0.0000000001
 40
0.0
 40
0.0
 40
0.0
 40
0.0
 40
0.1000527673
 40
0.192586818
 40
0.2780927927
 40
0.3570622884
 40
0.4299864184
 40
0.4973314464
 40
0.5594301515
 40
0.616570295
 40
0.6690529123
 40
0.717191132
 40
0.7612956255
 40
0.8016453557
 40
0.8384930708
 40
0.8720885333
 40
0.9026793927
 40
0.930512127
 40
0.9558406265
 40
0.9789160996
 40
1.0
 40
1.0
 40
1.0
 40
1.0
 10
6.5270133159
 20
26.9051064989
 30
0.0
 10
6.5246995864
 20
26.9037739485
 30
0.0
 10
6.5202428396
 20
26.9012144529
 30
0.0
 10
6.5137928298
 20
26.8975439922
 30
0.0
 10
6.5078219389
 20
26.8941692365
 30
0.0
 10
6.5022976142
 20
26.8910679792
 30
0.0
 10
6.4971883475
 20
26.8882174605
 30
0.0
 10
6.4924657619
 20
26.8855979541
 30
0.0
 10
6.4881059817
 20
26.883192776
 30
0.0
 10
6.4840887402
 20
26.8809878004
 30
0.0
 10
6.4803940298
 20
26.8789694979
 30
0.0
 10
6.4770011186
 20
26.8771243725
 30
0.0
 10
6.473889637
 20
26.8754394807
 30
0.0
 10
6.4710404506
 20
26.8739029707
 30
0.0
 10
6.4684358478
 20
26.8725037714
 30
0.0
 10
6.4660583586
 20
26.8712321094
 30
0.0
 10
6.4638918091
 20
26.8700761837
 30
0.0
 10
6.4619157843
 20
26.869031739
 30
0.0
 10
6.460122842
 20
26.8680705402
 30
0.0
 10
6.4584624011
 20
26.867242612
 30
0.0
 10
6.4574613755
 20
26.8666172284
 30
0.0
 10
6.4569623689
 20
26.8663572942
 30
0.0
  0
LINE
  5
3BF
100
AcDbEntity
  8
INTFCLR_1
100
AcDbLine
 62
7
  6
BYLAYER
 10
6.4461473878
 20
26.861868947
 11
6.4471676124
 21
26.8620559389
  0
SPLINE
  5
3C0
100
AcDbEntity
  8
INTFCLR_1
100
AcDbSpline
 62
7
  6
BYLAYER
 70
0
 71
3
 72
11
 73
7
 74
0
 42
0.0000001
 43
0.0000001
 44
0.0000000001
 40
0.0
 40
0.0
 40
0.0
 40
0.0
 40
0.2217205044
 40
0.4838590534
 40
0.723940402
 40
1.0
 40
1.0
 40
1.0
 40
1.0
 10
6.4471676124
 20
26.8620559389
 30
0.0
 10
6.4479274671
 20
26.8622781986
 30
0.0
 10
6.449561158
 20
26.8628488601
 30
0.0
 10
6.4519302108
 20
26.8638848307
 30
0.0
 10
6.454457514
 20
26.8650414426
 30
0.0
 10
6.4560930453
 20
26.8658926195
 30
0.0
 10
6.4569623689
 20
26.8663572942
 30
0.0
  0
LINE
  5
3C1
100
AcDbEntity
  8
INTFCLR_1
100
AcDbLine
 62
7
  6
BYLAYER
 10
28.1600923917
 20
26.8487499758
 11
28.1607012779
 21
26.8337357385
  0
SPLINE
  5
3C2
100
AcDbEntity
  8
INTFCLR_1
100
AcDbSpline
 62
7
  6
BYLAYER
 70
0
 71
3
 72
22
 73
18
 74
0
 42
0.0000001
 43
0.0000001
 44
0.0000000001
 40
0.0
 40
0.0
 40
0.0
 40
0.0
 40
0.0406993242
 40
0.0864327236
 40
0.136964015
 40
0.1920310318
 40
0.2512857272
 40
0.3144667646
 40
0.381249659
 40
0.4512856856
 40
0.5242112646
 40
0.5996503078
 40
0.6772031878
 40
0.7563587315
 40
0.8368226777
 40
0.9181774299
 40
1.0
 40
1.0
 40
1.0
 40
1.0
 10
27.5896111422
 20
26.8607914771
 30
0.0
 10
27.5882807814
 20
26.8888864845
 30
0.0
 10
27.5857508912
 20
26.9485656507
 30
0.0
 10
27.582436122
 20
27.043161286
 30
0.0
 10
27.5794082652
 20
27.1477003231
 30
0.0
 10
27.5766985139
 20
27.2615951318
 30
0.0
 10
27.5743346509
 20
27.3842413192
 30
0.0
 10
27.5723421006
 20
27.5149916601
 30
0.0
 10
27.5707438351
 20
27.6531986703
 30
0.0
 10
27.5695612532
 20
27.7981443305
 30
0.0
 10
27.5688135121
 20
27.9490750368
 30
0.0
 10
27.5685174765
 20
28.1052020503
 30
0.0
 10
27.5686875081
 20
28.2656346519
 30
0.0
 10
27.5693348267
 20
28.4295386709
 30
0.0
 10
27.5704682806
 20
28.5960675138
 30
0.0
 10
27.5720953215
 20
28.7644354709
 30
0.0
 10
27.5735105342
 20
28.8771953583
 30
0.0
 10
27.5743034353
 20
28.9337357379
 30
0.0
  0
LINE
  5
3C3
100
AcDbEntity
  8
INTFCLR_1
100
AcDbLine
 62
7
  6
BYLAYER
 10
28.1600923917
 20
26.8487499761
 11
27.5896111422
 21
26.8607914771
  0
SPLINE
  5
3C4
100
AcDbEntity
  8
INTFCLR_1
100
AcDbSpline
 62
7
  6
BYLAYER
 70
0
 71
3
 72
21
 73
17
 74
0
 42
0.0000001
 43
0.0000001
 44
0.0000000001
 40
0.0
 40
0.0
 40
0.0
 40
0.0
 40
0.0841606377
 40
0.1679214137
 40
0.2508780076
 40
0.332629454
 40
0.4126529067
 40
0.4906562726
 40
0.5663007442
 40
0.639216066
 40
0.7090345297
 40
0.7753926802
 40
0.8379405509
 40
0.8964095312
 40
0.95051738
 40
1.0
 40
1.0
 40
1.0
 40
1.0
 10
27.5743034352
 20
28.9337357379
 30
0.0
 10
27.5736664478
 20
28.9882354258
 30
0.0
 10
27.5725296841
 20
29.0969774759
 30
0.0
 10
27.5712203761
 20
29.2594438729
 30
0.0
 10
27.5703184363
 20
29.4203528154
 30
0.0
 10
27.5698276973
 20
29.5788431954
 30
0.0
 10
27.5697503065
 20
29.7341265586
 30
0.0
 10
27.570085815
 20
29.8854546352
 30
0.0
 10
27.5708326584
 20
30.0321778928
 30
0.0
 10
27.5719873053
 20
30.173597728
 30
0.0
 10
27.5735446093
 20
30.3089994152
 30
0.0
 10
27.5754942238
 20
30.4376812801
 30
0.0
 10
27.5778325583
 20
30.559005307
 30
0.0
 10
27.5805239898
 20
30.6723867479
 30
0.0
 10
27.5836325928
 20
30.7772927197
 30
0.0
 10
27.5859065292
 20
30.8443408743
 30
0.0
 10
27.5870915606
 20
30.8763644775
 30
0.0
  0
LINE
  5
3C5
100
AcDbEntity
  8
INTFCLR_1
100
AcDbLine
 62
7
  6
BYLAYER
 10
27.5896111419
 20
31.0066799984
 11
28.1600923922
 21
31.0187215003
  0
LINE
  5
3C6
100
AcDbEntity
  8
INTFCLR_1
100
AcDbLine
 62
7
  6
BYLAYER
 10
27.586942682
 20
30.8763652102
 11
27.5894246834
 21
29.442325197
  0
LINE
  5
3C7
100
AcDbEntity
  8
INTFCLR_1
100
AcDbLine
 62
7
  6
BYLAYER
 10
27.5894246834
 20
29.442325197
 11
27.5896371882
 21
29.1779985457
  0
SPLINE
  5
3C8
100
AcDbEntity
  8
INTFCLR_1
100
AcDbSpline
 62
7
  6
BYLAYER
 70
0
 71
3
 72
11
 73
7
 74
0
 42
0.0000001
 43
0.0000001
 44
0.0000000001
 40
0.0
 40
0.0
 40
0.0
 40
0.0
 40
0.2760906168
 40
0.5149679432
 40
0.7763487713
 40
1.0
 40
1.0
 40
1.0
 40
1.0
 10
27.5791780627
 20
26.8663555534
 30
0.0
 10
27.5800443537
 20
26.8658957875
 30
0.0
 10
27.5816693923
 20
26.8650543984
 30
0.0
 10
27.5841747349
 20
26.8639009819
 30
0.0
 10
27.5865304416
 20
26.86286804
 30
0.0
 10
27.5881575218
 20
26.8622936774
 30
0.0
 10
27.5889185946
 20
26.8620657842
 30
0.0
  0
LINE
  5
3C9
100
AcDbEntity
  8
INTFCLR_1
100
AcDbLine
 62
7
  6
BYLAYER
 10
27.5889185946
 20
26.8620657842
 11
27.5899763578
 21
26.8618690007
  0
SPLINE
  5
3CA
100
AcDbEntity
  8
INTFCLR_1
100
AcDbSpline
 62
7
  6
BYLAYER
 70
0
 71
3
 72
26
 73
22
 74
0
 42
0.0000001
 43
0.0000001
 44
0.0000000001
 40
0.0
 40
0.0
 40
0.0
 40
0.0
 40
0.0210770733
 40
0.0441664485
 40
0.0695226162
 40
0.0973927304
 40
0.1280261011
 40
0.1616647657
 40
0.1985521915
 40
0.2389339948
 40
0.2830595312
 40
0.3312108218
 40
0.3837013883
 40
0.4408462049
 40
0.5029433457
 40
0.5702749199
 40
0.6431742256
 40
0.722107917
 40
0.8075643806
 40
0.9000324497
 40
1.0
 40
1.0
 40
1.0
 40
1.0
 10
27.5791780627
 20
26.8663555534
 30
0.0
 10
27.5786797639
 20
26.866615095
 30
0.0
 10
27.5776751546
 20
26.867231869
 30
0.0
 10
27.5760177019
 20
26.8680627547
 30
0.0
 10
27.5742242772
 20
26.8690227691
 30
0.0
 10
27.5722480925
 20
26.8700676914
 30
0.0
 10
27.5700809913
 20
26.8712237446
 30
0.0
 10
27.5677032086
 20
26.8724955722
 30
0.0
 10
27.5650987902
 20
26.8738946277
 30
0.0
 10
27.5622505895
 20
26.875430576
 30
0.0
 10
27.5591410082
 20
26.8771143989
 30
0.0
 10
27.5557508749
 20
26.8789579675
 30
0.0
 10
27.5520596579
 20
26.8809743043
 30
0.0
 10
27.548046606
 20
26.8831769086
 30
0.0
 10
27.5436918893
 20
26.8855792035
 30
0.0
 10
27.5389754486
 20
26.8881951875
 30
0.0
 10
27.5338735403
 20
26.8910414559
 30
0.0
 10
27.5283578542
 20
26.8941376769
 30
0.0
 10
27.5223970309
 20
26.8975065102
 30
0.0
 10
27.5159587224
 20
26.9011699891
 30
0.0
 10
27.5115103565
 20
26.9037244811
 30
0.0
 10
27.5092011148
 20
26.9050543083
 30
0.0
  0
SPLINE
  5
3CB
100
AcDbEntity
  8
INTFCLR_1
100
AcDbSpline
 62
7
  6
BYLAYER
 70
0
 71
3
 72
48
 73
44
 74
0
 42
0.0000001
 43
0.0000001
 44
0.0000000001
 40
0.0
 40
0.0
 40
0.0
 40
0.0
 40
0.0454211186
 40
0.0907972824
 40
0.1361091061
 40
0.1813495777
 40
0.2264993545
 40
0.2715386767
 40
0.3164444702
 40
0.3611647892
 40
0.4056691297
 40
0.449903454
 40
0.4937390871
 40
0.5370807545
 40
0.5799450733
 40
0.6202985769
 40
0.6559068899
 40
0.6870027384
 40
0.7144069783
 40
0.7384475684
 40
0.7595240547
 40
0.7780942649
 40
0.7946150581
 40
0.8094788211
 40
0.8230054165
 40
0.8354435486
 40
0.8469990364
 40
0.857827644
 40
0.8680706912
 40
0.8778392176
 40
0.8872351459
 40
0.8963417855
 40
0.9052392688
 40
0.9140014261
 40
0.9227013922
 40
0.9314095318
 40
0.9402036711
 40
0.949168255
 40
0.9583879136
 40
0.967980326
 40
0.9781311542
 40
0.9888432262
 40
1.0
 40
1.0
 40
1.0
 40
1.0
 10
26.4200442462
 20
29.5526824602
 30
0.0
 10
26.4274979622
 20
29.5796892663
 30
0.0
 10
26.4433929297
 20
29.6334075519
 30
0.0
 10
26.4702130814
 20
29.7129822931
 30
0.0
 10
26.4999294361
 20
29.7914033191
 30
0.0
 10
26.532488686
 20
29.8685355104
 30
0.0
 10
26.567823722
 20
29.9442507757
 30
0.0
 10
26.6058583372
 20
30.0184146043
 30
0.0
 10
26.6464990057
 20
30.090879418
 30
0.0
 10
26.689639783
 20
30.1614977815
 30
0.0
 10
26.7351553074
 20
30.2301128816
 30
0.0
 10
26.7828832923
 20
30.2965369722
 30
0.0
 10
26.8326223699
 20
30.3605629371
 30
0.0
 10
26.8841825867
 20
30.4220325238
 30
0.0
 10
26.9365797484
 20
30.4799242904
 30
0.0
 10
26.9877605154
 20
30.5324118742
 30
0.0
 10
27.0354938406
 20
30.5780601185
 30
0.0
 10
27.0787055784
 20
30.6168325566
 30
0.0
 10
27.1175759912
 20
30.649723949
 30
0.0
 10
27.1524883541
 20
30.6776980932
 30
0.0
 10
27.1837455301
 20
30.7014986282
 30
0.0
 10
27.2117871317
 20
30.7218492146
 30
0.0
 10
27.2371122385
 20
30.7394053144
 30
0.0
 10
27.2602004767
 20
30.7547166171
 30
0.0
 10
27.2814624798
 20
30.7682157912
 30
0.0
 10
27.3012393703
 20
30.7802384635
 30
0.0
 10
27.3198059162
 20
30.7910405652
 30
0.0
 10
27.337394451
 20
30.8008236606
 30
0.0
 10
27.354197542
 20
30.8097437616
 30
0.0
 10
27.3703872923
 20
30.8179268124
 30
0.0
 10
27.3861110559
 20
30.8254697213
 30
0.0
 10
27.4015048655
 20
30.8324493238
 30
0.0
 10
27.4166939699
 20
30.8389236987
 30
0.0
 10
27.4318022203
 20
30.8449363933
 30
0.0
 10
27.4469518015
 20
30.8505154202
 30
0.0
 10
27.4622706879
 20
30.8556744546
 30
0.0
 10
27.4778965328
 20
30.8604110987
 30
0.0
 10
27.4939778466
 20
30.864702853
 30
0.0
 10
27.5106881814
 20
30.8685050437
 30
0.0
 10
27.5282617442
 20
30.871748769
 30
0.0
 10
27.546880289
 20
30.8743023532
 30
0.0
 10
27.5665683676
 20
30.8759817263
 30
0.0
 10
27.5800609997
 20
30.8763616606
 30
0.0
 10
27.5869426882
 20
30.8763616606
 30
0.0
  0
SPLINE
  5
3CC
100
AcDbEntity
  8
INTFCLR_1
100
AcDbSpline
 62
7
  6
BYLAYER
 70
0
 71
3
 72
21
 73
17
 74
0
 42
0.0000001
 43
0.0000001
 44
0.0000000001
 40
0.0
 40
0.0
 40
0.0
 40
0.0
 40
0.0501764504
 40
0.1056255076
 40
0.1636355855
 40
0.2246758201
 40
0.290932043
 40
0.3586694974
 40
0.4307303234
 40
0.5072158662
 40
0.5839670348
 40
0.6639690004
 40
0.7467252489
 40
0.829648599
 40
0.9142610269
 40
1.0
 40
1.0
 40
1.0
 40
1.0
 10
27.5869425971
 20
30.8763645722
 30
0.0
 10
27.5863525145
 20
30.8438774045
 30
0.0
 10
27.5852090361
 20
30.7754874673
 30
0.0
 10
27.5836778043
 20
30.6695337413
 30
0.0
 10
27.5822587986
 20
30.5565428635
 30
0.0
 10
27.580944616
 20
30.4365519411
 30
0.0
 10
27.5797420571
 20
30.3102604403
 30
0.0
 10
27.5786421976
 20
30.1768312033
 30
0.0
 10
27.577650701
 20
30.0367767926
 30
0.0
 10
27.576777818
 20
29.8908845172
 30
0.0
 10
27.5760281457
 20
29.7398490891
 30
0.0
 10
27.5754070888
 20
29.5847523534
 30
0.0
 10
27.5749179539
 20
29.4256582366
 30
0.0
 10
27.5745650733
 20
29.2635781781
 30
0.0
 10
27.5743513532
 20
29.0995663673
 30
0.0
 10
27.5743034624
 20
28.9892527117
 30
0.0
 10
27.5743034571
 20
28.9337311311
 30
0.0
  0
SPLINE
  5
3CD
100
AcDbEntity
  8
INTFCLR_1
100
AcDbSpline
 62
7
  6
BYLAYER
 70
0
 71
3
 72
56
 73
52
 74
0
 42
0.0000001
 43
0.0000001
 44
0.0000000001
 40
0.0
 40
0.0
 40
0.0
 40
0.0
 40
0.0845121346
 40
0.1669288171
 40
0.2445995254
 40
0.316873848
 40
0.3964932861
 40
0.4588938201
 40
0.5058913077
 40
0.5574748551
 40
0.6012702542
 40
0.6324192293
 40
0.6620875376
 40
0.6935192768
 40
0.7261619483
 40
0.7503159139
 40
0.7781538061
 40
0.798217813
 40
0.8125737282
 40
0.8289274874
 40
0.841207589
 40
0.8533129995
 40
0.8654619711
 40
0.8746048017
 40
0.8837438867
 40
0.8921807872
 40
0.8985302433
 40
0.9049467019
 40
0.9115979112
 40
0.9167461727
 40
0.9209358644
 40
0.9255477129
 40
0.9291504925
 40
0.9326316599
 40
0.9361645397
 40
0.9398607224
 40
0.9438650043
 40
0.9480509306
 40
0.9526896807
 40
0.9578151525
 40
0.9632852464
 40
0.9689267506
 40
0.9727445822
 40
0.9754190935
 40
0.9774730491
 40
0.9807421816
 40
0.9841030898
 40
0.987783744
 40
0.9918293521
 40
0.9960250816
 40
1.0
 40
1.0
 40
1.0
 40
1.0
 10
27.5743034571
 20
28.9337311311
 30
0.0
 10
27.5743034511
 20
28.8739804413
 30
0.0
 10
27.5743585549
 20
28.7559605539
 30
0.0
 10
27.5746002285
 20
28.5830270674
 30
0.0
 10
27.5749802576
 20
28.4187460736
 30
0.0
 10
27.5755007497
 20
28.2564431499
 30
0.0
 10
27.5761312183
 20
28.1049368184
 30
0.0
 10
27.5768162372
 20
27.9713018469
 30
0.0
 10
27.577491114
 20
27.8574887062
 30
0.0
 10
27.5781660867
 20
27.7568297891
 30
0.0
 10
27.5788392207
 20
27.6673761574
 30
0.0
 10
27.5794477028
 20
27.5934167337
 30
0.0
 10
27.5800241004
 20
27.528198551
 30
0.0
 10
27.5806535211
 20
27.4619247549
 30
0.0
 10
27.5812928049
 20
27.3995499241
 30
0.0
 10
27.5819499959
 20
27.3397163059
 30
0.0
 10
27.5825466211
 20
27.2887757756
 30
0.0
 10
27.5830947006
 20
27.2447624627
 30
0.0
 10
27.583562579
 20
27.2088681449
 30
0.0
 10
27.5839748083
 20
27.1784768786
 30
0.0
 10
27.5843830815
 20
27.1496767456
 30
0.0
 10
27.5847561241
 20
27.1238495245
 30
0.0
 10
27.5851300073
 20
27.1002396074
 30
0.0
 10
27.5854269861
 20
27.078729076
 30
0.0
 10
27.5858248113
 20
27.059834747
 30
0.0
 10
27.5858579529
 20
27.0429427788
 30
0.0
 10
27.5862117997
 20
27.0278870216
 30
0.0
 10
27.5905299295
 20
27.0145873261
 30
0.0
 10
27.5978474762
 20
27.003931704
 30
0.0
 10
27.6035563687
 20
26.9941666323
 30
0.0
 10
27.6076291534
 20
26.9851605892
 30
0.0
 10
27.6096272622
 20
26.9764948649
 30
0.0
 10
27.6089963233
 20
26.9681427892
 30
0.0
 10
27.6064840181
 20
26.9609908979
 30
0.0
 10
27.6024171739
 20
26.9545430884
 30
0.0
 10
27.5970802433
 20
26.9486315544
 30
0.0
 10
27.590863892
 20
26.9429636657
 30
0.0
 10
27.5837406977
 20
26.9373436233
 30
0.0
 10
27.5759118224
 20
26.9313455436
 30
0.0
 10
27.5676112901
 20
26.9244754302
 30
0.0
 10
27.5591596517
 20
26.9166960102
 30
0.0
 10
27.5524234443
 20
26.9084613964
 30
0.0
 10
27.5490722641
 20
26.9003450546
 30
0.0
 10
27.5491637698
 20
26.8941646001
 30
0.0
 10
27.5509986392
 20
26.8887552927
 30
0.0
 10
27.5545974455
 20
26.8836748241
 30
0.0
 10
27.5599040715
 20
26.8786486137
 30
0.0
 10
27.5662393058
 20
26.8740072289
 30
0.0
 10
27.5734021349
 20
26.8695565303
 30
0.0
 10
27.5809502355
 20
26.8653544963
 30
0.0
 10
27.586059013
 20
26.8626580661
 30
0.0
 10
27.5885466813
 20
26.8613506755
 30
0.0
  0
SPLINE
  5
3CE
100
AcDbEntity
  8
INTFCLR_1
100
AcDbSpline
 62
7
  6
BYLAYER
 70
0
 71
3
 72
11
 73
7
 74
0
 42
0.0000001
 43
0.0000001
 44
0.0000000001
 40
0.0
 40
0.0
 40
0.0
 40
0.0
 40
0.2425624447
 40
0.3899341895
 40
0.7213939688
 40
1.0
 40
1.0
 40
1.0
 40
1.0
 10
27.5885466813
 20
26.8613506755
 30
0.0
 10
27.5884733837
 20
26.8613898391
 30
0.0
 10
27.5883249851
 20
26.861448057
 30
0.0
 10
27.5883308633
 20
26.8617385602
 30
0.0
 10
27.5886249166
 20
26.8618356003
 30
0.0
 10
27.5888082964
 20
26.8619110489
 30
0.0
 10
27.5888908212
 20
26.8619590172
 30
0.0
  0
SPLINE
  5
3CF
100
AcDbEntity
  8
INTFCLR_1
100
AcDbSpline
 62
7
  6
BYLAYER
 70
0
 71
3
 72
14
 73
10
 74
0
 42
0.0000001
 43
0.0000001
 44
0.0000000001
 40
0.0
 40
0.0
 40
0.0
 40
0.0
 40
0.1162999209
 40
0.2662890213
 40
0.3904968919
 40
0.5009472708
 40
0.645001807
 40
0.8145840053
 40
1.0
 40
1.0
 40
1.0
 40
1.0
 10
27.5888908212
 20
26.8619590172
 30
0.0
 10
27.5884876604
 20
26.8620526014
 30
0.0
 10
27.5875840117
 20
26.8623485803
 30
0.0
 10
27.5863076683
 20
26.8628976414
 30
0.0
 10
27.5850450026
 20
26.86342747
 30
0.0
 10
27.5838360253
 20
26.8640241216
 30
0.0
 10
27.582491807
 20
26.8647099902
 30
0.0
 10
27.5809082637
 20
26.8655141868
 30
0.0
 10
27.5797872379
 20
26.8660967303
 30
0.0
 10
27.5792025128
 20
26.8664024957
 30
0.0
  0
LINE
  5
3D0
100
AcDbEntity
  8
INTFCLR_1
100
AcDbLine
 62
7
  6
BYLAYER
 10
28.1607012784
 20
31.0337357371
 11
28.1600923922
 21
31.0187215006
  0
SPLINE
  5
3D1
100
AcDbEntity
  8
INTFCLR_1
100
AcDbSpline
 62
7
  6
BYLAYER
 70
0
 71
3
 72
23
 73
19
 74
0
 42
0.0000001
 43
0.0000001
 44
0.0000000001
 40
0.0
 40
0.0
 40
0.0
 40
0.0
 40
0.0367036404
 40
0.0780506349
 40
0.1238470999
 40
0.1738664161
 40
0.2279404111
 40
0.2857620884
 40
0.3470201566
 40
0.4114124346
 40
0.4786250401
 40
0.5483446629
 40
0.620251653
 40
0.693980804
 40
0.7691188523
 40
0.8454140141
 40
0.9225037063
 40
1.0
 40
1.0
 40
1.0
 40
1.0
 10
28.3699310248
 20
26.8337357378
 30
0.0
 10
28.3692947397
 20
26.8594211002
 30
0.0
 10
28.3680650261
 20
26.9140443383
 30
0.0
 10
28.3663988877
 20
27.000723746
 30
0.0
 10
28.3648076212
 20
27.0967271921
 30
0.0
 10
28.3632990262
 20
27.2016420933
 30
0.0
 10
28.361881002
 20
27.3149768332
 30
0.0
 10
28.3605610952
 20
27.4361805854
 30
0.0
 10
28.3593466024
 20
27.5646087679
 30
0.0
 10
28.3582437127
 20
27.6996120098
 30
0.0
 10
28.3572577249
 20
27.8405395515
 30
0.0
 10
28.3563932813
 20
27.986728424
 30
0.0
 10
28.3556545615
 20
28.1374797451
 30
0.0
 10
28.355045327
 20
28.2920246739
 30
0.0
 10
28.3545683226
 20
28.4496418836
 30
0.0
 10
28.354225717
 20
28.6096118899
 30
0.0
 10
28.3540192685
 20
28.7712329459
 30
0.0
 10
28.3539731196
 20
28.8794460646
 30
0.0
 10
28.3539731196
 20
28.9336949355
 30
0.0
  0
SPLINE
  5
3D2
100
AcDbEntity
  8
INTFCLR_1
100
AcDbSpline
 62
7
  6
BYLAYER
 70
0
 71
3
 72
23
 73
19
 74
0
 42
0.0000001
 43
0.0000001
 44
0.0000000001
 40
0.0
 40
0.0
 40
0.0
 40
0.0
 40
0.0775064472
 40
0.1546129066
 40
0.2309599238
 40
0.3061738595
 40
0.3799912816
 40
0.4519794683
 40
0.5217528392
 40
0.5889742276
 40
0.6533228131
 40
0.7145033864
 40
0.7722363808
 40
0.8262294663
 40
0.8761884104
 40
0.9219485896
 40
0.9632840603
 40
1.0
 40
1.0
 40
1.0
 40
1.0
 10
28.3539731196
 20
28.9336949355
 30
0.0
 10
28.3539731196
 20
28.9879530224
 30
0.0
 10
28.3540192427
 20
29.0961891919
 30
0.0
 10
28.3542257263
 20
29.2578716752
 30
0.0
 10
28.3545685924
 20
29.4179490613
 30
0.0
 10
28.3550462295
 20
29.5757236143
 30
0.0
 10
28.3556564956
 20
29.730446306
 30
0.0
 10
28.3563965393
 20
29.8813597422
 30
0.0
 10
28.3572623307
 20
30.0276549055
 30
0.0
 10
28.3582493064
 20
30.1686011051
 30
0.0
 10
28.3593524977
 20
30.3035308999
 30
0.0
 10
28.3605664853
 20
30.4318171527
 30
0.0
 10
28.3618852469
 20
30.552852645
 30
0.0
 10
28.3633017994
 20
30.6660308096
 30
0.0
 10
28.3648089429
 20
30.7708254909
 30
0.0
 10
28.3663991129
 20
30.8667569441
 30
0.0
 10
28.3680648068
 20
30.9534148663
 30
0.0
 10
28.3692945717
 20
31.0080407699
 30
0.0
 10
28.3699310948
 20
31.0337357378
 30
0.0
  0
SPLINE
  5
3D3
100
AcDbEntity
  8
INTFCLR_1
100
AcDbSpline
 62
7
  6
BYLAYER
 70
0
 71
3
 72
39
 73
35
 74
0
 42
0.0000001
 43
0.0000001
 44
0.0000000001
 40
0.0
 40
0.0
 40
0.0
 40
0.0
 40
0.0176299729
 40
0.0377142242
 40
0.0601416722
 40
0.084782301
 40
0.1115602037
 40
0.1403088252
 40
0.1708762057
 40
0.2030763022
 40
0.2368003624
 40
0.2718711625
 40
0.3080961222
 40
0.3452855483
 40
0.3832871774
 40
0.421898834
 40
0.460893201
 40
0.5000705881
 40
0.5392327292
 40
0.5781896676
 40
0.6167544036
 40
0.6547119913
 40
0.6918675491
 40
0.7280701582
 40
0.7631321142
 40
0.7968637739
 40
0.8290807451
 40
0.8596566412
 40
0.8884056925
 40
0.9151816324
 40
0.9398223385
 40
0.9622550487
 40
0.9823513723
 40
1.0
 40
1.0
 40
1.0
 40
1.0
 10
27.5891487668
 20
31.3337357365
 30
0.0
 10
27.5883996665
 20
31.3055363165
 30
0.0
 10
27.5869541932
 20
31.245207628
 30
0.0
 10
27.585002511
 20
31.1489957876
 30
0.0
 10
27.5831352875
 20
31.0415627834
 30
0.0
 10
27.5813627573
 20
30.9234165105
 30
0.0
 10
27.5796949015
 20
30.7951534182
 30
0.0
 10
27.5781407559
 20
30.6574049868
 30
0.0
 10
27.576709759
 20
30.5109788461
 30
0.0
 10
27.5754088992
 20
30.3565901006
 30
0.0
 10
27.5742446767
 20
30.1949942418
 30
0.0
 10
27.5732229053
 20
30.0269571964
 30
0.0
 10
27.5723492245
 20
29.8533743833
 30
0.0
 10
27.5716280302
 20
29.6751012715
 30
0.0
 10
27.5710630395
 20
29.4930086731
 30
0.0
 10
27.5706573847
 20
29.3080275942
 30
0.0
 10
27.5704133388
 20
29.1211649237
 30
0.0
 10
27.5703320874
 20
28.9334212925
 30
0.0
 10
27.5704138694
 20
28.7457375503
 30
0.0
 10
27.5706581593
 20
28.5590342405
 30
0.0
 10
27.5710636447
 20
28.3742585969
 30
0.0
 10
27.5716281049
 20
28.1923657362
 30
0.0
 10
27.5723485635
 20
28.0142530474
 30
0.0
 10
27.573221492
 20
27.840774338
 30
0.0
 10
27.574242708
 20
27.6727750443
 30
0.0
 10
27.575406753
 20
27.5111541742
 30
0.0
 10
27.5767077386
 20
27.3567126415
 30
0.0
 10
27.5781388729
 20
27.2102451858
 30
0.0
 10
27.5796928811
 20
27.0724855794
 30
0.0
 10
27.5813603984
 20
26.9442248121
 30
0.0
 10
27.5831326374
 20
26.8260731313
 30
0.0
 10
27.5849999263
 20
26.7186122637
 30
0.0
 10
27.5869523817
 20
26.6223428414
 30
0.0
 10
27.5883988754
 20
26.5619649969
 30
0.0
 10
27.5891487683
 20
26.5337357383
 30
0.0
  0
SPLINE
  5
3D4
100
AcDbEntity
  8
INTFCLR_1
100
AcDbSpline
 62
7
  6
BYLAYER
 70
0
 71
3
 72
43
 73
39
 74
0
 42
0.0000001
 43
0.0000001
 44
0.0000000001
 40
0.0
 40
0.0
 40
0.0
 40
0.0
 40
0.0019625213
 40
0.0076741157
 40
0.0171183238
 40
0.0302249639
 40
0.0469484648
 40
0.0670989863
 40
0.0905178388
 40
0.1170396691
 40
0.1464920398
 40
0.1786574584
 40
0.2132377766
 40
0.2500578534
 40
0.2887398487
 40
0.3290779035
 40
0.3707330566
 40
0.4134058648
 40
0.4566613872
 40
0.5001719655
 40
0.5437531718
 40
0.5869749115
 40
0.629478319
 40
0.670992581
 40
0.7112993959
 40
0.7499135918
 40
0.7866221825
 40
0.8212142397
 40
0.853395213
 40
0.8828743117
 40
0.9094207296
 40
0.9329211051
 40
0.9530828073
 40
0.969767581
 40
0.9828636916
 40
0.9923165683
 40
0.9980306416
 40
1.0
 40
1.0
 40
1.0
 40
1.0
 10
3.973504104
 20
30.2337357379
 30
0.0
 10
3.9730472828
 20
30.2351131205
 30
0.0
 10
3.9716937068
 20
30.2405741961
 30
0.0
 10
3.9714242931
 20
30.2532243565
 30
0.0
 10
3.9702217402
 20
30.2738696567
 30
0.0
 10
3.9695132156
 20
30.3026948777
 30
0.0
 10
3.9686512837
 20
30.3393357103
 30
0.0
 10
3.9679152526
 20
30.3835583426
 30
0.0
 10
3.9672084955
 20
30.4349643023
 30
0.0
 10
3.9665670629
 20
30.4931961686
 30
0.0
 10
3.9659804031
 20
30.5578439639
 30
0.0
 10
3.9654532376
 20
30.628403529
 30
0.0
 10
3.964984856
 20
30.7043677849
 30
0.0
 10
3.9645764305
 20
30.7851123835
 30
0.0
 10
3.9642279737
 20
30.8700806023
 30
0.0
 10
3.9639400672
 20
30.9585956033
 30
0.0
 10
3.9637129198
 20
31.0500380566
 30
0.0
 10
3.9635471059
 20
31.1436206116
 30
0.0
 10
3.9634428615
 20
31.2385642132
 30
0.0
 10
3.9634002256
 20
31.3341741737
 30
0.0
 10
3.963419335
 20
31.4297593622
 30
0.0
 10
3.9635004209
 20
31.5246057568
 30
0.0
 10
3.9636435284
 20
31.6179359699
 30
0.0
 10
3.963848905
 20
31.7091279601
 30
0.0
 10
3.9641167306
 20
31.7974670343
 30
0.0
 10
3.9644471501
 20
31.8822809036
 30
0.0
 10
3.9648400383
 20
31.9629026831
 30
0.0
 10
3.9652960234
 20
32.0388052581
 30
0.0
 10
3.9658149492
 20
32.1094045151
 30
0.0
 10
3.9663974959
 20
32.1741013904
 30
0.0
 10
3.9670397639
 20
32.2324307288
 30
0.0
 10
3.9677527702
 20
32.2839225422
 30
0.0
 10
3.9684991437
 20
32.3281849135
 30
0.0
 10
3.969378209
 20
32.3647966188
 30
0.0
 10
3.9701019614
 20
32.3935937706
 30
0.0
 10
3.9713426079
 20
32.4142331214
 30
0.0
 10
3.9716206621
 20
32.4269042287
 30
0.0
 10
3.9730277314
 20
32.4323585817
 30
0.0
 10
3.973504104
 20
32.4337357379
 30
0.0
  0
SPLINE
  5
3D5
100
AcDbEntity
  8
INTFCLR_1
100
AcDbSpline
 62
7
  6
BYLAYER
 70
0
 71
3
 72
43
 73
39
 74
0
 42
0.0000001
 43
0.0000001
 44
0.0000000001
 40
0.0
 40
0.0
 40
0.0
 40
0.0
 40
0.0019637903
 40
0.007680199
 40
0.0171249012
 40
0.0302376099
 40
0.0469849879
 40
0.0671418227
 40
0.090545481
 40
0.1170655252
 40
0.1465522153
 40
0.178734977
 40
0.213293946
 40
0.2501410819
 40
0.2888534102
 40
0.3291992938
 40
0.3708223652
 40
0.4135536038
 40
0.456820202
 40
0.5002876083
 40
0.5438387234
 40
0.5870597207
 40
0.6295017102
 40
0.6708956234
 40
0.7112238739
 40
0.7498392535
 40
0.7865300258
 40
0.8211181728
 40
0.8533465347
 40
0.8828557389
 40
0.9093954534
 40
0.9329347335
 40
0.9531116321
 40
0.9697861598
 40
0.9828738075
 40
0.9923242419
 40
0.9980319272
 40
1.0
 40
1.0
 40
1.0
 40
1.0
 10
5.9738923542
 20
32.4337357379
 30
0.0
 10
5.973444587
 20
32.4323549248
 30
0.0
 10
5.9721174109
 20
32.4268826908
 30
0.0
 10
5.9718517769
 20
32.4142317156
 30
0.0
 10
5.9706691878
 20
32.393574845
 30
0.0
 10
5.9699684592
 20
32.364728307
 30
0.0
 10
5.9691155659
 20
32.3280603947
 30
0.0
 10
5.9683847424
 20
32.2838270107
 30
0.0
 10
5.967681189
 20
32.2324289831
 30
0.0
 10
5.9670398838
 20
32.1741846457
 30
0.0
 10
5.9664508344
 20
32.109500537
 30
0.0
 10
5.9659191842
 20
32.038919051
 30
0.0
 10
5.9654442252
 20
31.9629382259
 30
0.0
 10
5.9650272178
 20
31.8821675525
 30
0.0
 10
5.964668353
 20
31.7971518725
 30
0.0
 10
5.9643686117
 20
31.7086328004
 30
0.0
 10
5.9641280981
 20
31.6171656729
 30
0.0
 10
5.9639476802
 20
31.5235560632
 30
0.0
 10
5.9638278242
 20
31.4285935385
 30
0.0
 10
5.9637687332
 20
31.3330295782
 30
0.0
 10
5.9637706051
 20
31.2374990479
 30
0.0
 10
5.9638338953
 20
31.1427206804
 30
0.0
 10
5.9639587099
 20
31.0495246796
 30
0.0
 10
5.9641455043
 20
30.9584506122
 30
0.0
 10
5.9643947722
 20
30.8701835169
 30
0.0
 10
5.964707144
 20
30.7853663923
 30
0.0
 10
5.9650823843
 20
30.7047599166
 30
0.0
 10
5.9655215467
 20
30.6288387201
 30
0.0
 10
5.9660248668
 20
30.5581856531
 30
0.0
 10
5.9665931283
 20
30.4934369803
 30
0.0
 10
5.9672225716
 20
30.4350620235
 30
0.0
 10
5.9679244248
 20
30.3835355049
 30
0.0
 10
5.9686616624
 20
30.3392409421
 30
0.0
 10
5.9695335494
 20
30.3026318782
 30
0.0
 10
5.9702512667
 20
30.2738499769
 30
0.0
 10
5.9714900178
 20
30.253223765
 30
0.0
 10
5.9717655498
 20
30.2405592443
 30
0.0
 10
5.9731756337
 20
30.2351115321
 30
0.0
 10
5.973653375
 20
30.2337357379
 30
0.0
  0
SPLINE
  5
3D6
100
AcDbEntity
  8
INTFCLR_1
100
AcDbSpline
 62
7
  6
BYLAYER
 70
0
 71
3
 72
43
 73
39
 74
0
 42
0.0000001
 43
0.0000001
 44
0.0000000001
 40
0.0
 40
0.0
 40
0.0
 40
0.0
 40
0.0019602446
 40
0.007667868
 40
0.0171148462
 40
0.0302164979
 40
0.0469217713
 40
0.0670837374
 40
0.0905444534
 40
0.1170699456
 40
0.1465058363
 40
0.1786633097
 40
0.2132715141
 40
0.2500492112
 40
0.2887164734
 40
0.3290529451
 40
0.3706784299
 40
0.4132731505
 40
0.4565175097
 40
0.500084221
 40
0.5436346568
 40
0.5868528486
 40
0.6294152907
 40
0.670999428
 40
0.7112880585
 40
0.7499168582
 40
0.7866683758
 40
0.8212544635
 40
0.8534111922
 40
0.8828716901
 40
0.9094233103
 40
0.9328885778
 40
0.9530495849
 40
0.9697558767
 40
0.9828607614
 40
0.9923158225
 40
0.9980348885
 40
1.0
 40
1.0
 40
1.0
 40
1.0
 10
5.973653375
 20
30.2337357379
 30
0.0
 10
5.9741112735
 20
30.2351110757
 30
0.0
 10
5.9754683155
 20
30.2405664834
 30
0.0
 10
5.9757355973
 20
30.2532148568
 30
0.0
 10
5.9769379496
 20
30.2738549117
 30
0.0
 10
5.9776420868
 20
30.3026651438
 30
0.0
 10
5.9784991266
 20
30.339296961
 30
0.0
 10
5.9792290127
 20
30.3835449734
 30
0.0
 10
5.9799284251
 20
30.4349922361
 30
0.0
 10
5.9805610141
 20
30.4932448579
 30
0.0
 10
5.9811377074
 20
30.5578767886
 30
0.0
 10
5.9816545052
 20
30.6284381804
 30
0.0
 10
5.9821120032
 20
30.7043851943
 30
0.0
 10
5.9825094267
 20
30.7851075071
 30
0.0
 10
5.9828469309
 20
30.8700317668
 30
0.0
 10
5.9831242825
 20
30.9585120823
 30
0.0
 10
5.983341344
 20
31.049873338
 30
0.0
 10
5.9834979752
 20
31.1433676359
 30
0.0
 10
5.9835942136
 20
31.2382858927
 30
0.0
 10
5.9836300994
 20
31.3339052021
 30
0.0
 10
5.9836056854
 20
31.4295053215
 30
0.0
 10
5.9835210165
 20
31.5243687817
 30
0.0
 10
5.9833761136
 20
31.6177899006
 30
0.0
 10
5.9831709999
 20
31.7090620882
 30
0.0
 10
5.9829058505
 20
31.7974488092
 30
0.0
 10
5.9825807934
 20
31.8822906108
 30
0.0
 10
5.9821960415
 20
31.962949347
 30
0.0
 10
5.9817513948
 20
32.0388604654
 30
0.0
 10
5.9812475101
 20
32.1094232293
 30
0.0
 10
5.9806836856
 20
32.1740919458
 30
0.0
 10
5.9800640265
 20
32.232385247
 30
0.0
 10
5.9793780646
 20
32.2838545312
 30
0.0
 10
5.9786617909
 20
32.3281060243
 30
0.0
 10
5.9778198976
 20
32.3647409303
 30
0.0
 10
5.9771280101
 20
32.393559671
 30
0.0
 10
5.9759445621
 20
32.4142191195
 30
0.0
 10
5.9756826161
 20
32.4268825921
 30
0.0
 10
5.9743442347
 20
32.4323550018
 30
0.0
 10
5.9738923542
 20
32.4337357379
 30
0.0
  0
SPLINE
  5
3D7
100
AcDbEntity
  8
INTFCLR_1
100
AcDbSpline
 62
7
  6
BYLAYER
 70
0
 71
3
 72
43
 73
39
 74
0
 42
0.0000001
 43
0.0000001
 44
0.0000000001
 40
0.0
 40
0.0
 40
0.0
 40
0.0
 40
0.0019625197
 40
0.0076741247
 40
0.0171183286
 40
0.0302249835
 40
0.0469485459
 40
0.0670990625
 40
0.0905178363
 40
0.1170396569
 40
0.1464921076
 40
0.1786575768
 40
0.2132377846
 40
0.250057993
 40
0.2887400512
 40
0.3290781415
 40
0.3707332962
 40
0.4134063174
 40
0.456661881
 40
0.5001723169
 40
0.543753503
 40
0.5869752404
 40
0.6294784675
 40
0.6709924349
 40
0.711299308
 40
0.7499134859
 40
0.7866219908
 40
0.8212140433
 40
0.8533951222
 40
0.8828742987
 40
0.9094206878
 40
0.9329211835
 40
0.9530829094
 40
0.969767637
 40
0.982863722
 40
0.9923165906
 40
0.9980306445
 40
1.0
 40
1.0
 40
1.0
 40
1.0
 10
3.973504104
 20
32.4337357379
 30
0.0
 10
3.9739608837
 20
32.4323583451
 30
0.0
 10
3.9753143404
 20
32.4268972326
 30
0.0
 10
3.9755837307
 20
32.4142470861
 30
0.0
 10
3.9767861874
 20
32.3936017556
 30
0.0
 10
3.9774946643
 20
32.3647764859
 30
0.0
 10
3.9783565403
 20
32.3281355984
 30
0.0
 10
3.9790925296
 20
32.283912983
 30
0.0
 10
3.9797992516
 20
32.2325070918
 30
0.0
 10
3.9804406595
 20
32.1742752324
 30
0.0
 10
3.9810273033
 20
32.1096273492
 30
0.0
 10
3.9815544596
 20
32.0390677703
 30
0.0
 10
3.9820228394
 20
31.9631034629
 30
0.0
 10
3.9824312698
 20
31.8823588039
 30
0.0
 10
3.9827797377
 20
31.7973904178
 30
0.0
 10
3.9830676603
 20
31.7088753449
 30
0.0
 10
3.9832948289
 20
31.6174327097
 30
0.0
 10
3.983460668
 20
31.5238499685
 30
0.0
 10
3.9835649411
 20
31.4289062864
 30
0.0
 10
3.9836076086
 20
31.3332964164
 30
0.0
 10
3.9835885334
 20
31.2377113503
 30
0.0
 10
3.9835074837
 20
31.142865106
 30
0.0
 10
3.9833644143
 20
31.0495352444
 30
0.0
 10
3.9831590768
 20
30.9583435612
 30
0.0
 10
3.9828912903
 20
30.8700046748
 30
0.0
 10
3.9825609089
 20
30.7851908401
 30
0.0
 10
3.9821680577
 20
30.7045691413
 30
0.0
 10
3.9817121074
 20
30.6286665562
 30
0.0
 10
3.9811932128
 20
30.558067169
 30
0.0
 10
3.9806106937
 20
30.4933701809
 30
0.0
 10
3.9799684488
 20
30.4350407191
 30
0.0
 10
3.9792554607
 20
30.3835488219
 30
0.0
 10
3.9785091
 20
30.3392863791
 30
0.0
 10
3.9776300413
 20
30.3026747099
 30
0.0
 10
3.9769062944
 20
30.2738776157
 30
0.0
 10
3.9756656359
 20
30.2532383077
 30
0.0
 10
3.9753875831
 20
30.2405672179
 30
0.0
 10
3.9739804868
 20
30.2351128888
 30
0.0
 10
3.973504104
 20
30.2337357379
 30
0.0
  0
ELLIPSE
  5
3D8
100
AcDbEntity
  8
INTFCLR_1
100
AcDbEllipse
 62
7
  6
BYLAYER
 10
3.9820566423
 20
15.0837357379
 30
0.0
 11
0.0
 21
1.75
 31
0.0
 40
0.0122179127
 41
-0.0000000008
 42
0.4914800887
  0
ENDSEC
  0
SECTION
  2
OBJECTS
  0
DICTIONARY
  5
C
100
AcDbDictionary
280
0
281
1
  3
ACAD_GROUP
350
D
  3
ACAD_MLINESTYLE
350
17
  3
ACAD_LAYOUT
350
1A
  3
ACAD_PLOTSETTINGS
350
19
  3
ACAD_PLOTSTYLENAME
350
E
  0
DICTIONARY
  5
D
102
{ACAD_REACTORS
330
C
102
}
100
AcDbDictionary
280
0
281
1
  0
ACDBDICTIONARYWDFLT
  5
E
102
{ACAD_REACTORS
330
C
102
}
100
AcDbDictionary
281
1
  3
Normal
350
F
100
AcDbDictionaryWithDefault
340
F
  0
DICTIONARY
  5
17
102
{ACAD_REACTORS
330
C
102
}
100
AcDbDictionary
280
0
281
1
  3
Standard
350
18
  0
DICTIONARY
  5
19
102
{ACAD_REACTORS
330
C
102
}
100
AcDbDictionary
281
1
  0
DICTIONARY
  5
1A
102
{ACAD_REACTORS
330
C
102
}
100
AcDbDictionary
281
1
  3
Model
350
3D9
  3
Layout1
350
3DA
  0
ACDBPLACEHOLDER
  5
F
102
{ACAD_REACTORS
330
E
102
}
  0
MLINESTYLE
  5
18
102
{ACAD_REACTORS
330
17
102
}
100
AcDbMlineStyle
  2
STANDARD
 70
0
  3

 62
256
 51
90.0
 52
90.0
 71
2
 49
0.5
 62
256
  6
BYLAYER
 49
-0.5
 62
256
  6
BYLAYER
  0
LAYOUT
  5
3D9
102
{ACAD_REACTORS
330
1A
102
}
100
AcDbPlotSettings
  1

  2
none_device
  4

  6

 40
0.0
 41
0.0
 42
0.0
 43
0.0
 44
210.0
 45
297.0
 46
0.0
 47
0.0
 48
0.0
 49
0.0
140
0.0
141
0.0
142
1.0
143
1.0
 70
1024
 72
1
 73
0
 74
0
  7

 75
0
147
1.0
148
0.0
149
0.0
100
AcDbLayout
  1
Model
 70
0
 71
0
 10
0.0
 20
0.0
 11
210.0
 21
297.0
 12
0.0
 22
0.0
 32
0.0
 14
0.0
 24
0.0
 34
0.0
 15
0.0
 25
0.0
 35
0.0
146
0.0
 13
0.0
 23
0.0
 33
0.0
 16
1.0
 26
0.0
 36
0.0
 17
0.0
 27
1.0
 37
0.0
 76
0
330
219
345
0
346
0
  0
LAYOUT
  5
3DA
102
{ACAD_REACTORS
330
1A
102
}
100
AcDbPlotSettings
  1

  2
none_device
  4

  6

 40
0.0
 41
0.0
 42
0.0
 43
0.0
 44
210.0
 45
297.0
 46
0.0
 47
0.0
 48
0.0
 49
0.0
140
0.0
141
0.0
142
1.0
143
1.0
 70
0
 72
1
 73
0
 74
0
  7

 75
0
147
1.0
148
0.0
149
0.0
100
AcDbLayout
  1
Layout1
 70
0
 71
1
 10
0.0
 20
0.0
 11
210.0
 21
297.0
 12
0.0
 22
0.0
 32
0.0
 14
0.0
 24
0.0
 34
0.0
 15
0.0
 25
0.0
 35
0.0
146
0.0
 13
0.0
 23
0.0
 33
0.0
 16
1.0
 26
0.0
 36
0.0
 17
0.0
 27
1.0
 37
0.0
 76
0
330
21A
345
0
346
0
  0
ENDSEC
  0
EOF
