999
DXF file: C:\Users\sesa63760\Dev\_Creo\CAD\MCADID0005121_3D-CAD\drw0001_2.dxf
999
Pro/ENGINEER 2019471 by Parametric Technology Corporation
  0
SECTION
  2
HEADER
  9
$ACADVER
  1
AC1024
  9
$DWGCODEPAGE
  3
ANSI_1252
  9
$EXTMAX
 10
48.8319359169
 20
69.0623093682
 30
0.0
  9
$EXTMIN
 10
0.0
 20
0.0
 30
0.0
  9
$LIMMIN
 10
0.0
 20
0.0
  9
$LIMMAX
 10
48.8319359169
 20
69.0623093682
  9
$VIEWCTR
 10
24.4159679585
 20
34.5311546841
  9
$VIEWSIZE
 40
69.0623093682
  9
$CLAYER
  8
0
  9
$LTSCALE
 40
4.5018394255
  9
$CELTYPE
  6
BYLAYER
  9
$DIMSCALE
 40
1.0
  9
$DIMASZ
 40
0.5813325704
  9
$DIMEXO
 40
1.0
  9
$DIMDLI
 40
3.1103617849
  9
$DIMEXE
 40
1.0
  9
$DIMCEN
 40
0.7366646333
  9
$DIMLFAC
 40
1.0
  9
$DIMBLK
  1
_FILLED
  9
$DIMALT
 70
0
  9
$DIMALTF
 40
0.0393700787
  9
$DIMTXT
 40
0.8138655986
  9
$DIMTOL
 70
1
  9
$DIMLIM
 70
0
  9
$DIMTFAC
 40
1.0
  9
$DIMTP
 40
0.01
  9
$DIMTM
 40
0.01
  9
$DIMGAP
 40
0.625
  9
$DIMDSEP
 70
46
  9
$AUNITS
 70
0
  9
$PDMODE
 70
3
  9
$PDSIZE
 40
0.3125
  9
$HANDSEED
  5
29D
  9
$TILEMODE
 70
1
  9
$MEASUREMENT
 70
1
  9
$INSUNITS
 70
4
  0
ENDSEC
  0
SECTION
  2
CLASSES
  0
CLASS
  1
ACDBDICTIONARYWDFLT
  2
AcDbDictionaryWithDefault
  3
AutoCAD 2000
 90
0
 91
1
280
0
281
0
  0
CLASS
  1
ACDBPLACEHOLDER
  2
AcDbPlaceHolder
  3
AutoCAD 2000
 90
0
 91
1
280
0
281
0
  0
CLASS
  1
LAYOUT
  2
AcDbLayout
  3
AutoCAD 2000
 90
0
 91
0
280
0
281
0
  0
ENDSEC
  0
SECTION
  2
TABLES
  0
TABLE
  2
VPORT
  5
8
100
AcDbSymbolTable
 70
2
  0
VPORT
  5
1F4
100
AcDbSymbolTableRecord
100
AcDbViewportTableRecord
  2
*ACTIVE
 70
0
 10
0.0
 20
0.0
 11
1.0
 21
1.0
 12
24.4159679585
 22
34.5311546841
 13
0.0
 23
0.0
 14
1.0
 24
1.0
 15
0.0
 25
0.0
 16
0.0
 26
0.0
 36
1.0
 17
0.0
 27
0.0
 37
0.0
 40
69.0623093682
 41
0.7070707071
 42
50.0
 43
0.0
 44
0.0
 50
0.0
 51
0.0
 71
0
 72
100
 73
1
 74
1
 75
0
 76
0
 77
0
 78
0
  0
ENDTAB
  0
TABLE
  2
LTYPE
  5
5
100
AcDbSymbolTable
 70
6
  0
LTYPE
  5
14
100
AcDbSymbolTableRecord
100
AcDbLinetypeTableRecord
  2
BYBLOCK
 70
0
  3

 72
65
 73
0
 40
0.0
  0
LTYPE
  5
15
100
AcDbSymbolTableRecord
100
AcDbLinetypeTableRecord
  2
BYLAYER
 70
0
  3

 72
65
 73
0
 40
0.0
  0
LTYPE
  5
16
100
AcDbSymbolTableRecord
100
AcDbLinetypeTableRecord
  2
CONTINUOUS
 70
64
  3
Solid line
 72
65
 73
0
 40
0.0
  0
LTYPE
  5
1F5
100
AcDbSymbolTableRecord
100
AcDbLinetypeTableRecord
  2
CENTER
 70
64
  3
____ _ ____ _ ____ _ ____ _ ____ _ ____ _ ____
 72
65
 73
4
 40
0.6
 49
0.375
 74
0
 49
-0.075
 74
0
 49
0.075
 74
0
 49
-0.075
 74
0
  0
LTYPE
  5
1F6
100
AcDbSymbolTableRecord
100
AcDbLinetypeTableRecord
  2
HIDDEN
 70
64
  3
- - - - - - - - - - - - - - - - - - - -
 72
65
 73
2
 40
0.2
 49
0.1
 74
0
 49
-0.1
 74
0
  0
LTYPE
  5
1F7
100
AcDbSymbolTableRecord
100
AcDbLinetypeTableRecord
  2
PHANTOM
 70
64
  3
_____ _ _ _____ _ _ _____ _ _ _____
 72
65
 73
6
 40
0.8
 49
0.45
 74
0
 49
-0.05
 74
0
 49
0.1
 74
0
 49
-0.05
 74
0
 49
0.1
 74
0
 49
-0.05
 74
0
  0
LTYPE
  5
1F8
100
AcDbSymbolTableRecord
100
AcDbLinetypeTableRecord
  2
DOT
 70
64
  3
. . . . . . . . . . . . . . . . . . . .
 72
65
 73
2
 40
0.2
 49
0.1
 74
0
 49
-0.1
 74
0
  0
LTYPE
  5
1F9
100
AcDbSymbolTableRecord
100
AcDbLinetypeTableRecord
  2
DASHED
 70
64
  3
- - - - - - - - - - - - - - - - - - - -
 72
65
 73
2
 40
0.2
 49
0.1
 74
0
 49
-0.1
 74
0
  0
ENDTAB
  0
TABLE
  2
LAYER
  5
2
100
AcDbSymbolTable
 70
36
  0
LAYER
  5
10
100
AcDbSymbolTableRecord
100
AcDbLayerTableRecord
  2
0
 70
0
 62
7
  6
CONTINUOUS
370
-3
390
F
  0
LAYER
  5
1FA
100
AcDbSymbolTableRecord
100
AcDbLayerTableRecord
  2
DEFAULT_1
 70
0
 62
7
  6
CENTER
370
-3
390
F
  0
LAYER
  5
1FB
100
AcDbSymbolTableRecord
100
AcDbLayerTableRecord
  2
DEFAULT_2
 70
0
 62
7
  6
HIDDEN
370
-3
390
F
  0
LAYER
  5
1FC
100
AcDbSymbolTableRecord
100
AcDbLayerTableRecord
  2
DEFAULT_3
 70
0
 62
7
  6
PHANTOM
370
-3
390
F
  0
LAYER
  5
1FD
100
AcDbSymbolTableRecord
100
AcDbLayerTableRecord
  2
00_COMPONENTS
 70
0
 62
7
  6
CONTINUOUS
370
-3
390
F
  0
LAYER
  5
1FE
100
AcDbSymbolTableRecord
100
AcDbLayerTableRecord
  2
01_1_DEFAULT_DATUMS
 70
0
 62
7
  6
CONTINUOUS
370
-3
390
F
  0
LAYER
  5
1FF
100
AcDbSymbolTableRecord
100
AcDbLayerTableRecord
  2
01_PLANES
 70
0
 62
7
  6
CONTINUOUS
370
-3
390
F
  0
LAYER
  5
200
100
AcDbSymbolTableRecord
100
AcDbLayerTableRecord
  2
02_COORD_SYS
 70
0
 62
7
  6
CONTINUOUS
370
-3
390
F
  0
LAYER
  5
201
100
AcDbSymbolTableRecord
100
AcDbLayerTableRecord
  2
03_AXES
 70
0
 62
7
  6
CONTINUOUS
370
-3
390
F
  0
LAYER
  5
202
100
AcDbSymbolTableRecord
100
AcDbLayerTableRecord
  2
04_POINTS
 70
0
 62
7
  6
CONTINUOUS
370
-3
390
F
  0
LAYER
  5
203
100
AcDbSymbolTableRecord
100
AcDbLayerTableRecord
  2
05_CURVES
 70
0
 62
7
  6
CONTINUOUS
370
-3
390
F
  0
LAYER
  5
204
100
AcDbSymbolTableRecord
100
AcDbLayerTableRecord
  2
06_SURFS
 70
0
 62
7
  6
CONTINUOUS
370
-3
390
F
  0
LAYER
  5
205
100
AcDbSymbolTableRecord
100
AcDbLayerTableRecord
  2
07_COSMETICS
 70
0
 62
7
  6
CONTINUOUS
370
-3
390
F
  0
LAYER
  5
206
100
AcDbSymbolTableRecord
100
AcDbLayerTableRecord
  2
10_NOTES
 70
0
 62
7
  6
CONTINUOUS
370
-3
390
F
  0
LAYER
  5
207
100
AcDbSymbolTableRecord
100
AcDbLayerTableRecord
  2
11_NOTES_PUB
 70
0
 62
7
  6
CONTINUOUS
370
-3
390
F
  0
LAYER
  5
208
100
AcDbSymbolTableRecord
100
AcDbLayerTableRecord
  2
13_REF_GTOL
 70
0
 62
7
  6
CONTINUOUS
370
-3
390
F
  0
LAYER
  5
209
100
AcDbSymbolTableRecord
100
AcDbLayerTableRecord
  2
16_MISC
 70
0
 62
7
  6
CONTINUOUS
370
-3
390
F
  0
LAYER
  5
20A
100
AcDbSymbolTableRecord
100
AcDbLayerTableRecord
  2
17_NO_PRINT
 70
0
 62
7
  6
CONTINUOUS
370
-3
390
F
  0
LAYER
  5
20B
100
AcDbSymbolTableRecord
100
AcDbLayerTableRecord
  2
18_DATUM_CAMS_JOINTS
 70
0
 62
7
  6
CONTINUOUS
370
-3
390
F
  0
LAYER
  5
20C
100
AcDbSymbolTableRecord
100
AcDbLayerTableRecord
  2
19_DATUM_FUNCTIONAL
 70
0
 62
7
  6
CONTINUOUS
370
-3
390
F
  0
LAYER
  5
20D
100
AcDbSymbolTableRecord
100
AcDbLayerTableRecord
  2
20_DATUM_KINEMATIC_SCHEME
 70
0
 62
7
  6
CONTINUOUS
370
-3
390
F
  0
ENDTAB
  0
TABLE
  2
STYLE
  5
3
100
AcDbSymbolTable
 70
1
  0
STYLE
  5
11
100
AcDbSymbolTableRecord
100
AcDbTextStyleTableRecord
  2
STANDARD
 70
0
 40
0.0
 41
1.0
 50
0.0
 71
0
 42
0.2
  3
ARIAL.TTF
  4

  0
STYLE
  5
20E
100
AcDbSymbolTableRecord
100
AcDbTextStyleTableRecord
  2
TEXTSTYLE_1
 70
0
 40
0.0
 41
0.8
 50
0.0
 71
0
 42
0.2
  3
gdt
  4

  0
ENDTAB
  0
TABLE
  2
VIEW
  5
6
100
AcDbSymbolTable
 70
0
  0
ENDTAB
  0
TABLE
  2
UCS
  5
7
100
AcDbSymbolTable
 70
0
  0
ENDTAB
  0
TABLE
  2
APPID
  5
9
100
AcDbSymbolTable
 70
1
  0
APPID
  5
20F
100
AcDbSymbolTableRecord
100
AcDbRegAppTableRecord
  2
ACAD
 70
0
  0
ENDTAB
  0
TABLE
  2
BLOCK_RECORD
  5
1
100
AcDbSymbolTable
 70
0
  0
BLOCK_RECORD
  5
210
100
AcDbSymbolTableRecord
100
AcDbBlockTableRecord
  2
*Model_Space
  0
BLOCK_RECORD
  5
211
100
AcDbSymbolTableRecord
100
AcDbBlockTableRecord
  2
*Paper_Space
  0
BLOCK_RECORD
  5
212
100
AcDbSymbolTableRecord
100
AcDbBlockTableRecord
  2
_FILLED
  0
ENDTAB
  0
TABLE
  2
DIMSTYLE
  5
A
100
AcDbSymbolTable
 70
1
100
AcDbDimStyleTable
 71
0
  0
DIMSTYLE
105
213
100
AcDbSymbolTableRecord
100
AcDbDimStyleTableRecord
  2
STANDARD
 70
0
  3

  4

 40
1.0
 41
0.5813325704
 42
1.0
 43
0.38
 44
1.0
 45
0.0
 46
0.0
 47
0.01
 48
0.01
140
0.8138655986
141
0.09
142
0.0
143
25.4
144
1.0
145
0.0
146
1.0
147
0.625
 71
1
 72
0
 73
0
 74
0
 75
0
 76
0
 77
1
 78
8
 79
2
170
0
171
1
172
0
173
0
174
0
175
0
176
0
177
0
178
0
270
2
179
2
271
2
272
2
273
2
274
2
275
0
280
0
281
0
282
0
283
1
284
8
285
0
286
0
287
3
288
0
340
11
278
46
341
212
342
212
343
212
344
212
  0
ENDTAB
  0
ENDSEC
  0
SECTION
  2
BLOCKS
  0
BLOCK
  5
20
100
AcDbEntity
  8
0
100
AcDbBlockBegin
  2
*Model_Space
 70
0
 10
0.0
 20
0.0
 30
0.0
  3
*Model_Space
  1

  0
ENDBLK
  5
21
100
AcDbEntity
  8
0
100
AcDbBlockEnd
  0
BLOCK
  5
1C
100
AcDbEntity
  8
0
100
AcDbBlockBegin
  2
*Paper_Space
 70
0
 10
0.0
 20
0.0
 30
0.0
  3
*Paper_Space
  1

  0
ENDBLK
  5
1D
100
AcDbEntity
  8
0
100
AcDbBlockEnd
  0
BLOCK
  5
214
100
AcDbEntity
  8
0
100
AcDbBlockBegin
  2
_FILLED
 70
64
 10
0.0
 20
0.0
  3
_FILLED
  1

  0
SOLID
  5
215
100
AcDbEntity
  8
0
  6
BYBLOCK
 62
0
100
AcDbTrace
 10
0.0
 20
0.0
 11
-1.0
 21
0.25
 12
-1.0
 22
-0.25
 13
-1.0
 23
-0.25
  0
ENDBLK
  5
216
100
AcDbEntity
  8
0
  6
BYBLOCK
 62
0
100
AcDbBlockEnd
  0
ENDSEC
  0
SECTION
  2
ENTITIES
  0
LINE
  5
217
100
AcDbEntity
  8
0
100
AcDbLine
 62
7
  6
BYLAYER
 10
28.1051203599
 20
11.6622520353
 11
22.2051203599
 21
11.6622520353
  0
LINE
  5
218
100
AcDbEntity
  8
0
100
AcDbLine
 62
7
  6
BYLAYER
 10
21.4051203599
 20
13.4464625616
 11
23.3697630637
 21
13.4464625616
  0
LINE
  5
219
100
AcDbEntity
  8
0
100
AcDbLine
 62
7
  6
BYLAYER
 10
26.1402599602
 20
13.4464625616
 11
28.9051203599
 21
13.4464625616
  0
LINE
  5
21A
100
AcDbEntity
  8
0
100
AcDbLine
 62
7
  6
BYLAYER
 10
27.3817175243
 20
14.4963355427
 11
27.1178146371
 21
14.4963355427
  0
LINE
  5
21B
100
AcDbEntity
  8
0
100
AcDbLine
 62
7
  6
BYLAYER
 10
18.5051203599
 20
16.5464625616
 11
16.5051203599
 21
16.5464625616
  0
LINE
  5
21C
100
AcDbEntity
  8
0
100
AcDbLine
 62
7
  6
BYLAYER
 10
22.2755851692
 20
14.7989546014
 11
18.5051203599
 21
16.5464625616
  0
LINE
  5
21D
100
AcDbEntity
  8
0
100
AcDbLine
 62
7
  6
BYLAYER
 10
33.8051203599
 20
17.5464625616
 11
31.8051203599
 21
17.5464625616
  0
LINE
  5
21E
100
AcDbEntity
  8
0
100
AcDbLine
 62
7
  6
BYLAYER
 10
40.1051203599
 20
18.0464625616
 11
33.8051203599
 21
18.0464625616
  0
LINE
  5
21F
100
AcDbEntity
  8
0
100
AcDbLine
 62
7
  6
BYLAYER
 10
16.5051203599
 20
18.0464625616
 11
10.2051203599
 21
18.0464625616
  0
LINE
  5
220
100
AcDbEntity
  8
0
100
AcDbLine
 62
7
  6
BYLAYER
 10
40.0301203599
 20
18.2464625616
 11
30.2301203599
 21
18.2464625616
  0
LINE
  5
221
100
AcDbEntity
  8
0
100
AcDbLine
 62
7
  6
BYLAYER
 10
20.0801203599
 20
18.2464625616
 11
10.2801203599
 21
18.2464625616
  0
LINE
  5
222
100
AcDbEntity
  8
0
100
AcDbLine
 62
7
  6
BYLAYER
 10
10.2051203599
 20
50.7464625616
 11
10.2051203599
 21
18.0464625616
  0
LINE
  5
223
100
AcDbEntity
  8
0
100
AcDbLine
 62
7
  6
BYLAYER
 10
10.2801203599
 20
50.2464625616
 11
10.2801203599
 21
18.2464625616
  0
LINE
  5
224
100
AcDbEntity
  8
0
100
AcDbLine
 62
7
  6
BYLAYER
 10
10.4901203599
 20
57.1464625616
 11
10.4901203599
 21
50.7464625616
  0
LINE
  5
225
100
AcDbEntity
  8
0
100
AcDbLine
 62
7
  6
BYLAYER
 10
40.1051203599
 20
18.8264625616
 11
40.0301203599
 21
18.8264625616
  0
LINE
  5
226
100
AcDbEntity
  8
0
100
AcDbLine
 62
7
  6
BYLAYER
 10
30.2301203599
 20
18.8264625616
 11
26.4198417699
 21
18.8264625616
  0
LINE
  5
227
100
AcDbEntity
  8
0
100
AcDbLine
 62
7
  6
BYLAYER
 10
23.7631161276
 20
18.8264625616
 11
20.0801203599
 21
18.8264625616
  0
LINE
  5
228
100
AcDbEntity
  8
0
100
AcDbLine
 62
7
  6
BYLAYER
 10
10.2801203599
 20
18.8264625616
 11
10.2051203599
 21
18.8264625616
  0
LINE
  5
229
100
AcDbEntity
  8
0
100
AcDbLine
 62
7
  6
BYLAYER
 10
40.0301203599
 20
19.7464625616
 11
30.2301203599
 21
19.7464625616
  0
LINE
  5
22A
100
AcDbEntity
  8
0
100
AcDbLine
 62
7
  6
BYLAYER
 10
20.0801203599
 20
19.7464625616
 11
10.2801203599
 21
19.7464625616
  0
LINE
  5
22B
100
AcDbEntity
  8
0
100
AcDbLine
 62
7
  6
BYLAYER
 10
12.9901203599
 20
50.7464625616
 11
12.9901203599
 21
57.1464625616
  0
LINE
  5
22C
100
AcDbEntity
  8
0
100
AcDbLine
 62
7
  6
BYLAYER
 10
20.0801203599
 20
20.9464625616
 11
30.2301203599
 21
20.9464625616
  0
LINE
  5
22D
100
AcDbEntity
  8
0
100
AcDbLine
 62
7
  6
BYLAYER
 10
20.0801203599
 20
22.1464625616
 11
30.2301203599
 21
22.1464625616
  0
LINE
  5
22E
100
AcDbEntity
  8
0
100
AcDbLine
 62
7
  6
BYLAYER
 10
26.4198417699
 20
18.8264625616
 11
25.6115488563
 21
19.2343913432
  0
LINE
  5
22F
100
AcDbEntity
  8
0
100
AcDbLine
 62
7
  6
BYLAYER
 10
16.5051203599
 20
18.0464625616
 11
16.5051203599
 21
16.5464625616
  0
LINE
  5
230
100
AcDbEntity
  8
0
100
AcDbLine
 62
7
  6
BYLAYER
 10
18.4051203599
 20
15.4622520353
 11
18.4051203599
 21
16.5464625616
  0
LINE
  5
231
100
AcDbEntity
  8
0
100
AcDbLine
 62
7
  6
BYLAYER
 10
10.2051203599
 20
27.0464625616
 11
10.2801203599
 21
27.0464625616
  0
LINE
  5
232
100
AcDbEntity
  8
0
100
AcDbLine
 62
7
  6
BYLAYER
 10
40.0301203599
 20
27.0464625616
 11
40.1051203599
 21
27.0464625616
  0
LINE
  5
233
100
AcDbEntity
  8
0
100
AcDbLine
 62
7
  6
BYLAYER
 10
20.0801203599
 20
18.2464625616
 11
20.0801203599
 21
50.2464625616
  0
LINE
  5
234
100
AcDbEntity
  8
0
100
AcDbLine
 62
7
  6
BYLAYER
 10
20.9051203599
 20
15.4341277921
 11
20.9051203599
 21
13.9464625616
  0
LINE
  5
235
100
AcDbEntity
  8
0
100
AcDbLine
 62
7
  6
BYLAYER
 10
40.1051203599
 20
30.4964625616
 11
40.0301203599
 21
30.4964625616
  0
LINE
  5
236
100
AcDbEntity
  8
0
100
AcDbLine
 62
7
  6
BYLAYER
 10
10.2801203599
 20
30.4964625616
 11
10.2051203599
 21
30.4964625616
  0
LINE
  5
237
100
AcDbEntity
  8
0
100
AcDbLine
 62
7
  6
BYLAYER
 10
22.023117083
 20
16.1623882393
 11
22.023117083
 21
15.7282677952
  0
LINE
  5
238
100
AcDbEntity
  8
0
100
AcDbLine
 62
7
  6
BYLAYER
 10
26.7540943201
 20
18.4026819416
 11
26.7540943201
 21
17.9035041408
  0
LINE
  5
239
100
AcDbEntity
  8
0
100
AcDbLine
 62
7
  6
BYLAYER
 10
27.4850715572
 20
16.1623882393
 11
27.4850715572
 21
15.7282677952
  0
LINE
  5
23A
100
AcDbEntity
  8
0
100
AcDbLine
 62
7
  6
BYLAYER
 10
40.1051203599
 20
37.4150212152
 11
40.0301203599
 21
37.4150212152
  0
LINE
  5
23B
100
AcDbEntity
  8
0
100
AcDbLine
 62
7
  6
BYLAYER
 10
10.2801203599
 20
37.4150212152
 11
10.2051203599
 21
37.4150212152
  0
LINE
  5
23C
100
AcDbEntity
  8
0
100
AcDbLine
 62
7
  6
BYLAYER
 10
40.1051203599
 20
38.1267680169
 11
40.0301203599
 21
38.1267680169
  0
LINE
  5
23D
100
AcDbEntity
  8
0
100
AcDbLine
 62
7
  6
BYLAYER
 10
10.2801203599
 20
38.1267680169
 11
10.2051203599
 21
38.1267680169
  0
LINE
  5
23E
100
AcDbEntity
  8
0
100
AcDbLine
 62
7
  6
BYLAYER
 10
29.4051203599
 20
13.9464625616
 11
29.4051203599
 21
15.4341277759
  0
LINE
  5
23F
100
AcDbEntity
  8
0
100
AcDbLine
 62
7
  6
BYLAYER
 10
30.2301203599
 20
50.2464625616
 11
30.2301203599
 21
18.2464625616
  0
LINE
  5
240
100
AcDbEntity
  8
0
100
AcDbLine
 62
7
  6
BYLAYER
 10
31.8051203599
 20
16.5464625616
 11
31.8051203599
 21
17.5464625616
  0
LINE
  5
241
100
AcDbEntity
  8
0
100
AcDbLine
 62
7
  6
BYLAYER
 10
31.9051203599
 20
17.5464625616
 11
31.9051203599
 21
15.4622520353
  0
LINE
  5
242
100
AcDbEntity
  8
0
100
AcDbLine
 62
7
  6
BYLAYER
 10
33.8051203599
 20
17.5464625616
 11
33.8051203599
 21
18.0464625616
  0
LINE
  5
243
100
AcDbEntity
  8
0
100
AcDbLine
 62
7
  6
BYLAYER
 10
40.1051203599
 20
44.4464625616
 11
40.0301203599
 21
44.4464625616
  0
LINE
  5
244
100
AcDbEntity
  8
0
100
AcDbLine
 62
7
  6
BYLAYER
 10
30.2301203599
 20
44.4464625616
 11
29.7811337624
 21
44.4464625616
  0
LINE
  5
245
100
AcDbEntity
  8
0
100
AcDbLine
 62
7
  6
BYLAYER
 10
20.5291069574
 20
44.4464625616
 11
20.0801203599
 21
44.4464625616
  0
LINE
  5
246
100
AcDbEntity
  8
0
100
AcDbLine
 62
7
  6
BYLAYER
 10
10.2801203599
 20
44.4464625616
 11
10.2051203599
 21
44.4464625616
  0
LINE
  5
247
100
AcDbEntity
  8
0
100
AcDbLine
 62
7
  6
BYLAYER
 10
37.3201203599
 20
57.1464625616
 11
37.3201203599
 21
50.7464625616
  0
LINE
  5
248
100
AcDbEntity
  8
0
100
AcDbLine
 62
7
  6
BYLAYER
 10
39.8201203599
 20
50.7464625616
 11
39.8201203599
 21
57.1464625616
  0
LINE
  5
249
100
AcDbEntity
  8
0
100
AcDbLine
 62
7
  6
BYLAYER
 10
40.0301203599
 20
18.2464625616
 11
40.0301203599
 21
50.2464625616
  0
LINE
  5
24A
100
AcDbEntity
  8
0
100
AcDbLine
 62
7
  6
BYLAYER
 10
40.1051203599
 20
18.0464625616
 11
40.1051203599
 21
50.7464625616
  0
LINE
  5
24B
100
AcDbEntity
  8
0
100
AcDbLine
 62
7
  6
BYLAYER
 10
10.2801203599
 20
48.7464625616
 11
20.0801203599
 21
48.7464625616
  0
LINE
  5
24C
100
AcDbEntity
  8
0
100
AcDbLine
 62
7
  6
BYLAYER
 10
30.2301203599
 20
48.7464625616
 11
40.0301203599
 21
48.7464625616
  0
LINE
  5
24D
100
AcDbEntity
  8
0
100
AcDbLine
 62
7
  6
BYLAYER
 10
40.0301203599
 20
50.2464625616
 11
30.2301203599
 21
50.2464625616
  0
LINE
  5
24E
100
AcDbEntity
  8
0
100
AcDbLine
 62
7
  6
BYLAYER
 10
20.0801203599
 20
50.2464625616
 11
10.2801203599
 21
50.2464625616
  0
LINE
  5
24F
100
AcDbEntity
  8
0
100
AcDbLine
 62
7
  6
BYLAYER
 10
10.2051203599
 20
50.7464625616
 11
40.1051203599
 21
50.7464625616
  0
LINE
  5
250
100
AcDbEntity
  8
0
100
AcDbLine
 62
7
  6
BYLAYER
 10
10.4901203599
 20
52.1464625616
 11
12.9901203599
 21
52.1464625616
  0
LINE
  5
251
100
AcDbEntity
  8
0
100
AcDbLine
 62
7
  6
BYLAYER
 10
37.3201203599
 20
52.1464625616
 11
39.8201203599
 21
52.1464625616
  0
LINE
  5
252
100
AcDbEntity
  8
0
100
AcDbLine
 62
7
  6
BYLAYER
 10
31.8051203599
 20
16.5464625616
 11
27.0614810251
 21
14.347914627
  0
LINE
  5
253
100
AcDbEntity
  8
0
100
AcDbLine
 62
7
  6
BYLAYER
 10
39.8201203599
 20
57.1464625616
 11
37.3201203599
 21
57.1464625616
  0
LINE
  5
254
100
AcDbEntity
  8
0
100
AcDbLine
 62
7
  6
BYLAYER
 10
12.9901203599
 20
57.1464625616
 11
10.4901203599
 21
57.1464625616
  0
ARC
  5
255
100
AcDbEntity
  8
0
100
AcDbCircle
 62
7
  6
BYLAYER
 10
22.2051203599
 20
15.4622520353
 40
3.8
100
AcDbArc
 50
180.0
 51
270.0
  0
ARC
  5
256
100
AcDbEntity
  8
0
100
AcDbCircle
 62
7
  6
BYLAYER
 10
24.7537455016
 20
16.0834094626
 40
2.7684663551
100
AcDbArc
 50
89.9927809035
 51
109.6902358391
  0
ARC
  5
257
100
AcDbEntity
  8
0
100
AcDbCircle
 62
7
  6
BYLAYER
 10
24.7507912766
 20
16.0935680722
 40
2.7579064333
100
AcDbArc
 50
109.703558986
 51
117.4717672474
  0
ARC
  5
258
100
AcDbEntity
  8
0
100
AcDbCircle
 62
7
  6
BYLAYER
 10
24.830512476
 20
16.1618827422
 40
2.6545233389
100
AcDbArc
 50
0.0109107954
 51
23.5743629717
  0
ARC
  5
259
100
AcDbEntity
  8
0
100
AcDbCircle
 62
7
  6
BYLAYER
 10
21.4051203599
 20
13.9464625616
 40
0.5
100
AcDbArc
 50
180.0
 51
270.0
  0
ARC
  5
25A
100
AcDbEntity
  8
0
100
AcDbCircle
 62
7
  6
BYLAYER
 10
24.7540943201
 20
34.2464625616
 40
19.4
100
AcDbArc
 50
294.7526436507
 51
305.0659579801
  0
ARC
  5
25B
100
AcDbEntity
  8
0
100
AcDbCircle
 62
7
  6
BYLAYER
 10
24.7540943201
 20
34.2464625616
 40
19.4
100
AcDbArc
 50
281.573867494
 51
287.4733516259
  0
ARC
  5
25C
100
AcDbEntity
  8
0
100
AcDbCircle
 62
7
  6
BYLAYER
 10
24.7540943201
 20
34.2464625616
 40
19.4
100
AcDbArc
 50
243.423107895
 51
247.5984235728
  0
ARC
  5
25D
100
AcDbEntity
  8
0
100
AcDbCircle
 62
7
  6
BYLAYER
 10
24.7540943201
 20
34.2464625616
 40
19.4
100
AcDbArc
 50
234.9340420199
 51
241.6598741257
  0
ARC
  5
25E
100
AcDbEntity
  8
0
100
AcDbCircle
 62
7
  6
BYLAYER
 10
24.7540943201
 20
34.2464625616
 40
19.4
100
AcDbArc
 50
141.1153149061
 51
218.8846850939
  0
ARC
  5
25F
100
AcDbEntity
  8
0
100
AcDbCircle
 62
7
  6
BYLAYER
 10
24.7540943201
 20
34.2464625616
 40
19.4
100
AcDbArc
 50
56.6318551949
 51
123.3681448051
  0
ARC
  5
260
100
AcDbEntity
  8
0
100
AcDbCircle
 62
7
  6
BYLAYER
 10
24.7540943201
 20
34.2464625616
 40
19.4
100
AcDbArc
 50
324.4520520616
 51
35.5479479384
  0
ARC
  5
261
100
AcDbEntity
  8
0
100
AcDbCircle
 62
7
  6
BYLAYER
 10
24.7540943201
 20
34.2464625616
 40
18.0307336141
100
AcDbArc
 50
67.4439317746
 51
112.5560682254
  0
ARC
  5
262
100
AcDbEntity
  8
0
100
AcDbCircle
 62
7
  6
BYLAYER
 10
24.7540943201
 20
34.2464625616
 40
18.0307336141
100
AcDbArc
 50
143.8276429557
 51
216.1723570443
  0
ARC
  5
263
100
AcDbEntity
  8
0
100
AcDbCircle
 62
7
  6
BYLAYER
 10
24.7540943201
 20
34.2464625616
 40
18.0307336141
100
AcDbArc
 50
329.3686052456
 51
30.6313947544
  0
ARC
  5
264
100
AcDbEntity
  8
0
100
AcDbCircle
 62
7
  6
BYLAYER
 10
24.7540943201
 20
34.2464625616
 40
15.4564221287
100
AcDbArc
 50
160.7623220377
 51
199.2376779623
  0
ARC
  5
265
100
AcDbEntity
  8
0
100
AcDbCircle
 62
7
  6
BYLAYER
 10
24.7540943201
 20
34.2464625616
 40
15.4564221287
100
AcDbArc
 50
357.4921985363
 51
2.5078014637
  0
ARC
  5
266
100
AcDbEntity
  8
0
100
AcDbCircle
 62
7
  6
BYLAYER
 10
24.7540943201
 20
34.2464625616
 40
15.0
100
AcDbArc
 50
167.10285415
 51
167.7260891773
  0
ARC
  5
267
100
AcDbEntity
  8
0
100
AcDbCircle
 62
7
  6
BYLAYER
 10
24.7540943201
 20
34.2464625616
 40
15.0
100
AcDbArc
 50
168.9417097685
 51
191.0582902315
  0
ARC
  5
268
100
AcDbEntity
  8
0
100
AcDbCircle
 62
7
  6
BYLAYER
 10
25.1551203599
 20
34.2464625616
 40
11.2
100
AcDbArc
 50
240.1970883869
 51
299.7994830211
  0
ARC
  5
269
100
AcDbEntity
  8
0
100
AcDbCircle
 62
7
  6
BYLAYER
 10
25.1551203599
 20
34.2464625616
 40
11.2
100
AcDbArc
 50
63.287939906
 51
116.712060094
  0
ARC
  5
26A
100
AcDbEntity
  8
0
100
AcDbCircle
 62
7
  6
BYLAYER
 10
24.7540943201
 20
34.1907268783
 40
10.9308309416
100
AcDbArc
 50
59.8961070684
 51
115.5127096815
  0
ARC
  5
26B
100
AcDbEntity
  8
0
100
AcDbCircle
 62
7
  6
BYLAYER
 10
24.7540943201
 20
34.1907268783
 40
10.9308309416
100
AcDbArc
 50
256.0607151457
 51
301.5737294566
  0
ARC
  5
26C
100
AcDbEntity
  8
0
100
AcDbCircle
 62
7
  6
BYLAYER
 10
24.7540943201
 20
34.1907268783
 40
10.9308309416
100
AcDbArc
 50
243.8472270264
 51
252.988480815
  0
ARC
  5
26D
100
AcDbEntity
  8
0
100
AcDbCircle
 62
7
  6
BYLAYER
 10
24.7540943201
 20
34.1907268783
 40
8.7556588635
100
AcDbArc
 50
47.75277626
 51
126.0302956939
  0
ARC
  5
26E
100
AcDbEntity
  8
0
100
AcDbCircle
 62
7
  6
BYLAYER
 10
24.7540943201
 20
34.1907268783
 40
8.7556588635
100
AcDbArc
 50
233.9983879485
 51
312.2795016333
  0
ARC
  5
26F
100
AcDbEntity
  8
0
100
AcDbCircle
 62
7
  6
BYLAYER
 10
15.132416906
 20
42.4713090898
 40
2.9455325945
100
AcDbArc
 50
265.489748807
 51
269.9992791569
  0
ARC
  5
270
100
AcDbEntity
  8
0
100
AcDbCircle
 62
7
  6
BYLAYER
 10
15.1502023037
 20
42.6954127379
 40
2.945475903
100
AcDbArc
 50
85.4897013929
 51
89.9992489124
  0
ARC
  5
271
100
AcDbEntity
  8
0
100
AcDbCircle
 62
7
  6
BYLAYER
 10
15.0707274168
 20
43.0851865032
 40
2.8906158834
100
AcDbArc
 50
180.724294004
 51
185.2277161412
  0
ARC
  5
272
100
AcDbEntity
  8
0
100
AcDbCircle
 62
7
  6
BYLAYER
 10
15.2909634736
 20
43.0675840199
 40
2.889330667
100
AcDbArc
 50
345.7572502362
 51
351.0683090264
  0
ARC
  5
273
100
AcDbEntity
  8
0
100
AcDbCircle
 62
7
  6
BYLAYER
 10
28.1051203599
 20
15.4622520353
 40
3.8
100
AcDbArc
 50
270.0
 51
360.0
  0
ARC
  5
274
100
AcDbEntity
  8
0
100
AcDbCircle
 62
7
  6
BYLAYER
 10
25.1619725971
 20
17.1339337852
 40
2.149290763
100
AcDbArc
 50
134.6285715146
 51
137.5680070944
  0
ARC
  5
275
100
AcDbEntity
  8
0
100
AcDbCircle
 62
7
  6
BYLAYER
 10
25.1581106688
 20
17.1387239337
 40
2.1431687832
100
AcDbArc
 50
110.4374515604
 51
134.6450578404
  0
ARC
  5
276
100
AcDbEntity
  8
0
100
AcDbCircle
 62
7
  6
BYLAYER
 10
28.9051203599
 20
13.9464625616
 40
0.5
100
AcDbArc
 50
270.0
 51
360.0
  0
ARC
  5
277
100
AcDbEntity
  8
0
100
AcDbCircle
 62
7
  6
BYLAYER
 10
35.1778244553
 20
42.4713096166
 40
2.9455330504
100
AcDbArc
 50
270.00070758
 51
274.5102417357
  0
ARC
  5
278
100
AcDbEntity
  8
0
100
AcDbCircle
 62
7
  6
BYLAYER
 10
35.1600376758
 20
42.6954147363
 40
2.9454738565
100
AcDbArc
 50
90.0007409351
 51
94.5102865106
  0
ARC
  5
279
100
AcDbEntity
  8
0
100
AcDbCircle
 62
7
  6
BYLAYER
 10
35.2396084449
 20
43.085179311
 40
2.8905206931
100
AcDbArc
 50
354.7725158912
 51
359.2788565257
  0
ARC
  5
27A
100
AcDbEntity
  8
0
100
AcDbCircle
 62
7
  6
BYLAYER
 10
35.0193347498
 20
43.0675997856
 40
2.8893901472
100
AcDbArc
 50
188.937772849
 51
194.2433999308
  0
SPLINE
  5
27B
100
AcDbEntity
  8
0
100
AcDbSpline
 62
7
  6
BYLAYER
 70
0
 71
3
 72
15
 73
11
 74
0
 42
0.0000001
 43
0.0000001
 44
0.0000000001
 40
0.0
 40
0.0
 40
0.0
 40
0.0
 40
0.1250036201
 40
0.2500085292
 40
0.375012064
 40
0.5000125837
 40
0.6250114666
 40
0.7500115052
 40
0.8750089928
 40
1.0
 40
1.0
 40
1.0
 40
1.0
 10
12.1501683002
 20
42.8193330098
 30
0.0
 10
12.1649907061
 20
43.0070848133
 30
0.0
 10
12.2288904309
 20
43.3807850775
 30
0.0
 10
12.4244007133
 20
43.9140776283
 30
0.0
 10
12.7136743581
 20
44.403154778
 30
0.0
 10
13.0877395313
 20
44.8308964059
 30
0.0
 10
13.5345943495
 20
45.1820097216
 30
0.0
 10
14.0393825559
 20
45.4433090069
 30
0.0
 10
14.5842871606
 20
45.6045278632
 30
0.0
 10
14.9619239333
 20
45.6408886029
 30
0.0
 10
15.1502409158
 20
45.6408886406
 30
0.0
  0
SPLINE
  5
27C
100
AcDbEntity
  8
0
100
AcDbSpline
 62
7
  6
BYLAYER
 70
0
 71
3
 72
15
 73
11
 74
0
 42
0.0000001
 43
0.0000001
 44
0.0000000001
 40
0.0
 40
0.0
 40
0.0
 40
0.0
 40
0.1249941883
 40
0.2499852944
 40
0.3749832348
 40
0.4999784
 40
0.6249789949
 40
0.749984433
 40
0.8749924756
 40
1.0
 40
1.0
 40
1.0
 40
1.0
 10
15.3818294771
 20
45.6317671353
 30
0.0
 10
15.5791518823
 20
45.6161984249
 30
0.0
 10
15.9717852066
 20
45.5448887669
 30
0.0
 10
16.5264407833
 20
45.3223422526
 30
0.0
 10
17.0259094731
 20
44.9938558928
 30
0.0
 10
17.4506914872
 20
44.5733961249
 30
0.0
 10
17.7853182994
 20
44.0782581757
 30
0.0
 10
18.0181144051
 20
43.5278625813
 30
0.0
 10
18.1414175109
 20
42.9433836568
 30
0.0
 10
18.1480282277
 20
42.5446748831
 30
0.0
 10
18.1324486485
 20
42.3473321514
 30
0.0
  0
SPLINE
  5
27D
100
AcDbEntity
  8
0
100
AcDbSpline
 62
7
  6
BYLAYER
 70
0
 71
3
 72
11
 73
7
 74
0
 42
0.0000001
 43
0.0000001
 44
0.0000000001
 40
0.0
 40
0.0
 40
0.0
 40
0.0
 40
0.2507409871
 40
0.5009774329
 40
0.7506519662
 40
1.0
 40
1.0
 40
1.0
 40
1.0
 10
17.3014407035
 20
27.0816332552
 30
0.0
 10
17.4139090187
 20
26.9708735864
 30
0.0
 10
17.6213413693
 20
26.7312103001
 30
0.0
 10
17.8706903818
 20
26.3274727895
 30
0.0
 10
18.0517729208
 20
25.8897945095
 30
0.0
 10
18.1240351898
 20
25.5824060395
 30
0.0
 10
18.1474685257
 20
25.4271912507
 30
0.0
  0
SPLINE
  5
27E
100
AcDbEntity
  8
0
100
AcDbSpline
 62
7
  6
BYLAYER
 70
0
 71
3
 72
11
 73
7
 74
0
 42
0.0000001
 43
0.0000001
 44
0.0000000001
 40
0.0
 40
0.0
 40
0.0
 40
0.0
 40
0.2506441361
 40
0.5010059746
 40
0.7508452427
 40
1.0
 40
1.0
 40
1.0
 40
1.0
 10
15.1801202227
 20
27.9469638066
 30
0.0
 10
15.3761259454
 20
27.9469638095
 30
0.0
 10
15.7689637431
 20
27.9089308517
 30
0.0
 10
16.3349781648
 20
27.7398602324
 30
0.0
 10
16.8567959835
 20
27.4654324255
 30
0.0
 10
17.1626168117
 20
27.2183481002
 30
0.0
 10
17.3014407035
 20
27.0816332552
 30
0.0
  0
SPLINE
  5
27F
100
AcDbEntity
  8
0
100
AcDbSpline
 62
7
  6
BYLAYER
 70
0
 71
3
 72
11
 73
7
 74
0
 42
0.0000001
 43
0.0000001
 44
0.0000000001
 40
0.0
 40
0.0
 40
0.0
 40
0.0
 40
0.2502580552
 40
0.5005064717
 40
0.7504964431
 40
1.0
 40
1.0
 40
1.0
 40
1.0
 10
15.1802030902
 20
40.1319019736
 30
0.0
 10
15.0399757817
 20
40.1323114613
 30
0.0
 10
14.7592093681
 20
40.1525256783
 30
0.0
 10
14.3466026747
 20
40.2401814814
 30
0.0
 10
13.950391939
 20
40.3836768142
 30
0.0
 10
13.7019207063
 20
40.5147781518
 30
0.0
 10
13.5831056805
 20
40.5884562736
 30
0.0
  0
SPLINE
  5
280
100
AcDbEntity
  8
0
100
AcDbSpline
 62
7
  6
BYLAYER
 70
0
 71
3
 72
15
 73
11
 74
0
 42
0.0000001
 43
0.0000001
 44
0.0000000001
 40
0.0
 40
0.0
 40
0.0
 40
0.0
 40
0.1258294578
 40
0.2515157245
 40
0.3768698168
 40
0.5019412915
 40
0.6267685189
 40
0.7513592372
 40
0.8757522384
 40
1.0
 40
1.0
 40
1.0
 40
1.0
 10
13.5831056805
 20
40.5884562736
 30
0.0
 10
13.4859435105
 20
40.6487072911
 30
0.0
 10
13.2984283192
 20
40.7803437229
 30
0.0
 10
13.041791365
 20
41.0081060704
 30
0.0
 10
12.8133821092
 20
41.263317364
 30
0.0
 10
12.6162784415
 20
41.5424433355
 30
0.0
 10
12.4529791957
 20
41.8418200935
 30
0.0
 10
12.3257479972
 20
42.1575658617
 30
0.0
 10
12.2361783092
 20
42.4853971787
 30
0.0
 10
12.2024183146
 20
42.7093893965
 30
0.0
 10
12.1921352245
 20
42.8218100124
 30
0.0
  0
SPLINE
  5
281
100
AcDbEntity
  8
0
100
AcDbSpline
 62
7
  6
BYLAYER
 70
0
 71
3
 72
15
 73
11
 74
0
 42
0.0000001
 43
0.0000001
 44
0.0000000001
 40
0.0
 40
0.0
 40
0.0
 40
0.0
 40
0.1240487215
 40
0.248302419
 40
0.3728431688
 40
0.4977154728
 40
0.6229254809
 40
0.7484259004
 40
0.8741619486
 40
1.0
 40
1.0
 40
1.0
 40
1.0
 10
12.2114020164
 20
25.4179913693
 30
0.0
 10
12.2370446579
 20
25.5915976257
 30
0.0
 10
12.3201195718
 20
25.9352357486
 30
0.0
 10
12.535253875
 20
26.4198061343
 30
0.0
 10
12.8342730881
 20
26.8592088759
 30
0.0
 10
13.2076041131
 20
27.2393188791
 30
0.0
 10
13.643387211
 20
27.5481473622
 30
0.0
 10
14.1278387462
 20
27.7759966146
 30
0.0
 10
14.6454128026
 20
27.9156001603
 30
0.0
 10
15.0020990639
 20
27.9469638039
 30
0.0
 10
15.1801202227
 20
27.9469638066
 30
0.0
  0
SPLINE
  5
282
100
AcDbEntity
  8
0
100
AcDbSpline
 62
7
  6
BYLAYER
 70
0
 71
3
 72
15
 73
11
 74
0
 42
0.0000001
 43
0.0000001
 44
0.0000000001
 40
0.0
 40
0.0
 40
0.0
 40
0.0
 40
0.1250036217
 40
0.2500085325
 40
0.375012069
 40
0.5000125905
 40
0.625011475
 40
0.7500115121
 40
0.8750089948
 40
1.0
 40
1.0
 40
1.0
 40
1.0
 10
18.1324486485
 20
42.3473321514
 30
0.0
 10
18.1176262547
 20
42.1595805031
 30
0.0
 10
18.0537266118
 20
41.7858805471
 30
0.0
 10
17.8582166132
 20
41.2525883974
 30
0.0
 10
17.5689433969
 20
40.7635115466
 30
0.0
 10
17.1948787642
 20
40.3357700741
 30
0.0
 10
16.7480245717
 20
39.9846567507
 30
0.0
 10
16.2432370227
 20
39.7233572157
 30
0.0
 10
15.698333063
 20
39.5621381035
 30
0.0
 10
15.3206966692
 20
39.5257764955
 30
0.0
 10
15.132379848
 20
39.5257764955
 30
0.0
  0
SPLINE
  5
283
100
AcDbEntity
  8
0
100
AcDbSpline
 62
7
  6
BYLAYER
 70
0
 71
3
 72
17
 73
13
 74
0
 42
0.0000001
 43
0.0000001
 44
0.0000000001
 40
0.0
 40
0.0
 40
0.0
 40
0.0
 40
0.1238536538
 40
0.2479506836
 40
0.372377846
 40
0.4347853866
 40
0.497291507
 40
0.6224902458
 40
0.7480326299
 40
0.8109714113
 40
0.8739945736
 40
1.0
 40
1.0
 40
1.0
 40
1.0
 10
18.09148204
 20
42.3567201349
 30
0.0
 10
18.0514366782
 20
42.1989509437
 30
0.0
 10
17.9443451829
 20
41.8892399523
 30
0.0
 10
17.7080625721
 20
41.4582165909
 30
0.0
 10
17.4533031717
 20
41.1360435901
 30
0.0
 10
17.2193908371
 20
40.9060955967
 30
0.0
 10
16.9664474893
 20
40.6956529177
 30
0.0
 10
16.618106148
 20
40.4725317952
 30
0.0
 10
16.2374212816
 20
40.3092981292
 30
0.0
 10
15.919657176
 20
40.2170948257
 30
0.0
 10
15.594904996
 20
40.151019841
 30
0.0
 10
15.3458023821
 20
40.1314183954
 30
0.0
 10
15.1802030902
 20
40.1319019736
 30
0.0
  0
SPLINE
  5
284
100
AcDbEntity
  8
0
100
AcDbSpline
 62
7
  6
BYLAYER
 70
0
 71
3
 72
15
 73
11
 74
0
 42
0.0000001
 43
0.0000001
 44
0.0000000001
 40
0.0
 40
0.0
 40
0.0
 40
0.0
 40
0.1249941885
 40
0.2499852944
 40
0.3749832351
 40
0.4999784001
 40
0.624978995
 40
0.7499844329
 40
0.8749924756
 40
1.0
 40
1.0
 40
1.0
 40
1.0
 10
14.9007877044
 20
39.5348979847
 30
0.0
 10
14.7034652875
 20
39.5504666762
 30
0.0
 10
14.3108319448
 20
39.6217763484
 30
0.0
 10
13.7561763216
 20
39.8443228198
 30
0.0
 10
13.2567075902
 20
40.1728091742
 30
0.0
 10
12.8319255358
 20
40.5932689432
 30
0.0
 10
12.4972986901
 20
41.0884069058
 30
0.0
 10
12.2645025597
 20
41.6388025223
 30
0.0
 10
12.141199439
 20
42.2232814745
 30
0.0
 10
12.1345887204
 20
42.6219902682
 30
0.0
 10
12.1501683002
 20
42.8193330098
 30
0.0
  0
SPLINE
  5
285
100
AcDbEntity
  8
0
100
AcDbSpline
 62
7
  6
BYLAYER
 70
0
 71
3
 72
15
 73
11
 74
0
 42
0.0000001
 43
0.0000001
 44
0.0000000001
 40
0.0
 40
0.0
 40
0.0
 40
0.0
 40
0.1250035813
 40
0.2500083786
 40
0.3750117576
 40
0.5000121648
 40
0.625011015
 40
0.7500111149
 40
0.8750087898
 40
1.0
 40
1.0
 40
1.0
 40
1.0
 10
38.160072328
 20
42.8193330019
 30
0.0
 10
38.1452499328
 20
43.0070847503
 30
0.0
 10
38.081350239
 20
43.3807847987
 30
0.0
 10
37.8858401284
 20
43.9140769077
 30
0.0
 10
37.5965671059
 20
44.4031537572
 30
0.0
 10
37.2225023345
 20
44.8308951645
 30
0.0
 10
36.7756477526
 20
45.182008541
 30
0.0
 10
36.2708595144
 20
45.4433085304
 30
0.0
 10
35.7259542169
 20
45.6045275259
 30
0.0
 10
35.3483168766
 20
45.6408885549
 30
0.0
 10
35.1599995856
 20
45.6408885925
 30
0.0
  0
SPLINE
  5
286
100
AcDbEntity
  8
0
100
AcDbSpline
 62
7
  6
BYLAYER
 70
0
 71
3
 72
15
 73
11
 74
0
 42
0.0000001
 43
0.0000001
 44
0.0000000001
 40
0.0
 40
0.0
 40
0.0
 40
0.0
 40
0.124994463
 40
0.2499857345
 40
0.3749836876
 40
0.4999787568
 40
0.6249792256
 40
0.7499845319
 40
0.8749925064
 40
1.0
 40
1.0
 40
1.0
 40
1.0
 10
34.9284112832
 20
45.6317671425
 30
0.0
 10
34.7310884463
 20
45.6161984046
 30
0.0
 10
34.3384544874
 20
45.5448882763
 30
0.0
 10
33.7837983095
 20
45.3223413811
 30
0.0
 10
33.2843297086
 20
44.9938546407
 30
0.0
 10
32.8595481847
 20
44.573394845
 30
0.0
 10
32.524922161
 20
44.0782570904
 30
0.0
 10
32.2921260394
 20
43.5278620807
 30
0.0
 10
32.1688233748
 20
42.9433834303
 30
0.0
 10
32.1622125935
 20
42.5446748403
 30
0.0
 10
32.1777921624
 20
42.3473321592
 30
0.0
  0
SPLINE
  5
287
100
AcDbEntity
  8
0
100
AcDbSpline
 62
7
  6
BYLAYER
 70
0
 71
3
 72
15
 73
11
 74
0
 42
0.0000001
 43
0.0000001
 44
0.0000000001
 40
0.0
 40
0.0
 40
0.0
 40
0.0
 40
0.1258357818
 40
0.2515704384
 40
0.3770699597
 40
0.5022802231
 40
0.627153601
 40
0.7516958903
 40
0.8759509266
 40
1.0
 40
1.0
 40
1.0
 40
1.0
 10
35.1301206868
 20
27.9469637774
 30
0.0
 10
35.3077658425
 20
27.9469637726
 30
0.0
 10
35.6636966019
 20
27.915732684
 30
0.0
 10
36.1802475887
 20
27.7767149108
 30
0.0
 10
36.663882873
 20
27.5497997909
 30
0.0
 10
37.0991485889
 20
27.2421962534
 30
0.0
 10
37.4723355525
 20
26.863521077
 30
0.0
 10
37.7716394932
 20
26.4256681074
 30
0.0
 10
37.9875179682
 20
25.9426526983
 30
0.0
 10
38.0714018856
 20
25.5999808518
 30
0.0
 10
38.097521316
 20
25.4268168331
 30
0.0
  0
SPLINE
  5
288
100
AcDbEntity
  8
0
100
AcDbSpline
 62
7
  6
BYLAYER
 70
0
 71
3
 72
11
 73
7
 74
0
 42
0.0000001
 43
0.0000001
 44
0.0000000001
 40
0.0
 40
0.0
 40
0.0
 40
0.0
 40
0.2491547574
 40
0.4989940256
 40
0.7493558642
 40
1.0
 40
1.0
 40
1.0
 40
1.0
 10
33.0088000163
 20
27.0816332552
 30
0.0
 10
33.1476239192
 20
27.218348111
 30
0.0
 10
33.4534447739
 20
27.4654324554
 30
0.0
 10
33.9752626415
 20
27.739860266
 30
0.0
 10
34.5412771134
 20
27.9089308998
 30
0.0
 10
34.9341149487
 20
27.9469637827
 30
0.0
 10
35.1301206868
 20
27.9469637774
 30
0.0
  0
SPLINE
  5
289
100
AcDbEntity
  8
0
100
AcDbSpline
 62
7
  6
BYLAYER
 70
0
 71
3
 72
17
 73
13
 74
0
 42
0.0000001
 43
0.0000001
 44
0.0000000001
 40
0.0
 40
0.0
 40
0.0
 40
0.0
 40
0.1260050108
 40
0.1890279758
 40
0.2519666573
 40
0.3775090056
 40
0.5027078664
 40
0.5652141042
 40
0.6276217874
 40
0.7520492839
 40
0.8761465142
 40
1.0
 40
1.0
 40
1.0
 40
1.0
 10
35.1300376296
 20
40.1319019736
 30
0.0
 10
34.9644402129
 20
40.1314184009
 30
0.0
 10
34.7153404016
 20
40.151019256
 30
0.0
 10
34.3905916367
 20
40.2170929562
 30
0.0
 10
34.0728301968
 20
40.3092943169
 30
0.0
 10
33.6921477899
 20
40.4725251438
 30
0.0
 10
33.3438077238
 20
40.6956425635
 30
0.0
 10
33.0908648083
 20
40.9060824074
 30
0.0
 10
32.8569519994
 20
41.1360272626
 30
0.0
 10
32.6021916855
 20
41.4581965023
 30
0.0
 10
32.3659072973
 20
41.889214859
 30
0.0
 10
32.2588131801
 20
42.198922181
 30
0.0
 10
32.2187665986
 20
42.356689487
 30
0.0
  0
SPLINE
  5
28A
100
AcDbEntity
  8
0
100
AcDbSpline
 62
7
  6
BYLAYER
 70
0
 71
3
 72
11
 73
7
 74
0
 42
0.0000001
 43
0.0000001
 44
0.0000000001
 40
0.0
 40
0.0
 40
0.0
 40
0.0
 40
0.2495035569
 40
0.4994935283
 40
0.7497419448
 40
1.0
 40
1.0
 40
1.0
 40
1.0
 10
36.7271350393
 20
40.5884562736
 30
0.0
 10
36.6083200135
 20
40.5147781518
 30
0.0
 10
36.3598487808
 20
40.3836768142
 30
0.0
 10
35.9636380451
 20
40.2401814814
 30
0.0
 10
35.5510313517
 20
40.1525256783
 30
0.0
 10
35.270264938
 20
40.1323114613
 30
0.0
 10
35.1300376296
 20
40.1319019736
 30
0.0
  0
SPLINE
  5
28B
100
AcDbEntity
  8
0
100
AcDbSpline
 62
7
  6
BYLAYER
 70
0
 71
3
 72
15
 73
11
 74
0
 42
0.0000001
 43
0.0000001
 44
0.0000000001
 40
0.0
 40
0.0
 40
0.0
 40
0.0
 40
0.1250035844
 40
0.2500083852
 40
0.375011768
 40
0.5000121794
 40
0.6250110332
 40
0.7500111327
 40
0.8750087983
 40
1.0
 40
1.0
 40
1.0
 40
1.0
 10
32.1777921624
 20
42.3473321592
 30
0.0
 10
32.1926145451
 20
42.1595805745
 30
0.0
 10
32.2565141519
 20
41.7858808503
 30
0.0
 10
32.4520239644
 20
41.252589163
 30
0.0
 10
32.7412965372
 20
40.7635126262
 30
0.0
 10
33.1153607413
 20
40.3357713815
 30
0.0
 10
33.562214665
 20
39.9846579941
 30
0.0
 10
34.067002207
 20
39.7233577601
 30
0.0
 10
34.6119067956
 20
39.5621384581
 30
0.0
 10
34.9895437222
 20
39.5257765664
 30
0.0
 10
35.1778608315
 20
39.5257765664
 30
0.0
  0
SPLINE
  5
28C
100
AcDbEntity
  8
0
100
AcDbSpline
 62
7
  6
BYLAYER
 70
0
 71
3
 72
15
 73
11
 74
0
 42
0.0000001
 43
0.0000001
 44
0.0000000001
 40
0.0
 40
0.0
 40
0.0
 40
0.0
 40
0.1242474177
 40
0.2486401257
 40
0.3732306436
 40
0.4980577765
 40
0.6231292605
 40
0.7484835216
 40
0.8741701878
 40
1.0
 40
1.0
 40
1.0
 40
1.0
 10
38.1181069093
 20
42.8218231505
 30
0.0
 10
38.1078242491
 20
42.7094022594
 30
0.0
 10
38.0740649591
 20
42.4854094184
 30
0.0
 10
37.9844966052
 20
42.1575768197
 30
0.0
 10
37.8572660815
 20
41.8418295633
 30
0.0
 10
37.6939671864
 20
41.5424510226
 30
0.0
 10
37.4968632576
 20
41.2633231065
 30
0.0
 10
37.2684531331
 20
41.0081096368
 30
0.0
 10
37.011814493
 20
40.7803454037
 30
0.0
 10
36.8242979541
 20
40.648707753
 30
0.0
 10
36.7271350393
 20
40.5884562736
 30
0.0
  0
SPLINE
  5
28D
100
AcDbEntity
  8
0
100
AcDbSpline
 62
7
  6
BYLAYER
 70
0
 71
3
 72
15
 73
11
 74
0
 42
0.0000001
 43
0.0000001
 44
0.0000000001
 40
0.0
 40
0.0
 40
0.0
 40
0.0
 40
0.1249944635
 40
0.249985735
 40
0.3749836884
 40
0.4999787569
 40
0.6249792253
 40
0.7499845313
 40
0.874992506
 40
1.0
 40
1.0
 40
1.0
 40
1.0
 10
35.4094532081
 20
39.5348980187
 30
0.0
 10
35.6067760459
 20
39.5504667567
 30
0.0
 10
35.9994100056
 20
39.621776885
 30
0.0
 10
36.554066184
 20
39.8443237821
 30
0.0
 10
37.0535347844
 20
40.1728105215
 30
0.0
 10
37.4783163062
 20
40.5932703177
 30
0.0
 10
37.8129423293
 20
41.0884080697
 30
0.0
 10
38.0457384503
 20
41.6388030789
 30
0.0
 10
38.1690411159
 20
42.2232817294
 30
0.0
 10
38.1756518965
 20
42.6219903203
 30
0.0
 10
38.160072328
 20
42.8193330019
 30
0.0
  0
SPLINE
  5
28E
100
AcDbEntity
  8
0
100
AcDbSpline
 62
7
  6
BYLAYER
 70
0
 71
3
 72
11
 73
7
 74
0
 42
0.0000001
 43
0.0000001
 44
0.0000000001
 40
0.0
 40
0.0
 40
0.0
 40
0.0
 40
0.2493471699
 40
0.4990207695
 40
0.749255881
 40
1.0
 40
1.0
 40
1.0
 40
1.0
 10
32.1614530856
 20
25.4183622752
 30
0.0
 10
32.1845187378
 20
25.574379204
 30
0.0
 10
32.2562957713
 20
25.883423607
 30
0.0
 10
32.4373995526
 20
26.3235256628
 30
0.0
 10
32.6874701049
 20
26.7294677431
 30
0.0
 10
32.8958004178
 20
26.9703503745
 30
0.0
 10
33.0088000163
 20
27.0816332552
 30
0.0
  0
SPLINE
  5
28F
100
AcDbEntity
  8
0
100
AcDbSpline
 62
7
  6
BYLAYER
 70
0
 71
3
 72
17
 73
13
 74
0
 42
0.0000001
 43
0.0000001
 44
0.0000000001
 40
0.0
 40
0.0
 40
0.0
 40
0.0
 40
0.1240177648
 40
0.2481810871
 40
0.372611201
 40
0.4350269181
 40
0.4975365941
 40
0.6226934343
 40
0.7481762598
 40
0.8111048464
 40
0.8741218632
 40
1.0
 40
1.0
 40
1.0
 40
1.0
 10
27.4850357668
 20
15.7282677932
 30
0.0
 10
27.4850371584
 20
15.5525060813
 30
0.0
 10
27.449773641
 20
15.1997590225
 30
0.0
 10
27.2932724466
 20
14.6920016549
 30
0.0
 10
27.0814008934
 20
14.3018741624
 30
0.0
 10
26.8684346351
 20
14.019251037
 30
0.0
 10
26.6281185323
 20
13.7580555894
 30
0.0
 10
26.2805241573
 20
13.4772741172
 30
0.0
 10
25.884599256
 20
13.2689931676
 30
0.0
 10
25.5480330183
 20
13.1504134257
 30
0.0
 10
25.2011289318
 20
13.0648859886
 30
0.0
 10
24.9324926072
 20
13.0387802387
 30
0.0
 10
24.7540943201
 20
13.0387802387
 30
0.0
  0
SPLINE
  5
290
100
AcDbEntity
  8
0
100
AcDbSpline
 62
7
  6
BYLAYER
 70
0
 71
3
 72
15
 73
11
 74
0
 42
0.0000001
 43
0.0000001
 44
0.0000000001
 40
0.0
 40
0.0
 40
0.0
 40
0.0
 40
0.1241497259
 40
0.2485433752
 40
0.3732147537
 40
0.4981704637
 40
0.6233616207
 40
0.7487713785
 40
0.8744233943
 40
1.0
 40
1.0
 40
1.0
 40
1.0
 10
27.2634940067
 20
17.2235300603
 30
0.0
 10
27.2111677297
 20
17.343501485
 30
0.0
 10
27.0885639442
 20
17.5763407795
 30
0.0
 10
26.8554526967
 20
17.8949774575
 30
0.0
 10
26.5778881928
 20
18.1770440115
 30
0.0
 10
26.261654397
 20
18.4162961292
 30
0.0
 10
25.9136267571
 20
18.6079396294
 30
0.0
 10
25.5409397939
 20
18.7478050056
 30
0.0
 10
25.1517270235
 20
18.8327449843
 30
0.0
 10
24.8864847646
 20
18.8518757957
 30
0.0
 10
24.7540943201
 20
18.8518757957
 30
0.0
  0
SPLINE
  5
291
100
AcDbEntity
  8
0
100
AcDbSpline
 62
7
  6
BYLAYER
 70
0
 71
3
 72
17
 73
13
 74
0
 42
0.0000001
 43
0.0000001
 44
0.0000000001
 40
0.0
 40
0.0
 40
0.0
 40
0.0
 40
0.1258794493
 40
0.1888952527
 40
0.2518220843
 40
0.3773021897
 40
0.5024558799
 40
0.5649645671
 40
0.6273799898
 40
0.7518120842
 40
0.8759790106
 40
1.0
 40
1.0
 40
1.0
 40
1.0
 10
24.7540943201
 20
13.0387802387
 30
0.0
 10
24.5756940814
 20
13.0387802387
 30
0.0
 10
24.3070572803
 20
13.0648850472
 30
0.0
 10
23.9601556545
 20
13.1504134431
 30
0.0
 10
23.6235964349
 20
13.2689888345
 30
0.0
 10
23.2276786847
 20
13.4772616898
 30
0.0
 10
22.8800937207
 20
13.7580381884
 30
0.0
 10
22.6397721123
 20
14.0192204603
 30
0.0
 10
22.4268084232
 20
14.3018471111
 30
0.0
 10
22.2149211298
 20
14.691973994
 30
0.0
 10
22.0584134878
 20
15.1997446019
 30
0.0
 10
22.0231542651
 20
15.5525014251
 30
0.0
 10
22.0231528734
 20
15.7282677971
 30
0.0
  0
SPLINE
  5
292
100
AcDbEntity
  8
0
100
AcDbSpline
 62
7
  6
BYLAYER
 70
0
 71
3
 72
11
 73
7
 74
0
 42
0.0000001
 43
0.0000001
 44
0.0000000001
 40
0.0
 40
0.0
 40
0.0
 40
0.0
 40
0.2509762475
 40
0.5012199417
 40
0.750772898
 40
1.0
 40
1.0
 40
1.0
 40
1.0
 10
22.97730849
 20
18.2048303216
 30
0.0
 10
22.8288027026
 20
18.0795359309
 30
0.0
 10
22.5582652678
 20
17.7964305089
 30
0.0
 10
22.2541304083
 20
17.2959208579
 30
0.0
 10
22.0657094813
 20
16.7427900669
 30
0.0
 10
22.0231505448
 20
16.3553344941
 30
0.0
 10
22.0231481586
 20
16.162388225
 30
0.0
  0
SPLINE
  5
293
100
AcDbEntity
  8
0
100
AcDbSpline
 62
7
  6
BYLAYER
 70
0
 71
3
 72
11
 73
7
 74
0
 42
0.0000001
 43
0.0000001
 44
0.0000000001
 40
0.0
 40
0.0
 40
0.0
 40
0.0
 40
0.2432422504
 40
0.4893243488
 40
0.7408051972
 40
1.0
 40
1.0
 40
1.0
 40
1.0
 10
27.2014802189
 20
17.1969652924
 30
0.0
 10
27.2006017656
 20
17.3480481941
 30
0.0
 10
27.1658059699
 20
17.6527554039
 30
0.0
 10
27.0159137544
 20
18.0915020545
 30
0.0
 10
26.7686704812
 20
18.4956404631
 30
0.0
 10
26.5447187475
 20
18.7248513536
 30
0.0
 10
26.4198417699
 20
18.8264625616
 30
0.0
  0
SPLINE
  5
294
100
AcDbEntity
  8
0
100
AcDbSpline
 62
7
  6
BYLAYER
 70
0
 71
3
 72
17
 73
13
 74
0
 42
0.0000001
 43
0.0000001
 44
0.0000000001
 40
0.0
 40
0.0
 40
0.0
 40
0.0
 40
0.1240177648
 40
0.2481810871
 40
0.372611201
 40
0.4350269181
 40
0.4975365941
 40
0.6226934343
 40
0.7481762598
 40
0.8111048464
 40
0.8741218632
 40
1.0
 40
1.0
 40
1.0
 40
1.0
 10
22.0231528734
 20
15.7282677971
 30
0.0
 10
22.0231514819
 20
15.904029509
 30
0.0
 10
22.0584149993
 20
16.2567765678
 30
0.0
 10
22.2149161936
 20
16.7645339354
 30
0.0
 10
22.4267877468
 20
17.1546614279
 30
0.0
 10
22.6397540051
 20
17.4372845534
 30
0.0
 10
22.8800701079
 20
17.6984800009
 30
0.0
 10
23.227664483
 20
17.9792614731
 30
0.0
 10
23.6235893843
 20
18.1875424227
 30
0.0
 10
23.9601556219
 20
18.3061221647
 30
0.0
 10
24.3070597084
 20
18.3916496018
 30
0.0
 10
24.575696033
 20
18.4177553516
 30
0.0
 10
24.7540943201
 20
18.4177553516
 30
0.0
  0
SPLINE
  5
295
100
AcDbEntity
  8
0
100
AcDbSpline
 62
7
  6
BYLAYER
 70
0
 71
3
 72
17
 73
13
 74
0
 42
0.0000001
 43
0.0000001
 44
0.0000000001
 40
0.0
 40
0.0
 40
0.0
 40
0.0
 40
0.1258794493
 40
0.1888952527
 40
0.2518220843
 40
0.3773021897
 40
0.5024558799
 40
0.5649645671
 40
0.6273799898
 40
0.7518120842
 40
0.8759790106
 40
1.0
 40
1.0
 40
1.0
 40
1.0
 10
24.7540943201
 20
18.4177553516
 30
0.0
 10
24.9324945588
 20
18.4177553516
 30
0.0
 10
25.2011313599
 20
18.3916505431
 30
0.0
 10
25.5480329857
 20
18.3061221472
 30
0.0
 10
25.8845922054
 20
18.1875467559
 30
0.0
 10
26.2805099555
 20
17.9792739005
 30
0.0
 10
26.6280949195
 20
17.698497402
 30
0.0
 10
26.8684165279
 20
17.4373151301
 30
0.0
 10
27.081380217
 20
17.1546884792
 30
0.0
 10
27.2932675105
 20
16.7645615963
 30
0.0
 10
27.4497751524
 20
16.2567909884
 30
0.0
 10
27.4850343752
 20
15.9040341652
 30
0.0
 10
27.4850357668
 20
15.7282677932
 30
0.0
  0
ELLIPSE
  5
296
100
AcDbEntity
  8
0
100
AcDbEllipse
 62
7
  6
BYLAYER
 10
15.1801203599
 20
25.8601166813
 30
0.0
 11
0.0
 21
3.0462798357
 31
0.0
 40
0.984807753
 41
0.0
 42
6.2831853072
  0
ELLIPSE
  5
297
100
AcDbEntity
  8
0
100
AcDbEllipse
 62
7
  6
BYLAYER
 10
35.1301203599
 20
25.8601166813
 30
0.0
 11
-0.0
 21
3.0462798357
 31
0.0
 40
0.984807753
 41
0.0
 42
6.2831853072
  0
ELLIPSE
  5
298
100
AcDbEntity
  8
0
100
AcDbEllipse
 62
7
  6
BYLAYER
 10
25.1009953169
 20
17.19701981
 30
0.0
 11
-1.3027959965
 21
1.6576343163
 31
0.0
 40
0.9939989427
 41
6.3046616884
 42
6.5207287275
  0
ELLIPSE
  5
299
100
AcDbEntity
  8
0
100
AcDbEllipse
 62
7
  6
BYLAYER
 10
25.0915211175
 20
17.1994409239
 30
0.0
 11
2.0350831014
 21
-0.5200616614
 31
0.0
 40
0.9999459822
 41
1.5707963342
 42
2.5056638837
  0
ELLIPSE
  5
29A
100
AcDbEntity
  8
0
100
AcDbEllipse
 62
7
  6
BYLAYER
 10
24.7540943201
 20
16.2934676226
 30
0.0
 11
2.7309772371
 21
-0.0
 31
0.0
 40
0.9216049851
 41
2.0698525711
 42
2.2791763776
  0
ENDSEC
  0
SECTION
  2
OBJECTS
  0
DICTIONARY
  5
C
100
AcDbDictionary
280
0
281
1
  3
ACAD_GROUP
350
D
  3
ACAD_MLINESTYLE
350
17
  3
ACAD_LAYOUT
350
1A
  3
ACAD_PLOTSETTINGS
350
19
  3
ACAD_PLOTSTYLENAME
350
E
  0
DICTIONARY
  5
D
102
{ACAD_REACTORS
330
C
102
}
100
AcDbDictionary
280
0
281
1
  0
ACDBDICTIONARYWDFLT
  5
E
102
{ACAD_REACTORS
330
C
102
}
100
AcDbDictionary
281
1
  3
Normal
350
F
100
AcDbDictionaryWithDefault
340
F
  0
DICTIONARY
  5
17
102
{ACAD_REACTORS
330
C
102
}
100
AcDbDictionary
280
0
281
1
  3
Standard
350
18
  0
DICTIONARY
  5
19
102
{ACAD_REACTORS
330
C
102
}
100
AcDbDictionary
281
1
  0
DICTIONARY
  5
1A
102
{ACAD_REACTORS
330
C
102
}
100
AcDbDictionary
281
1
  3
Model
350
29B
  3
Layout1
350
29C
  0
ACDBPLACEHOLDER
  5
F
102
{ACAD_REACTORS
330
E
102
}
  0
MLINESTYLE
  5
18
102
{ACAD_REACTORS
330
17
102
}
100
AcDbMlineStyle
  2
STANDARD
 70
0
  3

 62
256
 51
90.0
 52
90.0
 71
2
 49
0.5
 62
256
  6
BYLAYER
 49
-0.5
 62
256
  6
BYLAYER
  0
LAYOUT
  5
29B
102
{ACAD_REACTORS
330
1A
102
}
100
AcDbPlotSettings
  1

  2
none_device
  4

  6

 40
0.0
 41
0.0
 42
0.0
 43
0.0
 44
210.0
 45
297.0
 46
0.0
 47
0.0
 48
0.0
 49
0.0
140
0.0
141
0.0
142
1.0
143
1.0
 70
1024
 72
1
 73
0
 74
0
  7

 75
0
147
1.0
148
0.0
149
0.0
100
AcDbLayout
  1
Model
 70
0
 71
0
 10
0.0
 20
0.0
 11
210.0
 21
297.0
 12
0.0
 22
0.0
 32
0.0
 14
0.0
 24
0.0
 34
0.0
 15
0.0
 25
0.0
 35
0.0
146
0.0
 13
0.0
 23
0.0
 33
0.0
 16
1.0
 26
0.0
 36
0.0
 17
0.0
 27
1.0
 37
0.0
 76
0
330
210
345
0
346
0
  0
LAYOUT
  5
29C
102
{ACAD_REACTORS
330
1A
102
}
100
AcDbPlotSettings
  1

  2
none_device
  4

  6

 40
0.0
 41
0.0
 42
0.0
 43
0.0
 44
210.0
 45
297.0
 46
0.0
 47
0.0
 48
0.0
 49
0.0
140
0.0
141
0.0
142
1.0
143
1.0
 70
0
 72
1
 73
0
 74
0
  7

 75
0
147
1.0
148
0.0
149
0.0
100
AcDbLayout
  1
Layout1
 70
0
 71
1
 10
0.0
 20
0.0
 11
210.0
 21
297.0
 12
0.0
 22
0.0
 32
0.0
 14
0.0
 24
0.0
 34
0.0
 15
0.0
 25
0.0
 35
0.0
146
0.0
 13
0.0
 23
0.0
 33
0.0
 16
1.0
 26
0.0
 36
0.0
 17
0.0
 27
1.0
 37
0.0
 76
0
330
211
345
0
346
0
  0
ENDSEC
  0
EOF
