  0
SECTION
  2
HEADER
  9
$ACADVER
  1
AC1009
  9
$DWGCODEPAGE
  3
ansi_1250
  9
$INSBASE
 10
0.0
 20
0.0
 30
0.0
  9
$EXTMIN
 10
-1.806
 20
-0.90551
 30
0.0
  9
$EXTMAX
 10
0.200875
 20
0.90551
 30
0.0
  9
$LIMMIN
 10
0.0
 20
0.0
  9
$LIMMAX
 10
0.0
 20
0.0
  9
$ORTHOMODE
 70
     0
  9
$REGENMODE
 70
     1
  9
$FILLMODE
 70
     1
  9
$QTEXTMODE
 70
     0
  9
$MIRRTEXT
 70
     1
  9
$DRAGMODE
 70
     2
  9
$LTSCALE
 40
1.0
  9
$OSMODE
 70
     0
  9
$ATTMODE
 70
     1
  9
$TEXTSIZE
 40
0.2
  9
$TRACEWID
 40
0.05
  9
$TEXTSTYLE
  7
STANDARD
  9
$CLAYER
  8
0
  9
$CELTYPE
  6
CONTINUOUS
  9
$CECOLOR
 62
   256
  9
$DIMSCALE
 40
1.0
  9
$DIMASZ
 40
0.18
  9
$DIMEXO
 40
0.0625
  9
$DIMDLI
 40
0.38
  9
$DIMRND
 40
0.0
  9
$DIMDLE
 40
0.0
  9
$DIMEXE
 40
0.18
  9
$DIMTP
 40
0.0
  9
$DIMTM
 40
0.0
  9
$DIMTXT
 40
0.18
  9
$DIMCEN
 40
0.09
  9
$DIMTSZ
 40
0.0
  9
$DIMTOL
 70
     0
  9
$DIMLIM
 70
     0
  9
$DIMTIH
 70
     1
  9
$DIMTOH
 70
     1
  9
$DIMSE1
 70
     0
  9
$DIMSE2
 70
     0
  9
$DIMTAD
 70
     0
  9
$DIMZIN
 70
     0
  9
$DIMBLK
  1

  9
$DIMASO
 70
     1
  9
$DIMSHO
 70
     1
  9
$DIMPOST
  1

  9
$DIMAPOST
  1

  9
$DIMALT
 70
     0
  9
$DIMALTD
 70
     2
  9
$DIMALTF
 40
25.4
  9
$DIMLFAC
 40
1.0
  9
$DIMTOFL
 70
     0
  9
$DIMTVP
 40
0.0
  9
$DIMTIX
 70
     0
  9
$DIMSOXD
 70
     0
  9
$DIMSAH
 70
     0
  9
$DIMBLK1
  1

  9
$DIMBLK2
  1

  9
$DIMSTYLE
  2
STANDARD
  9
$DIMCLRD
 70
     0
  9
$DIMCLRE
 70
     0
  9
$DIMCLRT
 70
     0
  9
$DIMTFAC
 40
1.0
  9
$DIMGAP
 40
0.09
  9
$LUNITS
 70
     2
  9
$LUPREC
 70
     4
  9
$AXISMODE
 70
     0
  9
$AXISUNIT
 10
0.0
 20
0.0
  9
$SKETCHINC
 40
0.1
  9
$FILLETRAD
 40
0.0
  9
$AUNITS
 70
     0
  9
$AUPREC
 70
     0
  9
$MENU
  1
acad
  9
$ELEVATION
 40
0.0
  9
$PELEVATION
 40
0.0
  9
$THICKNESS
 40
0.0
  9
$LIMCHECK
 70
     0
  9
$BLIPMODE
 70
     1
  9
$CHAMFERA
 40
0.0
  9
$CHAMFERB
 40
0.0
  9
$SKPOLY
 70
     0
  9
$TDCREATE
 40
0.000000000
  9
$TDUPDATE
 40
0.000000000
  9
$TDINDWG
 40
0.0000000000
  9
$TDUSRTIMER
 40
0.0000000000
  9
$USRTIMER
 70
     1
  9
$ANGBASE
 50
0.0
  9
$ANGDIR
 70
     0
  9
$PDMODE
 70
     0
  9
$PDSIZE
 40
0.0
  9
$PLINEWID
 40
0.0
  9
$COORDS
 70
     0
  9
$SPLFRAME
 70
     0
  9
$SPLINETYPE
 70
     6
  9
$SPLINESEGS
 70
     8
  9
$ATTDIA
 70
     0
  9
$ATTREQ
 70
     1
  9
$HANDLING
 70
     1
  9
$HANDSEED
  5
1CC
  9
$SURFTAB1
 70
     6
  9
$SURFTAB2
 70
     6
  9
$SURFTYPE
 70
     6
  9
$SURFU
 70
     6
  9
$SURFV
 70
     6
  9
$UCSNAME
  2

  9
$UCSORG
 10
0.0
 20
0.0
 30
0.0
  9
$UCSXDIR
 10
1.0
 20
0.0
 30
0.0
  9
$UCSYDIR
 10
0.0
 20
1.0
 30
0.0
  9
$PUCSNAME
  2

  9
$PUCSORG
 10
0.0
 20
0.0
 30
0.0
  9
$PUCSXDIR
 10
1.0
 20
0.0
 30
0.0
  9
$PUCSYDIR
 10
0.0
 20
1.0
 30
0.0
  9
$USERI1
 70
     0
  9
$USERI2
 70
     0
  9
$USERI3
 70
     0
  9
$USERI4
 70
     0
  9
$USERI5
 70
     0
  9
$USERR1
 40
0.0
  9
$USERR2
 40
0.0
  9
$USERR3
 40
0.0
  9
$USERR4
 40
0.0
  9
$USERR5
 40
0.0
  9
$WORLDVIEW
 70
     1
  9
$SHADEDGE
 70
     3
  9
$SHADEDIF
 70
    70
  9
$TILEMODE
 70
     1
  9
$MAXACTVP
 70
    16
  9
$PINSBASE
 10
0.0
 20
0.0
 30
0.0
  9
$PLIMCHECK
 70
     0
  9
$PEXTMIN
 10
1.000000E+20
 20
1.000000E+20
 30
1.000000E+20
  9
$PEXTMAX
 10
-1.000000E+20
 20
-1.000000E+20
 30
-1.000000E+20
  9
$PLIMMIN
 10
0.0
 20
0.0
  9
$PLIMMAX
 10
12.0
 20
9.0
  9
$UNITMODE
 70
     0
  9
$VISRETAIN
 70
     0
  9
$PLINEGEN
 70
     1
  9
$PSLTSCALE
 70
     0
  9
$TREEDEPTH
 70
  3020
  0
ENDSEC
  0
SECTION
  2
TABLES
  0
TABLE
  2
VPORT
 70
     1
  0
VPORT
  2
*ACTIVE
 70
     0
 10
0.0
 20
0.0
 11
1.0
 21
1.0
 12
6.591288
 22
4.579184
 13
0.0
 23
0.0
 14
1.0
 24
1.0
 15
0.0
 25
0.0
 16
0.0
 26
0.0
 36
1.0
 17
0.0
 27
0.0
 37
0.0
 40
9.158369
 41
0.688564
 42
50.0
 43
0.0
 44
0.0
 50
0.0
 51
0.0
 71
     0
 72
   100
 73
     1
 74
     1
 75
     0
 76
     0
 77
     0
 78
     0
  0
ENDTAB
  0
TABLE
  2
LTYPE
 70
     5
  0
LTYPE
  2
CONTINUOUS
 70
    64
  3
Solid line
 72
    65
 73
     0
 40
0.0
  0
LTYPE
  2
CENTER
 70
    64
  3
Center ____ _ ____ _ ____ _ ____ _ ____ _ ____
 72
    65
 73
     4
 40
50.8
 49
31.75
 49
-6.35
 49
6.35
 49
-6.35
  0
LTYPE
  2
HIDDEN
 70
    64
  3
Hidden __ __ __ __ __ __ __ __ __ __ __ __ __ __
 72
    65
 73
     2
 40
9.525
 49
6.35
 49
-3.175
  0
LTYPE
  2
CENTER2
 70
    64
  3
Center (.5x) ___ _ ___ _ ___ _ ___ _ ___ _ ___
 72
    65
 73
     4
 40
28.575
 49
19.05
 49
-3.175
 49
3.175
 49
-3.175
  0
LTYPE
  2
HIDDEN2
 70
    64
  3
Hidden (.5x) _ _ _ _ _ _ _ _ _ _ _ _ _ _ _ _ _
 72
    65
 73
     2
 40
4.7625
 49
3.175
 49
-1.5875
  0
ENDTAB
  0
TABLE
  2
LAYER
 70
     1
  0
LAYER
  2
0
 70
     0
 62
     7
  6
CONTINUOUS
  0
ENDTAB
  0
TABLE
  2
STYLE
 70
     1
  0
STYLE
  2
STANDARD
 70
     0
 40
0.0
 41
1.0
 50
0.0
 71
     0
 42
0.0
  3
txt
  4

  0
ENDTAB
  0
TABLE
  2
VIEW
 70
     0
  0
ENDTAB
  0
TABLE
  2
UCS
 70
     0
  0
ENDTAB
  0
TABLE
  2
APPID
 70
     1
  0
APPID
  2
ACAD
 70
     0
  0
ENDTAB
  0
TABLE
  2
DIMSTYLE
 70
     1
  0
DIMSTYLE
  2
STANDARD
 70
     0
  3

  4

  5

  6

  7

 40
1.0
 41
0.18
 42
0.0625
 43
0.38
 44
0.18
 45
0.0
 46
0.0
 47
0.0
 48
0.0
 71
     0
 72
     0
 73
     1
 74
     1
 75
     0
 76
     0
 77
     0
 78
     0
140
0.18
141
0.09
142
0.0
143
25.4
144
1.0
145
0.0
146
1.0
147
0.09
170
     0
171
     2
172
     0
173
     0
174
     0
175
     0
176
     0
177
     0
178
     0
  0
ENDTAB
  0
ENDSEC
  0
SECTION
  2
BLOCKS
  0
ENDSEC
  0
SECTION
  2
ENTITIES
  0
LINE
  8
0
  6
CONTINUOUS
 62
     7
  5
10B
 10
-0.948161
 20
0.115946
 30
0.0
 11
-0.948161
 21
0.412194
 31
0.0
  0
LINE
  8
0
  6
CONTINUOUS
 62
     7
  5
10C
 10
-1.076654
 20
0.115946
 30
0.0
 11
-0.948161
 21
0.115946
 31
0.0
  0
LINE
  8
0
  6
CONTINUOUS
 62
     7
  5
10D
 10
-0.948161
 20
-0.115946
 30
0.0
 11
-1.076654
 21
-0.115946
 31
0.0
  0
LINE
  8
0
  6
CONTINUOUS
 62
     7
  5
10E
 10
-1.076654
 20
-0.115946
 30
0.0
 11
-1.076654
 21
0.115946
 31
0.0
  0
LINE
  8
0
  6
CONTINUOUS
 62
     7
  5
10F
 10
-0.948161
 20
-0.348448
 30
0.0
 11
-1.05
 21
-0.385515
 31
0.0
  0
LINE
  8
0
  6
CONTINUOUS
 62
     7
  5
110
 10
-1.05
 20
-0.385515
 30
0.0
 11
-1.05
 21
-0.49
 31
0.0
  0
LINE
  8
0
  6
CONTINUOUS
 62
     7
  5
111
 10
-1.0
 20
-0.49
 30
0.0
 11
-1.05
 21
-0.49
 31
0.0
  0
LINE
  8
0
  6
CONTINUOUS
 62
     7
  5
112
 10
-1.0
 20
-0.44
 30
0.0
 11
-1.0
 21
-0.49
 31
0.0
  0
LINE
  8
0
  6
CONTINUOUS
 62
     7
  5
113
 10
-0.85216
 20
-0.44
 30
0.0
 11
-1.0
 21
-0.44
 31
0.0
  0
LINE
  8
0
  6
CONTINUOUS
 62
     7
  5
114
 10
-0.677115
 20
-0.490701
 30
0.0
 11
-0.948161
 21
-0.412194
 31
0.0
  0
LINE
  8
0
  6
CONTINUOUS
 62
     7
  5
115
 10
-0.948161
 20
0.407536
 30
0.0
 11
-1.01
 21
0.402126
 31
0.0
  0
LINE
  8
0
  6
CONTINUOUS
 62
     7
  5
116
 10
-1.01
 20
0.357874
 30
0.0
 11
-1.01
 21
0.402126
 31
0.0
  0
LINE
  8
0
  6
CONTINUOUS
 62
     7
  5
117
 10
-1.01
 20
0.357874
 30
0.0
 11
-0.948161
 21
0.352464
 31
0.0
  0
LINE
  8
0
  6
CONTINUOUS
 62
     7
  5
118
 10
-1.08
 20
0.561257
 30
0.0
 11
-0.603304
 21
0.645311
 31
0.0
  0
LINE
  8
0
  6
CONTINUOUS
 62
     7
  5
119
 10
-1.08
 20
0.561257
 30
0.0
 11
-1.08
 21
0.547748
 31
0.0
  0
LINE
  8
0
  6
CONTINUOUS
 62
     7
  5
11A
 10
-1.08
 20
0.547748
 30
0.0
 11
-1.029916
 21
0.461
 31
0.0
  0
LINE
  8
0
  6
CONTINUOUS
 62
     7
  5
11B
 10
-1.0113
 20
0.461
 30
0.0
 11
-1.029916
 21
0.461
 31
0.0
  0
LINE
  8
0
  6
CONTINUOUS
 62
     7
  5
11C
 10
-1.0113
 20
0.461
 30
0.0
 11
-1.0113
 21
0.502291
 31
0.0
  0
LINE
  8
0
  6
CONTINUOUS
 62
     7
  5
11D
 10
-0.672144
 20
0.562093
 30
0.0
 11
-1.0113
 21
0.502291
 31
0.0
  0
LINE
  8
0
  6
CONTINUOUS
 62
     7
  5
11E
 10
-0.008
 20
-0.594532
 30
0.0
 11
-0.008
 21
-0.748031
 31
0.0
  0
LINE
  8
0
  6
CONTINUOUS
 62
     7
  5
11F
 10
-0.008
 20
0.748031
 30
0.0
 11
-0.008
 21
0.594532
 31
0.0
  0
LINE
  8
0
  6
CONTINUOUS
 62
     7
  5
120
 10
-0.088
 20
0.626814
 30
0.0
 11
-0.088
 21
0.640758
 31
0.0
  0
LINE
  8
0
  6
CONTINUOUS
 62
     7
  5
121
 10
-0.088
 20
-0.640758
 30
0.0
 11
-0.088
 21
-0.626814
 31
0.0
  0
LINE
  8
0
  6
CONTINUOUS
 62
     7
  5
122
 10
-0.008041
 20
0.646664
 30
0.0
 11
-0.008041
 21
0.861856
 31
0.0
  0
ARC
  8
0
  6
CONTINUOUS
 62
     7
  5
123
 10
-0.033041
 20
0.646664
 30
0.0
 40
0.025
 50
249.243175
 51
0.0
  0
ARC
  8
0
  6
CONTINUOUS
 62
     7
  5
124
 10
-0.051695
 20
0.861856
 30
0.0
 40
0.043654
 50
0.0
 51
156.655619
  0
LINE
  8
0
  6
CONTINUOUS
 62
     7
  5
125
 10
-0.091776
 20
0.879154
 30
0.0
 11
-0.169306
 21
0.699515
 31
0.0
  0
ARC
  8
0
  6
CONTINUOUS
 62
     7
  5
126
 10
-0.146352
 20
0.689609
 30
0.0
 40
0.025
 50
156.655619
 51
249.243175
  0
LINE
  8
0
  6
CONTINUOUS
 62
     7
  5
127
 10
-0.155212
 20
0.666232
 30
0.0
 11
-0.041901
 21
0.623286
 31
0.0
  0
LINE
  8
0
  6
CONTINUOUS
 62
     7
  5
128
 10
-0.180562
 20
0.661896
 30
0.0
 11
-0.01614
 21
0.599579
 31
0.0
  0
ARC
  8
0
  6
CONTINUOUS
 62
     7
  5
129
 10
-0.025
 20
0.576202
 30
0.0
 40
0.025
 50
0.0
 51
69.243175
  0
LINE
  8
0
  6
CONTINUOUS
 62
     7
  5
12A
 10
-0.01614
 20
-0.599579
 30
0.0
 11
-0.180562
 21
-0.661896
 31
0.0
  0
ARC
  8
0
  6
CONTINUOUS
 62
     7
  5
12B
 10
-0.025
 20
-0.576202
 30
0.0
 40
0.025
 50
290.756825
 51
0.0
  0
LINE
  8
0
  6
CONTINUOUS
 62
     7
  5
12C
 10
0.0
 20
0.576202
 30
0.0
 11
0.0
 21
-0.576202
 31
0.0
  0
LINE
  8
0
  6
CONTINUOUS
 62
     7
  5
12D
 10
-0.445503
 20
0.816043
 30
0.0
 11
-0.418838
 21
0.808753
 31
0.0
  0
ARC
  8
0
  6
CONTINUOUS
 62
     7
  5
12E
 10
-0.452095
 20
0.791928
 30
0.0
 40
0.025
 50
74.711074
 51
159.222546
  0
LINE
  8
0
  6
CONTINUOUS
 62
     7
  5
12F
 10
-0.507393
 20
0.716657
 30
0.0
 11
-0.47547
 21
0.800796
 31
0.0
  0
ARC
  8
0
  6
CONTINUOUS
 62
     7
  5
130
 10
-0.274108
 20
0.302909
 30
0.0
 40
0.474983
 50
119.415797
 51
153.792171
  0
LINE
  8
0
  6
CONTINUOUS
 62
     7
  5
131
 10
-0.700262
 20
0.483996
 30
0.0
 11
-0.700262
 21
0.512675
 31
0.0
  0
ARC
  8
0
  6
CONTINUOUS
 62
     7
  5
132
 10
-0.452095
 20
-0.791927
 30
0.0
 40
0.025
 50
200.777454
 51
285.288926
  0
LINE
  8
0
  6
CONTINUOUS
 62
     7
  5
133
 10
-0.47547
 20
-0.800796
 30
0.0
 11
-0.507393
 21
-0.716657
 31
0.0
  0
LINE
  8
0
  6
CONTINUOUS
 62
     7
  5
134
 10
-0.507393
 20
-0.716657
 30
0.0
 11
-0.614761
 21
-0.716657
 31
0.0
  0
LINE
  8
0
  6
CONTINUOUS
 62
     7
  5
135
 10
-0.614761
 20
-0.716657
 30
0.0
 11
-0.710349
 21
-0.621069
 31
0.0
  0
LINE
  8
0
  6
CONTINUOUS
 62
     7
  5
136
 10
-0.710349
 20
-0.621069
 30
0.0
 11
-0.732247
 21
-0.474732
 31
0.0
  0
LINE
  8
0
  6
CONTINUOUS
 62
     7
  5
137
 10
-0.418838
 20
-0.808753
 30
0.0
 11
-0.445503
 21
-0.816043
 31
0.0
  0
ARC
  8
0
  6
CONTINUOUS
 62
     7
  5
138
 10
-0.454423
 20
-0.41361
 30
0.0
 40
0.235658
 50
199.094675
 51
257.439735
  0
LINE
  8
0
  6
CONTINUOUS
 62
     7
  5
139
 10
-0.448804
 20
-0.793507
 30
0.0
 11
-0.50567
 21
-0.643628
 31
0.0
  0
ARC
  8
0
  6
CONTINUOUS
 62
     7
  5
13A
 10
-0.42543
 20
-0.784638
 30
0.0
 40
0.025
 50
200.777454
 51
285.288926
  0
LINE
  8
0
  6
CONTINUOUS
 62
     7
  5
13B
 10
-0.948161
 20
0.412194
 30
0.0
 11
-0.677115
 21
0.490701
 31
0.0
  0
ARC
  8
0
  6
CONTINUOUS
 62
     7
  5
13C
 10
-0.171702
 20
-0.685273
 30
0.0
 40
0.025
 50
110.756825
 51
180.0
  0
LINE
  8
0
  6
CONTINUOUS
 62
     7
  5
13D
 10
-0.196702
 20
-0.685273
 30
0.0
 11
-0.196702
 21
-0.728947
 31
0.0
  0
ARC
  8
0
  6
CONTINUOUS
 62
     7
  5
13E
 10
-0.221702
 20
-0.728947
 30
0.0
 40
0.025
 50
285.288926
 51
0.0
  0
LINE
  8
0
  6
CONTINUOUS
 62
     7
  5
13F
 10
-0.21511
 20
-0.753062
 30
0.0
 11
-0.418838
 21
-0.808753
 31
0.0
  0
LINE
  8
0
  6
CONTINUOUS
 62
     7
  5
140
 10
-0.948161
 20
-0.412194
 30
0.0
 11
-0.948161
 21
-0.115946
 31
0.0
  0
ARC
  8
0
  6
CONTINUOUS
 62
     7
  5
141
 10
-0.454423
 20
0.41361
 30
0.0
 40
0.235658
 50
102.560265
 51
160.905325
  0
LINE
  8
0
  6
CONTINUOUS
 62
     7
  5
142
 10
-0.50567
 20
0.643628
 30
0.0
 11
-0.448804
 21
0.793507
 31
0.0
  0
ARC
  8
0
  6
CONTINUOUS
 62
     7
  5
143
 10
-0.42543
 20
0.784638
 30
0.0
 40
0.025
 50
74.711074
 51
159.222546
  0
LINE
  8
0
  6
CONTINUOUS
 62
     7
  5
144
 10
-0.418838
 20
0.808753
 30
0.0
 11
-0.21511
 21
0.753062
 31
0.0
  0
ARC
  8
0
  6
CONTINUOUS
 62
     7
  5
145
 10
-0.221702
 20
0.728947
 30
0.0
 40
0.025
 50
0.0
 51
74.711074
  0
LINE
  8
0
  6
CONTINUOUS
 62
     7
  5
146
 10
-0.196702
 20
0.728947
 30
0.0
 11
-0.196702
 21
0.685273
 31
0.0
  0
ARC
  8
0
  6
CONTINUOUS
 62
     7
  5
147
 10
-0.171702
 20
0.685273
 30
0.0
 40
0.025
 50
180.0
 51
249.243175
  0
LINE
  8
0
  6
CONTINUOUS
 62
     7
  5
148
 10
-0.008041
 20
-0.646664
 30
0.0
 11
-0.008041
 21
-0.861856
 31
0.0
  0
ARC
  8
0
  6
CONTINUOUS
 62
     7
  5
149
 10
-0.033041
 20
-0.646664
 30
0.0
 40
0.025
 50
0.0
 51
110.756825
  0
ARC
  8
0
  6
CONTINUOUS
 62
     7
  5
14A
 10
-0.051695
 20
-0.861856
 30
0.0
 40
0.043654
 50
203.344381
 51
0.0
  0
LINE
  8
0
  6
CONTINUOUS
 62
     7
  5
14B
 10
-0.091776
 20
-0.879154
 30
0.0
 11
-0.169306
 21
-0.699515
 31
0.0
  0
ARC
  8
0
  6
CONTINUOUS
 62
     7
  5
14C
 10
-0.146352
 20
-0.689609
 30
0.0
 40
0.025
 50
110.756825
 51
203.344381
  0
LINE
  8
0
  6
CONTINUOUS
 62
     7
  5
14D
 10
-0.155212
 20
-0.666232
 30
0.0
 11
-0.041901
 21
-0.623286
 31
0.0
  0
LINE
  8
0
  6
CONTINUOUS
 62
     7
  5
14E
 10
-1.076654
 20
-0.08268
 30
0.0
 11
-1.4756
 21
-0.08268
 31
0.0
  0
LINE
  8
0
  6
CONTINUOUS
 62
     7
  5
14F
 10
-1.4756
 20
0.08268
 30
0.0
 11
-1.076654
 21
0.08268
 31
0.0
  0
LINE
  8
0
  6
CONTINUOUS
 62
     7
  5
150
 10
-1.4756
 20
-0.08268
 30
0.0
 11
-1.481275
 21
-0.081994
 31
0.0
  0
LINE
  8
0
  6
CONTINUOUS
 62
     7
  5
151
 10
-1.481275
 20
-0.081994
 30
0.0
 11
-1.486556
 21
-0.080064
 31
0.0
  0
LINE
  8
0
  6
CONTINUOUS
 62
     7
  5
152
 10
-1.486556
 20
-0.080064
 30
0.0
 11
-1.491465
 21
-0.076993
 31
0.0
  0
LINE
  8
0
  6
CONTINUOUS
 62
     7
  5
153
 10
-1.491465
 20
-0.076993
 30
0.0
 11
-1.495625
 21
-0.073204
 31
0.0
  0
LINE
  8
0
  6
CONTINUOUS
 62
     7
  5
154
 10
-1.495625
 20
-0.073204
 30
0.0
 11
-1.499216
 21
-0.068783
 31
0.0
  0
LINE
  8
0
  6
CONTINUOUS
 62
     7
  5
155
 10
-1.499216
 20
-0.068783
 30
0.0
 11
-1.502301
 21
-0.063803
 31
0.0
  0
LINE
  8
0
  6
CONTINUOUS
 62
     7
  5
156
 10
-1.502301
 20
-0.063803
 30
0.0
 11
-1.504732
 21
-0.058771
 31
0.0
  0
LINE
  8
0
  6
CONTINUOUS
 62
     7
  5
157
 10
-1.504732
 20
-0.058771
 30
0.0
 11
-1.506683
 21
-0.053672
 31
0.0
  0
LINE
  8
0
  6
CONTINUOUS
 62
     7
  5
158
 10
-1.506683
 20
-0.053672
 30
0.0
 11
-1.508305
 21
-0.048336
 31
0.0
  0
LINE
  8
0
  6
CONTINUOUS
 62
     7
  5
159
 10
-1.508305
 20
-0.048336
 30
0.0
 11
-1.509628
 21
-0.042811
 31
0.0
  0
LINE
  8
0
  6
CONTINUOUS
 62
     7
  5
15A
 10
-1.509628
 20
-0.042811
 30
0.0
 11
-1.510684
 21
-0.037144
 31
0.0
  0
LINE
  8
0
  6
CONTINUOUS
 62
     7
  5
15B
 10
-1.510684
 20
-0.037144
 30
0.0
 11
-1.511507
 21
-0.031381
 31
0.0
  0
LINE
  8
0
  6
CONTINUOUS
 62
     7
  5
15C
 10
-1.511507
 20
-0.031381
 30
0.0
 11
-1.512128
 21
-0.025567
 31
0.0
  0
LINE
  8
0
  6
CONTINUOUS
 62
     7
  5
15D
 10
-1.512128
 20
-0.025567
 30
0.0
 11
-1.51258
 21
-0.019749
 31
0.0
  0
LINE
  8
0
  6
CONTINUOUS
 62
     7
  5
15E
 10
-1.51258
 20
-0.019749
 30
0.0
 11
-1.51289
 21
-0.013971
 31
0.0
  0
LINE
  8
0
  6
CONTINUOUS
 62
     7
  5
15F
 10
-1.51289
 20
-0.013971
 30
0.0
 11
-1.51308
 21
-0.008278
 31
0.0
  0
LINE
  8
0
  6
CONTINUOUS
 62
     7
  5
160
 10
-1.51308
 20
-0.008278
 30
0.0
 11
-1.513168
 21
-0.002717
 31
0.0
  0
LINE
  8
0
  6
CONTINUOUS
 62
     7
  5
161
 10
-1.513168
 20
-0.002717
 30
0.0
 11
-1.513168
 21
0.002717
 31
0.0
  0
LINE
  8
0
  6
CONTINUOUS
 62
     7
  5
162
 10
-1.513168
 20
0.002717
 30
0.0
 11
-1.51308
 21
0.008278
 31
0.0
  0
LINE
  8
0
  6
CONTINUOUS
 62
     7
  5
163
 10
-1.51308
 20
0.008278
 30
0.0
 11
-1.51289
 21
0.013971
 31
0.0
  0
LINE
  8
0
  6
CONTINUOUS
 62
     7
  5
164
 10
-1.51289
 20
0.013971
 30
0.0
 11
-1.51258
 21
0.019749
 31
0.0
  0
LINE
  8
0
  6
CONTINUOUS
 62
     7
  5
165
 10
-1.51258
 20
0.019749
 30
0.0
 11
-1.512128
 21
0.025567
 31
0.0
  0
LINE
  8
0
  6
CONTINUOUS
 62
     7
  5
166
 10
-1.512128
 20
0.025567
 30
0.0
 11
-1.511507
 21
0.031381
 31
0.0
  0
LINE
  8
0
  6
CONTINUOUS
 62
     7
  5
167
 10
-1.511507
 20
0.031381
 30
0.0
 11
-1.510684
 21
0.037144
 31
0.0
  0
LINE
  8
0
  6
CONTINUOUS
 62
     7
  5
168
 10
-1.510684
 20
0.037144
 30
0.0
 11
-1.509628
 21
0.042811
 31
0.0
  0
LINE
  8
0
  6
CONTINUOUS
 62
     7
  5
169
 10
-1.509628
 20
0.042811
 30
0.0
 11
-1.508305
 21
0.048336
 31
0.0
  0
LINE
  8
0
  6
CONTINUOUS
 62
     7
  5
16A
 10
-1.508305
 20
0.048336
 30
0.0
 11
-1.506683
 21
0.053672
 31
0.0
  0
LINE
  8
0
  6
CONTINUOUS
 62
     7
  5
16B
 10
-1.506683
 20
0.053672
 30
0.0
 11
-1.504732
 21
0.058771
 31
0.0
  0
LINE
  8
0
  6
CONTINUOUS
 62
     7
  5
16C
 10
-1.504732
 20
0.058771
 30
0.0
 11
-1.502301
 21
0.063803
 31
0.0
  0
LINE
  8
0
  6
CONTINUOUS
 62
     7
  5
16D
 10
-1.502301
 20
0.063803
 30
0.0
 11
-1.499216
 21
0.068783
 31
0.0
  0
LINE
  8
0
  6
CONTINUOUS
 62
     7
  5
16E
 10
-1.499216
 20
0.068783
 30
0.0
 11
-1.495625
 21
0.073204
 31
0.0
  0
LINE
  8
0
  6
CONTINUOUS
 62
     7
  5
16F
 10
-1.495625
 20
0.073204
 30
0.0
 11
-1.491465
 21
0.076993
 31
0.0
  0
LINE
  8
0
  6
CONTINUOUS
 62
     7
  5
170
 10
-1.491465
 20
0.076993
 30
0.0
 11
-1.486556
 21
0.080064
 31
0.0
  0
LINE
  8
0
  6
CONTINUOUS
 62
     7
  5
171
 10
-1.486556
 20
0.080064
 30
0.0
 11
-1.481275
 21
0.081994
 31
0.0
  0
LINE
  8
0
  6
CONTINUOUS
 62
     7
  5
172
 10
-1.481275
 20
0.081994
 30
0.0
 11
-1.4756
 21
0.08268
 31
0.0
  0
LINE
  8
0
  6
CONTINUOUS
 62
     7
  5
173
 10
-1.515
 20
0.0984
 30
0.0
 11
-1.515
 21
0.07872
 31
0.0
  0
LINE
  8
0
  6
CONTINUOUS
 62
     7
  5
174
 10
-1.515
 20
0.07872
 30
0.0
 11
-1.515
 21
-0.07872
 31
0.0
  0
LINE
  8
0
  6
CONTINUOUS
 62
     7
  5
175
 10
-1.515
 20
-0.07872
 30
0.0
 11
-1.515
 21
-0.0984
 31
0.0
  0
LINE
  8
0
  6
CONTINUOUS
 62
     7
  5
176
 10
-1.76664
 20
0.07872
 30
0.0
 11
-1.515
 21
0.07872
 31
0.0
  0
LINE
  8
0
  6
CONTINUOUS
 62
     7
  5
177
 10
-1.806
 20
0.0
 30
0.0
 11
-1.805968
 21
0.00194
 31
0.0
  0
LINE
  8
0
  6
CONTINUOUS
 62
     7
  5
178
 10
-1.805968
 20
0.00194
 30
0.0
 11
-1.805874
 21
0.003866
 31
0.0
  0
LINE
  8
0
  6
CONTINUOUS
 62
     7
  5
179
 10
-1.805874
 20
0.003866
 30
0.0
 11
-1.805718
 21
0.005781
 31
0.0
  0
LINE
  8
0
  6
CONTINUOUS
 62
     7
  5
17A
 10
-1.805718
 20
0.005781
 30
0.0
 11
-1.805502
 21
0.007688
 31
0.0
  0
LINE
  8
0
  6
CONTINUOUS
 62
     7
  5
17B
 10
-1.805502
 20
0.007688
 30
0.0
 11
-1.805226
 21
0.009591
 31
0.0
  0
LINE
  8
0
  6
CONTINUOUS
 62
     7
  5
17C
 10
-1.805226
 20
0.009591
 30
0.0
 11
-1.804892
 21
0.011492
 31
0.0
  0
LINE
  8
0
  6
CONTINUOUS
 62
     7
  5
17D
 10
-1.804892
 20
0.011492
 30
0.0
 11
-1.8045
 21
0.013394
 31
0.0
  0
LINE
  8
0
  6
CONTINUOUS
 62
     7
  5
17E
 10
-1.8045
 20
0.013394
 30
0.0
 11
-1.80405
 21
0.015299
 31
0.0
  0
LINE
  8
0
  6
CONTINUOUS
 62
     7
  5
17F
 10
-1.80405
 20
0.015299
 30
0.0
 11
-1.803543
 21
0.017211
 31
0.0
  0
LINE
  8
0
  6
CONTINUOUS
 62
     7
  5
180
 10
-1.803543
 20
0.017211
 30
0.0
 11
-1.802978
 21
0.019131
 31
0.0
  0
LINE
  8
0
  6
CONTINUOUS
 62
     7
  5
181
 10
-1.802978
 20
0.019131
 30
0.0
 11
-1.802355
 21
0.021063
 31
0.0
  0
LINE
  8
0
  6
CONTINUOUS
 62
     7
  5
182
 10
-1.802355
 20
0.021063
 30
0.0
 11
-1.801675
 21
0.02301
 31
0.0
  0
LINE
  8
0
  6
CONTINUOUS
 62
     7
  5
183
 10
-1.801675
 20
0.02301
 30
0.0
 11
-1.800936
 21
0.024973
 31
0.0
  0
LINE
  8
0
  6
CONTINUOUS
 62
     7
  5
184
 10
-1.800936
 20
0.024973
 30
0.0
 11
-1.800138
 21
0.026955
 31
0.0
  0
LINE
  8
0
  6
CONTINUOUS
 62
     7
  5
185
 10
-1.800138
 20
0.026955
 30
0.0
 11
-1.79928
 21
0.02896
 31
0.0
  0
LINE
  8
0
  6
CONTINUOUS
 62
     7
  5
186
 10
-1.79928
 20
0.02896
 30
0.0
 11
-1.798361
 21
0.03099
 31
0.0
  0
LINE
  8
0
  6
CONTINUOUS
 62
     7
  5
187
 10
-1.798361
 20
0.03099
 30
0.0
 11
-1.79738
 21
0.033047
 31
0.0
  0
LINE
  8
0
  6
CONTINUOUS
 62
     7
  5
188
 10
-1.79738
 20
0.033047
 30
0.0
 11
-1.796337
 21
0.035135
 31
0.0
  0
LINE
  8
0
  6
CONTINUOUS
 62
     7
  5
189
 10
-1.796337
 20
0.035135
 30
0.0
 11
-1.795228
 21
0.037256
 31
0.0
  0
LINE
  8
0
  6
CONTINUOUS
 62
     7
  5
18A
 10
-1.795228
 20
0.037256
 30
0.0
 11
-1.794053
 21
0.039414
 31
0.0
  0
LINE
  8
0
  6
CONTINUOUS
 62
     7
  5
18B
 10
-1.794053
 20
0.039414
 30
0.0
 11
-1.79281
 21
0.041611
 31
0.0
  0
LINE
  8
0
  6
CONTINUOUS
 62
     7
  5
18C
 10
-1.79281
 20
0.041611
 30
0.0
 11
-1.791496
 21
0.043851
 31
0.0
  0
LINE
  8
0
  6
CONTINUOUS
 62
     7
  5
18D
 10
-1.791496
 20
0.043851
 30
0.0
 11
-1.790111
 21
0.046138
 31
0.0
  0
LINE
  8
0
  6
CONTINUOUS
 62
     7
  5
18E
 10
-1.790111
 20
0.046138
 30
0.0
 11
-1.78865
 21
0.048474
 31
0.0
  0
LINE
  8
0
  6
CONTINUOUS
 62
     7
  5
18F
 10
-1.78865
 20
0.048474
 30
0.0
 11
-1.787111
 21
0.050864
 31
0.0
  0
LINE
  8
0
  6
CONTINUOUS
 62
     7
  5
190
 10
-1.787111
 20
0.050864
 30
0.0
 11
-1.785492
 21
0.053312
 31
0.0
  0
LINE
  8
0
  6
CONTINUOUS
 62
     7
  5
191
 10
-1.785492
 20
0.053312
 30
0.0
 11
-1.783789
 21
0.055822
 31
0.0
  0
LINE
  8
0
  6
CONTINUOUS
 62
     7
  5
192
 10
-1.783789
 20
0.055822
 30
0.0
 11
-1.781998
 21
0.058398
 31
0.0
  0
LINE
  8
0
  6
CONTINUOUS
 62
     7
  5
193
 10
-1.781998
 20
0.058398
 30
0.0
 11
-1.780116
 21
0.061044
 31
0.0
  0
LINE
  8
0
  6
CONTINUOUS
 62
     7
  5
194
 10
-1.780116
 20
0.061044
 30
0.0
 11
-1.778138
 21
0.063767
 31
0.0
  0
LINE
  8
0
  6
CONTINUOUS
 62
     7
  5
195
 10
-1.778138
 20
0.063767
 30
0.0
 11
-1.77606
 21
0.066571
 31
0.0
  0
LINE
  8
0
  6
CONTINUOUS
 62
     7
  5
196
 10
-1.77606
 20
0.066571
 30
0.0
 11
-1.773877
 21
0.069462
 31
0.0
  0
LINE
  8
0
  6
CONTINUOUS
 62
     7
  5
197
 10
-1.773877
 20
0.069462
 30
0.0
 11
-1.771583
 21
0.072446
 31
0.0
  0
LINE
  8
0
  6
CONTINUOUS
 62
     7
  5
198
 10
-1.771583
 20
0.072446
 30
0.0
 11
-1.769173
 21
0.07553
 31
0.0
  0
LINE
  8
0
  6
CONTINUOUS
 62
     7
  5
199
 10
-1.769173
 20
0.07553
 30
0.0
 11
-1.76664
 21
0.07872
 31
0.0
  0
LINE
  8
0
  6
CONTINUOUS
 62
     7
  5
19A
 10
-1.76664
 20
-0.07872
 30
0.0
 11
-1.769173
 21
-0.07553
 31
0.0
  0
LINE
  8
0
  6
CONTINUOUS
 62
     7
  5
19B
 10
-1.769173
 20
-0.07553
 30
0.0
 11
-1.771583
 21
-0.072446
 31
0.0
  0
LINE
  8
0
  6
CONTINUOUS
 62
     7
  5
19C
 10
-1.771583
 20
-0.072446
 30
0.0
 11
-1.773877
 21
-0.069462
 31
0.0
  0
LINE
  8
0
  6
CONTINUOUS
 62
     7
  5
19D
 10
-1.773877
 20
-0.069462
 30
0.0
 11
-1.77606
 21
-0.066571
 31
0.0
  0
LINE
  8
0
  6
CONTINUOUS
 62
     7
  5
19E
 10
-1.77606
 20
-0.066571
 30
0.0
 11
-1.778138
 21
-0.063767
 31
0.0
  0
LINE
  8
0
  6
CONTINUOUS
 62
     7
  5
19F
 10
-1.778138
 20
-0.063767
 30
0.0
 11
-1.780116
 21
-0.061044
 31
0.0
  0
LINE
  8
0
  6
CONTINUOUS
 62
     7
  5
1A0
 10
-1.780116
 20
-0.061044
 30
0.0
 11
-1.781998
 21
-0.058398
 31
0.0
  0
LINE
  8
0
  6
CONTINUOUS
 62
     7
  5
1A1
 10
-1.781998
 20
-0.058398
 30
0.0
 11
-1.783789
 21
-0.055822
 31
0.0
  0
LINE
  8
0
  6
CONTINUOUS
 62
     7
  5
1A2
 10
-1.783789
 20
-0.055822
 30
0.0
 11
-1.785492
 21
-0.053312
 31
0.0
  0
LINE
  8
0
  6
CONTINUOUS
 62
     7
  5
1A3
 10
-1.785492
 20
-0.053312
 30
0.0
 11
-1.787111
 21
-0.050864
 31
0.0
  0
LINE
  8
0
  6
CONTINUOUS
 62
     7
  5
1A4
 10
-1.787111
 20
-0.050864
 30
0.0
 11
-1.78865
 21
-0.048474
 31
0.0
  0
LINE
  8
0
  6
CONTINUOUS
 62
     7
  5
1A5
 10
-1.78865
 20
-0.048474
 30
0.0
 11
-1.790111
 21
-0.046138
 31
0.0
  0
LINE
  8
0
  6
CONTINUOUS
 62
     7
  5
1A6
 10
-1.790111
 20
-0.046138
 30
0.0
 11
-1.791496
 21
-0.043851
 31
0.0
  0
LINE
  8
0
  6
CONTINUOUS
 62
     7
  5
1A7
 10
-1.791496
 20
-0.043851
 30
0.0
 11
-1.79281
 21
-0.041611
 31
0.0
  0
LINE
  8
0
  6
CONTINUOUS
 62
     7
  5
1A8
 10
-1.79281
 20
-0.041611
 30
0.0
 11
-1.794053
 21
-0.039414
 31
0.0
  0
LINE
  8
0
  6
CONTINUOUS
 62
     7
  5
1A9
 10
-1.794053
 20
-0.039414
 30
0.0
 11
-1.795228
 21
-0.037256
 31
0.0
  0
LINE
  8
0
  6
CONTINUOUS
 62
     7
  5
1AA
 10
-1.795228
 20
-0.037256
 30
0.0
 11
-1.796337
 21
-0.035135
 31
0.0
  0
LINE
  8
0
  6
CONTINUOUS
 62
     7
  5
1AB
 10
-1.796337
 20
-0.035135
 30
0.0
 11
-1.79738
 21
-0.033047
 31
0.0
  0
LINE
  8
0
  6
CONTINUOUS
 62
     7
  5
1AC
 10
-1.79738
 20
-0.033047
 30
0.0
 11
-1.798361
 21
-0.03099
 31
0.0
  0
LINE
  8
0
  6
CONTINUOUS
 62
     7
  5
1AD
 10
-1.798361
 20
-0.03099
 30
0.0
 11
-1.79928
 21
-0.02896
 31
0.0
  0
LINE
  8
0
  6
CONTINUOUS
 62
     7
  5
1AE
 10
-1.79928
 20
-0.02896
 30
0.0
 11
-1.800138
 21
-0.026955
 31
0.0
  0
LINE
  8
0
  6
CONTINUOUS
 62
     7
  5
1AF
 10
-1.800138
 20
-0.026955
 30
0.0
 11
-1.800936
 21
-0.024973
 31
0.0
  0
LINE
  8
0
  6
CONTINUOUS
 62
     7
  5
1B0
 10
-1.800936
 20
-0.024973
 30
0.0
 11
-1.801675
 21
-0.02301
 31
0.0
  0
LINE
  8
0
  6
CONTINUOUS
 62
     7
  5
1B1
 10
-1.801675
 20
-0.02301
 30
0.0
 11
-1.802355
 21
-0.021063
 31
0.0
  0
LINE
  8
0
  6
CONTINUOUS
 62
     7
  5
1B2
 10
-1.802355
 20
-0.021063
 30
0.0
 11
-1.802978
 21
-0.019131
 31
0.0
  0
LINE
  8
0
  6
CONTINUOUS
 62
     7
  5
1B3
 10
-1.802978
 20
-0.019131
 30
0.0
 11
-1.803543
 21
-0.017211
 31
0.0
  0
LINE
  8
0
  6
CONTINUOUS
 62
     7
  5
1B4
 10
-1.803543
 20
-0.017211
 30
0.0
 11
-1.80405
 21
-0.015299
 31
0.0
  0
LINE
  8
0
  6
CONTINUOUS
 62
     7
  5
1B5
 10
-1.80405
 20
-0.015299
 30
0.0
 11
-1.8045
 21
-0.013394
 31
0.0
  0
LINE
  8
0
  6
CONTINUOUS
 62
     7
  5
1B6
 10
-1.8045
 20
-0.013394
 30
0.0
 11
-1.804892
 21
-0.011492
 31
0.0
  0
LINE
  8
0
  6
CONTINUOUS
 62
     7
  5
1B7
 10
-1.804892
 20
-0.011492
 30
0.0
 11
-1.805226
 21
-0.009591
 31
0.0
  0
LINE
  8
0
  6
CONTINUOUS
 62
     7
  5
1B8
 10
-1.805226
 20
-0.009591
 30
0.0
 11
-1.805502
 21
-0.007688
 31
0.0
  0
LINE
  8
0
  6
CONTINUOUS
 62
     7
  5
1B9
 10
-1.805502
 20
-0.007688
 30
0.0
 11
-1.805718
 21
-0.005781
 31
0.0
  0
LINE
  8
0
  6
CONTINUOUS
 62
     7
  5
1BA
 10
-1.805718
 20
-0.005781
 30
0.0
 11
-1.805874
 21
-0.003866
 31
0.0
  0
LINE
  8
0
  6
CONTINUOUS
 62
     7
  5
1BB
 10
-1.805874
 20
-0.003866
 30
0.0
 11
-1.805968
 21
-0.00194
 31
0.0
  0
LINE
  8
0
  6
CONTINUOUS
 62
     7
  5
1BC
 10
-1.805968
 20
-0.00194
 30
0.0
 11
-1.806
 21
0.0
 31
0.0
  0
LINE
  8
0
  6
CONTINUOUS
 62
     7
  5
1BD
 10
-1.515
 20
-0.07872
 30
0.0
 11
-1.76664
 21
-0.07872
 31
0.0
  0
LINE
  8
0
  6
CONTINUOUS
 62
     7
  5
1BE
 10
-1.76664
 20
-0.07872
 30
0.0
 11
-1.76664
 21
-0.0984
 31
0.0
  0
LINE
  8
0
  6
CONTINUOUS
 62
     7
  5
1BF
 10
-1.806
 20
0.0
 30
0.0
 11
-1.806
 21
-0.05904
 31
0.0
  0
LINE
  8
0
  6
CONTINUOUS
 62
     7
  5
1C0
 10
-1.806
 20
0.05904
 30
0.0
 11
-1.806
 21
0.0
 31
0.0
  0
LINE
  8
0
  6
CONTINUOUS
 62
     7
  5
1C1
 10
-1.76664
 20
0.0984
 30
0.0
 11
-1.76664
 21
0.07872
 31
0.0
  0
LINE
  8
0
  6
CONTINUOUS
 62
     7
  5
1C2
 10
-1.4756
 20
-0.1378
 30
0.0
 11
-0.948161
 21
-0.1378
 31
0.0
  0
ARC
  8
0
  6
CONTINUOUS
 62
     7
  5
1C3
 10
-1.4756
 20
-0.0984
 30
0.0
 40
0.0394
 50
180.0
 51
270.0
  0
ARC
  8
0
  6
CONTINUOUS
 62
     7
  5
1C4
 10
-1.4756
 20
0.0984
 30
0.0
 40
0.0394
 50
90.0
 51
180.0
  0
LINE
  8
0
  6
CONTINUOUS
 62
     7
  5
1C5
 10
-1.76664
 20
-0.0984
 30
0.0
 11
-1.515
 21
-0.0984
 31
0.0
  0
LINE
  8
0
  6
CONTINUOUS
 62
     7
  5
1C6
 10
-1.806
 20
-0.05904
 30
0.0
 11
-1.76664
 21
-0.0984
 31
0.0
  0
LINE
  8
0
  6
CONTINUOUS
 62
     7
  5
1C7
 10
-1.76664
 20
0.0984
 30
0.0
 11
-1.806
 21
0.05904
 31
0.0
  0
LINE
  8
0
  6
CONTINUOUS
 62
     7
  5
1C8
 10
-1.515
 20
0.0984
 30
0.0
 11
-1.76664
 21
0.0984
 31
0.0
  0
LINE
  8
0
  6
CONTINUOUS
 62
     7
  5
1C9
 10
-0.948161
 20
0.1378
 30
0.0
 11
-1.4756
 21
0.1378
 31
0.0
  0
ENDSEC
  0
EOF
