999
DXF file: C:\Users\sesa63760\Dev\_Creo\CAD\MCADID0004242_3D-CAD\drw0001_5.dxf
999
Pro/ENGINEER 2019471 by Parametric Technology Corporation
  0
SECTION
  2
HEADER
  9
$ACADVER
  1
AC1024
  9
$DWGCODEPAGE
  3
ANSI_1252
  9
$EXTMAX
 10
710.8118956458
 20
1005.2911095562
 30
0.0
  9
$EXTMIN
 10
0.0
 20
0.0
 30
0.0
  9
$LIMMIN
 10
0.0
 20
0.0
  9
$LIMMAX
 10
710.8118956458
 20
1005.2911095562
  9
$VIEWCTR
 10
355.4059478229
 20
502.6455547781
  9
$VIEWSIZE
 40
1005.2911095562
  9
$CLAYER
  8
0
  9
$LTSCALE
 40
65.5300871414
  9
$CELTYPE
  6
BYLAYER
  9
$DIMSCALE
 40
1.0
  9
$DIMASZ
 40
8.4620463767
  9
$DIMEXO
 40
1.0
  9
$DIMDLI
 40
45.2753329341
  9
$DIMEXE
 40
1.0
  9
$DIMCEN
 40
10.7231051686
  9
$DIMLFAC
 40
1.0
  9
$DIMBLK
  1
_FILLED
  9
$DIMALT
 70
0
  9
$DIMALTF
 40
0.0393700787
  9
$DIMTXT
 40
11.8468649274
  9
$DIMTOL
 70
1
  9
$DIMLIM
 70
0
  9
$DIMTFAC
 40
1.0
  9
$DIMTP
 40
0.01
  9
$DIMTM
 40
0.01
  9
$DIMGAP
 40
0.625
  9
$DIMDSEP
 70
46
  9
$AUNITS
 70
0
  9
$PDMODE
 70
3
  9
$PDSIZE
 40
0.3125
  9
$HANDSEED
  5
367
  9
$TILEMODE
 70
1
  9
$MEASUREMENT
 70
1
  9
$INSUNITS
 70
4
  0
ENDSEC
  0
SECTION
  2
CLASSES
  0
CLASS
  1
ACDBDICTIONARYWDFLT
  2
AcDbDictionaryWithDefault
  3
AutoCAD 2000
 90
0
 91
1
280
0
281
0
  0
CLASS
  1
ACDBPLACEHOLDER
  2
AcDbPlaceHolder
  3
AutoCAD 2000
 90
0
 91
1
280
0
281
0
  0
CLASS
  1
LAYOUT
  2
AcDbLayout
  3
AutoCAD 2000
 90
0
 91
0
280
0
281
0
  0
ENDSEC
  0
SECTION
  2
TABLES
  0
TABLE
  2
VPORT
  5
8
100
AcDbSymbolTable
 70
2
  0
VPORT
  5
1F4
100
AcDbSymbolTableRecord
100
AcDbViewportTableRecord
  2
*ACTIVE
 70
0
 10
0.0
 20
0.0
 11
1.0
 21
1.0
 12
355.4059478229
 22
502.6455547781
 13
0.0
 23
0.0
 14
1.0
 24
1.0
 15
0.0
 25
0.0
 16
0.0
 26
0.0
 36
1.0
 17
0.0
 27
0.0
 37
0.0
 40
1005.2911095562
 41
0.7070707071
 42
50.0
 43
0.0
 44
0.0
 50
0.0
 51
0.0
 71
0
 72
100
 73
1
 74
1
 75
0
 76
0
 77
0
 78
0
  0
ENDTAB
  0
TABLE
  2
LTYPE
  5
5
100
AcDbSymbolTable
 70
6
  0
LTYPE
  5
14
100
AcDbSymbolTableRecord
100
AcDbLinetypeTableRecord
  2
BYBLOCK
 70
0
  3

 72
65
 73
0
 40
0.0
  0
LTYPE
  5
15
100
AcDbSymbolTableRecord
100
AcDbLinetypeTableRecord
  2
BYLAYER
 70
0
  3

 72
65
 73
0
 40
0.0
  0
LTYPE
  5
16
100
AcDbSymbolTableRecord
100
AcDbLinetypeTableRecord
  2
CONTINUOUS
 70
64
  3
Solid line
 72
65
 73
0
 40
0.0
  0
LTYPE
  5
1F5
100
AcDbSymbolTableRecord
100
AcDbLinetypeTableRecord
  2
CENTER
 70
64
  3
____ _ ____ _ ____ _ ____ _ ____ _ ____ _ ____
 72
65
 73
4
 40
0.6
 49
0.375
 74
0
 49
-0.075
 74
0
 49
0.075
 74
0
 49
-0.075
 74
0
  0
LTYPE
  5
1F6
100
AcDbSymbolTableRecord
100
AcDbLinetypeTableRecord
  2
HIDDEN
 70
64
  3
- - - - - - - - - - - - - - - - - - - -
 72
65
 73
2
 40
0.2
 49
0.1
 74
0
 49
-0.1
 74
0
  0
LTYPE
  5
1F7
100
AcDbSymbolTableRecord
100
AcDbLinetypeTableRecord
  2
PHANTOM
 70
64
  3
_____ _ _ _____ _ _ _____ _ _ _____
 72
65
 73
6
 40
0.8
 49
0.45
 74
0
 49
-0.05
 74
0
 49
0.1
 74
0
 49
-0.05
 74
0
 49
0.1
 74
0
 49
-0.05
 74
0
  0
LTYPE
  5
1F8
100
AcDbSymbolTableRecord
100
AcDbLinetypeTableRecord
  2
DOT
 70
64
  3
. . . . . . . . . . . . . . . . . . . .
 72
65
 73
2
 40
0.2
 49
0.1
 74
0
 49
-0.1
 74
0
  0
LTYPE
  5
1F9
100
AcDbSymbolTableRecord
100
AcDbLinetypeTableRecord
  2
DASHED
 70
64
  3
- - - - - - - - - - - - - - - - - - - -
 72
65
 73
2
 40
0.2
 49
0.1
 74
0
 49
-0.1
 74
0
  0
ENDTAB
  0
TABLE
  2
LAYER
  5
2
100
AcDbSymbolTable
 70
36
  0
LAYER
  5
10
100
AcDbSymbolTableRecord
100
AcDbLayerTableRecord
  2
0
 70
0
 62
7
  6
CONTINUOUS
370
-3
390
F
  0
LAYER
  5
1FA
100
AcDbSymbolTableRecord
100
AcDbLayerTableRecord
  2
DEFAULT_1
 70
0
 62
7
  6
CENTER
370
-3
390
F
  0
LAYER
  5
1FB
100
AcDbSymbolTableRecord
100
AcDbLayerTableRecord
  2
DEFAULT_2
 70
0
 62
7
  6
HIDDEN
370
-3
390
F
  0
LAYER
  5
1FC
100
AcDbSymbolTableRecord
100
AcDbLayerTableRecord
  2
DEFAULT_3
 70
0
 62
7
  6
PHANTOM
370
-3
390
F
  0
LAYER
  5
1FD
100
AcDbSymbolTableRecord
100
AcDbLayerTableRecord
  2
00_COMPONENTS
 70
0
 62
7
  6
CONTINUOUS
370
-3
390
F
  0
LAYER
  5
1FE
100
AcDbSymbolTableRecord
100
AcDbLayerTableRecord
  2
01_1_DEFAULT_DATUMS
 70
0
 62
7
  6
CONTINUOUS
370
-3
390
F
  0
LAYER
  5
1FF
100
AcDbSymbolTableRecord
100
AcDbLayerTableRecord
  2
01_PLANES
 70
0
 62
7
  6
CONTINUOUS
370
-3
390
F
  0
LAYER
  5
200
100
AcDbSymbolTableRecord
100
AcDbLayerTableRecord
  2
02_COORD_SYS
 70
0
 62
7
  6
CONTINUOUS
370
-3
390
F
  0
LAYER
  5
201
100
AcDbSymbolTableRecord
100
AcDbLayerTableRecord
  2
03_AXES
 70
0
 62
7
  6
CONTINUOUS
370
-3
390
F
  0
LAYER
  5
202
100
AcDbSymbolTableRecord
100
AcDbLayerTableRecord
  2
04_POINTS
 70
0
 62
7
  6
CONTINUOUS
370
-3
390
F
  0
LAYER
  5
203
100
AcDbSymbolTableRecord
100
AcDbLayerTableRecord
  2
05_CURVES
 70
0
 62
7
  6
CONTINUOUS
370
-3
390
F
  0
LAYER
  5
204
100
AcDbSymbolTableRecord
100
AcDbLayerTableRecord
  2
06_SURFS
 70
0
 62
7
  6
CONTINUOUS
370
-3
390
F
  0
LAYER
  5
205
100
AcDbSymbolTableRecord
100
AcDbLayerTableRecord
  2
07_COSMETICS
 70
0
 62
7
  6
CONTINUOUS
370
-3
390
F
  0
LAYER
  5
206
100
AcDbSymbolTableRecord
100
AcDbLayerTableRecord
  2
10_NOTES
 70
0
 62
7
  6
CONTINUOUS
370
-3
390
F
  0
LAYER
  5
207
100
AcDbSymbolTableRecord
100
AcDbLayerTableRecord
  2
11_NOTES_PUB
 70
0
 62
7
  6
CONTINUOUS
370
-3
390
F
  0
LAYER
  5
208
100
AcDbSymbolTableRecord
100
AcDbLayerTableRecord
  2
13_REF_GTOL
 70
0
 62
7
  6
CONTINUOUS
370
-3
390
F
  0
LAYER
  5
209
100
AcDbSymbolTableRecord
100
AcDbLayerTableRecord
  2
16_MISC
 70
0
 62
7
  6
CONTINUOUS
370
-3
390
F
  0
LAYER
  5
20A
100
AcDbSymbolTableRecord
100
AcDbLayerTableRecord
  2
17_NO_PRINT
 70
0
 62
7
  6
CONTINUOUS
370
-3
390
F
  0
LAYER
  5
20B
100
AcDbSymbolTableRecord
100
AcDbLayerTableRecord
  2
18_DATUM_CAMS_JOINTS
 70
0
 62
7
  6
CONTINUOUS
370
-3
390
F
  0
LAYER
  5
20C
100
AcDbSymbolTableRecord
100
AcDbLayerTableRecord
  2
19_DATUM_FUNCTIONAL
 70
0
 62
7
  6
CONTINUOUS
370
-3
390
F
  0
LAYER
  5
20D
100
AcDbSymbolTableRecord
100
AcDbLayerTableRecord
  2
20_DATUM_KINEMATIC_SCHEME
 70
0
 62
7
  6
CONTINUOUS
370
-3
390
F
  0
LAYER
  5
20E
100
AcDbSymbolTableRecord
100
AcDbLayerTableRecord
  2
3
 70
0
 62
7
  6
CONTINUOUS
370
-3
390
F
  0
LAYER
  5
20F
100
AcDbSymbolTableRecord
100
AcDbLayerTableRecord
  2
4
 70
0
 62
7
  6
CONTINUOUS
370
-3
390
F
  0
ENDTAB
  0
TABLE
  2
STYLE
  5
3
100
AcDbSymbolTable
 70
1
  0
STYLE
  5
11
100
AcDbSymbolTableRecord
100
AcDbTextStyleTableRecord
  2
STANDARD
 70
0
 40
0.0
 41
1.0
 50
0.0
 71
0
 42
0.2
  3
ARIAL.TTF
  4

  0
STYLE
  5
210
100
AcDbSymbolTableRecord
100
AcDbTextStyleTableRecord
  2
TEXTSTYLE_1
 70
0
 40
0.0
 41
0.8
 50
0.0
 71
0
 42
0.2
  3
gdt
  4

  0
ENDTAB
  0
TABLE
  2
VIEW
  5
6
100
AcDbSymbolTable
 70
0
  0
ENDTAB
  0
TABLE
  2
UCS
  5
7
100
AcDbSymbolTable
 70
0
  0
ENDTAB
  0
TABLE
  2
APPID
  5
9
100
AcDbSymbolTable
 70
1
  0
APPID
  5
211
100
AcDbSymbolTableRecord
100
AcDbRegAppTableRecord
  2
ACAD
 70
0
  0
ENDTAB
  0
TABLE
  2
BLOCK_RECORD
  5
1
100
AcDbSymbolTable
 70
0
  0
BLOCK_RECORD
  5
212
100
AcDbSymbolTableRecord
100
AcDbBlockTableRecord
  2
*Model_Space
  0
BLOCK_RECORD
  5
213
100
AcDbSymbolTableRecord
100
AcDbBlockTableRecord
  2
*Paper_Space
  0
BLOCK_RECORD
  5
214
100
AcDbSymbolTableRecord
100
AcDbBlockTableRecord
  2
_FILLED
  0
ENDTAB
  0
TABLE
  2
DIMSTYLE
  5
A
100
AcDbSymbolTable
 70
1
100
AcDbDimStyleTable
 71
0
  0
DIMSTYLE
105
215
100
AcDbSymbolTableRecord
100
AcDbDimStyleTableRecord
  2
STANDARD
 70
0
  3

  4

 40
1.0
 41
8.4620463767
 42
1.0
 43
0.38
 44
1.0
 45
0.0
 46
0.0
 47
0.01
 48
0.01
140
11.8468649274
141
0.09
142
0.0
143
25.4
144
1.0
145
0.0
146
1.0
147
0.625
 71
1
 72
0
 73
0
 74
0
 75
0
 76
0
 77
1
 78
8
 79
2
170
0
171
1
172
0
173
0
174
0
175
0
176
0
177
0
178
0
270
2
179
2
271
2
272
2
273
2
274
2
275
0
280
0
281
0
282
0
283
1
284
8
285
0
286
0
287
3
288
0
340
11
278
46
341
214
342
214
343
214
344
214
  0
ENDTAB
  0
ENDSEC
  0
SECTION
  2
BLOCKS
  0
BLOCK
  5
20
100
AcDbEntity
  8
0
100
AcDbBlockBegin
  2
*Model_Space
 70
0
 10
0.0
 20
0.0
 30
0.0
  3
*Model_Space
  1

  0
ENDBLK
  5
21
100
AcDbEntity
  8
0
100
AcDbBlockEnd
  0
BLOCK
  5
1C
100
AcDbEntity
  8
0
100
AcDbBlockBegin
  2
*Paper_Space
 70
0
 10
0.0
 20
0.0
 30
0.0
  3
*Paper_Space
  1

  0
ENDBLK
  5
1D
100
AcDbEntity
  8
0
100
AcDbBlockEnd
  0
BLOCK
  5
216
100
AcDbEntity
  8
0
100
AcDbBlockBegin
  2
_FILLED
 70
64
 10
0.0
 20
0.0
  3
_FILLED
  1

  0
SOLID
  5
217
100
AcDbEntity
  8
0
  6
BYBLOCK
 62
0
100
AcDbTrace
 10
0.0
 20
0.0
 11
-1.0
 21
0.25
 12
-1.0
 22
-0.25
 13
-1.0
 23
-0.25
  0
ENDBLK
  5
218
100
AcDbEntity
  8
0
  6
BYBLOCK
 62
0
100
AcDbBlockEnd
  0
ENDSEC
  0
SECTION
  2
ENTITIES
  0
LINE
  5
219
100
AcDbEntity
  8
0
100
AcDbLine
 62
7
  6
BYLAYER
 10
409.6705549527
 20
81.8260205453
 11
405.0707316504
 21
81.8260205453
  0
LINE
  5
21A
100
AcDbEntity
  8
0
100
AcDbLine
 62
7
  6
BYLAYER
 10
369.6705430796
 20
81.8260205453
 11
365.0707197773
 21
81.8260205453
  0
LINE
  5
21B
100
AcDbEntity
  8
0
100
AcDbLine
 62
7
  6
BYLAYER
 10
416.8701402621
 20
81.9259104068
 11
410.0434332123
 21
81.9259104068
  0
LINE
  5
21C
100
AcDbEntity
  8
0
100
AcDbLine
 62
7
  6
BYLAYER
 10
363.8701402621
 20
81.9259104068
 11
364.6978330172
 21
81.9259104068
  0
LINE
  5
21D
100
AcDbEntity
  8
0
100
AcDbLine
 62
7
  6
BYLAYER
 10
370.0434213391
 20
81.9259104068
 11
404.6978448904
 21
81.9259104068
  0
LINE
  5
21E
100
AcDbEntity
  8
0
100
AcDbLine
 62
7
  6
BYLAYER
 10
394.5115884422
 20
82.4259104068
 11
386.229656608
 21
82.4259104068
  0
LINE
  5
21F
100
AcDbEntity
  8
0
100
AcDbLine
 62
7
  6
BYLAYER
 10
410.6706390513
 20
82.8260205453
 11
404.0706390513
 21
82.8260205453
  0
LINE
  5
220
100
AcDbEntity
  8
0
100
AcDbLine
 62
7
  6
BYLAYER
 10
370.6706271782
 20
82.8260205453
 11
364.0706271782
 21
82.8260205453
  0
LINE
  5
221
100
AcDbEntity
  8
0
100
AcDbLine
 62
7
  6
BYLAYER
 10
417.8701402621
 20
82.9259104068
 11
410.6706390513
 21
82.9259104068
  0
LINE
  5
222
100
AcDbEntity
  8
0
100
AcDbLine
 62
7
  6
BYLAYER
 10
404.0706390513
 20
82.9259104068
 11
394.3701402621
 21
82.9259104134
  0
LINE
  5
223
100
AcDbEntity
  8
0
100
AcDbLine
 62
7
  6
BYLAYER
 10
386.3701402621
 20
82.9259104069
 11
370.6706271782
 21
82.9259104068
  0
LINE
  5
224
100
AcDbEntity
  8
0
100
AcDbLine
 62
7
  6
BYLAYER
 10
364.0706271782
 20
82.9259104068
 11
362.8701402621
 21
82.9259104068
  0
LINE
  5
225
100
AcDbEntity
  8
0
100
AcDbLine
 62
7
  6
BYLAYER
 10
362.8701402621
 20
83.9259103379
 11
364.0706271782
 21
83.9259104068
  0
LINE
  5
226
100
AcDbEntity
  8
0
100
AcDbLine
 62
7
  6
BYLAYER
 10
370.6706271782
 20
83.9259104068
 11
371.8701402621
 21
83.9259103378
  0
LINE
  5
227
100
AcDbEntity
  8
0
100
AcDbLine
 62
7
  6
BYLAYER
 10
402.8701402621
 20
83.9259103379
 11
404.0706390513
 21
83.9259104068
  0
LINE
  5
228
100
AcDbEntity
  8
0
100
AcDbLine
 62
7
  6
BYLAYER
 10
410.6706390513
 20
83.9259104068
 11
411.2824554709
 21
83.9259104068
  0
LINE
  5
229
100
AcDbEntity
  8
0
100
AcDbLine
 62
7
  6
BYLAYER
 10
363.3701402621
 20
84.4259104068
 11
370.3701402621
 21
84.4259104068
  0
LINE
  5
22A
100
AcDbEntity
  8
0
100
AcDbLine
 62
7
  6
BYLAYER
 10
404.3701402621
 20
84.4259104068
 11
410.9198937546
 21
84.4259104068
  0
LINE
  5
22B
100
AcDbEntity
  8
0
100
AcDbLine
 62
7
  6
BYLAYER
 10
412.782221954
 20
84.9259104068
 11
404.3701402621
 21
84.9259104068
  0
LINE
  5
22C
100
AcDbEntity
  8
0
100
AcDbLine
 62
7
  6
BYLAYER
 10
370.3701402621
 20
84.9259104068
 11
362.8701402621
 21
84.9259104068
  0
LINE
  5
22D
100
AcDbEntity
  8
0
100
AcDbLine
 62
7
  6
BYLAYER
 10
362.8701402621
 20
99.4259104068
 11
386.3701402621
 21
99.4259104068
  0
LINE
  5
22E
100
AcDbEntity
  8
0
100
AcDbLine
 62
7
  6
BYLAYER
 10
386.3706390514
 20
99.4259104068
 11
417.8701402621
 21
99.4259104068
  0
LINE
  5
22F
100
AcDbEntity
  8
3
100
AcDbLine
 62
7
  6
BYLAYER
 10
362.8706217365
 20
99.4260333538
 11
417.8684394788
 21
99.4260333538
  0
LINE
  5
230
100
AcDbEntity
  8
3
100
AcDbLine
 62
7
  6
BYLAYER
 10
317.6287201843
 20
126.7741956685
 11
362.6287201843
 21
126.7741956685
  0
LINE
  5
231
100
AcDbEntity
  8
3
100
AcDbLine
 62
7
  6
BYLAYER
 10
358.2920055004
 20
130.4216956685
 11
359.5366047622
 21
130.4216956685
  0
LINE
  5
232
100
AcDbEntity
  8
3
100
AcDbLine
 62
7
  6
BYLAYER
 10
362.6287201843
 20
131.7741956685
 11
359.6287201843
 21
131.7741956685
  0
LINE
  5
233
100
AcDbEntity
  8
3
100
AcDbLine
 62
7
  6
BYLAYER
 10
358.1885205664
 20
132.0976584881
 11
355.1885205664
 21
132.0976584881
  0
LINE
  5
234
100
AcDbEntity
  8
3
100
AcDbLine
 62
7
  6
BYLAYER
 10
320.8287201843
 20
133.5241956685
 11
334.3287201843
 21
133.5241956685
  0
LINE
  5
235
100
AcDbEntity
  8
3
100
AcDbLine
 62
7
  6
BYLAYER
 10
350.918065159
 20
133.7741956685
 11
355.1885205664
 21
133.7741956685
  0
LINE
  5
236
100
AcDbEntity
  8
3
100
AcDbLine
 62
7
  6
BYLAYER
 10
358.1885205664
 20
133.7741956685
 11
358.2920055004
 21
133.7741956685
  0
LINE
  5
237
100
AcDbEntity
  8
3
100
AcDbLine
 62
7
  6
BYLAYER
 10
359.5366047622
 20
133.7741956685
 11
359.6287201843
 21
133.7741956685
  0
LINE
  5
238
100
AcDbEntity
  8
3
100
AcDbLine
 62
7
  6
BYLAYER
 10
362.6287201843
 20
133.7741956685
 11
362.8706217365
 21
133.7741956685
  0
LINE
  5
239
100
AcDbEntity
  8
3
100
AcDbLine
 62
7
  6
BYLAYER
 10
358.1885205664
 20
136.7741956685
 11
355.1885205664
 21
136.7741956685
  0
LINE
  5
23A
100
AcDbEntity
  8
3
100
AcDbLine
 62
7
  6
BYLAYER
 10
350.918065159
 20
139.7741956685
 11
355.1885205664
 21
139.7741956685
  0
LINE
  5
23B
100
AcDbEntity
  8
3
100
AcDbLine
 62
7
  6
BYLAYER
 10
358.1885205664
 20
139.7741956685
 11
358.2920055004
 21
139.7741956685
  0
LINE
  5
23C
100
AcDbEntity
  8
3
100
AcDbLine
 62
7
  6
BYLAYER
 10
359.5366047622
 20
139.7741956685
 11
359.6287201843
 21
139.7741956685
  0
LINE
  5
23D
100
AcDbEntity
  8
3
100
AcDbLine
 62
7
  6
BYLAYER
 10
362.6287201843
 20
139.7741956685
 11
362.8706217365
 21
139.7741956685
  0
LINE
  5
23E
100
AcDbEntity
  8
3
100
AcDbLine
 62
7
  6
BYLAYER
 10
334.3287201843
 20
140.0241956685
 11
320.8287201843
 21
140.0241956685
  0
LINE
  5
23F
100
AcDbEntity
  8
3
100
AcDbLine
 62
7
  6
BYLAYER
 10
358.1885205664
 20
141.4507328489
 11
355.1885205664
 21
141.4507328489
  0
LINE
  5
240
100
AcDbEntity
  8
3
100
AcDbLine
 62
7
  6
BYLAYER
 10
359.5366047622
 20
143.1266956685
 11
358.2920055004
 21
143.1266956685
  0
LINE
  5
241
100
AcDbEntity
  8
3
100
AcDbLine
 62
7
  6
BYLAYER
 10
358.2920055004
 20
160.4216956685
 11
359.5366047622
 21
160.4216956685
  0
LINE
  5
242
100
AcDbEntity
  8
3
100
AcDbLine
 62
7
  6
BYLAYER
 10
358.1885205664
 20
162.0976584881
 11
355.1885205664
 21
162.0976584881
  0
LINE
  5
243
100
AcDbEntity
  8
3
100
AcDbLine
 62
7
  6
BYLAYER
 10
320.8287201843
 20
163.5241956685
 11
334.3287201843
 21
163.5241956685
  0
LINE
  5
244
100
AcDbEntity
  8
3
100
AcDbLine
 62
7
  6
BYLAYER
 10
350.918065159
 20
163.7741956685
 11
355.1885205664
 21
163.7741956685
  0
LINE
  5
245
100
AcDbEntity
  8
3
100
AcDbLine
 62
7
  6
BYLAYER
 10
358.1885205664
 20
163.7741956685
 11
358.2920055004
 21
163.7741956685
  0
LINE
  5
246
100
AcDbEntity
  8
3
100
AcDbLine
 62
7
  6
BYLAYER
 10
359.5366047622
 20
163.7741956685
 11
359.6287201843
 21
163.7741956685
  0
LINE
  5
247
100
AcDbEntity
  8
3
100
AcDbLine
 62
7
  6
BYLAYER
 10
362.6287201843
 20
163.7741956685
 11
362.8706217365
 21
163.7741956685
  0
LINE
  5
248
100
AcDbEntity
  8
3
100
AcDbLine
 62
7
  6
BYLAYER
 10
358.1885205664
 20
166.7741956685
 11
355.1885205664
 21
166.7741956685
  0
LINE
  5
249
100
AcDbEntity
  8
3
100
AcDbLine
 62
7
  6
BYLAYER
 10
350.918065159
 20
169.7741956685
 11
355.1885205664
 21
169.7741956685
  0
LINE
  5
24A
100
AcDbEntity
  8
3
100
AcDbLine
 62
7
  6
BYLAYER
 10
358.1885205664
 20
169.7741956685
 11
358.2920055004
 21
169.7741956685
  0
LINE
  5
24B
100
AcDbEntity
  8
3
100
AcDbLine
 62
7
  6
BYLAYER
 10
359.5366047622
 20
169.7741956685
 11
359.6287201843
 21
169.7741956685
  0
LINE
  5
24C
100
AcDbEntity
  8
3
100
AcDbLine
 62
7
  6
BYLAYER
 10
362.6287201843
 20
169.7741956685
 11
362.8706217365
 21
169.7741956685
  0
LINE
  5
24D
100
AcDbEntity
  8
3
100
AcDbLine
 62
7
  6
BYLAYER
 10
334.3287201843
 20
170.0241956685
 11
320.8287201843
 21
170.0241956685
  0
LINE
  5
24E
100
AcDbEntity
  8
3
100
AcDbLine
 62
7
  6
BYLAYER
 10
358.1885205664
 20
171.4507328489
 11
355.1885205664
 21
171.4507328489
  0
LINE
  5
24F
100
AcDbEntity
  8
3
100
AcDbLine
 62
7
  6
BYLAYER
 10
359.6287201843
 20
171.7741956685
 11
362.6287201843
 21
171.7741956685
  0
LINE
  5
250
100
AcDbEntity
  8
3
100
AcDbLine
 62
7
  6
BYLAYER
 10
359.5366047622
 20
173.1266956685
 11
358.2920055004
 21
173.1266956685
  0
LINE
  5
251
100
AcDbEntity
  8
3
100
AcDbLine
 62
7
  6
BYLAYER
 10
317.6287201843
 20
176.7741956685
 11
362.6287201843
 21
176.7741956685
  0
LINE
  5
252
100
AcDbEntity
  8
0
100
AcDbLine
 62
7
  6
BYLAYER
 10
370.6203809993
 20
921.4260205453
 11
371.1203809993
 21
921.9260205453
  0
LINE
  5
253
100
AcDbEntity
  8
0
100
AcDbLine
 62
7
  6
BYLAYER
 10
394.8703794513
 20
925.4260211558
 11
395.370380435
 21
925.9260219596
  0
LINE
  5
254
100
AcDbEntity
  8
0
100
AcDbLine
 62
7
  6
BYLAYER
 10
393.1203809993
 20
921.4260205453
 11
393.6203809993
 21
921.9260205453
  0
LINE
  5
255
100
AcDbEntity
  8
3
100
AcDbLine
 62
7
  6
BYLAYER
 10
312.6287201843
 20
868.1090981294
 11
312.6287201843
 21
828.1090981294
  0
LINE
  5
256
100
AcDbEntity
  8
3
100
AcDbLine
 62
7
  6
BYLAYER
 10
312.6287201843
 20
171.7741956685
 11
312.6287201843
 21
131.7741956685
  0
LINE
  5
257
100
AcDbEntity
  8
3
100
AcDbLine
 62
7
  6
BYLAYER
 10
350.918065159
 20
133.7743186444
 11
350.918065159
 21
139.7740726926
  0
LINE
  5
258
100
AcDbEntity
  8
3
100
AcDbLine
 62
7
  6
BYLAYER
 10
350.918065159
 20
163.7743186444
 11
350.918065159
 21
169.7740726926
  0
LINE
  5
259
100
AcDbEntity
  8
3
100
AcDbLine
 62
7
  6
BYLAYER
 10
350.918065159
 20
830.1092211053
 11
350.918065159
 21
836.1089751534
  0
LINE
  5
25A
100
AcDbEntity
  8
3
100
AcDbLine
 62
7
  6
BYLAYER
 10
350.918065159
 20
860.1092211053
 11
350.918065159
 21
866.1089751534
  0
LINE
  5
25B
100
AcDbEntity
  8
3
100
AcDbLine
 62
7
  6
BYLAYER
 10
355.1885205664
 20
132.0976584881
 11
355.1885205664
 21
141.4507328489
  0
LINE
  5
25C
100
AcDbEntity
  8
3
100
AcDbLine
 62
7
  6
BYLAYER
 10
355.1885205664
 20
162.0976584881
 11
355.1885205664
 21
171.4507328489
  0
LINE
  5
25D
100
AcDbEntity
  8
3
100
AcDbLine
 62
7
  6
BYLAYER
 10
355.1885205664
 20
828.4325609489
 11
355.1885205664
 21
837.7856353098
  0
LINE
  5
25E
100
AcDbEntity
  8
3
100
AcDbLine
 62
7
  6
BYLAYER
 10
355.1885205664
 20
858.4325609489
 11
355.1885205664
 21
867.7856353098
  0
LINE
  5
25F
100
AcDbEntity
  8
3
100
AcDbLine
 62
7
  6
BYLAYER
 10
355.6287201843
 20
873.1090981294
 11
355.6287201843
 21
867.7856353098
  0
LINE
  5
260
100
AcDbEntity
  8
3
100
AcDbLine
 62
7
  6
BYLAYER
 10
355.6287201843
 20
858.4325609489
 11
355.6287201843
 21
837.7856353098
  0
LINE
  5
261
100
AcDbEntity
  8
3
100
AcDbLine
 62
7
  6
BYLAYER
 10
355.6287201843
 20
828.4325609489
 11
355.6287201843
 21
823.1090981294
  0
LINE
  5
262
100
AcDbEntity
  8
3
100
AcDbLine
 62
7
  6
BYLAYER
 10
355.6287201843
 20
176.7741956685
 11
355.6287201843
 21
171.4507328489
  0
LINE
  5
263
100
AcDbEntity
  8
3
100
AcDbLine
 62
7
  6
BYLAYER
 10
355.6287201843
 20
162.0976584881
 11
355.6287201843
 21
141.4507328489
  0
LINE
  5
264
100
AcDbEntity
  8
3
100
AcDbLine
 62
7
  6
BYLAYER
 10
355.6287201843
 20
132.0976584881
 11
355.6287201843
 21
126.7741956685
  0
LINE
  5
265
100
AcDbEntity
  8
3
100
AcDbLine
 62
7
  6
BYLAYER
 10
358.1885205664
 20
867.7856353098
 11
358.1885205664
 21
858.4325609489
  0
LINE
  5
266
100
AcDbEntity
  8
3
100
AcDbLine
 62
7
  6
BYLAYER
 10
358.1885205664
 20
837.7856353098
 11
358.1885205664
 21
828.4325609489
  0
LINE
  5
267
100
AcDbEntity
  8
3
100
AcDbLine
 62
7
  6
BYLAYER
 10
358.1885205664
 20
171.4507328489
 11
358.1885205664
 21
162.0976584881
  0
LINE
  5
268
100
AcDbEntity
  8
3
100
AcDbLine
 62
7
  6
BYLAYER
 10
358.1885205664
 20
141.4507328489
 11
358.1885205664
 21
132.0976584881
  0
LINE
  5
269
100
AcDbEntity
  8
3
100
AcDbLine
 62
7
  6
BYLAYER
 10
358.2920055004
 20
130.4216956685
 11
358.2920055004
 21
143.1266956685
  0
LINE
  5
26A
100
AcDbEntity
  8
3
100
AcDbLine
 62
7
  6
BYLAYER
 10
358.2920055004
 20
160.4216956685
 11
358.2920055004
 21
173.1266956685
  0
LINE
  5
26B
100
AcDbEntity
  8
3
100
AcDbLine
 62
7
  6
BYLAYER
 10
358.2920055004
 20
826.7565981294
 11
358.2920055004
 21
839.4615981294
  0
LINE
  5
26C
100
AcDbEntity
  8
3
100
AcDbLine
 62
7
  6
BYLAYER
 10
358.2920055004
 20
856.7565981294
 11
358.2920055004
 21
869.4615981294
  0
LINE
  5
26D
100
AcDbEntity
  8
3
100
AcDbLine
 62
7
  6
BYLAYER
 10
359.5366047622
 20
869.4615981294
 11
359.5366047622
 21
856.7565981294
  0
LINE
  5
26E
100
AcDbEntity
  8
3
100
AcDbLine
 62
7
  6
BYLAYER
 10
359.5366047622
 20
839.4615981294
 11
359.5366047622
 21
826.7565981294
  0
LINE
  5
26F
100
AcDbEntity
  8
3
100
AcDbLine
 62
7
  6
BYLAYER
 10
359.5366047622
 20
173.1266956685
 11
359.5366047622
 21
160.4216956685
  0
LINE
  5
270
100
AcDbEntity
  8
3
100
AcDbLine
 62
7
  6
BYLAYER
 10
359.5366047622
 20
143.1266956685
 11
359.5366047622
 21
130.4216956685
  0
LINE
  5
271
100
AcDbEntity
  8
3
100
AcDbLine
 62
7
  6
BYLAYER
 10
359.6287201843
 20
126.7741956685
 11
359.6287201843
 21
176.7741956685
  0
LINE
  5
272
100
AcDbEntity
  8
3
100
AcDbLine
 62
7
  6
BYLAYER
 10
359.6287201843
 20
823.1090981294
 11
359.6287201843
 21
873.1090981294
  0
LINE
  5
273
100
AcDbEntity
  8
3
100
AcDbLine
 62
7
  6
BYLAYER
 10
362.6287201843
 20
873.1090981294
 11
362.6287201843
 21
823.1090981294
  0
LINE
  5
274
100
AcDbEntity
  8
3
100
AcDbLine
 62
7
  6
BYLAYER
 10
362.6287201843
 20
176.7741956685
 11
362.6287201843
 21
126.7741956685
  0
LINE
  5
275
100
AcDbEntity
  8
0
100
AcDbLine
 62
7
  6
BYLAYER
 10
362.8701402621
 20
82.9259104068
 11
362.8701402621
 21
99.4259104068
  0
LINE
  5
276
100
AcDbEntity
  8
0
100
AcDbLine
 62
7
  6
BYLAYER
 10
362.8703809993
 20
912.4260205453
 11
362.8703809993
 21
897.9260205453
  0
LINE
  5
277
100
AcDbEntity
  8
0
100
AcDbLine
 62
7
  6
BYLAYER
 10
362.8703809993
 20
914.4260205453
 11
362.8703809993
 21
912.4380105914
  0
LINE
  5
278
100
AcDbEntity
  8
3
100
AcDbLine
 62
7
  6
BYLAYER
 10
362.8706217365
 20
897.9260333538
 11
362.8706217365
 21
99.4260333538
  0
LINE
  5
279
100
AcDbEntity
  8
0
100
AcDbLine
 62
7
  6
BYLAYER
 10
363.8701402621
 20
81.9259104068
 11
363.8701402604
 21
83.9259104068
  0
LINE
  5
27A
100
AcDbEntity
  8
0
100
AcDbLine
 62
7
  6
BYLAYER
 10
363.8703809976
 20
913.4260205453
 11
363.8703809993
 21
915.4260205453
  0
LINE
  5
27B
100
AcDbEntity
  8
0
100
AcDbLine
 62
7
  6
BYLAYER
 10
364.0703809993
 20
912.9260205453
 11
364.0703809993
 21
914.5260205453
  0
LINE
  5
27C
100
AcDbEntity
  8
0
100
AcDbLine
 62
7
  6
BYLAYER
 10
364.0706271782
 20
84.4260205453
 11
364.0706271782
 21
82.8260205453
  0
LINE
  5
27D
100
AcDbEntity
  8
0
100
AcDbLine
 62
7
  6
BYLAYER
 10
366.8701402621
 20
84.4259104068
 11
366.8701402621
 21
99.4259104068
  0
LINE
  5
27E
100
AcDbEntity
  8
0
100
AcDbLine
 62
7
  6
BYLAYER
 10
366.8703809993
 20
897.9260205453
 11
366.8703809993
 21
912.9260205453
  0
LINE
  5
27F
100
AcDbEntity
  8
3
100
AcDbLine
 62
7
  6
BYLAYER
 10
366.8706217365
 20
99.4260333538
 11
366.8706217365
 21
897.9260333538
  0
LINE
  5
280
100
AcDbEntity
  8
0
100
AcDbLine
 62
7
  6
BYLAYER
 10
370.3701401896
 20
84.9259104068
 11
370.3701401896
 21
84.4259104068
  0
LINE
  5
281
100
AcDbEntity
  8
0
100
AcDbLine
 62
7
  6
BYLAYER
 10
370.3703809264
 20
912.9260205453
 11
370.3703809264
 21
912.4260205453
  0
LINE
  5
282
100
AcDbEntity
  8
0
100
AcDbLine
 62
7
  6
BYLAYER
 10
370.6203809993
 20
915.4260205453
 11
370.6203809993
 21
921.4260205453
  0
LINE
  5
283
100
AcDbEntity
  8
0
100
AcDbLine
 62
7
  6
BYLAYER
 10
370.6703809993
 20
913.0302029801
 11
370.6703809993
 21
914.5260205453
  0
LINE
  5
284
100
AcDbEntity
  8
0
100
AcDbLine
 62
7
  6
BYLAYER
 10
370.6706271782
 20
84.3238246141
 11
370.6706271782
 21
82.8260205453
  0
LINE
  5
285
100
AcDbEntity
  8
0
100
AcDbLine
 62
7
  6
BYLAYER
 10
370.8701402621
 20
83.9259104068
 11
370.8701402621
 21
82.9259104068
  0
LINE
  5
286
100
AcDbEntity
  8
0
100
AcDbLine
 62
7
  6
BYLAYER
 10
370.8703809993
 20
914.4260205453
 11
370.8703809993
 21
913.4260205453
  0
LINE
  5
287
100
AcDbEntity
  8
0
100
AcDbLine
 62
7
  6
BYLAYER
 10
371.8701402621
 20
81.9259104068
 11
371.8701402621
 21
83.9259104068
  0
LINE
  5
288
100
AcDbEntity
  8
0
100
AcDbLine
 62
7
  6
BYLAYER
 10
371.8703809993
 20
913.4260205453
 11
371.8703809993
 21
915.4260205453
  0
LINE
  5
289
100
AcDbEntity
  8
0
100
AcDbLine
 62
7
  6
BYLAYER
 10
374.2466409993
 20
923.1260205453
 11
374.2466409993
 21
921.9260205453
  0
LINE
  5
28A
100
AcDbEntity
  8
0
100
AcDbLine
 62
7
  6
BYLAYER
 10
382.4966409993
 20
923.1260205453
 11
382.4966409993
 21
921.9260205453
  0
LINE
  5
28B
100
AcDbEntity
  8
0
100
AcDbLine
 62
7
  6
BYLAYER
 10
385.8701402621
 20
99.4259104068
 11
385.8701402621
 21
82.9259104068
  0
LINE
  5
28C
100
AcDbEntity
  8
0
100
AcDbLine
 62
7
  6
BYLAYER
 10
385.8703809993
 20
914.4260205453
 11
385.8703809993
 21
897.9260205453
  0
LINE
  5
28D
100
AcDbEntity
  8
3
100
AcDbLine
 62
7
  6
BYLAYER
 10
385.8706390514
 20
897.9260333538
 11
385.8706390514
 21
99.4260333538
  0
LINE
  5
28E
100
AcDbEntity
  8
0
100
AcDbLine
 62
7
  6
BYLAYER
 10
386.1203809993
 20
915.4260205453
 11
386.1203809993
 21
921.4260205453
  0
LINE
  5
28F
100
AcDbEntity
  8
0
100
AcDbLine
 62
7
  6
BYLAYER
 10
386.3701402621
 20
82.9259104068
 11
386.3701402621
 21
99.4259104068
  0
LINE
  5
290
100
AcDbEntity
  8
0
100
AcDbLine
 62
7
  6
BYLAYER
 10
386.3703809993
 20
897.9260205453
 11
386.3703809993
 21
914.4260205452
  0
LINE
  5
291
100
AcDbEntity
  8
3
100
AcDbLine
 62
7
  6
BYLAYER
 10
386.3706390514
 20
99.4260333538
 11
386.3706390514
 21
897.9260333538
  0
LINE
  5
292
100
AcDbEntity
  8
0
100
AcDbLine
 62
7
  6
BYLAYER
 10
393.1203809993
 20
915.4260205453
 11
393.1203809993
 21
921.4260205453
  0
LINE
  5
293
100
AcDbEntity
  8
0
100
AcDbLine
 62
7
  6
BYLAYER
 10
394.3701402621
 20
99.4259104068
 11
394.3701402621
 21
82.9259104069
  0
LINE
  5
294
100
AcDbEntity
  8
0
100
AcDbLine
 62
7
  6
BYLAYER
 10
394.3703809993
 20
914.4260205452
 11
394.3703809993
 21
897.9260205453
  0
LINE
  5
295
100
AcDbEntity
  8
3
100
AcDbLine
 62
7
  6
BYLAYER
 10
394.3706390514
 20
897.9260333538
 11
394.3706390514
 21
99.4260333538
  0
LINE
  5
296
100
AcDbEntity
  8
0
100
AcDbLine
 62
7
  6
BYLAYER
 10
394.8701402621
 20
82.9259104068
 11
394.8701402621
 21
99.4259104068
  0
LINE
  5
297
100
AcDbEntity
  8
0
100
AcDbLine
 62
7
  6
BYLAYER
 10
394.8703809993
 20
897.9260205453
 11
394.8703809993
 21
914.4260205453
  0
LINE
  5
298
100
AcDbEntity
  8
0
100
AcDbLine
 62
7
  6
BYLAYER
 10
394.8703809993
 20
921.9260205453
 11
394.8703809993
 21
925.4260196078
  0
LINE
  5
299
100
AcDbEntity
  8
3
100
AcDbLine
 62
7
  6
BYLAYER
 10
394.8706390514
 20
99.4260333538
 11
394.8706390514
 21
897.9260333538
  0
LINE
  5
29A
100
AcDbEntity
  8
0
100
AcDbLine
 62
7
  6
BYLAYER
 10
396.7459609993
 20
923.1260205453
 11
396.7459609993
 21
921.9260205453
  0
LINE
  5
29B
100
AcDbEntity
  8
0
100
AcDbLine
 62
7
  6
BYLAYER
 10
402.8701402621
 20
83.9259104068
 11
402.8701402621
 21
81.9259104068
  0
LINE
  5
29C
100
AcDbEntity
  8
0
100
AcDbLine
 62
7
  6
BYLAYER
 10
402.8703809993
 20
915.4260205453
 11
402.8703809993
 21
913.4260205453
  0
LINE
  5
29D
100
AcDbEntity
  8
0
100
AcDbLine
 62
7
  6
BYLAYER
 10
403.8701402621
 20
82.9259104068
 11
403.8701402621
 21
83.9259104068
  0
LINE
  5
29E
100
AcDbEntity
  8
0
100
AcDbLine
 62
7
  6
BYLAYER
 10
403.8703809993
 20
913.4260205453
 11
403.8703809993
 21
914.4260205453
  0
LINE
  5
29F
100
AcDbEntity
  8
0
100
AcDbLine
 62
7
  6
BYLAYER
 10
404.0703809993
 20
913.0276194219
 11
404.0703809993
 21
914.5260205453
  0
LINE
  5
2A0
100
AcDbEntity
  8
0
100
AcDbLine
 62
7
  6
BYLAYER
 10
404.0706390513
 20
84.3248103193
 11
404.0706390513
 21
82.8260205453
  0
LINE
  5
2A1
100
AcDbEntity
  8
0
100
AcDbLine
 62
7
  6
BYLAYER
 10
404.370140335
 20
84.4259104068
 11
404.370140335
 21
84.9259104068
  0
LINE
  5
2A2
100
AcDbEntity
  8
0
100
AcDbLine
 62
7
  6
BYLAYER
 10
404.3703810668
 20
912.4260205453
 11
404.3703810668
 21
912.9260205453
  0
LINE
  5
2A3
100
AcDbEntity
  8
0
100
AcDbLine
 62
7
  6
BYLAYER
 10
404.9361331974
 20
921.9260205453
 11
404.9361331974
 21
923.1260205453
  0
LINE
  5
2A4
100
AcDbEntity
  8
0
100
AcDbLine
 62
7
  6
BYLAYER
 10
406.8703809993
 20
921.9260205453
 11
406.8703809993
 21
925.4260196078
  0
LINE
  5
2A5
100
AcDbEntity
  8
0
100
AcDbLine
 62
7
  6
BYLAYER
 10
408.6203809993
 20
915.5260205453
 11
408.6203809993
 21
921.4260205453
  0
LINE
  5
2A6
100
AcDbEntity
  8
0
100
AcDbLine
 62
7
  6
BYLAYER
 10
409.4695908157
 20
99.4259104068
 11
409.4695908157
 21
84.4259104068
  0
LINE
  5
2A7
100
AcDbEntity
  8
0
100
AcDbLine
 62
7
  6
BYLAYER
 10
409.4698315529
 20
912.9260205453
 11
409.4698315529
 21
897.9260205453
  0
LINE
  5
2A8
100
AcDbEntity
  8
3
100
AcDbLine
 62
7
  6
BYLAYER
 10
409.470089605
 20
897.9260333538
 11
409.470089605
 21
99.4260333538
  0
LINE
  5
2A9
100
AcDbEntity
  8
0
100
AcDbLine
 62
7
  6
BYLAYER
 10
410.6703809993
 20
913.0276194219
 11
410.6703809993
 21
914.5260205453
  0
LINE
  5
2AA
100
AcDbEntity
  8
0
100
AcDbLine
 62
7
  6
BYLAYER
 10
410.6706390513
 20
84.3238127409
 11
410.6706390513
 21
82.8260205453
  0
LINE
  5
2AB
100
AcDbEntity
  8
0
100
AcDbLine
 62
7
  6
BYLAYER
 10
410.8701402621
 20
83.9259104068
 11
410.8701402621
 21
82.9259104068
  0
LINE
  5
2AC
100
AcDbEntity
  8
0
100
AcDbLine
 62
7
  6
BYLAYER
 10
410.8703809993
 20
914.4260205453
 11
410.8703809993
 21
913.4260205453
  0
LINE
  5
2AD
100
AcDbEntity
  8
0
100
AcDbLine
 62
7
  6
BYLAYER
 10
412.2168020947
 20
84.9259104068
 11
412.2168020947
 21
99.4259104068
  0
LINE
  5
2AE
100
AcDbEntity
  8
0
100
AcDbLine
 62
7
  6
BYLAYER
 10
412.2170428319
 20
897.9260205453
 11
412.2170428319
 21
912.4260205453
  0
LINE
  5
2AF
100
AcDbEntity
  8
3
100
AcDbLine
 62
7
  6
BYLAYER
 10
412.2173008839
 20
99.4260333538
 11
412.2173008839
 21
897.9260333538
  0
LINE
  5
2B0
100
AcDbEntity
  8
0
100
AcDbLine
 62
7
  6
BYLAYER
 10
412.782221954
 20
82.9259104068
 11
412.782221954
 21
84.9259104068
  0
LINE
  5
2B1
100
AcDbEntity
  8
0
100
AcDbLine
 62
7
  6
BYLAYER
 10
412.7824626911
 20
912.4260205453
 11
412.7824626911
 21
914.4260205453
  0
LINE
  5
2B2
100
AcDbEntity
  8
0
100
AcDbLine
 62
7
  6
BYLAYER
 10
416.4195825179
 20
99.4259104068
 11
416.4195825179
 21
82.9259104068
  0
LINE
  5
2B3
100
AcDbEntity
  8
0
100
AcDbLine
 62
7
  6
BYLAYER
 10
416.4198232551
 20
914.4260205453
 11
416.4198232551
 21
897.9260205453
  0
LINE
  5
2B4
100
AcDbEntity
  8
3
100
AcDbLine
 62
7
  6
BYLAYER
 10
416.4200813071
 20
897.9260333538
 11
416.4200813071
 21
99.4260333538
  0
LINE
  5
2B5
100
AcDbEntity
  8
0
100
AcDbLine
 62
7
  6
BYLAYER
 10
417.8701402621
 20
82.9259104068
 11
417.8701402621
 21
99.4259104068
  0
LINE
  5
2B6
100
AcDbEntity
  8
0
100
AcDbLine
 62
7
  6
BYLAYER
 10
417.8703809993
 20
897.9260205453
 11
417.8703809993
 21
914.4260205453
  0
LINE
  5
2B7
100
AcDbEntity
  8
3
100
AcDbLine
 62
7
  6
BYLAYER
 10
417.8706390514
 20
99.4260333538
 11
417.8706390514
 21
897.9260333538
  0
LINE
  5
2B8
100
AcDbEntity
  8
0
100
AcDbLine
 62
7
  6
BYLAYER
 10
385.6203809993
 20
921.9260205453
 11
386.1203809993
 21
921.4260205453
  0
LINE
  5
2B9
100
AcDbEntity
  8
3
100
AcDbLine
 62
7
  6
BYLAYER
 10
317.6287201843
 20
823.1090981294
 11
362.6287201843
 21
823.1090981294
  0
LINE
  5
2BA
100
AcDbEntity
  8
3
100
AcDbLine
 62
7
  6
BYLAYER
 10
358.2920055004
 20
826.7565981294
 11
359.5366047622
 21
826.7565981294
  0
LINE
  5
2BB
100
AcDbEntity
  8
3
100
AcDbLine
 62
7
  6
BYLAYER
 10
362.6287201843
 20
828.1090981294
 11
359.6287201843
 21
828.1090981294
  0
LINE
  5
2BC
100
AcDbEntity
  8
3
100
AcDbLine
 62
7
  6
BYLAYER
 10
358.1885205664
 20
828.4325609489
 11
355.1885205664
 21
828.4325609489
  0
LINE
  5
2BD
100
AcDbEntity
  8
3
100
AcDbLine
 62
7
  6
BYLAYER
 10
320.8287201843
 20
829.8590981294
 11
334.3287201843
 21
829.8590981294
  0
LINE
  5
2BE
100
AcDbEntity
  8
3
100
AcDbLine
 62
7
  6
BYLAYER
 10
350.918065159
 20
830.1090981294
 11
355.1885205664
 21
830.1090981294
  0
LINE
  5
2BF
100
AcDbEntity
  8
3
100
AcDbLine
 62
7
  6
BYLAYER
 10
358.1885205664
 20
830.1090981294
 11
358.2920055004
 21
830.1090981294
  0
LINE
  5
2C0
100
AcDbEntity
  8
3
100
AcDbLine
 62
7
  6
BYLAYER
 10
359.5366047622
 20
830.1090981294
 11
359.6287201843
 21
830.1090981294
  0
LINE
  5
2C1
100
AcDbEntity
  8
3
100
AcDbLine
 62
7
  6
BYLAYER
 10
362.6287201843
 20
830.1090981294
 11
362.8706217365
 21
830.1090981294
  0
LINE
  5
2C2
100
AcDbEntity
  8
3
100
AcDbLine
 62
7
  6
BYLAYER
 10
358.1885205664
 20
833.1090981294
 11
355.1885205664
 21
833.1090981294
  0
LINE
  5
2C3
100
AcDbEntity
  8
3
100
AcDbLine
 62
7
  6
BYLAYER
 10
350.918065159
 20
836.1090981294
 11
355.1885205664
 21
836.1090981294
  0
LINE
  5
2C4
100
AcDbEntity
  8
3
100
AcDbLine
 62
7
  6
BYLAYER
 10
358.1885205664
 20
836.1090981294
 11
358.2920055004
 21
836.1090981294
  0
LINE
  5
2C5
100
AcDbEntity
  8
3
100
AcDbLine
 62
7
  6
BYLAYER
 10
359.5366047622
 20
836.1090981294
 11
359.6287201843
 21
836.1090981294
  0
LINE
  5
2C6
100
AcDbEntity
  8
3
100
AcDbLine
 62
7
  6
BYLAYER
 10
362.6287201843
 20
836.1090981294
 11
362.8706217365
 21
836.1090981294
  0
LINE
  5
2C7
100
AcDbEntity
  8
3
100
AcDbLine
 62
7
  6
BYLAYER
 10
334.3287201843
 20
836.3590981294
 11
320.8287201843
 21
836.3590981294
  0
LINE
  5
2C8
100
AcDbEntity
  8
3
100
AcDbLine
 62
7
  6
BYLAYER
 10
358.1885205664
 20
837.7856353098
 11
355.1885205664
 21
837.7856353098
  0
LINE
  5
2C9
100
AcDbEntity
  8
3
100
AcDbLine
 62
7
  6
BYLAYER
 10
359.5366047622
 20
839.4615981294
 11
358.2920055004
 21
839.4615981294
  0
LINE
  5
2CA
100
AcDbEntity
  8
0
100
AcDbLine
 62
7
  6
BYLAYER
 10
408.1203809993
 20
921.9260205453
 11
408.6203809993
 21
921.4260205453
  0
LINE
  5
2CB
100
AcDbEntity
  8
0
100
AcDbLine
 62
7
  6
BYLAYER
 10
406.3703815636
 20
925.9260219596
 11
406.8703825473
 21
925.4260211558
  0
LINE
  5
2CC
100
AcDbEntity
  8
3
100
AcDbLine
 62
7
  6
BYLAYER
 10
358.2920055004
 20
856.7565981294
 11
359.5366047622
 21
856.7565981294
  0
LINE
  5
2CD
100
AcDbEntity
  8
3
100
AcDbLine
 62
7
  6
BYLAYER
 10
358.1885205664
 20
858.4325609489
 11
355.1885205664
 21
858.4325609489
  0
LINE
  5
2CE
100
AcDbEntity
  8
3
100
AcDbLine
 62
7
  6
BYLAYER
 10
320.8287201843
 20
859.8590981294
 11
334.3287201843
 21
859.8590981294
  0
LINE
  5
2CF
100
AcDbEntity
  8
3
100
AcDbLine
 62
7
  6
BYLAYER
 10
350.918065159
 20
860.1090981294
 11
355.1885205664
 21
860.1090981294
  0
LINE
  5
2D0
100
AcDbEntity
  8
3
100
AcDbLine
 62
7
  6
BYLAYER
 10
358.1885205664
 20
860.1090981294
 11
358.2920055004
 21
860.1090981294
  0
LINE
  5
2D1
100
AcDbEntity
  8
3
100
AcDbLine
 62
7
  6
BYLAYER
 10
359.5366047622
 20
860.1090981294
 11
359.6287201843
 21
860.1090981294
  0
LINE
  5
2D2
100
AcDbEntity
  8
3
100
AcDbLine
 62
7
  6
BYLAYER
 10
362.6287201843
 20
860.1090981294
 11
362.8706217365
 21
860.1090981294
  0
LINE
  5
2D3
100
AcDbEntity
  8
3
100
AcDbLine
 62
7
  6
BYLAYER
 10
358.1885205664
 20
863.1090981294
 11
355.1885205664
 21
863.1090981294
  0
LINE
  5
2D4
100
AcDbEntity
  8
3
100
AcDbLine
 62
7
  6
BYLAYER
 10
350.918065159
 20
866.1090981294
 11
355.1885205664
 21
866.1090981294
  0
LINE
  5
2D5
100
AcDbEntity
  8
3
100
AcDbLine
 62
7
  6
BYLAYER
 10
358.1885205664
 20
866.1090981294
 11
358.2920055004
 21
866.1090981294
  0
LINE
  5
2D6
100
AcDbEntity
  8
3
100
AcDbLine
 62
7
  6
BYLAYER
 10
359.5366047622
 20
866.1090981294
 11
359.6287201843
 21
866.1090981294
  0
LINE
  5
2D7
100
AcDbEntity
  8
3
100
AcDbLine
 62
7
  6
BYLAYER
 10
362.6287201843
 20
866.1090981294
 11
362.8706217365
 21
866.1090981294
  0
LINE
  5
2D8
100
AcDbEntity
  8
3
100
AcDbLine
 62
7
  6
BYLAYER
 10
334.3287201843
 20
866.3590981294
 11
320.8287201843
 21
866.3590981294
  0
LINE
  5
2D9
100
AcDbEntity
  8
3
100
AcDbLine
 62
7
  6
BYLAYER
 10
358.1885205664
 20
867.7856353098
 11
355.1885205664
 21
867.7856353098
  0
LINE
  5
2DA
100
AcDbEntity
  8
3
100
AcDbLine
 62
7
  6
BYLAYER
 10
359.6287201843
 20
868.1090981294
 11
362.6287201843
 21
868.1090981294
  0
LINE
  5
2DB
100
AcDbEntity
  8
3
100
AcDbLine
 62
7
  6
BYLAYER
 10
359.5366047622
 20
869.4615981294
 11
358.2920055004
 21
869.4615981294
  0
LINE
  5
2DC
100
AcDbEntity
  8
3
100
AcDbLine
 62
7
  6
BYLAYER
 10
317.6287201843
 20
873.1090981294
 11
362.6287201843
 21
873.1090981294
  0
LINE
  5
2DD
100
AcDbEntity
  8
0
100
AcDbLine
 62
7
  6
BYLAYER
 10
362.8703809993
 20
897.9260205453
 11
417.8703809993
 21
897.9260205453
  0
LINE
  5
2DE
100
AcDbEntity
  8
3
100
AcDbLine
 62
7
  6
BYLAYER
 10
362.8706217365
 20
897.9260333538
 11
417.8706390514
 21
897.9260333538
  0
LINE
  5
2DF
100
AcDbEntity
  8
0
100
AcDbLine
 62
7
  6
BYLAYER
 10
400.8867829078
 20
911.4260205453
 11
392.8703809993
 21
911.4260205453
  0
LINE
  5
2E0
100
AcDbEntity
  8
0
100
AcDbLine
 62
7
  6
BYLAYER
 10
378.3539790908
 20
911.4260205453
 11
386.3703809993
 21
911.4260205453
  0
LINE
  5
2E1
100
AcDbEntity
  8
0
100
AcDbLine
 62
7
  6
BYLAYER
 10
400.8865672042
 20
911.4372147963
 11
392.9755900282
 21
911.4372147963
  0
LINE
  5
2E2
100
AcDbEntity
  8
0
100
AcDbLine
 62
7
  6
BYLAYER
 10
378.3541949737
 20
911.4372336282
 11
386.2650845146
 21
911.4372336282
  0
LINE
  5
2E3
100
AcDbEntity
  8
0
100
AcDbLine
 62
7
  6
BYLAYER
 10
378.3537628016
 20
912.4147647285
 11
386.4758756595
 21
912.4147647285
  0
LINE
  5
2E4
100
AcDbEntity
  8
0
100
AcDbLine
 62
7
  6
BYLAYER
 10
400.8869986114
 20
912.4148262943
 11
392.7651719704
 21
912.4148262943
  0
LINE
  5
2E5
100
AcDbEntity
  8
0
100
AcDbLine
 62
7
  6
BYLAYER
 10
362.8703809993
 20
912.4260205453
 11
370.3703809993
 21
912.4260205453
  0
LINE
  5
2E6
100
AcDbEntity
  8
0
100
AcDbLine
 62
7
  6
BYLAYER
 10
404.3703809993
 20
912.4260205453
 11
412.7824626911
 21
912.4260205453
  0
LINE
  5
2E7
100
AcDbEntity
  8
0
100
AcDbLine
 62
7
  6
BYLAYER
 10
363.3703809993
 20
912.9260205453
 11
370.3703809993
 21
912.9260205453
  0
LINE
  5
2E8
100
AcDbEntity
  8
0
100
AcDbLine
 62
7
  6
BYLAYER
 10
404.3703809993
 20
912.9260205453
 11
410.9201344929
 21
912.9260205453
  0
LINE
  5
2E9
100
AcDbEntity
  8
0
100
AcDbLine
 62
7
  6
BYLAYER
 10
411.2826962288
 20
913.4260205453
 11
410.6703809993
 21
913.4260205453
  0
LINE
  5
2EA
100
AcDbEntity
  8
0
100
AcDbLine
 62
7
  6
BYLAYER
 10
404.0703809993
 20
913.4260205453
 11
402.8703809993
 21
913.4260206024
  0
LINE
  5
2EB
100
AcDbEntity
  8
0
100
AcDbLine
 62
7
  6
BYLAYER
 10
371.8703809993
 20
913.4260206142
 11
370.6703809993
 21
913.4260205453
  0
LINE
  5
2EC
100
AcDbEntity
  8
0
100
AcDbLine
 62
7
  6
BYLAYER
 10
364.0703809993
 20
913.4260205453
 11
362.8703809993
 21
913.4260206142
  0
LINE
  5
2ED
100
AcDbEntity
  8
0
100
AcDbLine
 62
7
  6
BYLAYER
 10
362.8703809993
 20
914.4260205453
 11
364.0703809993
 21
914.4260205453
  0
LINE
  5
2EE
100
AcDbEntity
  8
0
100
AcDbLine
 62
7
  6
BYLAYER
 10
370.6703809993
 20
914.4260205453
 11
386.3703809993
 21
914.4260205386
  0
LINE
  5
2EF
100
AcDbEntity
  8
0
100
AcDbLine
 62
7
  6
BYLAYER
 10
394.3703809993
 20
914.4260205452
 11
404.0703809993
 21
914.4260205453
  0
LINE
  5
2F0
100
AcDbEntity
  8
0
100
AcDbLine
 62
7
  6
BYLAYER
 10
410.6703809993
 20
914.4260205453
 11
417.8703809993
 21
914.4260205453
  0
LINE
  5
2F1
100
AcDbEntity
  8
0
100
AcDbLine
 62
7
  6
BYLAYER
 10
364.0703809993
 20
914.5260205453
 11
370.6703809993
 21
914.5260205453
  0
LINE
  5
2F2
100
AcDbEntity
  8
0
100
AcDbLine
 62
7
  6
BYLAYER
 10
404.0703809993
 20
914.5260205453
 11
410.6703809993
 21
914.5260205453
  0
LINE
  5
2F3
100
AcDbEntity
  8
0
100
AcDbLine
 62
7
  6
BYLAYER
 10
386.2289328192
 20
914.9260205453
 11
394.5108646535
 21
914.9260205453
  0
LINE
  5
2F4
100
AcDbEntity
  8
0
100
AcDbLine
 62
7
  6
BYLAYER
 10
364.6971757958
 20
915.4260205453
 11
363.8703809993
 21
915.4260205453
  0
LINE
  5
2F5
100
AcDbEntity
  8
0
100
AcDbLine
 62
7
  6
BYLAYER
 10
370.0435862028
 20
915.4260205453
 11
404.6971757958
 21
915.4260205453
  0
LINE
  5
2F6
100
AcDbEntity
  8
0
100
AcDbLine
 62
7
  6
BYLAYER
 10
410.0435862028
 20
915.4260205453
 11
416.8703809993
 21
915.4260205453
  0
LINE
  5
2F7
100
AcDbEntity
  8
0
100
AcDbLine
 62
7
  6
BYLAYER
 10
365.0704735984
 20
915.5260205453
 11
369.6702969007
 21
915.5260205453
  0
LINE
  5
2F8
100
AcDbEntity
  8
0
100
AcDbLine
 62
7
  6
BYLAYER
 10
405.0704735984
 20
915.5260205453
 11
409.6702969007
 21
915.5260205453
  0
LINE
  5
2F9
100
AcDbEntity
  8
0
100
AcDbLine
 62
7
  6
BYLAYER
 10
408.6203167025
 20
916.9260205453
 11
393.1204452961
 21
916.9260205453
  0
LINE
  5
2FA
100
AcDbEntity
  8
0
100
AcDbLine
 62
7
  6
BYLAYER
 10
386.1203167025
 20
916.9260205453
 11
370.6204452961
 21
916.9260205453
  0
LINE
  5
2FB
100
AcDbEntity
  8
0
100
AcDbLine
 62
7
  6
BYLAYER
 10
408.6203809993
 20
919.9260205453
 11
393.1203809993
 21
919.9260205453
  0
LINE
  5
2FC
100
AcDbEntity
  8
0
100
AcDbLine
 62
7
  6
BYLAYER
 10
386.1203809993
 20
919.9260205453
 11
370.6203809993
 21
919.9260205453
  0
LINE
  5
2FD
100
AcDbEntity
  8
0
100
AcDbLine
 62
7
  6
BYLAYER
 10
370.6203809993
 20
921.4260205453
 11
386.1203809993
 21
921.4260205453
  0
LINE
  5
2FE
100
AcDbEntity
  8
0
100
AcDbLine
 62
7
  6
BYLAYER
 10
393.1203809993
 20
921.4260205453
 11
408.6203809993
 21
921.4260205453
  0
LINE
  5
2FF
100
AcDbEntity
  8
0
100
AcDbLine
 62
7
  6
BYLAYER
 10
371.1203809993
 20
921.9260205453
 11
385.6203809993
 21
921.9260205453
  0
LINE
  5
300
100
AcDbEntity
  8
0
100
AcDbLine
 62
7
  6
BYLAYER
 10
393.6203809993
 20
921.9260205453
 11
408.1203809993
 21
921.9260205453
  0
LINE
  5
301
100
AcDbEntity
  8
0
100
AcDbLine
 62
7
  6
BYLAYER
 10
374.2466409993
 20
923.1260205453
 11
382.4966409993
 21
923.1260205453
  0
LINE
  5
302
100
AcDbEntity
  8
0
100
AcDbLine
 62
7
  6
BYLAYER
 10
396.7459609993
 20
923.1260205453
 11
404.9361331974
 21
923.1260205453
  0
LINE
  5
303
100
AcDbEntity
  8
0
100
AcDbLine
 62
7
  6
BYLAYER
 10
374.5467284754
 20
923.4260205453
 11
382.1966596164
 21
923.4260205453
  0
LINE
  5
304
100
AcDbEntity
  8
0
100
AcDbLine
 62
7
  6
BYLAYER
 10
397.0459696636
 20
923.4260205453
 11
404.6313556333
 21
923.4260205453
  0
LINE
  5
305
100
AcDbEntity
  8
0
100
AcDbLine
 62
7
  6
BYLAYER
 10
394.8703809993
 20
925.4260196078
 11
406.8703809993
 21
925.4260196078
  0
LINE
  5
306
100
AcDbEntity
  8
0
100
AcDbLine
 62
7
  6
BYLAYER
 10
395.370380435
 20
925.9260205453
 11
406.3703815636
 21
925.9260205453
  0
ARC
  5
307
100
AcDbEntity
  8
3
100
AcDbCircle
 62
7
  6
BYLAYER
 10
317.6287201843
 20
171.7741956685
 40
5.0
100
AcDbArc
 50
90.0
 51
180.0
  0
ARC
  5
308
100
AcDbEntity
  8
3
100
AcDbCircle
 62
7
  6
BYLAYER
 10
317.6287201843
 20
131.7741956685
 40
5.0
100
AcDbArc
 50
180.0
 51
270.0
  0
ARC
  5
309
100
AcDbEntity
  8
3
100
AcDbCircle
 62
7
  6
BYLAYER
 10
320.8287201843
 20
136.7741956685
 40
3.25
100
AcDbArc
 50
90.0
 51
270.0
  0
ARC
  5
30A
100
AcDbEntity
  8
3
100
AcDbCircle
 62
7
  6
BYLAYER
 10
334.3287201843
 20
136.7741956685
 40
3.25
100
AcDbArc
 50
270.0
 51
90.0
  0
ARC
  5
30B
100
AcDbEntity
  8
3
100
AcDbCircle
 62
7
  6
BYLAYER
 10
320.8287201843
 20
166.7741956685
 40
3.25
100
AcDbArc
 50
90.0
 51
270.0
  0
ARC
  5
30C
100
AcDbEntity
  8
3
100
AcDbCircle
 62
7
  6
BYLAYER
 10
334.3287201843
 20
166.7741956685
 40
3.25
100
AcDbArc
 50
270.0
 51
90.0
  0
ARC
  5
30D
100
AcDbEntity
  8
0
100
AcDbCircle
 62
7
  6
BYLAYER
 10
365.0706271782
 20
82.8260205453
 40
1.0
100
AcDbArc
 50
180.0
 51
270.0
  0
ARC
  5
30E
100
AcDbEntity
  8
0
100
AcDbCircle
 62
7
  6
BYLAYER
 10
363.8701402621
 20
82.9259104068
 40
1.0
100
AcDbArc
 50
180.0
 51
270.0
  0
ARC
  5
30F
100
AcDbEntity
  8
0
100
AcDbCircle
 62
7
  6
BYLAYER
 10
363.3701402621
 20
84.9259104068
 40
0.5
100
AcDbArc
 50
180.0
 51
270.0
  0
ARC
  5
310
100
AcDbEntity
  8
3
100
AcDbCircle
 62
7
  6
BYLAYER
 10
317.6287201843
 20
868.1090981294
 40
5.0
100
AcDbArc
 50
90.0
 51
180.0
  0
ARC
  5
311
100
AcDbEntity
  8
3
100
AcDbCircle
 62
7
  6
BYLAYER
 10
317.6287201843
 20
828.1090981294
 40
5.0
100
AcDbArc
 50
180.0
 51
270.0
  0
ARC
  5
312
100
AcDbEntity
  8
3
100
AcDbCircle
 62
7
  6
BYLAYER
 10
320.8287201843
 20
833.1090981294
 40
3.25
100
AcDbArc
 50
90.0
 51
270.0
  0
ARC
  5
313
100
AcDbEntity
  8
3
100
AcDbCircle
 62
7
  6
BYLAYER
 10
334.3287201843
 20
833.1090981294
 40
3.25
100
AcDbArc
 50
270.0
 51
90.0
  0
ARC
  5
314
100
AcDbEntity
  8
3
100
AcDbCircle
 62
7
  6
BYLAYER
 10
320.8287201843
 20
863.1090981294
 40
3.25
100
AcDbArc
 50
90.0
 51
270.0
  0
ARC
  5
315
100
AcDbEntity
  8
3
100
AcDbCircle
 62
7
  6
BYLAYER
 10
334.3287201843
 20
863.1090981294
 40
3.25
100
AcDbArc
 50
270.0
 51
90.0
  0
ARC
  5
316
100
AcDbEntity
  8
0
100
AcDbCircle
 62
7
  6
BYLAYER
 10
365.0703809993
 20
914.5260205453
 40
1.0
100
AcDbArc
 50
90.0
 51
180.0
  0
ARC
  5
317
100
AcDbEntity
  8
0
100
AcDbCircle
 62
7
  6
BYLAYER
 10
363.8703809993
 20
914.4260205453
 40
1.0
100
AcDbArc
 50
90.0
 51
180.0000000001
  0
ARC
  5
318
100
AcDbEntity
  8
0
100
AcDbCircle
 62
7
  6
BYLAYER
 10
363.3703809993
 20
912.4260205453
 40
0.5
100
AcDbArc
 50
90.0
 51
180.0
  0
ARC
  5
319
100
AcDbEntity
  8
0
100
AcDbCircle
 62
7
  6
BYLAYER
 10
390.5969428513
 20
70.3513817216
 40
25.9492033532
100
AcDbArc
 50
33.0803197528
 51
33.623639097
  0
ARC
  5
31A
100
AcDbEntity
  8
0
100
AcDbCircle
 62
7
  6
BYLAYER
 10
369.6706271782
 20
82.8260205453
 40
1.0
100
AcDbArc
 50
270.0
 51
360.0
  0
ARC
  5
31B
100
AcDbEntity
  8
0
100
AcDbCircle
 62
7
  6
BYLAYER
 10
405.0706390513
 20
82.8260205453
 40
1.0
100
AcDbArc
 50
180.0
 51
270.0
  0
ARC
  5
31C
100
AcDbEntity
  8
0
100
AcDbCircle
 62
7
  6
BYLAYER
 10
409.6706390513
 20
82.8260205453
 40
1.0
100
AcDbArc
 50
270.0
 51
360.0
  0
ARC
  5
31D
100
AcDbEntity
  8
0
100
AcDbCircle
 62
7
  6
BYLAYER
 10
385.3701402621
 20
82.9259104068
 40
1.0
100
AcDbArc
 50
270.0
 51
360.0
  0
ARC
  5
31E
100
AcDbEntity
  8
0
100
AcDbCircle
 62
7
  6
BYLAYER
 10
395.3701402621
 20
82.9259104068
 40
1.0
100
AcDbArc
 50
179.9999999984
 51
270.0
  0
ARC
  5
31F
100
AcDbEntity
  8
0
100
AcDbCircle
 62
7
  6
BYLAYER
 10
402.8701402621
 20
82.9259104068
 40
1.0
100
AcDbArc
 50
270.0
 51
360.0
  0
ARC
  5
320
100
AcDbEntity
  8
0
100
AcDbCircle
 62
7
  6
BYLAYER
 10
411.8701402621
 20
82.9259104068
 40
1.0
100
AcDbArc
 50
180.0
 51
270.0
  0
ARC
  5
321
100
AcDbEntity
  8
0
100
AcDbCircle
 62
7
  6
BYLAYER
 10
371.8701402621
 20
82.9259104068
 40
1.0
100
AcDbArc
 50
180.0
 51
270.0
  0
ARC
  5
322
100
AcDbEntity
  8
0
100
AcDbCircle
 62
7
  6
BYLAYER
 10
416.8701402621
 20
82.9259104068
 40
1.0
100
AcDbArc
 50
270.0000000017
 51
360.0
  0
ARC
  5
323
100
AcDbEntity
  8
0
100
AcDbCircle
 62
7
  6
BYLAYER
 10
370.3701402621
 20
83.9259104068
 40
0.5
100
AcDbArc
 50
0.0
 51
90.0
  0
ARC
  5
324
100
AcDbEntity
  8
0
100
AcDbCircle
 62
7
  6
BYLAYER
 10
404.3701402621
 20
83.9259104068
 40
0.5
100
AcDbArc
 50
89.9999999999
 51
180.0
  0
ARC
  5
325
100
AcDbEntity
  8
0
100
AcDbCircle
 62
7
  6
BYLAYER
 10
410.3701402621
 20
83.9259104068
 40
0.5
100
AcDbArc
 50
0.0
 51
90.0
  0
ARC
  5
326
100
AcDbEntity
  8
0
100
AcDbCircle
 62
7
  6
BYLAYER
 10
369.6703809993
 20
914.5260205453
 40
1.0
100
AcDbArc
 50
0.0
 51
90.0
  0
ARC
  5
327
100
AcDbEntity
  8
0
100
AcDbCircle
 62
7
  6
BYLAYER
 10
371.8703809993
 20
914.4260205453
 40
1.0
100
AcDbArc
 50
90.0
 51
180.0
  0
ARC
  5
328
100
AcDbEntity
  8
0
100
AcDbCircle
 62
7
  6
BYLAYER
 10
385.3703809993
 20
914.4260205453
 40
1.0
100
AcDbArc
 50
0.0
 51
90.0
  0
ARC
  5
329
100
AcDbEntity
  8
0
100
AcDbCircle
 62
7
  6
BYLAYER
 10
370.3703809993
 20
913.4260205453
 40
0.5
100
AcDbArc
 50
270.0
 51
360.0
  0
ARC
  5
32A
100
AcDbEntity
  8
0
100
AcDbCircle
 62
7
  6
BYLAYER
 10
392.8703809993
 20
911.9260205453
 40
0.5
100
AcDbArc
 50
102.1468526144
 51
282.1468526144
  0
ARC
  5
32B
100
AcDbEntity
  8
0
100
AcDbCircle
 62
7
  6
BYLAYER
 10
386.3703809993
 20
911.9260205453
 40
0.5
100
AcDbArc
 50
257.8196647598
 51
77.8196647597
  0
ARC
  5
32C
100
AcDbEntity
  8
0
100
AcDbCircle
 62
7
  6
BYLAYER
 10
389.1433929483
 20
927.9574002989
 40
27.6896077251
100
AcDbArc
 50
326.3934359328
 51
326.9026052161
  0
ARC
  5
32D
100
AcDbEntity
  8
0
100
AcDbCircle
 62
7
  6
BYLAYER
 10
374.5466409993
 20
923.1260205453
 40
0.3
100
AcDbArc
 50
90.0
 51
180.0
  0
ARC
  5
32E
100
AcDbEntity
  8
0
100
AcDbCircle
 62
7
  6
BYLAYER
 10
382.1966409993
 20
923.1260205453
 40
0.3
100
AcDbArc
 50
0.0000000001
 51
90.0
  0
ARC
  5
32F
100
AcDbEntity
  8
0
100
AcDbCircle
 62
7
  6
BYLAYER
 10
405.0703809993
 20
914.5260205453
 40
1.0
100
AcDbArc
 50
90.0
 51
180.0
  0
ARC
  5
330
100
AcDbEntity
  8
0
100
AcDbCircle
 62
7
  6
BYLAYER
 10
409.6703809993
 20
914.5260205453
 40
1.0
100
AcDbArc
 50
0.0
 51
90.0
  0
ARC
  5
331
100
AcDbEntity
  8
0
100
AcDbCircle
 62
7
  6
BYLAYER
 10
395.3703809993
 20
914.4260205453
 40
1.0
100
AcDbArc
 50
90.0
 51
180.0000000008
  0
ARC
  5
332
100
AcDbEntity
  8
0
100
AcDbCircle
 62
7
  6
BYLAYER
 10
416.8703809993
 20
914.4260205453
 40
1.0
100
AcDbArc
 50
0.0000000002
 51
90.0000000009
  0
ARC
  5
333
100
AcDbEntity
  8
0
100
AcDbCircle
 62
7
  6
BYLAYER
 10
402.8703809993
 20
914.4260205453
 40
1.0
100
AcDbArc
 50
0.0
 51
90.0
  0
ARC
  5
334
100
AcDbEntity
  8
0
100
AcDbCircle
 62
7
  6
BYLAYER
 10
411.8703809993
 20
914.4260205453
 40
1.0
100
AcDbArc
 50
90.0000000003
 51
180.0
  0
ARC
  5
335
100
AcDbEntity
  8
0
100
AcDbCircle
 62
7
  6
BYLAYER
 10
410.3703809993
 20
913.4260205453
 40
0.5
100
AcDbArc
 50
270.0
 51
360.0
  0
ARC
  5
336
100
AcDbEntity
  8
0
100
AcDbCircle
 62
7
  6
BYLAYER
 10
404.3703809993
 20
913.4260205453
 40
0.5
100
AcDbArc
 50
180.0
 51
270.0
  0
ARC
  5
337
100
AcDbEntity
  8
0
100
AcDbCircle
 62
7
  6
BYLAYER
 10
404.6332256141
 20
923.1212504612
 40
0.3044707676
100
AcDbArc
 50
36.4827958935
 51
54.5150619303
  0
ARC
  5
338
100
AcDbEntity
  8
0
100
AcDbCircle
 62
7
  6
BYLAYER
 10
397.0459609993
 20
923.1260205453
 40
0.3
100
AcDbArc
 50
90.0
 51
180.0
  0
ARC
  5
339
100
AcDbEntity
  8
0
100
AcDbCircle
 62
7
  6
BYLAYER
 10
404.6391440392
 20
923.125830103
 40
0.2969892192
100
AcDbArc
 50
0.0367405259
 51
36.4513093086
  0
SPLINE
  5
33A
100
AcDbEntity
  8
0
100
AcDbSpline
 62
7
  6
BYLAYER
 70
0
 71
3
 72
9
 73
5
 74
0
 42
0.0000001
 43
0.0000001
 44
0.0000000001
 40
0.0
 40
0.0
 40
0.0
 40
0.0
 40
0.2513997324
 40
1.0
 40
1.0
 40
1.0
 40
1.0
 10
404.8099675214
 20
923.3691713086
 30
0.0
 10
404.7970554986
 20
923.3783638961
 30
0.0
 10
404.7429320717
 20
923.410937299
 30
0.0
 10
404.6785529037
 20
923.4260216828
 30
0.0
 10
404.6313557587
 20
923.4260205453
 30
0.0
  0
SPLINE
  5
33B
100
AcDbEntity
  8
0
100
AcDbSpline
 62
7
  6
BYLAYER
 70
0
 71
3
 72
16
 73
12
 74
0
 42
0.0000001
 43
0.0000001
 44
0.0000000001
 40
0.0
 40
0.0
 40
0.0
 40
0.0
 40
0.2636273647
 40
0.4178764038
 40
0.5741876959
 40
0.7240052304
 40
0.8563237188
 40
0.9120390276
 40
0.957262702
 40
0.9883504454
 40
1.0
 40
1.0
 40
1.0
 40
1.0
 10
363.870381011
 20
913.4260205453
 30
0.0
 10
363.870380856
 20
913.3627265306
 30
0.0
 10
363.8008346791
 20
913.2728009468
 30
0.0
 10
363.7044672317
 20
913.1785470481
 30
0.0
 10
363.6196820929
 20
913.106481951
 30
0.0
 10
363.5377520056
 20
913.0406656861
 30
0.0
 10
363.4726223719
 20
912.9921789123
 30
0.0
 10
363.4268903214
 20
912.9599261643
 30
0.0
 10
363.3995919243
 20
912.9435141256
 30
0.0
 10
363.3828356869
 20
912.9310456523
 30
0.0
 10
363.3721190077
 20
912.9282119332
 30
0.0
 10
363.3703810076
 20
912.9260205481
 30
0.0
  0
SPLINE
  5
33C
100
AcDbEntity
  8
0
100
AcDbSpline
 62
7
  6
BYLAYER
 70
0
 71
3
 72
12
 73
8
 74
0
 42
0.0000001
 43
0.0000001
 44
0.0000000001
 40
0.0
 40
0.0
 40
0.0
 40
0.0
 40
0.3400478061
 40
0.6258992925
 40
0.7417192142
 40
0.8403209917
 40
1.0
 40
1.0
 40
1.0
 40
1.0
 10
385.8703795761
 20
914.4260205453
 30
0.0
 10
385.8703795757
 20
914.5626215634
 30
0.0
 10
385.8451403151
 20
914.8146370014
 30
0.0
 10
385.7511040521
 20
915.1014848246
 30
0.0
 10
385.6422695664
 20
915.272049042
 30
0.0
 10
385.5384005318
 20
915.3808967448
 30
0.0
 10
385.4345229056
 20
915.426006052
 30
0.0
 10
385.3703780585
 20
915.4260205457
 30
0.0
  0
SPLINE
  5
33D
100
AcDbEntity
  8
0
100
AcDbSpline
 62
7
  6
BYLAYER
 70
0
 71
3
 72
14
 73
10
 74
0
 42
0.0000001
 43
0.0000001
 44
0.0000000001
 40
0.0
 40
0.0
 40
0.0
 40
0.0
 40
0.1247548922
 40
0.2497370872
 40
0.3748455166
 40
0.5000186734
 40
0.7495155103
 40
0.8747430806
 40
1.0
 40
1.0
 40
1.0
 40
1.0
 10
402.8703809993
 20
913.4260205453
 30
0.0
 10
402.870381135
 20
913.343012463
 30
0.0
 10
402.9025133304
 20
913.1757876432
 30
0.0
 10
403.0250172459
 20
912.9552004026
 30
0.0
 10
403.1961309485
 20
912.7705797229
 30
0.0
 10
403.4682013505
 20
912.5762612012
 30
0.0
 10
403.78893821
 20
912.4623726508
 30
0.0
 10
404.1201923626
 20
912.4260032052
 30
0.0
 10
404.2870388835
 20
912.4260205414
 30
0.0
 10
404.3703809993
 20
912.4260205453
 30
0.0
  0
SPLINE
  5
33E
100
AcDbEntity
  8
0
100
AcDbSpline
 62
7
  6
BYLAYER
 70
0
 71
3
 72
12
 73
8
 74
0
 42
0.0000001
 43
0.0000001
 44
0.0000000001
 40
0.0
 40
0.0
 40
0.0
 40
0.0
 40
0.1204115357
 40
0.2167519688
 40
0.3384069038
 40
0.6443218671
 40
1.0
 40
1.0
 40
1.0
 40
1.0
 10
416.1451021272
 20
915.4260205453
 30
0.0
 10
416.1883676806
 20
915.4260205453
 30
0.0
 10
416.2532541155
 20
915.3574046326
 30
0.0
 10
416.3028465989
 20
915.2508860572
 30
0.0
 10
416.3620740959
 20
915.0698208941
 30
0.0
 10
416.4072285754
 20
914.7919054588
 30
0.0
 10
416.4198232551
 20
914.5538206863
 30
0.0
 10
416.4198232551
 20
914.4260205453
 30
0.0
  0
SPLINE
  5
33F
100
AcDbEntity
  8
0
100
AcDbSpline
 62
7
  6
BYLAYER
 70
0
 71
3
 72
9
 73
5
 74
0
 42
0.0000001
 43
0.0000001
 44
0.0000000001
 40
0.0
 40
0.0
 40
0.0
 40
0.0
 40
0.2472785885
 40
1.0
 40
1.0
 40
1.0
 40
1.0
 10
412.7824626911
 20
912.4260205453
 30
0.0
 10
412.7350337642
 20
912.4434548311
 30
0.0
 10
412.5431194584
 20
912.5136530821
 30
0.0
 10
412.3505431757
 20
912.5820809635
 30
0.0
 10
412.2048997231
 20
912.6315632493
 30
0.0
  0
SPLINE
  5
340
100
AcDbEntity
  8
0
100
AcDbSpline
 62
7
  6
BYLAYER
 70
0
 71
3
 72
9
 73
5
 74
0
 42
0.0000001
 43
0.0000001
 44
0.0000000001
 40
0.0
 40
0.0
 40
0.0
 40
0.0
 40
0.7518345395
 40
1.0
 40
1.0
 40
1.0
 40
1.0
 10
412.3401832274
 20
912.8371060613
 30
0.0
 10
412.4543848939
 20
912.7378052248
 30
0.0
 10
412.6023542792
 20
912.6011801444
 30
0.0
 10
412.7467953093
 20
912.460994073
 30
0.0
 10
412.7824627855
 20
912.4260206493
 30
0.0
  0
SPLINE
  5
341
100
AcDbEntity
  8
0
100
AcDbSpline
 62
7
  6
BYLAYER
 70
0
 71
3
 72
10
 73
6
 74
0
 42
0.0000001
 43
0.0000001
 44
0.0000000001
 40
0.0
 40
0.0
 40
0.0
 40
0.0
 40
0.2114258548
 40
0.4596612947
 40
1.0
 40
1.0
 40
1.0
 40
1.0
 10
411.2826962288
 20
913.4260205453
 30
0.0
 10
411.3690972319
 20
913.4260199588
 30
0.0
 10
411.5543913394
 20
913.3702655839
 30
0.0
 10
411.9133315951
 20
913.1768838796
 30
0.0
 10
412.1735373891
 20
912.9819785004
 30
0.0
 10
412.3401831335
 20
912.8371059533
 30
0.0
  0
SPLINE
  5
342
100
AcDbEntity
  8
0
100
AcDbSpline
 62
7
  6
BYLAYER
 70
0
 71
3
 72
10
 73
6
 74
0
 42
0.0000001
 43
0.0000001
 44
0.0000000001
 40
0.0
 40
0.0
 40
0.0
 40
0.0
 40
0.5192781373
 40
0.7706703291
 40
1.0
 40
1.0
 40
1.0
 40
1.0
 10
412.2048997825
 20
912.631563455
 30
0.0
 10
411.9891855027
 20
912.7080666432
 30
0.0
 10
411.6633818673
 20
912.8071096309
 30
0.0
 10
411.2327899869
 20
912.9010055365
 30
0.0
 10
411.0212145961
 20
912.9260203078
 30
0.0
 10
410.9201345821
 20
912.9260205453
 30
0.0
  0
SPLINE
  5
343
100
AcDbEntity
  8
0
100
AcDbSpline
 62
7
  6
BYLAYER
 70
0
 71
3
 72
9
 73
5
 74
0
 42
0.0000001
 43
0.0000001
 44
0.0000000001
 40
0.0
 40
0.0
 40
0.0
 40
0.0
 40
0.2566268573
 40
1.0
 40
1.0
 40
1.0
 40
1.0
 10
412.2170428319
 20
912.4260205453
 30
0.0
 10
412.2170428319
 20
912.443639801
 30
0.0
 10
412.2160380715
 20
912.5122893515
 30
0.0
 10
412.2111746149
 20
912.5809126102
 30
0.0
 10
412.2048997231
 20
912.6315632493
 30
0.0
  0
SPLINE
  5
344
100
AcDbEntity
  8
0
100
AcDbSpline
 62
7
  6
BYLAYER
 70
0
 71
3
 72
12
 73
8
 74
0
 42
0.0000001
 43
0.0000001
 44
0.0000000001
 40
0.0
 40
0.0
 40
0.0
 40
0.0
 40
0.3555601317
 40
0.6614267398
 40
0.7831217149
 40
0.8795320322
 40
1.0
 40
1.0
 40
1.0
 40
1.0
 10
412.7824626911
 20
914.4260205453
 30
0.0
 10
412.7824626911
 20
914.5537778266
 30
0.0
 10
412.7698761614
 20
914.7918023251
 30
0.0
 10
412.7247432454
 20
915.0696719485
 30
0.0
 10
412.6655341275
 20
915.2507671233
 30
0.0
 10
412.6159376488
 20
915.3573424272
 30
0.0
 10
412.5510272376
 20
915.4260205453
 30
0.0
 10
412.5077415632
 20
915.4260205453
 30
0.0
  0
SPLINE
  5
345
100
AcDbEntity
  8
0
100
AcDbSpline
 62
7
  6
BYLAYER
 70
0
 71
3
 72
11
 73
7
 74
0
 42
0.0000001
 43
0.0000001
 44
0.0000000001
 40
0.0
 40
0.0
 40
0.0
 40
0.0
 40
0.2742864213
 40
0.5514542927
 40
0.7962818329
 40
1.0
 40
1.0
 40
1.0
 40
1.0
 10
411.2826962297
 20
913.4260205453
 30
0.0
 10
411.2826962231
 20
913.3640873919
 30
0.0
 10
411.2660025439
 20
913.2388856285
 30
0.0
 10
411.1902447716
 20
913.0723012341
 30
0.0
 10
411.0686174155
 20
912.9546605802
 30
0.0
 10
410.9661336131
 20
912.9260205449
 30
0.0
 10
410.9201345861
 20
912.9260205453
 30
0.0
  0
SPLINE
  5
346
100
AcDbEntity
  8
0
100
AcDbSpline
 62
7
  6
BYLAYER
 70
0
 71
3
 72
12
 73
8
 74
0
 42
0.0000001
 43
0.0000001
 44
0.0000000001
 40
0.0
 40
0.0
 40
0.0
 40
0.0
 40
0.1596770904
 40
0.2582781683
 40
0.3740954473
 40
0.6599411656
 40
1.0
 40
1.0
 40
1.0
 40
1.0
 10
395.3703830335
 20
915.4260205456
 30
0.0
 10
395.3062389524
 20
915.4260074144
 30
0.0
 10
395.2023622718
 20
915.3808974534
 30
0.0
 10
395.0984941342
 20
915.272052219
 30
0.0
 10
394.98966046
 20
915.101491744
 30
0.0
 10
394.8956213731
 20
914.8146437399
 30
0.0
 10
394.8703821851
 20
914.5626260024
 30
0.0
 10
394.8703815401
 20
914.4260205453
 30
0.0
  0
SPLINE
  5
347
100
AcDbEntity
  8
0
100
AcDbSpline
 62
7
  6
BYLAYER
 70
0
 71
3
 72
14
 73
10
 74
0
 42
0.0000001
 43
0.0000001
 44
0.0000000001
 40
0.0
 40
0.0
 40
0.0
 40
0.0
 40
0.1247554493
 40
0.2497373879
 40
0.3748457258
 40
0.5000187559
 40
0.7495153736
 40
0.8747430248
 40
1.0
 40
1.0
 40
1.0
 40
1.0
 10
371.8703809993
 20
913.4260205453
 30
0.0
 10
371.870380779
 20
913.3430120915
 30
0.0
 10
371.8382485275
 20
913.1757870598
 30
0.0
 10
371.7157442955
 20
912.9551998314
 30
0.0
 10
371.544630728
 20
912.7705794755
 30
0.0
 10
371.2725605238
 20
912.5762611653
 30
0.0
 10
370.9518238491
 20
912.4623727543
 30
0.0
 10
370.6205697733
 20
912.4260030092
 30
0.0
 10
370.453723153
 20
912.4260205246
 30
0.0
 10
370.3703809993
 20
912.4260205453
 30
0.0
  0
SPLINE
  5
348
100
AcDbEntity
  8
0
100
AcDbSpline
 62
7
  6
BYLAYER
 70
0
 71
3
 72
12
 73
8
 74
0
 42
0.0000001
 43
0.0000001
 44
0.0000000001
 40
0.0
 40
0.0
 40
0.0
 40
0.0
 40
0.340047825
 40
0.62589931
 40
0.7417192638
 40
0.8403210024
 40
1.0
 40
1.0
 40
1.0
 40
1.0
 10
394.8701415699
 20
82.9259104068
 30
0.0
 10
394.8701415703
 20
82.789309378
 30
0.0
 10
394.8953808179
 20
82.5372939154
 30
0.0
 10
394.9894171459
 20
82.2504461055
 30
0.0
 10
395.0982515618
 20
82.0798818335
 30
0.0
 10
395.2021206652
 20
81.9710342004
 30
0.0
 10
395.3059982607
 20
81.9259248943
 30
0.0
 10
395.370143105
 20
81.9259104064
 30
0.0
  0
SPLINE
  5
349
100
AcDbEntity
  8
0
100
AcDbSpline
 62
7
  6
BYLAYER
 70
0
 71
3
 72
12
 73
8
 74
0
 42
0.0000001
 43
0.0000001
 44
0.0000000001
 40
0.0
 40
0.0
 40
0.0
 40
0.0
 40
0.1204115357
 40
0.2167519688
 40
0.3384069038
 40
0.6443218671
 40
1.0
 40
1.0
 40
1.0
 40
1.0
 10
412.5075008261
 20
81.9259104068
 30
0.0
 10
412.5507663794
 20
81.9259104068
 30
0.0
 10
412.6156528144
 20
81.9945263195
 30
0.0
 10
412.6652452978
 20
82.1010448949
 30
0.0
 10
412.7244727947
 20
82.2821100579
 30
0.0
 10
412.7696272743
 20
82.5600254933
 30
0.0
 10
412.782221954
 20
82.7981102658
 30
0.0
 10
412.782221954
 20
82.9259104068
 30
0.0
  0
SPLINE
  5
34A
100
AcDbEntity
  8
0
100
AcDbSpline
 62
7
  6
BYLAYER
 70
0
 71
3
 72
16
 73
12
 74
0
 42
0.0000001
 43
0.0000001
 44
0.0000000001
 40
0.0
 40
0.0
 40
0.0
 40
0.0
 40
0.0116495546
 40
0.042737298
 40
0.0879609725
 40
0.1436762813
 40
0.2759947698
 40
0.4258123044
 40
0.5821235967
 40
0.7363726357
 40
1.0
 40
1.0
 40
1.0
 40
1.0
 10
363.3701402695
 20
84.4259104039
 30
0.0
 10
363.3718763671
 20
84.4237175113
 30
0.0
 10
363.3825973733
 20
84.4208872209
 30
0.0
 10
363.3993498742
 20
84.4084157869
 30
0.0
 10
363.4266500801
 20
84.3920051814
 30
0.0
 10
363.472381261
 20
84.3597517443
 30
0.0
 10
363.5375114184
 20
84.3112653854
 30
0.0
 10
363.61944131
 20
84.2454489654
 30
0.0
 10
363.704226505
 20
84.173383913
 30
0.0
 10
363.8005939344
 20
84.0791300002
 30
0.0
 10
363.8701401171
 20
83.9892044213
 30
0.0
 10
363.870140272
 20
83.9259104068
 30
0.0
  0
SPLINE
  5
34B
100
AcDbEntity
  8
0
100
AcDbSpline
 62
7
  6
BYLAYER
 70
0
 71
3
 72
14
 73
10
 74
0
 42
0.0000001
 43
0.0000001
 44
0.0000000001
 40
0.0
 40
0.0
 40
0.0
 40
0.0
 40
0.124755068
 40
0.2497371838
 40
0.3748455004
 40
0.5000186091
 40
0.7495154875
 40
0.8747430736
 40
1.0
 40
1.0
 40
1.0
 40
1.0
 10
371.8701402621
 20
83.9259104068
 30
0.0
 10
371.8701400418
 20
84.008918606
 30
0.0
 10
371.8380079153
 20
84.1761434929
 30
0.0
 10
371.7155038985
 20
84.396730685
 30
0.0
 10
371.5443902948
 20
84.58135122
 30
0.0
 10
371.272319974
 20
84.7756697176
 30
0.0
 10
370.9515831139
 20
84.8895583005
 30
0.0
 10
370.6203289187
 20
84.9259277419
 30
0.0
 10
370.4534823826
 20
84.9259104275
 30
0.0
 10
370.3701402621
 20
84.9259104068
 30
0.0
  0
SPLINE
  5
34C
100
AcDbEntity
  8
0
100
AcDbSpline
 62
7
  6
BYLAYER
 70
0
 71
3
 72
12
 73
8
 74
0
 42
0.0000001
 43
0.0000001
 44
0.0000000001
 40
0.0
 40
0.0
 40
0.0
 40
0.0
 40
0.1596770812
 40
0.2582781531
 40
0.3740954272
 40
0.6599411459
 40
1.0
 40
1.0
 40
1.0
 40
1.0
 10
385.3701383202
 20
81.9259104065
 30
0.0
 10
385.4342823986
 20
81.9259235315
 30
0.0
 10
385.5381590797
 20
81.9710334812
 30
0.0
 10
385.6420272193
 20
82.0798787064
 30
0.0
 10
385.750860899
 20
82.2504391766
 30
0.0
 10
385.8448999941
 20
82.5372871901
 30
0.0
 10
385.8701391852
 20
82.7893049396
 30
0.0
 10
385.8701398301
 20
82.9259104067
 30
0.0
  0
SPLINE
  5
34D
100
AcDbEntity
  8
0
100
AcDbSpline
 62
7
  6
BYLAYER
 70
0
 71
3
 72
14
 73
10
 74
0
 42
0.0000001
 43
0.0000001
 44
0.0000000001
 40
0.0
 40
0.0
 40
0.0
 40
0.0
 40
0.1247554493
 40
0.2497373879
 40
0.3748457258
 40
0.5000187559
 40
0.7495153736
 40
0.8747430248
 40
1.0
 40
1.0
 40
1.0
 40
1.0
 10
402.8701402621
 20
83.9259104068
 30
0.0
 10
402.8701404824
 20
84.0089188605
 30
0.0
 10
402.9022727339
 20
84.1761438922
 30
0.0
 10
403.0247769659
 20
84.3967311207
 30
0.0
 10
403.1958905334
 20
84.5813514765
 30
0.0
 10
403.4679607376
 20
84.7756697867
 30
0.0
 10
403.7886974123
 20
84.8895581978
 30
0.0
 10
404.1199514881
 20
84.9259279429
 30
0.0
 10
404.2867981084
 20
84.9259104275
 30
0.0
 10
404.3701402621
 20
84.9259104068
 30
0.0
  0
SPLINE
  5
34E
100
AcDbEntity
  8
0
100
AcDbSpline
 62
7
  6
BYLAYER
 70
0
 71
3
 72
9
 73
5
 74
0
 42
0.0000001
 43
0.0000001
 44
0.0000000001
 40
0.0
 40
0.0
 40
0.0
 40
0.0
 40
0.2481650378
 40
1.0
 40
1.0
 40
1.0
 40
1.0
 10
412.7822220861
 20
84.925910261
 30
0.0
 10
412.7465546613
 20
84.8909369066
 30
0.0
 10
412.6021136074
 20
84.7507508599
 30
0.0
 10
412.4541442578
 20
84.614125741
 30
0.0
 10
412.3399425279
 20
84.5148248475
 30
0.0
  0
SPLINE
  5
34F
100
AcDbEntity
  8
0
100
AcDbSpline
 62
7
  6
BYLAYER
 70
0
 71
3
 72
9
 73
5
 74
0
 42
0.0000001
 43
0.0000001
 44
0.0000000001
 40
0.0
 40
0.0
 40
0.0
 40
0.0
 40
0.2472783312
 40
1.0
 40
1.0
 40
1.0
 40
1.0
 10
412.782221954
 20
84.9259104068
 30
0.0
 10
412.7347930746
 20
84.9084761515
 30
0.0
 10
412.5428761907
 20
84.8382850005
 30
0.0
 10
412.3503024834
 20
84.7698499951
 30
0.0
 10
412.2046589859
 20
84.7203677028
 30
0.0
  0
SPLINE
  5
350
100
AcDbEntity
  8
0
100
AcDbSpline
 62
7
  6
BYLAYER
 70
0
 71
3
 72
10
 73
6
 74
0
 42
0.0000001
 43
0.0000001
 44
0.0000000001
 40
0.0
 40
0.0
 40
0.0
 40
0.0
 40
0.2114262679
 40
0.4596614222
 40
1.0
 40
1.0
 40
1.0
 40
1.0
 10
411.2824554709
 20
83.9259104068
 30
0.0
 10
411.3688566437
 20
83.9259109892
 30
0.0
 10
411.5541507927
 20
83.9816654808
 30
0.0
 10
411.9130910167
 20
84.1750472119
 30
0.0
 10
412.1732967028
 20
84.3699524694
 30
0.0
 10
412.3399423964
 20
84.5148249988
 30
0.0
  0
SPLINE
  5
351
100
AcDbEntity
  8
0
100
AcDbSpline
 62
7
  6
BYLAYER
 70
0
 71
3
 72
11
 73
7
 74
0
 42
0.0000001
 43
0.0000001
 44
0.0000000001
 40
0.0
 40
0.0
 40
0.0
 40
0.0
 40
0.2037181708
 40
0.4485457117
 40
0.7257135813
 40
1.0
 40
1.0
 40
1.0
 40
1.0
 10
410.9198938309
 20
84.4259104068
 30
0.0
 10
410.9658928587
 20
84.4259104071
 30
0.0
 10
411.0683766625
 20
84.397270372
 30
0.0
 10
411.1900040193
 20
84.2796297174
 30
0.0
 10
411.2657617896
 20
84.1130453225
 30
0.0
 10
411.2824554666
 20
83.9878435597
 30
0.0
 10
411.2824554721
 20
83.9259104068
 30
0.0
  0
SPLINE
  5
352
100
AcDbEntity
  8
0
100
AcDbSpline
 62
7
  6
BYLAYER
 70
0
 71
3
 72
9
 73
5
 74
0
 42
0.0000001
 43
0.0000001
 44
0.0000000001
 40
0.0
 40
0.0
 40
0.0
 40
0.0
 40
0.2408658181
 40
1.0
 40
1.0
 40
1.0
 40
1.0
 10
412.2046589859
 20
84.7203677028
 30
0.0
 10
412.20669219
 20
84.7367796327
 30
0.0
 10
412.2139311722
 20
84.8050627093
 30
0.0
 10
412.2168020947
 20
84.8737896853
 30
0.0
 10
412.2168020947
 20
84.9259104068
 30
0.0
  0
SPLINE
  5
353
100
AcDbEntity
  8
0
100
AcDbSpline
 62
7
  6
BYLAYER
 70
0
 71
3
 72
10
 73
6
 74
0
 42
0.0000001
 43
0.0000001
 44
0.0000000001
 40
0.0
 40
0.0
 40
0.0
 40
0.0
 40
0.2293296864
 40
0.4807218845
 40
1.0
 40
1.0
 40
1.0
 40
1.0
 10
410.9198938515
 20
84.4259104068
 30
0.0
 10
411.0209738719
 20
84.4259106432
 30
0.0
 10
411.2325492717
 20
84.4509254143
 30
0.0
 10
411.6631411501
 20
84.5448213196
 30
0.0
 10
411.9889447796
 20
84.6438642988
 30
0.0
 10
412.2046590484
 20
84.7203674864
 30
0.0
  0
SPLINE
  5
354
100
AcDbEntity
  8
0
100
AcDbSpline
 62
7
  6
BYLAYER
 70
0
 71
3
 72
12
 73
8
 74
0
 42
0.0000001
 43
0.0000001
 44
0.0000000001
 40
0.0
 40
0.0
 40
0.0
 40
0.0
 40
0.3555601317
 40
0.6614267398
 40
0.7831217149
 40
0.8795320322
 40
1.0
 40
1.0
 40
1.0
 40
1.0
 10
416.4195825179
 20
82.9259104068
 30
0.0
 10
416.4195825179
 20
82.7981531254
 30
0.0
 10
416.4069959882
 20
82.560128627
 30
0.0
 10
416.3618630722
 20
82.2822590036
 30
0.0
 10
416.3026539542
 20
82.1011638288
 30
0.0
 10
416.2530574755
 20
81.9945885249
 30
0.0
 10
416.1881470643
 20
81.9259104068
 30
0.0
 10
416.14486139
 20
81.9259104068
 30
0.0
  0
SPLINE
  5
355
100
AcDbEntity
  8
0
100
AcDbSpline
 62
7
  6
BYLAYER
 70
0
 71
3
 72
13
 73
9
 74
0
 42
0.0000001
 43
0.0000001
 44
0.0000000001
 40
0.0
 40
0.0
 40
0.0
 40
0.0
 40
0.1861537513
 40
0.3431998769
 40
0.5191581911
 40
0.6928056202
 40
0.8431978215
 40
1.0
 40
1.0
 40
1.0
 40
1.0
 10
400.8537633872
 20
912.4148262943
 30
0.0
 10
400.8531855749
 20
912.3541667629
 30
0.0
 10
400.853233164
 20
912.242637282
 30
0.0
 10
400.8529579392
 20
912.0721899743
 30
0.0
 10
400.8529313056
 20
911.9120779041
 30
0.0
 10
400.8530377378
 20
911.7311606101
 30
0.0
 10
400.853072484
 20
911.6335660926
 30
0.0
 10
400.853708088
 20
911.3861196849
 30
0.0
 10
400.8541947944
 20
911.4372147963
 30
0.0
  0
SPLINE
  5
356
100
AcDbEntity
  8
0
100
AcDbSpline
 62
7
  6
BYLAYER
 70
0
 71
3
 72
13
 73
9
 74
0
 42
0.0000001
 43
0.0000001
 44
0.0000000001
 40
0.0
 40
0.0
 40
0.0
 40
0.0
 40
0.1861537513
 40
0.3431998769
 40
0.5191581911
 40
0.6928056202
 40
0.8431978215
 40
1.0
 40
1.0
 40
1.0
 40
1.0
 10
400.8869986114
 20
912.4148262943
 30
0.0
 10
400.8875764237
 20
912.3541667629
 30
0.0
 10
400.8875288346
 20
912.242637282
 30
0.0
 10
400.8878040594
 20
912.0721899743
 30
0.0
 10
400.887830693
 20
911.9120779041
 30
0.0
 10
400.8877242608
 20
911.7311606101
 30
0.0
 10
400.8876895146
 20
911.6335660926
 30
0.0
 10
400.8870539106
 20
911.3861196849
 30
0.0
 10
400.8865672042
 20
911.4372147963
 30
0.0
  0
SPLINE
  5
357
100
AcDbEntity
  8
0
100
AcDbSpline
 62
7
  6
BYLAYER
 70
0
 71
3
 72
13
 73
9
 74
0
 42
0.0000001
 43
0.0000001
 44
0.0000000001
 40
0.0
 40
0.0
 40
0.0
 40
0.0
 40
0.1861537513
 40
0.3431998769
 40
0.5191581911
 40
0.6928056202
 40
0.8431978215
 40
1.0
 40
1.0
 40
1.0
 40
1.0
 10
400.8537633872
 20
912.4148262943
 30
0.0
 10
400.8531855749
 20
912.3541667629
 30
0.0
 10
400.853233164
 20
912.242637282
 30
0.0
 10
400.8529579392
 20
912.0721899743
 30
0.0
 10
400.8529313056
 20
911.9120779041
 30
0.0
 10
400.8530377378
 20
911.7311606101
 30
0.0
 10
400.853072484
 20
911.6335660926
 30
0.0
 10
400.853708088
 20
911.3861196849
 30
0.0
 10
400.8541947944
 20
911.4372147963
 30
0.0
  0
SPLINE
  5
358
100
AcDbEntity
  8
0
100
AcDbSpline
 62
7
  6
BYLAYER
 70
0
 71
3
 72
13
 73
9
 74
0
 42
0.0000001
 43
0.0000001
 44
0.0000000001
 40
0.0
 40
0.0
 40
0.0
 40
0.0
 40
0.1861537513
 40
0.3431998769
 40
0.5191581911
 40
0.6928056202
 40
0.8431978215
 40
1.0
 40
1.0
 40
1.0
 40
1.0
 10
400.8869986114
 20
912.4148262943
 30
0.0
 10
400.8875764237
 20
912.3541667629
 30
0.0
 10
400.8875288346
 20
912.242637282
 30
0.0
 10
400.8878040594
 20
912.0721899743
 30
0.0
 10
400.887830693
 20
911.9120779041
 30
0.0
 10
400.8877242608
 20
911.7311606101
 30
0.0
 10
400.8876895146
 20
911.6335660926
 30
0.0
 10
400.8870539106
 20
911.3861196849
 30
0.0
 10
400.8865672042
 20
911.4372147963
 30
0.0
  0
SPLINE
  5
359
100
AcDbEntity
  8
0
100
AcDbSpline
 62
7
  6
BYLAYER
 70
0
 71
3
 72
13
 73
9
 74
0
 42
0.0000001
 43
0.0000001
 44
0.0000000001
 40
0.0
 40
0.0
 40
0.0
 40
0.0
 40
0.1862139205
 40
0.3432809426
 40
0.5192503754
 40
0.6928978042
 40
0.8432788864
 40
1.0
 40
1.0
 40
1.0
 40
1.0
 10
378.3869987907
 20
912.4148074624
 30
0.0
 10
378.3875762652
 20
912.3541306573
 30
0.0
 10
378.387529061
 20
912.2425792624
 30
0.0
 10
378.3878040613
 20
912.072107891
 30
0.0
 10
378.3878307389
 20
911.9119931888
 30
0.0
 10
378.3877240586
 20
911.7310786596
 30
0.0
 10
378.3876898376
 20
911.6335183268
 30
0.0
 10
378.3870530382
 20
911.3861668957
 30
0.0
 10
378.3865670249
 20
911.4372336282
 30
0.0
  0
SPLINE
  5
35A
100
AcDbEntity
  8
0
100
AcDbSpline
 62
7
  6
BYLAYER
 70
0
 71
3
 72
13
 73
9
 74
0
 42
0.0000001
 43
0.0000001
 44
0.0000000001
 40
0.0
 40
0.0
 40
0.0
 40
0.0
 40
0.1862139205
 40
0.3432809426
 40
0.5192503754
 40
0.6928978042
 40
0.8432788864
 40
1.0
 40
1.0
 40
1.0
 40
1.0
 10
378.3537632079
 20
912.4148074624
 30
0.0
 10
378.3531857334
 20
912.3541306573
 30
0.0
 10
378.3532329376
 20
912.2425792624
 30
0.0
 10
378.3529579373
 20
912.072107891
 30
0.0
 10
378.3529312597
 20
911.9119931888
 30
0.0
 10
378.35303794
 20
911.7310786596
 30
0.0
 10
378.353072161
 20
911.6335183268
 30
0.0
 10
378.3537089604
 20
911.3861668957
 30
0.0
 10
378.3541949737
 20
911.4372336282
 30
0.0
  0
SPLINE
  5
35B
100
AcDbEntity
  8
0
100
AcDbSpline
 62
7
  6
BYLAYER
 70
0
 71
3
 72
13
 73
9
 74
0
 42
0.0000001
 43
0.0000001
 44
0.0000000001
 40
0.0
 40
0.0
 40
0.0
 40
0.0
 40
0.1863502903
 40
0.3434646729
 40
0.5194593054
 40
0.6931067336
 40
0.8434626149
 40
1.0
 40
1.0
 40
1.0
 40
1.0
 10
378.386999197
 20
912.4147647285
 30
0.0
 10
378.3875759081
 20
912.3540487858
 30
0.0
 10
378.387529573
 20
912.2424477441
 30
0.0
 10
378.3878040658
 20
912.0719218598
 30
0.0
 10
378.3878308429
 20
911.9118012154
 30
0.0
 10
378.3877236
 20
911.7308929641
 30
0.0
 10
378.3876905691
 20
911.6334101186
 30
0.0
 10
378.3870510656
 20
911.3862739466
 30
0.0
 10
378.3865666186
 20
911.437276362
 30
0.0
  0
SPLINE
  5
35C
100
AcDbEntity
  8
0
100
AcDbSpline
 62
7
  6
BYLAYER
 70
0
 71
3
 72
13
 73
9
 74
0
 42
0.0000001
 43
0.0000001
 44
0.0000000001
 40
0.0
 40
0.0
 40
0.0
 40
0.0
 40
0.1863502903
 40
0.3434646729
 40
0.5194593054
 40
0.6931067336
 40
0.8434626149
 40
1.0
 40
1.0
 40
1.0
 40
1.0
 10
378.3537628016
 20
912.4147647285
 30
0.0
 10
378.3531860905
 20
912.3540487858
 30
0.0
 10
378.3532324256
 20
912.2424477441
 30
0.0
 10
378.3529579328
 20
912.0719218598
 30
0.0
 10
378.3529311557
 20
911.9118012154
 30
0.0
 10
378.3530383986
 20
911.7308929641
 30
0.0
 10
378.3530714295
 20
911.6334101186
 30
0.0
 10
378.353710933
 20
911.3862739466
 30
0.0
 10
378.35419538
 20
911.437276362
 30
0.0
  0
SPLINE
  5
35D
100
AcDbEntity
  8
0
100
AcDbSpline
 62
7
  6
BYLAYER
 70
0
 71
3
 72
13
 73
9
 74
0
 42
0.0000001
 43
0.0000001
 44
0.0000000001
 40
0.0
 40
0.0
 40
0.0
 40
0.0
 40
0.1861537513
 40
0.3431998769
 40
0.5191581911
 40
0.6928056202
 40
0.8431978215
 40
1.0
 40
1.0
 40
1.0
 40
1.0
 10
400.8537633872
 20
912.4148262943
 30
0.0
 10
400.8531855749
 20
912.3541667629
 30
0.0
 10
400.853233164
 20
912.242637282
 30
0.0
 10
400.8529579392
 20
912.0721899743
 30
0.0
 10
400.8529313056
 20
911.9120779041
 30
0.0
 10
400.8530377378
 20
911.7311606101
 30
0.0
 10
400.853072484
 20
911.6335660926
 30
0.0
 10
400.853708088
 20
911.3861196849
 30
0.0
 10
400.8541947944
 20
911.4372147963
 30
0.0
  0
SPLINE
  5
35E
100
AcDbEntity
  8
0
100
AcDbSpline
 62
7
  6
BYLAYER
 70
0
 71
3
 72
13
 73
9
 74
0
 42
0.0000001
 43
0.0000001
 44
0.0000000001
 40
0.0
 40
0.0
 40
0.0
 40
0.0
 40
0.1861537513
 40
0.3431998769
 40
0.5191581911
 40
0.6928056202
 40
0.8431978215
 40
1.0
 40
1.0
 40
1.0
 40
1.0
 10
400.8869986114
 20
912.4148262943
 30
0.0
 10
400.8875764237
 20
912.3541667629
 30
0.0
 10
400.8875288346
 20
912.242637282
 30
0.0
 10
400.8878040594
 20
912.0721899743
 30
0.0
 10
400.887830693
 20
911.9120779041
 30
0.0
 10
400.8877242608
 20
911.7311606101
 30
0.0
 10
400.8876895146
 20
911.6335660926
 30
0.0
 10
400.8870539106
 20
911.3861196849
 30
0.0
 10
400.8865672042
 20
911.4372147963
 30
0.0
  0
SPLINE
  5
35F
100
AcDbEntity
  8
0
100
AcDbSpline
 62
7
  6
BYLAYER
 70
0
 71
3
 72
13
 73
9
 74
0
 42
0.0000001
 43
0.0000001
 44
0.0000000001
 40
0.0
 40
0.0
 40
0.0
 40
0.0
 40
0.1861537513
 40
0.3431998769
 40
0.5191581911
 40
0.6928056202
 40
0.8431978215
 40
1.0
 40
1.0
 40
1.0
 40
1.0
 10
400.8537633872
 20
912.4148262943
 30
0.0
 10
400.8531855749
 20
912.3541667629
 30
0.0
 10
400.853233164
 20
912.242637282
 30
0.0
 10
400.8529579392
 20
912.0721899743
 30
0.0
 10
400.8529313056
 20
911.9120779041
 30
0.0
 10
400.8530377378
 20
911.7311606101
 30
0.0
 10
400.853072484
 20
911.6335660926
 30
0.0
 10
400.853708088
 20
911.3861196849
 30
0.0
 10
400.8541947944
 20
911.4372147963
 30
0.0
  0
SPLINE
  5
360
100
AcDbEntity
  8
0
100
AcDbSpline
 62
7
  6
BYLAYER
 70
0
 71
3
 72
13
 73
9
 74
0
 42
0.0000001
 43
0.0000001
 44
0.0000000001
 40
0.0
 40
0.0
 40
0.0
 40
0.0
 40
0.1861537513
 40
0.3431998769
 40
0.5191581911
 40
0.6928056202
 40
0.8431978215
 40
1.0
 40
1.0
 40
1.0
 40
1.0
 10
400.8869986114
 20
912.4148262943
 30
0.0
 10
400.8875764237
 20
912.3541667629
 30
0.0
 10
400.8875288346
 20
912.242637282
 30
0.0
 10
400.8878040594
 20
912.0721899743
 30
0.0
 10
400.887830693
 20
911.9120779041
 30
0.0
 10
400.8877242608
 20
911.7311606101
 30
0.0
 10
400.8876895146
 20
911.6335660926
 30
0.0
 10
400.8870539106
 20
911.3861196849
 30
0.0
 10
400.8865672042
 20
911.4372147963
 30
0.0
  0
SPLINE
  5
361
100
AcDbEntity
  8
0
100
AcDbSpline
 62
7
  6
BYLAYER
 70
0
 71
3
 72
13
 73
9
 74
0
 42
0.0000001
 43
0.0000001
 44
0.0000000001
 40
0.0
 40
0.0
 40
0.0
 40
0.0
 40
0.1862139205
 40
0.3432809426
 40
0.5192503754
 40
0.6928978042
 40
0.8432788864
 40
1.0
 40
1.0
 40
1.0
 40
1.0
 10
378.3869987907
 20
912.4148074624
 30
0.0
 10
378.3875762652
 20
912.3541306573
 30
0.0
 10
378.387529061
 20
912.2425792624
 30
0.0
 10
378.3878040613
 20
912.072107891
 30
0.0
 10
378.3878307389
 20
911.9119931888
 30
0.0
 10
378.3877240586
 20
911.7310786596
 30
0.0
 10
378.3876898376
 20
911.6335183268
 30
0.0
 10
378.3870530382
 20
911.3861668957
 30
0.0
 10
378.3865670249
 20
911.4372336282
 30
0.0
  0
SPLINE
  5
362
100
AcDbEntity
  8
0
100
AcDbSpline
 62
7
  6
BYLAYER
 70
0
 71
3
 72
13
 73
9
 74
0
 42
0.0000001
 43
0.0000001
 44
0.0000000001
 40
0.0
 40
0.0
 40
0.0
 40
0.0
 40
0.1862139205
 40
0.3432809426
 40
0.5192503754
 40
0.6928978042
 40
0.8432788864
 40
1.0
 40
1.0
 40
1.0
 40
1.0
 10
378.3537632079
 20
912.4148074624
 30
0.0
 10
378.3531857334
 20
912.3541306573
 30
0.0
 10
378.3532329376
 20
912.2425792624
 30
0.0
 10
378.3529579373
 20
912.072107891
 30
0.0
 10
378.3529312597
 20
911.9119931888
 30
0.0
 10
378.35303794
 20
911.7310786596
 30
0.0
 10
378.353072161
 20
911.6335183268
 30
0.0
 10
378.3537089604
 20
911.3861668957
 30
0.0
 10
378.3541949737
 20
911.4372336282
 30
0.0
  0
SPLINE
  5
363
100
AcDbEntity
  8
0
100
AcDbSpline
 62
7
  6
BYLAYER
 70
0
 71
3
 72
13
 73
9
 74
0
 42
0.0000001
 43
0.0000001
 44
0.0000000001
 40
0.0
 40
0.0
 40
0.0
 40
0.0
 40
0.1863502903
 40
0.3434646729
 40
0.5194593054
 40
0.6931067336
 40
0.8434626149
 40
1.0
 40
1.0
 40
1.0
 40
1.0
 10
378.386999197
 20
912.4147647285
 30
0.0
 10
378.3875759081
 20
912.3540487858
 30
0.0
 10
378.387529573
 20
912.2424477441
 30
0.0
 10
378.3878040658
 20
912.0719218598
 30
0.0
 10
378.3878308429
 20
911.9118012154
 30
0.0
 10
378.3877236
 20
911.7308929641
 30
0.0
 10
378.3876905691
 20
911.6334101186
 30
0.0
 10
378.3870510656
 20
911.3862739466
 30
0.0
 10
378.3865666186
 20
911.437276362
 30
0.0
  0
SPLINE
  5
364
100
AcDbEntity
  8
0
100
AcDbSpline
 62
7
  6
BYLAYER
 70
0
 71
3
 72
13
 73
9
 74
0
 42
0.0000001
 43
0.0000001
 44
0.0000000001
 40
0.0
 40
0.0
 40
0.0
 40
0.0
 40
0.1863502903
 40
0.3434646729
 40
0.5194593054
 40
0.6931067336
 40
0.8434626149
 40
1.0
 40
1.0
 40
1.0
 40
1.0
 10
378.3537628016
 20
912.4147647285
 30
0.0
 10
378.3531860905
 20
912.3540487858
 30
0.0
 10
378.3532324256
 20
912.2424477441
 30
0.0
 10
378.3529579328
 20
912.0719218598
 30
0.0
 10
378.3529311557
 20
911.9118012154
 30
0.0
 10
378.3530383986
 20
911.7308929641
 30
0.0
 10
378.3530714295
 20
911.6334101186
 30
0.0
 10
378.353710933
 20
911.3862739466
 30
0.0
 10
378.35419538
 20
911.437276362
 30
0.0
  0
ENDSEC
  0
SECTION
  2
OBJECTS
  0
DICTIONARY
  5
C
100
AcDbDictionary
280
0
281
1
  3
ACAD_GROUP
350
D
  3
ACAD_MLINESTYLE
350
17
  3
ACAD_LAYOUT
350
1A
  3
ACAD_PLOTSETTINGS
350
19
  3
ACAD_PLOTSTYLENAME
350
E
  0
DICTIONARY
  5
D
102
{ACAD_REACTORS
330
C
102
}
100
AcDbDictionary
280
0
281
1
  0
ACDBDICTIONARYWDFLT
  5
E
102
{ACAD_REACTORS
330
C
102
}
100
AcDbDictionary
281
1
  3
Normal
350
F
100
AcDbDictionaryWithDefault
340
F
  0
DICTIONARY
  5
17
102
{ACAD_REACTORS
330
C
102
}
100
AcDbDictionary
280
0
281
1
  3
Standard
350
18
  0
DICTIONARY
  5
19
102
{ACAD_REACTORS
330
C
102
}
100
AcDbDictionary
281
1
  0
DICTIONARY
  5
1A
102
{ACAD_REACTORS
330
C
102
}
100
AcDbDictionary
281
1
  3
Model
350
365
  3
Layout1
350
366
  0
ACDBPLACEHOLDER
  5
F
102
{ACAD_REACTORS
330
E
102
}
  0
MLINESTYLE
  5
18
102
{ACAD_REACTORS
330
17
102
}
100
AcDbMlineStyle
  2
STANDARD
 70
0
  3

 62
256
 51
90.0
 52
90.0
 71
2
 49
0.5
 62
256
  6
BYLAYER
 49
-0.5
 62
256
  6
BYLAYER
  0
LAYOUT
  5
365
102
{ACAD_REACTORS
330
1A
102
}
100
AcDbPlotSettings
  1

  2
none_device
  4

  6

 40
0.0
 41
0.0
 42
0.0
 43
0.0
 44
210.0
 45
297.0
 46
0.0
 47
0.0
 48
0.0
 49
0.0
140
0.0
141
0.0
142
1.0
143
1.0
 70
1024
 72
1
 73
0
 74
0
  7

 75
0
147
1.0
148
0.0
149
0.0
100
AcDbLayout
  1
Model
 70
0
 71
0
 10
0.0
 20
0.0
 11
210.0
 21
297.0
 12
0.0
 22
0.0
 32
0.0
 14
0.0
 24
0.0
 34
0.0
 15
0.0
 25
0.0
 35
0.0
146
0.0
 13
0.0
 23
0.0
 33
0.0
 16
1.0
 26
0.0
 36
0.0
 17
0.0
 27
1.0
 37
0.0
 76
0
330
212
345
0
346
0
  0
LAYOUT
  5
366
102
{ACAD_REACTORS
330
1A
102
}
100
AcDbPlotSettings
  1

  2
none_device
  4

  6

 40
0.0
 41
0.0
 42
0.0
 43
0.0
 44
210.0
 45
297.0
 46
0.0
 47
0.0
 48
0.0
 49
0.0
140
0.0
141
0.0
142
1.0
143
1.0
 70
0
 72
1
 73
0
 74
0
  7

 75
0
147
1.0
148
0.0
149
0.0
100
AcDbLayout
  1
Layout1
 70
0
 71
1
 10
0.0
 20
0.0
 11
210.0
 21
297.0
 12
0.0
 22
0.0
 32
0.0
 14
0.0
 24
0.0
 34
0.0
 15
0.0
 25
0.0
 35
0.0
146
0.0
 13
0.0
 23
0.0
 33
0.0
 16
1.0
 26
0.0
 36
0.0
 17
0.0
 27
1.0
 37
0.0
 76
0
330
213
345
0
346
0
  0
ENDSEC
  0
EOF
