999
DXF file: C:\Users\sesa63760\Dev\_Creo\CAD\MCADID0004137_3D-CAD\drw0001_7.dxf
999
Pro/ENGINEER 2019471 by Parametric Technology Corporation
  0
SECTION
  2
HEADER
  9
$ACADVER
  1
AC1024
  9
$DWGCODEPAGE
  3
ANSI_1252
  9
$EXTMAX
 10
47.9872957272
 20
67.8677468142
 30
0.0
  9
$EXTMIN
 10
0.0
 20
0.0
 30
0.0
  9
$LIMMIN
 10
0.0
 20
0.0
  9
$LIMMAX
 10
47.9872957272
 20
67.8677468142
  9
$VIEWCTR
 10
23.9936478636
 20
33.9338734071
  9
$VIEWSIZE
 40
67.8677468142
  9
$CLAYER
  8
0
  9
$LTSCALE
 40
4.4239716442
  9
$CELTYPE
  6
BYLAYER
  9
$DIMSCALE
 40
1.0
  9
$DIMASZ
 40
0.5712773301
  9
$DIMEXO
 40
1.0
  9
$DIMDLI
 40
3.0565622269
  9
$DIMEXE
 40
1.0
  9
$DIMCEN
 40
0.7239226327
  9
$DIMLFAC
 40
1.0
  9
$DIMBLK
  1
_FILLED
  9
$DIMALT
 70
0
  9
$DIMALTF
 40
0.0393700787
  9
$DIMTXT
 40
0.7997882621
  9
$DIMTOL
 70
1
  9
$DIMLIM
 70
0
  9
$DIMTFAC
 40
1.0
  9
$DIMTP
 40
0.01
  9
$DIMTM
 40
0.01
  9
$DIMGAP
 40
0.625
  9
$DIMDSEP
 70
46
  9
$AUNITS
 70
0
  9
$PDMODE
 70
3
  9
$PDSIZE
 40
0.3125
  9
$HANDSEED
  5
259
  9
$TILEMODE
 70
1
  9
$MEASUREMENT
 70
1
  9
$INSUNITS
 70
4
  0
ENDSEC
  0
SECTION
  2
CLASSES
  0
CLASS
  1
ACDBDICTIONARYWDFLT
  2
AcDbDictionaryWithDefault
  3
AutoCAD 2000
 90
0
 91
1
280
0
281
0
  0
CLASS
  1
ACDBPLACEHOLDER
  2
AcDbPlaceHolder
  3
AutoCAD 2000
 90
0
 91
1
280
0
281
0
  0
CLASS
  1
LAYOUT
  2
AcDbLayout
  3
AutoCAD 2000
 90
0
 91
0
280
0
281
0
  0
ENDSEC
  0
SECTION
  2
TABLES
  0
TABLE
  2
VPORT
  5
8
100
AcDbSymbolTable
 70
2
  0
VPORT
  5
1F4
100
AcDbSymbolTableRecord
100
AcDbViewportTableRecord
  2
*ACTIVE
 70
0
 10
0.0
 20
0.0
 11
1.0
 21
1.0
 12
23.9936478636
 22
33.9338734071
 13
0.0
 23
0.0
 14
1.0
 24
1.0
 15
0.0
 25
0.0
 16
0.0
 26
0.0
 36
1.0
 17
0.0
 27
0.0
 37
0.0
 40
67.8677468142
 41
0.7070707071
 42
50.0
 43
0.0
 44
0.0
 50
0.0
 51
0.0
 71
0
 72
100
 73
1
 74
1
 75
0
 76
0
 77
0
 78
0
  0
ENDTAB
  0
TABLE
  2
LTYPE
  5
5
100
AcDbSymbolTable
 70
6
  0
LTYPE
  5
14
100
AcDbSymbolTableRecord
100
AcDbLinetypeTableRecord
  2
BYBLOCK
 70
0
  3

 72
65
 73
0
 40
0.0
  0
LTYPE
  5
15
100
AcDbSymbolTableRecord
100
AcDbLinetypeTableRecord
  2
BYLAYER
 70
0
  3

 72
65
 73
0
 40
0.0
  0
LTYPE
  5
16
100
AcDbSymbolTableRecord
100
AcDbLinetypeTableRecord
  2
CONTINUOUS
 70
64
  3
Solid line
 72
65
 73
0
 40
0.0
  0
LTYPE
  5
1F5
100
AcDbSymbolTableRecord
100
AcDbLinetypeTableRecord
  2
CENTER
 70
64
  3
____ _ ____ _ ____ _ ____ _ ____ _ ____ _ ____
 72
65
 73
4
 40
0.6
 49
0.375
 74
0
 49
-0.075
 74
0
 49
0.075
 74
0
 49
-0.075
 74
0
  0
LTYPE
  5
1F6
100
AcDbSymbolTableRecord
100
AcDbLinetypeTableRecord
  2
HIDDEN
 70
64
  3
- - - - - - - - - - - - - - - - - - - -
 72
65
 73
2
 40
0.2
 49
0.1
 74
0
 49
-0.1
 74
0
  0
LTYPE
  5
1F7
100
AcDbSymbolTableRecord
100
AcDbLinetypeTableRecord
  2
PHANTOM
 70
64
  3
_____ _ _ _____ _ _ _____ _ _ _____
 72
65
 73
6
 40
0.8
 49
0.45
 74
0
 49
-0.05
 74
0
 49
0.1
 74
0
 49
-0.05
 74
0
 49
0.1
 74
0
 49
-0.05
 74
0
  0
LTYPE
  5
1F8
100
AcDbSymbolTableRecord
100
AcDbLinetypeTableRecord
  2
DOT
 70
64
  3
. . . . . . . . . . . . . . . . . . . .
 72
65
 73
2
 40
0.2
 49
0.1
 74
0
 49
-0.1
 74
0
  0
LTYPE
  5
1F9
100
AcDbSymbolTableRecord
100
AcDbLinetypeTableRecord
  2
DASHED
 70
64
  3
- - - - - - - - - - - - - - - - - - - -
 72
65
 73
2
 40
0.2
 49
0.1
 74
0
 49
-0.1
 74
0
  0
ENDTAB
  0
TABLE
  2
LAYER
  5
2
100
AcDbSymbolTable
 70
36
  0
LAYER
  5
10
100
AcDbSymbolTableRecord
100
AcDbLayerTableRecord
  2
0
 70
0
 62
7
  6
CONTINUOUS
370
-3
390
F
  0
LAYER
  5
1FA
100
AcDbSymbolTableRecord
100
AcDbLayerTableRecord
  2
DEFAULT_1
 70
0
 62
7
  6
CENTER
370
-3
390
F
  0
LAYER
  5
1FB
100
AcDbSymbolTableRecord
100
AcDbLayerTableRecord
  2
DEFAULT_2
 70
0
 62
7
  6
HIDDEN
370
-3
390
F
  0
LAYER
  5
1FC
100
AcDbSymbolTableRecord
100
AcDbLayerTableRecord
  2
DEFAULT_3
 70
0
 62
7
  6
PHANTOM
370
-3
390
F
  0
LAYER
  5
1FD
100
AcDbSymbolTableRecord
100
AcDbLayerTableRecord
  2
00_COMPONENTS
 70
0
 62
7
  6
CONTINUOUS
370
-3
390
F
  0
LAYER
  5
1FE
100
AcDbSymbolTableRecord
100
AcDbLayerTableRecord
  2
01_1_DEFAULT_DATUMS
 70
0
 62
7
  6
CONTINUOUS
370
-3
390
F
  0
LAYER
  5
1FF
100
AcDbSymbolTableRecord
100
AcDbLayerTableRecord
  2
01_PLANES
 70
0
 62
7
  6
CONTINUOUS
370
-3
390
F
  0
LAYER
  5
200
100
AcDbSymbolTableRecord
100
AcDbLayerTableRecord
  2
02_COORD_SYS
 70
0
 62
7
  6
CONTINUOUS
370
-3
390
F
  0
LAYER
  5
201
100
AcDbSymbolTableRecord
100
AcDbLayerTableRecord
  2
03_AXES
 70
0
 62
7
  6
CONTINUOUS
370
-3
390
F
  0
LAYER
  5
202
100
AcDbSymbolTableRecord
100
AcDbLayerTableRecord
  2
04_POINTS
 70
0
 62
7
  6
CONTINUOUS
370
-3
390
F
  0
LAYER
  5
203
100
AcDbSymbolTableRecord
100
AcDbLayerTableRecord
  2
05_CURVES
 70
0
 62
7
  6
CONTINUOUS
370
-3
390
F
  0
LAYER
  5
204
100
AcDbSymbolTableRecord
100
AcDbLayerTableRecord
  2
06_SURFS
 70
0
 62
7
  6
CONTINUOUS
370
-3
390
F
  0
LAYER
  5
205
100
AcDbSymbolTableRecord
100
AcDbLayerTableRecord
  2
07_COSMETICS
 70
0
 62
7
  6
CONTINUOUS
370
-3
390
F
  0
LAYER
  5
206
100
AcDbSymbolTableRecord
100
AcDbLayerTableRecord
  2
10_NOTES
 70
0
 62
7
  6
CONTINUOUS
370
-3
390
F
  0
LAYER
  5
207
100
AcDbSymbolTableRecord
100
AcDbLayerTableRecord
  2
11_NOTES_PUB
 70
0
 62
7
  6
CONTINUOUS
370
-3
390
F
  0
LAYER
  5
208
100
AcDbSymbolTableRecord
100
AcDbLayerTableRecord
  2
13_REF_GTOL
 70
0
 62
7
  6
CONTINUOUS
370
-3
390
F
  0
LAYER
  5
209
100
AcDbSymbolTableRecord
100
AcDbLayerTableRecord
  2
16_MISC
 70
0
 62
7
  6
CONTINUOUS
370
-3
390
F
  0
LAYER
  5
20A
100
AcDbSymbolTableRecord
100
AcDbLayerTableRecord
  2
17_NO_PRINT
 70
0
 62
7
  6
CONTINUOUS
370
-3
390
F
  0
LAYER
  5
20B
100
AcDbSymbolTableRecord
100
AcDbLayerTableRecord
  2
18_DATUM_CAMS_JOINTS
 70
0
 62
7
  6
CONTINUOUS
370
-3
390
F
  0
LAYER
  5
20C
100
AcDbSymbolTableRecord
100
AcDbLayerTableRecord
  2
19_DATUM_FUNCTIONAL
 70
0
 62
7
  6
CONTINUOUS
370
-3
390
F
  0
LAYER
  5
20D
100
AcDbSymbolTableRecord
100
AcDbLayerTableRecord
  2
20_DATUM_KINEMATIC_SCHEME
 70
0
 62
7
  6
CONTINUOUS
370
-3
390
F
  0
ENDTAB
  0
TABLE
  2
STYLE
  5
3
100
AcDbSymbolTable
 70
1
  0
STYLE
  5
11
100
AcDbSymbolTableRecord
100
AcDbTextStyleTableRecord
  2
STANDARD
 70
0
 40
0.0
 41
1.0
 50
0.0
 71
0
 42
0.2
  3
ARIAL.TTF
  4

  0
STYLE
  5
20E
100
AcDbSymbolTableRecord
100
AcDbTextStyleTableRecord
  2
TEXTSTYLE_1
 70
0
 40
0.0
 41
0.8
 50
0.0
 71
0
 42
0.2
  3
gdt
  4

  0
ENDTAB
  0
TABLE
  2
VIEW
  5
6
100
AcDbSymbolTable
 70
0
  0
ENDTAB
  0
TABLE
  2
UCS
  5
7
100
AcDbSymbolTable
 70
0
  0
ENDTAB
  0
TABLE
  2
APPID
  5
9
100
AcDbSymbolTable
 70
1
  0
APPID
  5
20F
100
AcDbSymbolTableRecord
100
AcDbRegAppTableRecord
  2
ACAD
 70
0
  0
ENDTAB
  0
TABLE
  2
BLOCK_RECORD
  5
1
100
AcDbSymbolTable
 70
0
  0
BLOCK_RECORD
  5
210
100
AcDbSymbolTableRecord
100
AcDbBlockTableRecord
  2
*Model_Space
  0
BLOCK_RECORD
  5
211
100
AcDbSymbolTableRecord
100
AcDbBlockTableRecord
  2
*Paper_Space
  0
BLOCK_RECORD
  5
212
100
AcDbSymbolTableRecord
100
AcDbBlockTableRecord
  2
_FILLED
  0
ENDTAB
  0
TABLE
  2
DIMSTYLE
  5
A
100
AcDbSymbolTable
 70
1
100
AcDbDimStyleTable
 71
0
  0
DIMSTYLE
105
213
100
AcDbSymbolTableRecord
100
AcDbDimStyleTableRecord
  2
STANDARD
 70
0
  3

  4

 40
1.0
 41
0.5712773301
 42
1.0
 43
0.38
 44
1.0
 45
0.0
 46
0.0
 47
0.01
 48
0.01
140
0.7997882621
141
0.09
142
0.0
143
25.4
144
1.0
145
0.0
146
1.0
147
0.625
 71
1
 72
0
 73
0
 74
0
 75
0
 76
0
 77
1
 78
8
 79
2
170
0
171
1
172
0
173
0
174
0
175
0
176
0
177
0
178
0
270
2
179
2
271
2
272
2
273
2
274
2
275
0
280
0
281
0
282
0
283
1
284
8
285
0
286
0
287
3
288
0
340
11
278
46
341
212
342
212
343
212
344
212
  0
ENDTAB
  0
ENDSEC
  0
SECTION
  2
BLOCKS
  0
BLOCK
  5
20
100
AcDbEntity
  8
0
100
AcDbBlockBegin
  2
*Model_Space
 70
0
 10
0.0
 20
0.0
 30
0.0
  3
*Model_Space
  1

  0
ENDBLK
  5
21
100
AcDbEntity
  8
0
100
AcDbBlockEnd
  0
BLOCK
  5
1C
100
AcDbEntity
  8
0
100
AcDbBlockBegin
  2
*Paper_Space
 70
0
 10
0.0
 20
0.0
 30
0.0
  3
*Paper_Space
  1

  0
ENDBLK
  5
1D
100
AcDbEntity
  8
0
100
AcDbBlockEnd
  0
BLOCK
  5
214
100
AcDbEntity
  8
0
100
AcDbBlockBegin
  2
_FILLED
 70
64
 10
0.0
 20
0.0
  3
_FILLED
  1

  0
SOLID
  5
215
100
AcDbEntity
  8
0
  6
BYBLOCK
 62
0
100
AcDbTrace
 10
0.0
 20
0.0
 11
-1.0
 21
0.25
 12
-1.0
 22
-0.25
 13
-1.0
 23
-0.25
  0
ENDBLK
  5
216
100
AcDbEntity
  8
0
  6
BYBLOCK
 62
0
100
AcDbBlockEnd
  0
ENDSEC
  0
SECTION
  2
ENTITIES
  0
LINE
  5
217
100
AcDbEntity
  8
0
100
AcDbLine
 62
7
  6
BYLAYER
 10
15.8080919311
 20
5.0265858484
 11
32.7869935251
 21
5.0265858484
  0
LINE
  5
218
100
AcDbEntity
  8
0
100
AcDbLine
 62
7
  6
BYLAYER
 10
32.8437591836
 20
8.0265850558
 11
15.7532128589
 21
8.0265850558
  0
LINE
  5
219
100
AcDbEntity
  8
0
100
AcDbLine
 62
7
  6
BYLAYER
 10
14.9485427281
 20
12.0765842929
 11
15.2985726518
 21
12.0765842929
  0
LINE
  5
21A
100
AcDbEntity
  8
0
100
AcDbLine
 62
7
  6
BYLAYER
 10
15.2985628926
 20
13.976583672
 11
14.9485427281
 21
13.976583672
  0
LINE
  5
21B
100
AcDbEntity
  8
0
100
AcDbLine
 62
7
  6
BYLAYER
 10
14.9485427281
 20
12.0765842929
 11
14.9485427281
 21
54.0765842929
  0
LINE
  5
21C
100
AcDbEntity
  8
0
100
AcDbLine
 62
7
  6
BYLAYER
 10
15.2985468857
 20
5.5056928981
 11
15.2985470465
 21
54.6674780845
  0
LINE
  5
21D
100
AcDbEntity
  8
0
100
AcDbLine
 62
7
  6
BYLAYER
 10
15.4235842051
 20
6.8663875598
 11
15.4235842051
 21
45.9495991488
  0
LINE
  5
21E
100
AcDbEntity
  8
0
100
AcDbLine
 62
7
  6
BYLAYER
 10
15.4235842051
 20
46.2265842929
 11
15.4235842051
 21
53.2866307654
  0
LINE
  5
21F
100
AcDbEntity
  8
0
100
AcDbLine
 62
7
  6
BYLAYER
 10
15.7532128589
 20
8.0265850558
 11
15.7532260079
 21
45.5265842929
  0
LINE
  5
220
100
AcDbEntity
  8
0
100
AcDbLine
 62
7
  6
BYLAYER
 10
15.7532241294
 20
46.2265842929
 11
15.7532241294
 21
52.1266979708
  0
LINE
  5
221
100
AcDbEntity
  8
0
100
AcDbLine
 62
7
  6
BYLAYER
 10
15.8080919311
 20
5.0265858484
 11
15.8080919311
 21
5.0365858484
  0
LINE
  5
222
100
AcDbEntity
  8
0
100
AcDbLine
 62
7
  6
BYLAYER
 10
23.8985427599
 20
40.7465843917
 11
23.8985427287
 21
38.3922198545
  0
LINE
  5
223
100
AcDbEntity
  8
0
100
AcDbLine
 62
7
  6
BYLAYER
 10
23.8985427283
 20
43.6610905283
 11
23.8985427393
 21
41.3066496393
  0
LINE
  5
224
100
AcDbEntity
  8
0
100
AcDbLine
 62
7
  6
BYLAYER
 10
24.6985423747
 20
38.3920780038
 11
24.698542665
 21
40.7465843871
  0
LINE
  5
225
100
AcDbEntity
  8
0
100
AcDbLine
 62
7
  6
BYLAYER
 10
24.6985426801
 20
41.3065842958
 11
24.6985427271
 21
43.6609487276
  0
LINE
  5
226
100
AcDbEntity
  8
0
100
AcDbLine
 62
7
  6
BYLAYER
 10
22.9265756599
 20
40.746584518
 11
23.8985427599
 21
40.7465843917
  0
LINE
  5
227
100
AcDbEntity
  8
0
100
AcDbLine
 62
7
  6
BYLAYER
 10
24.698542665
 20
40.7465843871
 11
25.6705097503
 21
40.7465842929
  0
LINE
  5
228
100
AcDbEntity
  8
0
100
AcDbLine
 62
7
  6
BYLAYER
 10
25.6705097503
 20
41.3065842929
 11
24.6985426801
 21
41.3065842958
  0
LINE
  5
229
100
AcDbEntity
  8
0
100
AcDbLine
 62
7
  6
BYLAYER
 10
23.8985427393
 20
41.3066496393
 11
22.9265757059
 21
41.3065842929
  0
LINE
  5
22A
100
AcDbEntity
  8
0
100
AcDbLine
 62
7
  6
BYLAYER
 10
32.7869935251
 20
5.0365858495
 11
32.7869935251
 21
5.0265858484
  0
LINE
  5
22B
100
AcDbEntity
  8
0
100
AcDbLine
 62
7
  6
BYLAYER
 10
32.843747908
 20
52.1266979708
 11
32.843747908
 21
46.2265842929
  0
LINE
  5
22C
100
AcDbEntity
  8
0
100
AcDbLine
 62
7
  6
BYLAYER
 10
32.8437460286
 20
45.5265842929
 11
32.8437591836
 21
8.0265850558
  0
LINE
  5
22D
100
AcDbEntity
  8
0
100
AcDbLine
 62
7
  6
BYLAYER
 10
33.1736436619
 20
6.866002511
 11
33.1736436619
 21
45.9496692762
  0
LINE
  5
22E
100
AcDbEntity
  8
0
100
AcDbLine
 62
7
  6
BYLAYER
 10
33.1736436619
 20
46.2265842929
 11
33.1736436619
 21
53.2865053584
  0
LINE
  5
22F
100
AcDbEntity
  8
0
100
AcDbLine
 62
7
  6
BYLAYER
 10
33.2985427281
 20
5.5365842929
 11
33.2985427281
 21
54.6365842929
  0
LINE
  5
230
100
AcDbEntity
  8
0
100
AcDbLine
 62
7
  6
BYLAYER
 10
14.9485427281
 20
43.3879085374
 11
15.2985628926
 21
43.3879085374
  0
LINE
  5
231
100
AcDbEntity
  8
0
100
AcDbLine
 62
7
  6
BYLAYER
 10
15.2985677722
 20
45.0333574255
 11
14.9485427281
 21
45.0333574255
  0
LINE
  5
232
100
AcDbEntity
  8
0
100
AcDbLine
 62
7
  6
BYLAYER
 10
15.7532260079
 20
45.5265842929
 11
32.8437460286
 21
45.5265842929
  0
LINE
  5
233
100
AcDbEntity
  8
0
100
AcDbLine
 62
7
  6
BYLAYER
 10
33.2985427281
 20
46.0265142515
 11
15.3038891667
 21
46.0265081405
  0
LINE
  5
234
100
AcDbEntity
  8
0
100
AcDbLine
 62
7
  6
BYLAYER
 10
15.2985427281
 20
46.2265842929
 11
33.2985427281
 21
46.2265842929
  0
LWPOLYLINE
  5
235
100
AcDbEntity
  8
0
100
AcDbPolyline
 62
7
  6
BYLAYER
 90
3
 70
0
 10
25.4167739441
 20
55.1265842929
 10
23.3980282087
 20
58.6580863537
 10
18.7082630653
 20
63.0260740357
  0
LINE
  5
236
100
AcDbEntity
  8
0
100
AcDbLine
 62
7
  6
BYLAYER
 10
14.9485427281
 20
47.3427585022
 11
15.2985883178
 21
47.3427585022
  0
LINE
  5
237
100
AcDbEntity
  8
0
100
AcDbLine
 62
7
  6
BYLAYER
 10
15.298589602
 20
47.7757712041
 11
14.9485427281
 21
47.7757712041
  0
LINE
  5
238
100
AcDbEntity
  8
0
100
AcDbLine
 62
7
  6
BYLAYER
 10
15.7532241294
 20
52.1266979708
 11
32.843747908
 21
52.1266979708
  0
LINE
  5
239
100
AcDbEntity
  8
0
100
AcDbLine
 62
7
  6
BYLAYER
 10
14.9485427281
 20
52.176583672
 11
15.298589602
 21
52.176583672
  0
LINE
  5
23A
100
AcDbEntity
  8
0
100
AcDbLine
 62
7
  6
BYLAYER
 10
15.2985993611
 20
54.0765842929
 11
14.9485427281
 21
54.0765842929
  0
LINE
  5
23B
100
AcDbEntity
  8
0
100
AcDbLine
 62
7
  6
BYLAYER
 10
32.8967382871
 20
55.1265842929
 11
15.6984113985
 21
55.1265842929
  0
CIRCLE
  5
23C
100
AcDbEntity
  8
0
100
AcDbCircle
 62
7
  6
BYLAYER
 10
24.2985427281
 20
41.0265842929
 40
3.6349109931
  0
CIRCLE
  5
23D
100
AcDbEntity
  8
0
100
AcDbCircle
 62
7
  6
BYLAYER
 10
24.2985427281
 20
41.0265842929
 40
2.8000008632
  0
ARC
  5
23E
100
AcDbEntity
  8
0
100
AcDbCircle
 62
7
  6
BYLAYER
 10
24.2985427281
 20
41.0265842929
 40
2.6645932324
100
AcDbArc
 50
261.3663092193
 51
278.6336831084
  0
ARC
  5
23F
100
AcDbEntity
  8
0
100
AcDbCircle
 62
7
  6
BYLAYER
 10
24.2985427281
 20
41.0265842929
 40
2.6645932324
100
AcDbArc
 50
81.3663092265
 51
98.6336907898
  0
ARC
  5
240
100
AcDbEntity
  8
0
100
AcDbCircle
 62
7
  6
BYLAYER
 10
24.2985427281
 20
41.0265842929
 40
2.5555563547
100
AcDbArc
 50
99.0050599475
 51
260.9949400834
  0
ARC
  5
241
100
AcDbEntity
  8
0
100
AcDbCircle
 62
7
  6
BYLAYER
 10
24.2985427281
 20
41.0265842929
 40
2.5555563547
100
AcDbArc
 50
279.0050522508
 51
80.9949401079
  0
ARC
  5
242
100
AcDbEntity
  8
0
100
AcDbCircle
 62
7
  6
BYLAYER
 10
24.2985427281
 20
41.0265842929
 40
1.4002476603
100
AcDbArc
 50
168.4651095214
 51
191.5348810753
  0
ARC
  5
243
100
AcDbEntity
  8
0
100
AcDbCircle
 62
7
  6
BYLAYER
 10
24.2985427281
 20
41.0265842929
 40
1.4002476603
100
AcDbArc
 50
348.4651095214
 51
11.5348904786
  0
ARC
  5
244
100
AcDbEntity
  8
0
100
AcDbCircle
 62
7
  6
BYLAYER
 10
15.798450104
 20
54.6357675001
 40
0.5009080422
100
AcDbArc
 50
101.5202766863
 51
176.3703929164
  0
ARC
  5
245
100
AcDbEntity
  8
0
100
AcDbCircle
 62
7
  6
BYLAYER
 10
15.798450104
 20
5.5374010857
 40
0.5009080422
100
AcDbArc
 50
183.6293324553
 51
271.1029372038
  0
ARC
  5
246
100
AcDbEntity
  8
0
100
AcDbCircle
 62
7
  6
BYLAYER
 10
32.7966999324
 20
54.6358334423
 40
0.5008433585
100
AcDbArc
 50
0.0858962887
 51
78.4782560591
  0
ARC
  5
247
100
AcDbEntity
  8
0
100
AcDbCircle
 62
7
  6
BYLAYER
 10
32.7966999324
 20
5.5373351435
 40
0.5008433585
100
AcDbArc
 50
268.889531063
 51
359.9141037113
  0
SPLINE
  5
248
100
AcDbEntity
  8
0
100
AcDbSpline
 62
7
  6
BYLAYER
 70
0
 71
3
 72
12
 73
8
 74
0
 42
0.0000001
 43
0.0000001
 44
0.0000000001
 40
0.0
 40
0.0
 40
0.0
 40
0.0
 40
0.1086034013
 40
0.2190824421
 40
0.4520022456
 40
0.7104821647
 40
1.0
 40
1.0
 40
1.0
 40
1.0
 10
15.244188123
 20
58.127132326
 30
0.0
 10
15.212718921
 20
58.1493870598
 30
0.0
 10
15.1526072013
 20
58.1992783458
 30
0.0
 10
15.0457564352
 20
58.3196292253
 30
0.0
 10
14.9411294699
 20
58.5091507506
 30
0.0
 10
14.8689691727
 20
58.7787680516
 30
0.0
 10
14.8548919142
 20
58.9738346124
 30
0.0
 10
14.8548919142
 20
59.0765842929
 30
0.0
  0
SPLINE
  5
249
100
AcDbEntity
  8
0
100
AcDbSpline
 62
7
  6
BYLAYER
 70
0
 71
3
 72
9
 73
5
 74
0
 42
0.0000001
 43
0.0000001
 44
0.0000000001
 40
0.0
 40
0.0
 40
0.0
 40
0.0
 40
0.4840611208
 40
1.0
 40
1.0
 40
1.0
 40
1.0
 10
18.5325128209
 20
55.1306412018
 30
0.0
 10
18.0719909533
 20
55.68325936
 30
0.0
 10
17.0356407208
 20
56.7557315883
 30
0.0
 10
15.8701895767
 20
57.6844258166
 30
0.0
 10
15.2441614502
 20
58.1270945501
 30
0.0
  0
SPLINE
  5
24A
100
AcDbEntity
  8
0
100
AcDbSpline
 62
7
  6
BYLAYER
 70
0
 71
3
 72
24
 73
20
 74
0
 42
0.0000001
 43
0.0000001
 44
0.0000000001
 40
0.0
 40
0.0
 40
0.0
 40
0.0
 40
0.0569828622
 40
0.1197601851
 40
0.1875439989
 40
0.2593793487
 40
0.3340471573
 40
0.4101978095
 40
0.4864222227
 40
0.5613039726
 40
0.6334865157
 40
0.7017366044
 40
0.7650324139
 40
0.8226406826
 40
0.8742452776
 40
0.9201255791
 40
0.9613430417
 40
0.9808467826
 40
1.0
 40
1.0
 40
1.0
 40
1.0
 10
14.8548919142
 20
59.0765842929
 30
0.0
 10
14.8548919142
 20
59.194264468
 30
0.0
 10
14.8753083728
 20
59.4417462935
 30
0.0
 10
14.9555072616
 20
59.8214449481
 30
0.0
 10
15.0851125308
 20
60.2195781696
 30
0.0
 10
15.260851804
 20
60.6263467989
 30
0.0
 10
15.478445803
 20
61.0320106597
 30
0.0
 10
15.7326445371
 20
61.4265903175
 30
0.0
 10
16.017232656
 20
61.80039882
 30
0.0
 10
16.3251770818
 20
62.1443221275
 30
0.0
 10
16.6489633096
 20
62.4499275932
 30
0.0
 10
16.9807232048
 20
62.7097679411
 30
0.0
 10
17.3124386482
 20
62.9176457893
 30
0.0
 10
17.6363623561
 20
63.0685703333
 30
0.0
 10
17.9453352757
 20
63.1586878238
 30
0.0
 10
18.2326660729
 20
63.1853838886
 30
0.0
 10
18.4532543822
 20
63.1512629216
 30
0.0
 10
18.6069742337
 20
63.0898698852
 30
0.0
 10
18.6759411961
 20
63.0488751292
 30
0.0
 10
18.7082363925
 20
63.0260362597
 30
0.0
  0
SPLINE
  5
24B
100
AcDbEntity
  8
0
100
AcDbSpline
 62
7
  6
BYLAYER
 70
0
 71
3
 72
11
 73
7
 74
0
 42
0.0000001
 43
0.0000001
 44
0.0000000001
 40
0.0
 40
0.0
 40
0.0
 40
0.0
 40
0.2623398099
 40
0.5171934722
 40
0.7633530901
 40
1.0
 40
1.0
 40
1.0
 40
1.0
 10
15.4235842051
 20
53.2866307654
 30
0.0
 10
15.4051630001
 20
53.3364262068
 30
0.0
 10
15.3718145858
 20
53.4357255948
 30
0.0
 10
15.3322441157
 20
53.5851987152
 30
0.0
 10
15.3056801894
 20
53.7322884167
 30
0.0
 10
15.2985427281
 20
53.8300476395
 30
0.0
 10
15.2985427281
 20
53.8779413556
 30
0.0
  0
SPLINE
  5
24C
100
AcDbEntity
  8
0
100
AcDbSpline
 62
7
  6
BYLAYER
 70
0
 71
3
 72
15
 73
11
 74
0
 42
0.0000001
 43
0.0000001
 44
0.0000000001
 40
0.0
 40
0.0
 40
0.0
 40
0.0
 40
0.1279130096
 40
0.1918504542
 40
0.2556665442
 40
0.3828347963
 40
0.5091714574
 40
0.7581782283
 40
0.8801788566
 40
1.0
 40
1.0
 40
1.0
 40
1.0
 10
15.7532241294
 20
52.1267258862
 30
0.0
 10
15.7532283895
 20
52.1782348279
 30
0.0
 10
15.7427478394
 20
52.2555295682
 30
0.0
 10
15.7177025785
 20
52.3553418358
 30
0.0
 10
15.6888189823
 20
52.4538868398
 30
0.0
 10
15.6485875224
 20
52.5751815062
 30
0.0
 10
15.5827591748
 20
52.7665231026
 30
0.0
 10
15.5185775314
 20
52.9562659231
 30
0.0
 10
15.4610598472
 20
53.1453787596
 30
0.0
 10
15.4353174077
 20
53.2393185685
 30
0.0
 10
15.4235842051
 20
53.2861206829
 30
0.0
  0
SPLINE
  5
24D
100
AcDbEntity
  8
0
100
AcDbSpline
 62
7
  6
BYLAYER
 70
0
 71
3
 72
15
 73
11
 74
0
 42
0.0000001
 43
0.0000001
 44
0.0000000001
 40
0.0
 40
0.0
 40
0.0
 40
0.0
 40
0.1198177188
 40
0.2418164142
 40
0.4908226737
 40
0.6171602531
 40
0.7443299422
 40
0.8081468782
 40
0.8720852452
 40
1.0
 40
1.0
 40
1.0
 40
1.0
 10
33.1736436619
 20
53.2865053584
 30
0.0
 10
33.1619024355
 20
53.2396884795
 30
0.0
 10
33.1361424005
 20
53.1457187634
 30
0.0
 10
33.0785841802
 20
52.9565451287
 30
0.0
 10
33.0143573048
 20
52.7667408763
 30
0.0
 10
32.9484799858
 20
52.5753370513
 30
0.0
 10
32.9082163824
 20
52.4540024689
 30
0.0
 10
32.8793071089
 20
52.3554244627
 30
0.0
 10
32.8542372463
 20
52.2555782552
 30
0.0
 10
32.8437436443
 20
52.1782543767
 30
0.0
 10
32.843747908
 20
52.1267258877
 30
0.0
  0
SPLINE
  5
24E
100
AcDbEntity
  8
0
100
AcDbSpline
 62
7
  6
BYLAYER
 70
0
 71
3
 72
11
 73
7
 74
0
 42
0.0000001
 43
0.0000001
 44
0.0000000001
 40
0.0
 40
0.0
 40
0.0
 40
0.0
 40
0.2366531371
 40
0.4828136607
 40
0.7376647095
 40
1.0
 40
1.0
 40
1.0
 40
1.0
 10
33.2985427281
 20
53.8779413556
 30
0.0
 10
33.2985427281
 20
53.8300787418
 30
0.0
 10
33.2914145361
 20
53.7323841328
 30
0.0
 10
33.2648818495
 20
53.5853905989
 30
0.0
 10
33.2253560311
 20
53.4360151245
 30
0.0
 10
33.1920443642
 20
53.3367796536
 30
0.0
 10
33.1736436619
 20
53.2870158542
 30
0.0
  0
SPLINE
  5
24F
100
AcDbEntity
  8
0
100
AcDbSpline
 62
7
  6
BYLAYER
 70
0
 71
3
 72
11
 73
7
 74
0
 42
0.0000001
 43
0.0000001
 44
0.0000000001
 40
0.0
 40
0.0
 40
0.0
 40
0.0
 40
0.2365840124
 40
0.4828118574
 40
0.7377032501
 40
1.0
 40
1.0
 40
1.0
 40
1.0
 10
15.2985427281
 20
6.2753513344
 30
0.0
 10
15.2985427281
 20
6.3232115093
 30
0.0
 10
15.3057206453
 20
6.4209253953
 30
0.0
 10
15.3322069401
 20
6.5679688239
 30
0.0
 10
15.3717533518
 20
6.7173968923
 30
0.0
 10
15.4051739451
 20
6.8166219632
 30
0.0
 10
15.4235842051
 20
6.8663875598
 30
0.0
  0
SPLINE
  5
250
100
AcDbEntity
  8
0
100
AcDbSpline
 62
7
  6
BYLAYER
 70
0
 71
3
 72
13
 73
9
 74
0
 42
0.0000001
 43
0.0000001
 44
0.0000000001
 40
0.0
 40
0.0
 40
0.0
 40
0.0
 40
0.3603893579
 40
0.6579398166
 40
0.7778291631
 40
0.8756698214
 40
0.9499123188
 40
1.0
 40
1.0
 40
1.0
 40
1.0
 10
15.4235842051
 20
45.9495991488
 30
0.0
 10
15.409632168
 20
45.959565525
 30
0.0
 10
15.3841880071
 20
45.9777933095
 30
0.0
 10
15.353860353
 20
45.9990190861
 30
0.0
 10
15.3333023984
 20
46.012367202
 30
0.0
 10
15.3213446812
 20
46.0194782244
 30
0.0
 10
15.3119118933
 20
46.0241975692
 30
0.0
 10
15.3062556124
 20
46.0262095411
 30
0.0
 10
15.3038891292
 20
46.0264896109
 30
0.0
  0
SPLINE
  5
251
100
AcDbEntity
  8
0
100
AcDbSpline
 62
7
  6
BYLAYER
 70
0
 71
3
 72
11
 73
7
 74
0
 42
0.0000001
 43
0.0000001
 44
0.0000000001
 40
0.0
 40
0.0
 40
0.0
 40
0.0
 40
0.262288742
 40
0.517175824
 40
0.7634081496
 40
1.0
 40
1.0
 40
1.0
 40
1.0
 10
33.1736436619
 20
6.866002511
 30
0.0
 10
33.1920331975
 20
6.8162691717
 30
0.0
 10
33.2254201193
 20
6.7171101016
 30
0.0
 10
33.2649223436
 20
6.567779811
 30
0.0
 10
33.2913736445
 20
6.4208310746
 30
0.0
 10
33.2985427281
 20
6.3231807812
 30
0.0
 10
33.2985427281
 20
6.2753513344
 30
0.0
  0
SPLINE
  5
252
100
AcDbEntity
  8
0
100
AcDbSpline
 62
7
  6
BYLAYER
 70
0
 71
3
 72
13
 73
9
 74
0
 42
0.0000001
 43
0.0000001
 44
0.0000000001
 40
0.0
 40
0.0
 40
0.0
 40
0.0
 40
0.0501008789
 40
0.1243485019
 40
0.2221868477
 40
0.3420702447
 40
0.6396085572
 40
1.0
 40
1.0
 40
1.0
 40
1.0
 10
33.293196327
 20
46.0264896103
 30
0.0
 10
33.2908321219
 20
46.0262098102
 30
0.0
 10
33.2851817445
 20
46.0242008045
 30
0.0
 10
33.275759234
 20
46.0194879926
 30
0.0
 10
33.2638154754
 20
46.0123871928
 30
0.0
 10
33.2432823715
 20
45.9990577213
 30
0.0
 10
33.2129913975
 20
45.9778599848
 30
0.0
 10
33.1875785829
 20
45.9596551421
 30
0.0
 10
33.1736436619
 20
45.9497007929
 30
0.0
  0
SPLINE
  5
253
100
AcDbEntity
  8
0
100
AcDbSpline
 62
7
  6
BYLAYER
 70
0
 71
3
 72
14
 73
10
 74
0
 42
0.0000001
 43
0.0000001
 44
0.0000000001
 40
0.0
 40
0.0
 40
0.0
 40
0.0
 40
0.1279108836
 40
0.1918473511
 40
0.2556621873
 40
0.3828273363
 40
0.5091589675
 40
0.7581427426
 40
1.0
 40
1.0
 40
1.0
 40
1.0
 10
32.8437526061
 20
8.0266637519
 30
0.0
 10
32.8437537588
 20
7.975101997
 30
0.0
 10
32.8542487773
 20
7.8977281099
 30
0.0
 10
32.8793403118
 20
7.7978185579
 30
0.0
 10
32.9082710588
 20
7.6991780766
 30
0.0
 10
32.9485622888
 20
7.5777678655
 30
0.0
 10
33.0144758642
 20
7.3862409816
 30
0.0
 10
33.0942591656
 20
7.1505917322
 30
0.0
 10
33.1499273527
 20
6.9605682506
 30
0.0
 10
33.1736436619
 20
6.866002511
 30
0.0
  0
SPLINE
  5
254
100
AcDbEntity
  8
0
100
AcDbSpline
 62
7
  6
BYLAYER
 70
0
 71
3
 72
13
 73
9
 74
0
 42
0.0000001
 43
0.0000001
 44
0.0000000001
 40
0.0
 40
0.0
 40
0.0
 40
0.0
 40
0.2099431561
 40
0.4564951926
 40
0.5880929375
 40
0.7233232337
 40
0.860854897
 40
1.0
 40
1.0
 40
1.0
 40
1.0
 10
33.1736436619
 20
45.9496692762
 30
0.0
 10
33.147500321
 20
45.9221346422
 30
0.0
 10
33.0905973287
 20
45.8623265193
 30
0.0
 10
33.0177893881
 20
45.7847593289
 30
0.0
 10
32.9557483675
 20
45.7157349026
 30
0.0
 10
32.9085045396
 20
45.6596998313
 30
0.0
 10
32.863945996
 20
45.6006219303
 30
0.0
 10
32.8437516439
 20
45.5517764877
 30
0.0
 10
32.8437526061
 20
45.5266117064
 30
0.0
  0
SPLINE
  5
255
100
AcDbEntity
  8
0
100
AcDbSpline
 62
7
  6
BYLAYER
 70
0
 71
3
 72
13
 73
9
 74
0
 42
0.0000001
 43
0.0000001
 44
0.0000000001
 40
0.0
 40
0.0
 40
0.0
 40
0.0
 40
0.1391397395
 40
0.2766654293
 40
0.4118899305
 40
0.5434839027
 40
0.7900353102
 40
1.0
 40
1.0
 40
1.0
 40
1.0
 10
15.7532194334
 20
45.5266116989
 30
0.0
 10
15.7532203947
 20
45.5517643495
 30
0.0
 10
15.7330526462
 20
45.6005893487
 30
0.0
 10
15.6885325721
 20
45.6596532436
 30
0.0
 10
15.6413237736
 20
45.7156711861
 30
0.0
 10
15.5793295637
 20
45.7846799933
 30
0.0
 10
15.5065673818
 20
45.8622296138
 30
0.0
 10
15.4497072746
 20
45.9220331951
 30
0.0
 10
15.4235842051
 20
45.9495692181
 30
0.0
  0
SPLINE
  5
256
100
AcDbEntity
  8
0
100
AcDbSpline
 62
7
  6
BYLAYER
 70
0
 71
3
 72
14
 73
10
 74
0
 42
0.0000001
 43
0.0000001
 44
0.0000000001
 40
0.0
 40
0.0
 40
0.0
 40
0.0
 40
0.2418626983
 40
0.490847017
 40
0.6171777266
 40
0.7443414379
 40
0.8081554103
 40
0.8720909332
 40
1.0
 40
1.0
 40
1.0
 40
1.0
 10
15.4235842051
 20
6.8663875598
 30
0.0
 10
15.4472841621
 20
6.9609229026
 30
0.0
 10
15.502913393
 20
7.1508847442
 30
0.0
 10
15.5826407139
 20
7.3864590338
 30
0.0
 10
15.6485053174
 20
7.5779236513
 30
0.0
 10
15.6887643359
 20
7.6992939271
 30
0.0
 10
15.7176694708
 20
7.797901348
 30
0.0
 10
15.742736204
 20
7.8977769372
 30
0.0
 10
15.7532182817
 20
7.9751216086
 30
0.0
 10
15.7532194334
 20
8.0266637752
 30
0.0
  0
ENDSEC
  0
SECTION
  2
OBJECTS
  0
DICTIONARY
  5
C
100
AcDbDictionary
280
0
281
1
  3
ACAD_GROUP
350
D
  3
ACAD_MLINESTYLE
350
17
  3
ACAD_LAYOUT
350
1A
  3
ACAD_PLOTSETTINGS
350
19
  3
ACAD_PLOTSTYLENAME
350
E
  0
DICTIONARY
  5
D
102
{ACAD_REACTORS
330
C
102
}
100
AcDbDictionary
280
0
281
1
  0
ACDBDICTIONARYWDFLT
  5
E
102
{ACAD_REACTORS
330
C
102
}
100
AcDbDictionary
281
1
  3
Normal
350
F
100
AcDbDictionaryWithDefault
340
F
  0
DICTIONARY
  5
17
102
{ACAD_REACTORS
330
C
102
}
100
AcDbDictionary
280
0
281
1
  3
Standard
350
18
  0
DICTIONARY
  5
19
102
{ACAD_REACTORS
330
C
102
}
100
AcDbDictionary
281
1
  0
DICTIONARY
  5
1A
102
{ACAD_REACTORS
330
C
102
}
100
AcDbDictionary
281
1
  3
Model
350
257
  3
Layout1
350
258
  0
ACDBPLACEHOLDER
  5
F
102
{ACAD_REACTORS
330
E
102
}
  0
MLINESTYLE
  5
18
102
{ACAD_REACTORS
330
17
102
}
100
AcDbMlineStyle
  2
STANDARD
 70
0
  3

 62
256
 51
90.0
 52
90.0
 71
2
 49
0.5
 62
256
  6
BYLAYER
 49
-0.5
 62
256
  6
BYLAYER
  0
LAYOUT
  5
257
102
{ACAD_REACTORS
330
1A
102
}
100
AcDbPlotSettings
  1

  2
none_device
  4

  6

 40
0.0
 41
0.0
 42
0.0
 43
0.0
 44
210.0
 45
297.0
 46
0.0
 47
0.0
 48
0.0
 49
0.0
140
0.0
141
0.0
142
1.0
143
1.0
 70
1024
 72
1
 73
0
 74
0
  7

 75
0
147
1.0
148
0.0
149
0.0
100
AcDbLayout
  1
Model
 70
0
 71
0
 10
0.0
 20
0.0
 11
210.0
 21
297.0
 12
0.0
 22
0.0
 32
0.0
 14
0.0
 24
0.0
 34
0.0
 15
0.0
 25
0.0
 35
0.0
146
0.0
 13
0.0
 23
0.0
 33
0.0
 16
1.0
 26
0.0
 36
0.0
 17
0.0
 27
1.0
 37
0.0
 76
0
330
210
345
0
346
0
  0
LAYOUT
  5
258
102
{ACAD_REACTORS
330
1A
102
}
100
AcDbPlotSettings
  1

  2
none_device
  4

  6

 40
0.0
 41
0.0
 42
0.0
 43
0.0
 44
210.0
 45
297.0
 46
0.0
 47
0.0
 48
0.0
 49
0.0
140
0.0
141
0.0
142
1.0
143
1.0
 70
0
 72
1
 73
0
 74
0
  7

 75
0
147
1.0
148
0.0
149
0.0
100
AcDbLayout
  1
Layout1
 70
0
 71
1
 10
0.0
 20
0.0
 11
210.0
 21
297.0
 12
0.0
 22
0.0
 32
0.0
 14
0.0
 24
0.0
 34
0.0
 15
0.0
 25
0.0
 35
0.0
146
0.0
 13
0.0
 23
0.0
 33
0.0
 16
1.0
 26
0.0
 36
0.0
 17
0.0
 27
1.0
 37
0.0
 76
0
330
211
345
0
346
0
  0
ENDSEC
  0
EOF
