999
DXF file: C:\Users\sesa63760\Dev\_Creo\CAD\MCADID0002698_3D-CAD\drw0001_1.dxf
999
Pro/ENGINEER 2019471 by Parametric Technology Corporation
  0
SECTION
  2
HEADER
  9
$ACADVER
  1
AC1024
  9
$DWGCODEPAGE
  3
ANSI_1252
  9
$EXTMAX
 10
46.3606449214
 20
65.5671978175
 30
0.0
  9
$EXTMIN
 10
0.0
 20
0.0
 30
0.0
  9
$LIMMIN
 10
0.0
 20
0.0
  9
$LIMMAX
 10
46.3606449214
 20
65.5671978175
  9
$VIEWCTR
 10
23.1803224607
 20
32.7835989087
  9
$VIEWSIZE
 40
65.5671978175
  9
$CLAYER
  8
0
  9
$LTSCALE
 40
4.2740099318
  9
$CELTYPE
  6
BYLAYER
  9
$DIMSCALE
 40
1.0
  9
$DIMASZ
 40
0.5519124395
  9
$DIMEXO
 40
1.0
  9
$DIMDLI
 40
2.9529523165
  9
$DIMEXE
 40
1.0
  9
$DIMCEN
 40
0.6993834434
  9
$DIMLFAC
 40
1.0
  9
$DIMBLK
  1
_FILLED
  9
$DIMALT
 70
0
  9
$DIMALTF
 40
0.0393700787
  9
$DIMTXT
 40
0.7726774154
  9
$DIMTOL
 70
1
  9
$DIMLIM
 70
0
  9
$DIMTFAC
 40
1.0
  9
$DIMTP
 40
0.01
  9
$DIMTM
 40
0.01
  9
$DIMGAP
 40
0.625
  9
$DIMDSEP
 70
46
  9
$AUNITS
 70
0
  9
$PDMODE
 70
3
  9
$PDSIZE
 40
0.3125
  9
$HANDSEED
  5
2AC
  9
$TILEMODE
 70
1
  9
$MEASUREMENT
 70
1
  9
$INSUNITS
 70
4
  0
ENDSEC
  0
SECTION
  2
CLASSES
  0
CLASS
  1
ACDBDICTIONARYWDFLT
  2
AcDbDictionaryWithDefault
  3
AutoCAD 2000
 90
0
 91
1
280
0
281
0
  0
CLASS
  1
ACDBPLACEHOLDER
  2
AcDbPlaceHolder
  3
AutoCAD 2000
 90
0
 91
1
280
0
281
0
  0
CLASS
  1
LAYOUT
  2
AcDbLayout
  3
AutoCAD 2000
 90
0
 91
0
280
0
281
0
  0
ENDSEC
  0
SECTION
  2
TABLES
  0
TABLE
  2
VPORT
  5
8
100
AcDbSymbolTable
 70
2
  0
VPORT
  5
1F4
100
AcDbSymbolTableRecord
100
AcDbViewportTableRecord
  2
*ACTIVE
 70
0
 10
0.0
 20
0.0
 11
1.0
 21
1.0
 12
23.1803224607
 22
32.7835989087
 13
0.0
 23
0.0
 14
1.0
 24
1.0
 15
0.0
 25
0.0
 16
0.0
 26
0.0
 36
1.0
 17
0.0
 27
0.0
 37
0.0
 40
65.5671978175
 41
0.7070707071
 42
50.0
 43
0.0
 44
0.0
 50
0.0
 51
0.0
 71
0
 72
100
 73
1
 74
1
 75
0
 76
0
 77
0
 78
0
  0
ENDTAB
  0
TABLE
  2
LTYPE
  5
5
100
AcDbSymbolTable
 70
6
  0
LTYPE
  5
14
100
AcDbSymbolTableRecord
100
AcDbLinetypeTableRecord
  2
BYBLOCK
 70
0
  3

 72
65
 73
0
 40
0.0
  0
LTYPE
  5
15
100
AcDbSymbolTableRecord
100
AcDbLinetypeTableRecord
  2
BYLAYER
 70
0
  3

 72
65
 73
0
 40
0.0
  0
LTYPE
  5
16
100
AcDbSymbolTableRecord
100
AcDbLinetypeTableRecord
  2
CONTINUOUS
 70
64
  3
Solid line
 72
65
 73
0
 40
0.0
  0
LTYPE
  5
1F5
100
AcDbSymbolTableRecord
100
AcDbLinetypeTableRecord
  2
CENTER
 70
64
  3
____ _ ____ _ ____ _ ____ _ ____ _ ____ _ ____
 72
65
 73
4
 40
0.6
 49
0.375
 74
0
 49
-0.075
 74
0
 49
0.075
 74
0
 49
-0.075
 74
0
  0
LTYPE
  5
1F6
100
AcDbSymbolTableRecord
100
AcDbLinetypeTableRecord
  2
HIDDEN
 70
64
  3
- - - - - - - - - - - - - - - - - - - -
 72
65
 73
2
 40
0.2
 49
0.1
 74
0
 49
-0.1
 74
0
  0
LTYPE
  5
1F7
100
AcDbSymbolTableRecord
100
AcDbLinetypeTableRecord
  2
PHANTOM
 70
64
  3
_____ _ _ _____ _ _ _____ _ _ _____
 72
65
 73
6
 40
0.8
 49
0.45
 74
0
 49
-0.05
 74
0
 49
0.1
 74
0
 49
-0.05
 74
0
 49
0.1
 74
0
 49
-0.05
 74
0
  0
LTYPE
  5
1F8
100
AcDbSymbolTableRecord
100
AcDbLinetypeTableRecord
  2
DOT
 70
64
  3
. . . . . . . . . . . . . . . . . . . .
 72
65
 73
2
 40
0.2
 49
0.1
 74
0
 49
-0.1
 74
0
  0
LTYPE
  5
1F9
100
AcDbSymbolTableRecord
100
AcDbLinetypeTableRecord
  2
DASHED
 70
64
  3
- - - - - - - - - - - - - - - - - - - -
 72
65
 73
2
 40
0.2
 49
0.1
 74
0
 49
-0.1
 74
0
  0
ENDTAB
  0
TABLE
  2
LAYER
  5
2
100
AcDbSymbolTable
 70
36
  0
LAYER
  5
10
100
AcDbSymbolTableRecord
100
AcDbLayerTableRecord
  2
0
 70
0
 62
7
  6
CONTINUOUS
370
-3
390
F
  0
LAYER
  5
1FA
100
AcDbSymbolTableRecord
100
AcDbLayerTableRecord
  2
DEFAULT_1
 70
0
 62
7
  6
CENTER
370
-3
390
F
  0
LAYER
  5
1FB
100
AcDbSymbolTableRecord
100
AcDbLayerTableRecord
  2
DEFAULT_2
 70
0
 62
7
  6
HIDDEN
370
-3
390
F
  0
LAYER
  5
1FC
100
AcDbSymbolTableRecord
100
AcDbLayerTableRecord
  2
DEFAULT_3
 70
0
 62
7
  6
PHANTOM
370
-3
390
F
  0
LAYER
  5
1FD
100
AcDbSymbolTableRecord
100
AcDbLayerTableRecord
  2
00_COMPONENTS
 70
0
 62
7
  6
CONTINUOUS
370
-3
390
F
  0
LAYER
  5
1FE
100
AcDbSymbolTableRecord
100
AcDbLayerTableRecord
  2
01_1_DEFAULT_DATUMS
 70
0
 62
7
  6
CONTINUOUS
370
-3
390
F
  0
LAYER
  5
1FF
100
AcDbSymbolTableRecord
100
AcDbLayerTableRecord
  2
01_PLANES
 70
0
 62
7
  6
CONTINUOUS
370
-3
390
F
  0
LAYER
  5
200
100
AcDbSymbolTableRecord
100
AcDbLayerTableRecord
  2
02_COORD_SYS
 70
0
 62
7
  6
CONTINUOUS
370
-3
390
F
  0
LAYER
  5
201
100
AcDbSymbolTableRecord
100
AcDbLayerTableRecord
  2
03_AXES
 70
0
 62
7
  6
CONTINUOUS
370
-3
390
F
  0
LAYER
  5
202
100
AcDbSymbolTableRecord
100
AcDbLayerTableRecord
  2
04_POINTS
 70
0
 62
7
  6
CONTINUOUS
370
-3
390
F
  0
LAYER
  5
203
100
AcDbSymbolTableRecord
100
AcDbLayerTableRecord
  2
05_CURVES
 70
0
 62
7
  6
CONTINUOUS
370
-3
390
F
  0
LAYER
  5
204
100
AcDbSymbolTableRecord
100
AcDbLayerTableRecord
  2
06_SURFS
 70
0
 62
7
  6
CONTINUOUS
370
-3
390
F
  0
LAYER
  5
205
100
AcDbSymbolTableRecord
100
AcDbLayerTableRecord
  2
07_COSMETICS
 70
0
 62
7
  6
CONTINUOUS
370
-3
390
F
  0
LAYER
  5
206
100
AcDbSymbolTableRecord
100
AcDbLayerTableRecord
  2
10_NOTES
 70
0
 62
7
  6
CONTINUOUS
370
-3
390
F
  0
LAYER
  5
207
100
AcDbSymbolTableRecord
100
AcDbLayerTableRecord
  2
11_NOTES_PUB
 70
0
 62
7
  6
CONTINUOUS
370
-3
390
F
  0
LAYER
  5
208
100
AcDbSymbolTableRecord
100
AcDbLayerTableRecord
  2
13_REF_GTOL
 70
0
 62
7
  6
CONTINUOUS
370
-3
390
F
  0
LAYER
  5
209
100
AcDbSymbolTableRecord
100
AcDbLayerTableRecord
  2
16_MISC
 70
0
 62
7
  6
CONTINUOUS
370
-3
390
F
  0
LAYER
  5
20A
100
AcDbSymbolTableRecord
100
AcDbLayerTableRecord
  2
17_NO_PRINT
 70
0
 62
7
  6
CONTINUOUS
370
-3
390
F
  0
LAYER
  5
20B
100
AcDbSymbolTableRecord
100
AcDbLayerTableRecord
  2
18_DATUM_CAMS_JOINTS
 70
0
 62
7
  6
CONTINUOUS
370
-3
390
F
  0
LAYER
  5
20C
100
AcDbSymbolTableRecord
100
AcDbLayerTableRecord
  2
19_DATUM_FUNCTIONAL
 70
0
 62
7
  6
CONTINUOUS
370
-3
390
F
  0
LAYER
  5
20D
100
AcDbSymbolTableRecord
100
AcDbLayerTableRecord
  2
20_DATUM_KINEMATIC_SCHEME
 70
0
 62
7
  6
CONTINUOUS
370
-3
390
F
  0
ENDTAB
  0
TABLE
  2
STYLE
  5
3
100
AcDbSymbolTable
 70
1
  0
STYLE
  5
11
100
AcDbSymbolTableRecord
100
AcDbTextStyleTableRecord
  2
STANDARD
 70
0
 40
0.0
 41
1.0
 50
0.0
 71
0
 42
0.2
  3
ARIAL.TTF
  4

  0
STYLE
  5
20E
100
AcDbSymbolTableRecord
100
AcDbTextStyleTableRecord
  2
TEXTSTYLE_1
 70
0
 40
0.0
 41
0.8
 50
0.0
 71
0
 42
0.2
  3
gdt
  4

  0
ENDTAB
  0
TABLE
  2
VIEW
  5
6
100
AcDbSymbolTable
 70
0
  0
ENDTAB
  0
TABLE
  2
UCS
  5
7
100
AcDbSymbolTable
 70
0
  0
ENDTAB
  0
TABLE
  2
APPID
  5
9
100
AcDbSymbolTable
 70
1
  0
APPID
  5
20F
100
AcDbSymbolTableRecord
100
AcDbRegAppTableRecord
  2
ACAD
 70
0
  0
ENDTAB
  0
TABLE
  2
BLOCK_RECORD
  5
1
100
AcDbSymbolTable
 70
0
  0
BLOCK_RECORD
  5
210
100
AcDbSymbolTableRecord
100
AcDbBlockTableRecord
  2
*Model_Space
  0
BLOCK_RECORD
  5
211
100
AcDbSymbolTableRecord
100
AcDbBlockTableRecord
  2
*Paper_Space
  0
BLOCK_RECORD
  5
212
100
AcDbSymbolTableRecord
100
AcDbBlockTableRecord
  2
_FILLED
  0
ENDTAB
  0
TABLE
  2
DIMSTYLE
  5
A
100
AcDbSymbolTable
 70
1
100
AcDbDimStyleTable
 71
0
  0
DIMSTYLE
105
213
100
AcDbSymbolTableRecord
100
AcDbDimStyleTableRecord
  2
STANDARD
 70
0
  3

  4

 40
1.0
 41
0.5519124395
 42
1.0
 43
0.38
 44
1.0
 45
0.0
 46
0.0
 47
0.01
 48
0.01
140
0.7726774154
141
0.09
142
0.0
143
25.4
144
1.0
145
0.0
146
1.0
147
0.625
 71
1
 72
0
 73
0
 74
0
 75
0
 76
0
 77
1
 78
8
 79
2
170
0
171
1
172
0
173
0
174
0
175
0
176
0
177
0
178
0
270
2
179
2
271
2
272
2
273
2
274
2
275
0
280
0
281
0
282
0
283
1
284
8
285
0
286
0
287
3
288
0
340
11
278
46
341
212
342
212
343
212
344
212
  0
ENDTAB
  0
ENDSEC
  0
SECTION
  2
BLOCKS
  0
BLOCK
  5
20
100
AcDbEntity
  8
0
100
AcDbBlockBegin
  2
*Model_Space
 70
0
 10
0.0
 20
0.0
 30
0.0
  3
*Model_Space
  1

  0
ENDBLK
  5
21
100
AcDbEntity
  8
0
100
AcDbBlockEnd
  0
BLOCK
  5
1C
100
AcDbEntity
  8
0
100
AcDbBlockBegin
  2
*Paper_Space
 70
0
 10
0.0
 20
0.0
 30
0.0
  3
*Paper_Space
  1

  0
ENDBLK
  5
1D
100
AcDbEntity
  8
0
100
AcDbBlockEnd
  0
BLOCK
  5
214
100
AcDbEntity
  8
0
100
AcDbBlockBegin
  2
_FILLED
 70
64
 10
0.0
 20
0.0
  3
_FILLED
  1

  0
SOLID
  5
215
100
AcDbEntity
  8
0
  6
BYBLOCK
 62
0
100
AcDbTrace
 10
0.0
 20
0.0
 11
-1.0
 21
0.25
 12
-1.0
 22
-0.25
 13
-1.0
 23
-0.25
  0
ENDBLK
  5
216
100
AcDbEntity
  8
0
  6
BYBLOCK
 62
0
100
AcDbBlockEnd
  0
ENDSEC
  0
SECTION
  2
ENTITIES
  0
LWPOLYLINE
  5
217
100
AcDbEntity
  8
0
100
AcDbPolyline
 62
7
  6
BYLAYER
 90
11
 70
0
 10
10.8344719333
 20
49.7167090448
 10
7.9111903289
 20
47.4615724404
 10
6.1426758238
 20
44.7234855011
 10
5.7808079696
 20
41.8033777847
 10
6.8572530564
 20
38.9461003859
 10
9.2858029019
 20
36.3777175282
 10
12.8684495232
 20
34.3088665334
 10
17.3120365093
 20
32.9071946538
 10
22.255905592
 20
32.2845288857
 10
27.3080615436
 20
32.490531245
 10
32.059291578
 20
33.5107106567
  0
LINE
  5
218
100
AcDbEntity
  8
0
100
AcDbLine
 62
7
  6
BYLAYER
 10
5.3710754114
 20
40.865253203
 11
5.3690169039
 21
41.1844389717
  0
LINE
  5
219
100
AcDbEntity
  8
0
100
AcDbLine
 62
7
  6
BYLAYER
 10
5.335361985
 20
41.7208138316
 11
5.335361985
 21
42.2107152819
  0
LINE
  5
21A
100
AcDbEntity
  8
0
100
AcDbLine
 62
7
  6
BYLAYER
 10
18.4283999929
 20
13.6452590164
 11
14.3688264654
 21
15.9890018628
  0
LINE
  5
21B
100
AcDbEntity
  8
0
100
AcDbLine
 62
7
  6
BYLAYER
 10
5.3655547837
 20
41.7226707691
 11
5.3817516458
 21
41.4608603363
  0
LINE
  5
21C
100
AcDbEntity
  8
0
100
AcDbLine
 62
7
  6
BYLAYER
 10
24.2125431965
 20
12.8369255166
 11
23.540381472
 21
13.22498949
  0
LINE
  5
21D
100
AcDbEntity
  8
0
100
AcDbLine
 62
7
  6
BYLAYER
 10
14.3688264654
 20
18.765110081
 11
18.4283999929
 21
16.4213672346
  0
LINE
  5
21E
100
AcDbEntity
  8
0
100
AcDbLine
 62
7
  6
BYLAYER
 10
19.4800218458
 20
18.0187833364
 11
18.4283999929
 21
18.6259237609
  0
LINE
  5
21F
100
AcDbEntity
  8
0
100
AcDbLine
 62
7
  6
BYLAYER
 10
14.3688264654
 20
20.9696666073
 11
13.3172046125
 21
21.5768070318
  0
LINE
  5
220
100
AcDbEntity
  8
0
100
AcDbLine
 62
7
  6
BYLAYER
 10
9.416275721
 20
33.8505210811
 11
9.3982263613
 21
34.2629014146
  0
LWPOLYLINE
  5
221
100
AcDbEntity
  8
0
100
AcDbPolyline
 62
7
  6
BYLAYER
 90
5
 70
0
 10
5.3817516458
 20
41.4608603363
 10
6.4832187291
 20
38.5376270409
 10
8.9665541162
 20
35.9119655101
 10
12.630572743
 20
33.7965912258
 10
17.1784376113
 20
32.3628792317
  0
LINE
  5
222
100
AcDbEntity
  8
0
100
AcDbLine
 62
7
  6
BYLAYER
 10
13.0685177383
 20
18.4967519453
 11
13.0675260149
 21
18.5136526623
  0
LINE
  5
223
100
AcDbEntity
  8
0
100
AcDbLine
 62
7
  6
BYLAYER
 10
13.0675260149
 20
21.2897608805
 11
13.0685177383
 21
21.2728601635
  0
LINE
  5
224
100
AcDbEntity
  8
0
100
AcDbLine
 62
7
  6
BYLAYER
 10
12.5906188894
 20
28.518547989
 11
12.5906188894
 21
23.3146799048
  0
LINE
  5
225
100
AcDbEntity
  8
0
100
AcDbLine
 62
7
  6
BYLAYER
 10
30.2295400863
 20
16.303207248
 11
30.7528723496
 21
16.0010680602
  0
LINE
  5
226
100
AcDbEntity
  8
0
100
AcDbLine
 62
7
  6
BYLAYER
 10
13.0685177383
 20
18.4967519453
 11
13.0674451382
 21
21.2897609044
  0
LINE
  5
227
100
AcDbEntity
  8
0
100
AcDbLine
 62
7
  6
BYLAYER
 10
13.3172046125
 20
21.5768070318
 11
13.3172046125
 21
28.0010160687
  0
LINE
  5
228
100
AcDbEntity
  8
0
100
AcDbLine
 62
7
  6
BYLAYER
 10
14.3688264654
 20
27.3949479224
 11
14.3688264654
 21
20.9696666073
  0
LINE
  5
229
100
AcDbEntity
  8
0
100
AcDbLine
 62
7
  6
BYLAYER
 10
14.3688264654
 20
15.9890018628
 11
14.3688264654
 21
18.765110081
  0
LINE
  5
22A
100
AcDbEntity
  8
0
100
AcDbLine
 62
7
  6
BYLAYER
 10
32.7515042993
 20
16.2352020358
 11
31.8268225231
 21
16.7690552308
  0
LINE
  5
22B
100
AcDbEntity
  8
0
100
AcDbLine
 62
7
  6
BYLAYER
 10
32.7515042993
 20
19.011310254
 11
31.8268225231
 21
19.5451634491
  0
LWPOLYLINE
  5
22C
100
AcDbEntity
  8
0
100
AcDbPolyline
 62
7
  6
BYLAYER
 90
8
 70
0
 10
11.1379367
 20
33.3690451742
 10
12.8210614837
 20
31.8225462571
 10
14.315669578
 20
30.9596533928
 10
17.8850887089
 20
29.6647942068
 10
21.9570036881
 20
29.034886263
 10
26.1696070004
 20
29.1258996466
 10
30.1485903549
 20
29.929747419
 10
33.5404036189
 20
31.3750041781
  0
LWPOLYLINE
  5
22D
100
AcDbEntity
  8
0
100
AcDbPolyline
 62
7
  6
BYLAYER
 90
8
 70
0
 10
11.692298487
 20
33.0491960615
 10
12.8934828055
 20
31.9448098834
 10
14.3758834355
 20
31.0881497856
 10
17.9153709723
 20
29.802298419
 10
21.9524484566
 20
29.1753877268
 10
26.1333526707
 20
29.2628084336
 10
30.0886499702
 20
30.0589168904
 10
33.4691494667
 20
31.4977920932
  0
LINE
  5
22E
100
AcDbEntity
  8
0
100
AcDbLine
 62
7
  6
BYLAYER
 10
33.2448992292
 20
20.931011529
 11
32.8745450616
 21
21.1448307701
  0
LINE
  5
22F
100
AcDbEntity
  8
0
100
AcDbLine
 62
7
  6
BYLAYER
 10
18.4283999929
 20
16.4213672346
 11
18.4283999929
 21
13.6452590164
  0
LINE
  5
230
100
AcDbEntity
  8
0
100
AcDbLine
 62
7
  6
BYLAYER
 10
18.4283999929
 20
18.6259237609
 11
18.4283999929
 21
26.0298606203
  0
LINE
  5
231
100
AcDbEntity
  8
0
100
AcDbLine
 62
7
  6
BYLAYER
 10
19.4800218458
 20
25.8671739443
 11
19.4800218458
 21
18.0187833364
  0
LINE
  5
232
100
AcDbEntity
  8
0
100
AcDbLine
 62
7
  6
BYLAYER
 10
33.6460556315
 20
21.434185918
 11
34.3236406526
 21
21.0429908737
  0
LINE
  5
233
100
AcDbEntity
  8
0
100
AcDbLine
 62
7
  6
BYLAYER
 10
26.6947471363
 20
30.5736427864
 11
22.3197093064
 21
30.4793152698
  0
LINE
  5
234
100
AcDbEntity
  8
0
100
AcDbLine
 62
7
  6
BYLAYER
 10
22.4901550415
 20
17.5993093415
 11
22.4901550415
 21
25.4944714298
  0
LINE
  5
235
100
AcDbEntity
  8
0
100
AcDbLine
 62
7
  6
BYLAYER
 10
22.7720234715
 20
12.8945570367
 11
22.7720234715
 21
15.670665255
  0
LINE
  5
236
100
AcDbEntity
  8
0
100
AcDbLine
 62
7
  6
BYLAYER
 10
22.956167196
 20
25.5045277749
 11
22.956167196
 21
17.8683599784
  0
LINE
  5
237
100
AcDbEntity
  8
0
100
AcDbLine
 62
7
  6
BYLAYER
 10
23.0841374002
 20
12.9615784247
 11
23.0841374002
 21
15.7376866429
  0
LWPOLYLINE
  5
238
100
AcDbEntity
  8
0
100
AcDbPolyline
 62
7
  6
BYLAYER
 90
5
 70
0
 10
17.1784376113
 20
32.3628792317
 10
22.2417077564
 20
31.7269803471
 10
27.4101871438
 20
31.9404113177
 10
32.2651563116
 20
32.9858812357
 10
36.077888371
 20
34.6337309538
  0
LINE
  5
239
100
AcDbEntity
  8
0
100
AcDbLine
 62
7
  6
BYLAYER
 10
24.2125431965
 20
13.6130599261
 11
24.2125431965
 21
12.8369255166
  0
LINE
  5
23A
100
AcDbEntity
  8
0
100
AcDbLine
 62
7
  6
BYLAYER
 10
24.3785781356
 20
16.485027889
 11
24.3785781356
 21
13.7089196707
  0
LINE
  5
23B
100
AcDbEntity
  8
0
100
AcDbLine
 62
7
  6
BYLAYER
 10
26.1189721684
 20
13.0426435511
 11
26.1189721684
 21
13.9138170353
  0
LWPOLYLINE
  5
23C
100
AcDbEntity
  8
0
100
AcDbPolyline
 62
7
  6
BYLAYER
 90
9
 70
0
 10
36.4132945313
 20
34.2887908956
 10
32.2604013979
 20
32.4944820931
 10
27.4112925265
 20
31.4506508239
 10
22.2388323776
 20
31.2372014836
 10
17.1789834632
 20
31.8728655898
 10
12.6307934936
 20
33.3066015563
 10
8.9678045363
 20
35.4211094209
 10
6.4858766169
 20
38.0436286066
 10
5.4133202648
 20
40.8811827071
  0
LINE
  5
23D
100
AcDbEntity
  8
0
100
AcDbLine
 62
7
  6
BYLAYER
 10
32.059291578
 20
33.5107106567
 11
36.1304506413
 21
35.2685896145
  0
LINE
  5
23E
100
AcDbEntity
  8
0
100
AcDbLine
 62
7
  6
BYLAYER
 10
27.8054282231
 20
14.2993705581
 11
27.8054282237
 21
18.4360098919
  0
LINE
  5
23F
100
AcDbEntity
  8
0
100
AcDbLine
 62
7
  6
BYLAYER
 10
13.1846012481
 20
21.4530572062
 11
13.358074403
 21
21.553211381
  0
LWPOLYLINE
  5
240
100
AcDbEntity
  8
0
100
AcDbPolyline
 62
7
  6
BYLAYER
 90
8
 70
0
 10
33.4045426508
 20
31.6983924953
 10
30.0555196452
 20
30.2717679272
 10
26.1348714124
 20
29.4799541266
 10
21.9765573025
 20
29.3901985942
 10
17.9639348406
 20
30.0109156673
 10
14.4456678386
 20
31.2863719158
 10
12.9714578205
 20
32.1366684391
 10
12.4590462101
 20
32.6068070213
  0
LWPOLYLINE
  5
241
100
AcDbEntity
  8
0
100
AcDbPolyline
 62
7
  6
BYLAYER
 90
8
 70
0
 10
33.3266175231
 20
31.5800810875
 10
30.0041241673
 20
30.1647488424
 10
26.1144200585
 20
29.3791728468
 10
21.9890978219
 20
29.2901093077
 10
18.008198729
 20
29.9058818272
 10
14.5176198716
 20
31.171262922
 10
13.0549887836
 20
32.0148688303
 10
12.3264277216
 20
32.6833236696
  0
LWPOLYLINE
  5
242
100
AcDbEntity
  8
0
100
AcDbPolyline
 62
7
  6
BYLAYER
 90
3
 70
0
 10
35.558649802
 20
33.037013351
 10
31.417448613
 20
31.4514219565
 10
26.6947471363
 20
30.5736427864
  0
LINE
  5
243
100
AcDbEntity
  8
0
100
AcDbLine
 62
7
  6
BYLAYER
 10
34.6883994646
 20
32.7038101611
 11
33.4045426508
 21
31.6983924953
  0
LINE
  5
244
100
AcDbEntity
  8
0
100
AcDbLine
 62
7
  6
BYLAYER
 10
34.831542134
 20
32.7586169127
 11
33.4323508767
 21
31.6628829396
  0
LINE
  5
245
100
AcDbEntity
  8
0
100
AcDbLine
 62
7
  6
BYLAYER
 10
33.5264357767
 20
31.5426186705
 11
35.318885734
 21
32.9452120051
  0
LINE
  5
246
100
AcDbEntity
  8
0
100
AcDbLine
 62
7
  6
BYLAYER
 10
35.5121483199
 20
33.0964401125
 11
35.9563618985
 21
33.4440375459
  0
LINE
  5
247
100
AcDbEntity
  8
0
100
AcDbLine
 62
7
  6
BYLAYER
 10
33.5404036189
 20
31.3750041781
 11
36.0436692994
 21
33.3332525184
  0
LWPOLYLINE
  5
248
100
AcDbEntity
  8
0
100
AcDbPolyline
 62
7
  6
BYLAYER
 90
3
 70
0
 10
36.4132945313
 20
34.7786923458
 10
39.5185443145
 20
37.1736017544
 10
41.3293367912
 20
39.976588144
  0
LINE
  5
249
100
AcDbEntity
  8
0
100
AcDbLine
 62
7
  6
BYLAYER
 10
31.5790049644
 20
20.0276401198
 11
31.5790049645
 21
16.4780331007
  0
LINE
  5
24A
100
AcDbEntity
  8
0
100
AcDbLine
 62
7
  6
BYLAYER
 10
31.8268225231
 20
16.7690552308
 11
31.8268225231
 21
19.5451634491
  0
LINE
  5
24B
100
AcDbEntity
  8
0
100
AcDbLine
 62
7
  6
BYLAYER
 10
32.7515042993
 20
19.011310254
 11
32.7515042993
 21
16.2352020358
  0
LINE
  5
24C
100
AcDbEntity
  8
0
100
AcDbLine
 62
7
  6
BYLAYER
 10
37.1672505468
 20
33.9657397999
 11
36.496472166
 21
34.3530052924
  0
LINE
  5
24D
100
AcDbEntity
  8
0
100
AcDbLine
 62
7
  6
BYLAYER
 10
32.8745450616
 20
21.1448307701
 11
32.8745450616
 21
27.5490446665
  0
LINE
  5
24E
100
AcDbEntity
  8
0
100
AcDbLine
 62
7
  6
BYLAYER
 10
33.2448992292
 20
27.7068078234
 11
33.2448992292
 21
20.931011529
  0
LINE
  5
24F
100
AcDbEntity
  8
0
100
AcDbLine
 62
7
  6
BYLAYER
 10
33.5605178481
 20
16.3202254327
 11
33.5605178481
 21
19.0963336509
  0
LINE
  5
250
100
AcDbEntity
  8
0
100
AcDbLine
 62
7
  6
BYLAYER
 10
34.4370420284
 20
18.0720072053
 11
34.4370420284
 21
20.8481154235
  0
LINE
  5
251
100
AcDbEntity
  8
0
100
AcDbLine
 62
7
  6
BYLAYER
 10
34.4370420284
 20
23.0526719498
 11
34.4370420284
 21
28.5527710222
  0
LINE
  5
252
100
AcDbEntity
  8
0
100
AcDbLine
 62
7
  6
BYLAYER
 10
34.4407991177
 20
18.1035849939
 11
34.4407991177
 21
20.8796932122
  0
LINE
  5
253
100
AcDbEntity
  8
0
100
AcDbLine
 62
7
  6
BYLAYER
 10
34.4407991177
 20
23.0842497384
 11
34.4407991177
 21
28.5557133006
  0
LINE
  5
254
100
AcDbEntity
  8
0
100
AcDbLine
 62
7
  6
BYLAYER
 10
36.2018934291
 20
34.1974524367
 11
35.8486330502
 21
33.6124156466
  0
LINE
  5
255
100
AcDbEntity
  8
0
100
AcDbLine
 62
7
  6
BYLAYER
 10
36.360150809
 20
34.4317087195
 11
36.3111102456
 21
34.3504926996
  0
LWPOLYLINE
  5
256
100
AcDbEntity
  8
0
100
AcDbPolyline
 62
7
  6
BYLAYER
 90
3
 70
0
 10
36.2246326042
 20
34.2072771783
 10
35.8805135301
 20
33.6373819803
 10
35.5602161829
 20
33.3865497942
  0
LINE
  5
257
100
AcDbEntity
  8
0
100
AcDbLine
 62
7
  6
BYLAYER
 10
35.9563618985
 20
33.4440375459
 11
36.5164041209
 21
34.3683930642
  0
LINE
  5
258
100
AcDbEntity
  8
0
100
AcDbLine
 62
7
  6
BYLAYER
 10
36.0436692994
 20
33.3332525184
 11
36.6188805972
 21
34.2823343185
  0
LINE
  5
259
100
AcDbEntity
  8
0
100
AcDbLine
 62
7
  6
BYLAYER
 10
35.55861577
 20
33.0369878911
 11
35.5623441398
 21
33.8513377817
  0
LINE
  5
25A
100
AcDbEntity
  8
0
100
AcDbLine
 62
7
  6
BYLAYER
 10
34.4407050738
 20
23.0842498185
 11
34.4370420284
 21
23.0526719498
  0
LINE
  5
25B
100
AcDbEntity
  8
0
100
AcDbLine
 62
7
  6
BYLAYER
 10
34.4370420284
 20
20.8481154235
 11
34.4407050738
 21
20.8796932923
  0
LINE
  5
25C
100
AcDbEntity
  8
0
100
AcDbLine
 62
7
  6
BYLAYER
 10
34.4407050738
 20
18.103585074
 11
34.4370420284
 21
18.0720072053
  0
LINE
  5
25D
100
AcDbEntity
  8
0
100
AcDbLine
 62
7
  6
BYLAYER
 10
22.956167196
 20
17.8683599784
 11
22.4901550415
 21
17.5993093416
  0
LINE
  5
25E
100
AcDbEntity
  8
0
100
AcDbLine
 62
7
  6
BYLAYER
 10
37.1709869012
 20
34.7800853821
 11
37.1672585311
 21
33.9657354918
  0
LINE
  5
25F
100
AcDbEntity
  8
0
100
AcDbLine
 62
7
  6
BYLAYER
 10
37.6824976088
 20
34.2629014146
 11
37.6644482491
 21
33.8505210811
  0
LINE
  5
260
100
AcDbEntity
  8
0
100
AcDbLine
 62
7
  6
BYLAYER
 10
24.3785781356
 20
16.485027889
 11
23.0841374002
 21
15.7376866429
  0
LWPOLYLINE
  5
261
100
AcDbEntity
  8
0
100
AcDbPolyline
 62
7
  6
BYLAYER
 90
4
 70
0
 10
41.7371834656
 20
41.677618945
 10
41.3332527983
 20
39.497116437
 10
39.5268817482
 20
36.6925275006
 10
36.4132945313
 20
34.2887908956
  0
LINE
  5
262
100
AcDbEntity
  8
0
100
AcDbLine
 62
7
  6
BYLAYER
 10
41.3293367912
 20
39.976588144
 11
41.6571869844
 21
41.7372003007
  0
LINE
  5
263
100
AcDbEntity
  8
0
100
AcDbLine
 62
7
  6
BYLAYER
 10
41.745361985
 20
41.7208138316
 11
41.745361985
 21
42.2107152819
  0
LINE
  5
264
100
AcDbEntity
  8
0
100
AcDbLine
 62
7
  6
BYLAYER
 10
24.3785781356
 20
13.7089196707
 11
23.0841374002
 21
12.9615784247
  0
LINE
  5
265
100
AcDbEntity
  8
0
100
AcDbLine
 62
7
  6
BYLAYER
 10
27.8054282231
 20
14.2993705581
 11
28.631560838
 21
14.7763355986
  0
LINE
  5
266
100
AcDbEntity
  8
0
100
AcDbLine
 62
7
  6
BYLAYER
 10
30.7528723496
 20
16.0010680602
 11
31.5790049645
 21
16.4780331007
  0
ARC
  5
267
100
AcDbEntity
  8
0
100
AcDbCircle
 62
7
  6
BYLAYER
 10
5.1957413981
 20
36.6944646753
 40
32.5930211893
100
AcDbArc
 50
353.5366691276
 51
354.9941933951
  0
ARC
  5
268
100
AcDbEntity
  8
0
100
AcDbCircle
 62
7
  6
BYLAYER
 10
41.884982572
 20
36.6944646753
 40
32.5930211893
100
AcDbArc
 50
185.0058066049
 51
186.4633308724
  0
ARC
  5
269
100
AcDbEntity
  8
0
100
AcDbCircle
 62
7
  6
BYLAYER
 10
27.6761278866
 20
49.9151438768
 40
17.4771349462
100
AcDbArc
 50
298.8748163974
 51
299.9946973242
  0
ARC
  5
26A
100
AcDbEntity
  8
0
100
AcDbCircle
 62
7
  6
BYLAYER
 10
19.263347633
 20
35.4070966435
 40
16.6263903838
100
AcDbArc
 50
119.9995189669
 51
120.5371270512
  0
ARC
  5
26B
100
AcDbEntity
  8
0
100
AcDbCircle
 62
7
  6
BYLAYER
 10
23.5903719363
 20
28.7592640358
 40
15.0709699263
100
AcDbArc
 50
272.9979159898
 51
279.7506640106
  0
ARC
  5
26C
100
AcDbEntity
  8
0
100
AcDbCircle
 62
7
  6
BYLAYER
 10
23.5853563492
 20
27.5856705718
 40
14.762074517
100
AcDbArc
 50
272.4350221985
 51
279.8826080563
  0
ARC
  5
26D
100
AcDbEntity
  8
0
100
AcDbCircle
 62
7
  6
BYLAYER
 10
26.905490286
 20
42.8665724343
 40
13.1274821762
100
AcDbArc
 50
299.9995872066
 51
300.3393551327
  0
ARC
  5
26E
100
AcDbEntity
  8
0
100
AcDbCircle
 62
7
  6
BYLAYER
 10
26.8935365087
 20
42.7232027344
 40
12.8667669356
100
AcDbArc
 50
299.9984448308
 51
300.6381457101
  0
ARC
  5
26F
100
AcDbEntity
  8
0
100
AcDbCircle
 62
7
  6
BYLAYER
 10
21.2793295206
 20
25.231976808
 40
8.3485977474
100
AcDbArc
 50
237.9541809065
 51
240.0054394652
  0
ARC
  5
270
100
AcDbEntity
  8
0
100
AcDbCircle
 62
7
  6
BYLAYER
 10
29.9035725999
 20
38.8705883208
 40
7.960590858
100
AcDbArc
 50
315.7379287602
 51
318.5888799601
  0
ARC
  5
271
100
AcDbEntity
  8
0
100
AcDbCircle
 62
7
  6
BYLAYER
 10
11.5002539384
 20
41.7290070965
 40
6.1652757714
100
AcDbArc
 50
187.1503481547
 51
187.9126741691
  0
ARC
  5
272
100
AcDbEntity
  8
0
100
AcDbCircle
 62
7
  6
BYLAYER
 10
11.4411641017
 20
41.7220905295
 40
6.1057845708
100
AcDbArc
 50
180.3948987366
 51
187.1549681849
  0
ARC
  5
273
100
AcDbEntity
  8
0
100
AcDbCircle
 62
7
  6
BYLAYER
 10
35.6601380596
 20
42.2109785642
 40
6.0852044577
100
AcDbArc
 50
355.5174224208
 51
359.9975210423
  0
ARC
  5
274
100
AcDbEntity
  8
0
100
AcDbCircle
 62
7
  6
BYLAYER
 10
11.4158477372
 20
42.2107853321
 40
6.0804662791
100
AcDbArc
 50
180.0006600776
 51
184.6070924285
  0
ARC
  5
275
100
AcDbEntity
  8
0
100
AcDbCircle
 62
7
  6
BYLAYER
 10
11.4087614475
 20
41.7208296307
 40
6.0733740845
100
AcDbArc
 50
180.0001490184
 51
180.3851106356
  0
ARC
  5
276
100
AcDbEntity
  8
0
100
AcDbCircle
 62
7
  6
BYLAYER
 10
35.6719798446
 20
41.720798436
 40
6.0733567624
100
AcDbArc
 50
359.5924642261
 51
0.0001452125
  0
ARC
  5
277
100
AcDbEntity
  8
0
100
AcDbCircle
 62
7
  6
BYLAYER
 10
32.6447780154
 20
34.3199613659
 40
5.0433211907
100
AcDbArc
 50
344.5783976405
 51
345.2601856644
  0
ARC
  5
278
100
AcDbEntity
  8
0
100
AcDbCircle
 62
7
  6
BYLAYER
 10
27.9567328935
 20
19.8135743923
 40
4.9240928774
100
AcDbArc
 50
317.35981798
 51
321.8086052383
  0
ARC
  5
279
100
AcDbEntity
  8
0
100
AcDbCircle
 62
7
  6
BYLAYER
 10
14.2787261989
 20
34.2816220905
 40
4.8815074349
100
AcDbArc
 50
185.0665627457
 51
194.4889052856
  0
ARC
  5
27A
100
AcDbEntity
  8
0
100
AcDbCircle
 62
7
  6
BYLAYER
 10
32.8397292883
 20
34.2749763818
 40
4.8433438398
100
AcDbArc
 50
345.188060828
 51
354.9723342956
  0
SPLINE
  5
27B
100
AcDbEntity
  8
0
100
AcDbSpline
 62
7
  6
BYLAYER
 70
0
 71
3
 72
23
 73
19
 74
0
 42
0.0000001
 43
0.0000001
 44
0.0000000001
 40
0.0
 40
0.0
 40
0.0
 40
0.0
 40
0.078314438
 40
0.155844064
 40
0.2321488884
 40
0.3068115201
 40
0.3794467166
 40
0.4497095053
 40
0.5173063668
 40
0.5820081345
 40
0.6436612213
 40
0.7022031213
 40
0.7576803687
 40
0.8102632124
 40
0.8602607866
 40
0.9081307989
 40
0.9544723142
 40
1.0
 40
1.0
 40
1.0
 40
1.0
 10
22.3149013567
 20
30.4382407814
 30
0.0
 10
21.7503740483
 20
30.4602669541
 30
0.0
 10
20.6279158591
 20
30.5344989659
 30
0.0
 10
18.964620042
 20
30.7366283595
 30
0.0
 10
17.3411921489
 20
31.0275144516
 30
0.0
 10
15.7718413331
 20
31.4046089595
 30
0.0
 10
14.2701993641
 20
31.8646115558
 30
0.0
 10
12.8493298213
 20
32.4035776563
 30
0.0
 10
11.5215682434
 20
33.0168863599
 30
0.0
 10
10.2983995498
 20
33.6992653939
 30
0.0
 10
9.1904263061
 20
34.4449731426
 30
0.0
 10
8.2072958174
 20
35.2478133329
 30
0.0
 10
7.3576013524
 20
36.1011255308
 30
0.0
 10
6.6489895223
 20
36.9979636226
 30
0.0
 10
6.0882069249
 20
37.9309791934
 30
0.0
 10
5.6809547895
 20
38.8923708108
 30
0.0
 10
5.4318539415
 20
39.8732345065
 30
0.0
 10
5.3732202336
 20
40.5368253922
 30
0.0
 10
5.3710914446
 20
40.8652531764
 30
0.0
  0
SPLINE
  5
27C
100
AcDbEntity
  8
0
100
AcDbSpline
 62
7
  6
BYLAYER
 70
0
 71
3
 72
11
 73
7
 74
0
 42
0.0000001
 43
0.0000001
 44
0.0000000001
 40
0.0
 40
0.0
 40
0.0
 40
0.0
 40
0.217936128
 40
0.4510361888
 40
0.7105002519
 40
1.0
 40
1.0
 40
1.0
 40
1.0
 10
34.440775755
 20
20.8796933034
 30
0.0
 10
34.4407685268
 20
20.8949392709
 30
0.0
 10
34.4351834606
 20
20.9267094866
 30
0.0
 10
34.4110763934
 20
20.9709638764
 30
0.0
 10
34.373002135
 20
21.0109206918
 30
0.0
 10
34.3411797438
 20
21.0328649038
 30
0.0
 10
34.3236406526
 20
21.0429908737
 30
0.0
  0
SPLINE
  5
27D
100
AcDbEntity
  8
0
100
AcDbSpline
 62
7
  6
BYLAYER
 70
0
 71
3
 72
15
 73
11
 74
0
 42
0.0000001
 43
0.0000001
 44
0.0000000001
 40
0.0
 40
0.0
 40
0.0
 40
0.0
 40
0.1486015897
 40
0.2894927006
 40
0.4227160155
 40
0.5486375051
 40
0.667997403
 40
0.7819364426
 40
0.8919864435
 40
1.0
 40
1.0
 40
1.0
 40
1.0
 10
14.8075568795
 20
47.6199146879
 30
0.0
 10
14.528991541
 20
47.4590858831
 30
0.0
 10
13.9988890249
 20
47.123125062
 30
0.0
 10
13.2742011651
 20
46.5621526536
 30
0.0
 10
12.6473660642
 20
45.9621821246
 30
0.0
 10
12.1246188536
 20
45.3285848388
 30
0.0
 10
11.7113430167
 20
44.6670258543
 30
0.0
 10
11.4121964055
 20
43.983491361
 30
0.0
 10
11.2309691091
 20
43.2849081685
 30
0.0
 10
11.1903610041
 20
42.8119446508
 30
0.0
 10
11.190362591
 20
42.5781413696
 30
0.0
  0
SPLINE
  5
27E
100
AcDbEntity
  8
0
100
AcDbSpline
 62
7
  6
BYLAYER
 70
0
 71
3
 72
15
 73
11
 74
0
 42
0.0000001
 43
0.0000001
 44
0.0000000001
 40
0.0
 40
0.0
 40
0.0
 40
0.0
 40
0.1077038742
 40
0.21825844
 40
0.3330706552
 40
0.4532721857
 40
0.579670289
 40
0.7128005013
 40
0.8529491301
 40
1.0
 40
1.0
 40
1.0
 40
1.0
 10
37.5815917126
 20
33.0255565378
 30
0.0
 10
37.5538203731
 20
32.7805276895
 30
0.0
 10
37.458542739
 20
32.287626096
 30
0.0
 10
37.202910695
 20
31.5664672473
 30
0.0
 10
36.8361756865
 20
30.8626644836
 30
0.0
 10
36.3618106794
 20
30.1821494428
 30
0.0
 10
35.7842269816
 20
29.5299568084
 30
0.0
 10
35.1081078676
 20
28.9110514956
 30
0.0
 10
34.3391299029
 20
28.3303293663
 30
0.0
 10
33.7818549342
 20
27.9796776878
 30
0.0
 10
33.4902768656
 20
27.8113335826
 30
0.0
  0
SPLINE
  5
27F
100
AcDbEntity
  8
0
100
AcDbSpline
 62
7
  6
BYLAYER
 70
0
 71
3
 72
11
 73
7
 74
0
 42
0.0000001
 43
0.0000001
 44
0.0000000001
 40
0.0
 40
0.0
 40
0.0
 40
0.0
 40
0.2399485068
 40
0.4841231985
 40
0.7363938358
 40
1.0
 40
1.0
 40
1.0
 40
1.0
 10
35.8903610488
 20
42.5781413696
 30
0.0
 10
35.8903623344
 20
42.8039349648
 30
0.0
 10
35.852540444
 20
43.2603512706
 30
0.0
 10
35.6836083475
 20
43.9352767188
 30
0.0
 10
35.4046061748
 20
44.5966168616
 30
0.0
 10
35.1535107761
 20
45.0140945438
 30
0.0
 10
35.0125778755
 20
45.2182256892
 30
0.0
  0
SPLINE
  5
280
100
AcDbEntity
  8
0
100
AcDbSpline
 62
7
  6
BYLAYER
 70
0
 71
3
 72
23
 73
19
 74
0
 42
0.0000001
 43
0.0000001
 44
0.0000000001
 40
0.0
 40
0.0
 40
0.0
 40
0.0
 40
0.0471348229
 40
0.0977376105
 40
0.1519765359
 40
0.2097882326
 40
0.2709218214
 40
0.3349781783
 40
0.4014438034
 40
0.4697195933
 40
0.5391466883
 40
0.6090298464
 40
0.6786597949
 40
0.7473350133
 40
0.8143839388
 40
0.8791875255
 40
0.9412044487
 40
1.0
 40
1.0
 40
1.0
 40
1.0
 10
35.0125778755
 20
45.2182256892
 30
0.0
 10
34.8178077231
 20
45.5003362121
 30
0.0
 10
34.3626167938
 20
46.0508820303
 30
0.0
 10
33.5397389857
 20
46.7935253514
 30
0.0
 10
32.5665880226
 20
47.471065141
 30
0.0
 10
31.4580020234
 20
48.0737206775
 30
0.0
 10
30.2304238691
 20
48.5929971455
 30
0.0
 10
28.9021923621
 20
49.0212927621
 30
0.0
 10
27.4931908975
 20
49.3522711724
 30
0.0
 10
26.0245935549
 20
49.5809913779
 30
0.0
 10
24.5185185787
 20
49.7040144484
 30
0.0
 10
22.9976821292
 20
49.7194866128
 30
0.0
 10
21.4850363885
 20
49.6271780648
 30
0.0
 10
20.0033979681
 20
49.4284725405
 30
0.0
 10
18.5751100903
 20
49.1263740275
 30
0.0
 10
17.2216021544
 20
48.725369359
 30
0.0
 10
15.9633569371
 20
48.2315280168
 30
0.0
 10
15.1778903931
 20
47.8337255543
 30
0.0
 10
14.8075568795
 20
47.6199146879
 30
0.0
  0
SPLINE
  5
281
100
AcDbEntity
  8
0
100
AcDbSpline
 62
7
  6
BYLAYER
 70
0
 71
3
 72
15
 73
11
 74
0
 42
0.0000001
 43
0.0000001
 44
0.0000000001
 40
0.0
 40
0.0
 40
0.0
 40
0.0
 40
0.1099702315
 40
0.2216652622
 40
0.3367167192
 40
0.4565069983
 40
0.5821341356
 40
0.7143496382
 40
0.8536227661
 40
1.0
 40
1.0
 40
1.0
 40
1.0
 10
5.335361985
 20
42.2107152819
 30
0.0
 10
5.335361985
 20
42.5692381279
 30
0.0
 10
5.3972973155
 20
43.2933559589
 30
0.0
 10
5.6731867825
 20
44.3606860956
 30
0.0
 10
6.1266010682
 20
45.4003211388
 30
0.0
 10
6.7499269083
 20
46.401008662
 30
0.0
 10
7.5343675303
 20
47.3540089356
 30
0.0
 10
8.4707525868
 20
48.2519523035
 30
0.0
 10
9.5492971605
 20
49.0877411051
 30
0.0
 10
10.3369922038
 20
49.5872455332
 30
0.0
 10
10.7502742242
 20
49.8258525946
 30
0.0
  0
SPLINE
  5
282
100
AcDbEntity
  8
0
100
AcDbSpline
 62
7
  6
BYLAYER
 70
0
 71
3
 72
34
 73
30
 74
0
 42
0.0000001
 43
0.0000001
 44
0.0000000001
 40
0.0
 40
0.0
 40
0.0
 40
0.0
 40
0.0306356701
 40
0.0622972233
 40
0.0948992857
 40
0.1283676635
 40
0.1626222654
 40
0.197562617
 40
0.2690367937
 40
0.3418606698
 40
0.4150184606
 40
0.4874782236
 40
0.5582418339
 40
0.5927072918
 40
0.6264171078
 40
0.6592788065
 40
0.6912143432
 40
0.7221583643
 40
0.7520645646
 40
0.7809038913
 40
0.808671036
 40
0.8353831819
 40
0.8610848509
 40
0.8858480388
 40
0.9097730119
 40
0.9329892059
 40
0.9556464681
 40
0.9779191155
 40
1.0
 40
1.0
 40
1.0
 40
1.0
 10
10.7502742242
 20
49.8258525946
 30
0.0
 10
11.0719215392
 20
50.01155465
 30
0.0
 10
11.7383914622
 20
50.3680309702
 30
0.0
 10
12.7837320519
 20
50.8499636393
 30
0.0
 10
13.8862243108
 20
51.2855571896
 30
0.0
 10
15.0397877318
 20
51.6726990978
 30
0.0
 10
16.2385156432
 20
52.0094524001
 30
0.0
 10
17.9009761053
 20
52.3920041537
 30
0.0
 10
20.0504395307
 20
52.7317903119
 30
0.0
 10
22.6833860277
 20
52.9161365471
 30
0.0
 10
25.3345615756
 20
52.8763918156
 30
0.0
 10
27.9477652725
 20
52.6133767059
 30
0.0
 10
30.0670178562
 20
52.2090468602
 30
0.0
 10
31.6954460624
 20
51.7762551179
 30
0.0
 10
32.8628636633
 20
51.403646539
 30
0.0
 10
33.9807681425
 20
50.981973893
 30
0.0
 10
35.0433715002
 20
50.5134341551
 30
0.0
 10
36.0450694816
 20
50.0001509988
 30
0.0
 10
36.9806953888
 20
49.444682774
 30
0.0
 10
37.8452871547
 20
48.8494628061
 30
0.0
 10
38.6343384036
 20
48.2172922343
 30
0.0
 10
39.3434795231
 20
47.5508515161
 30
0.0
 10
39.9687813185
 20
46.8531719637
 30
0.0
 10
40.5063150351
 20
46.1272599814
 30
0.0
 10
40.9526052953
 20
45.3765787089
 30
0.0
 10
41.3040177002
 20
44.6048561794
 30
0.0
 10
41.5577881214
 20
43.8165545307
 30
0.0
 10
41.7110339614
 20
43.0167246287
 30
0.0
 10
41.745361985
 20
42.4784087249
 30
0.0
 10
41.745361985
 20
42.2107152819
 30
0.0
  0
SPLINE
  5
283
100
AcDbEntity
  8
0
100
AcDbSpline
 62
7
  6
BYLAYER
 70
0
 71
3
 72
17
 73
13
 74
0
 42
0.0000001
 43
0.0000001
 44
0.0000000001
 40
0.0
 40
0.0
 40
0.0
 40
0.0
 40
0.0548321749
 40
0.1099031515
 40
0.2215342906
 40
0.3365764154
 40
0.4563913195
 40
0.5184596203
 40
0.5820884892
 40
0.7143052161
 40
0.8535805017
 40
1.0
 40
1.0
 40
1.0
 40
1.0
 10
41.7096352125
 20
40.865253154
 30
0.0
 10
41.7086268346
 20
40.7080260901
 30
0.0
 10
41.694295739
 20
40.3928141817
 30
0.0
 10
41.6162742787
 20
39.7618701962
 30
0.0
 10
41.4245109217
 20
38.9735890516
 30
0.0
 10
41.0497849091
 20
38.0499852736
 30
0.0
 10
40.6242815114
 20
37.3095126553
 30
0.0
 10
40.2186596513
 20
36.7337058996
 30
0.0
 10
39.7575342924
 20
36.1550050775
 30
0.0
 10
39.0953389521
 20
35.455822441
 30
0.0
 10
38.1862487632
 20
34.6724401512
 30
0.0
 10
37.5185328667
 20
34.1956946564
 30
0.0
 10
37.1672505468
 20
33.9657397999
 30
0.0
  0
SPLINE
  5
284
100
AcDbEntity
  8
0
100
AcDbSpline
 62
7
  6
BYLAYER
 70
0
 71
3
 72
11
 73
7
 74
0
 42
0.0000001
 43
0.0000001
 44
0.0000000001
 40
0.0
 40
0.0
 40
0.0
 40
0.0
 40
0.2895864627
 40
0.548979056
 40
0.7821188389
 40
1.0
 40
1.0
 40
1.0
 40
1.0
 10
13.1846012481
 20
21.4530572062
 30
0.0
 10
13.1670570601
 20
21.442928125
 30
0.0
 10
13.1352290645
 20
21.4209902238
 30
0.0
 10
13.0971593467
 20
21.3810208968
 30
0.0
 10
13.0730717655
 20
21.3367667222
 30
0.0
 10
13.0674668267
 20
21.3050029459
 30
0.0
 10
13.0674547398
 20
21.2897608994
 30
0.0
  0
SPLINE
  5
285
100
AcDbEntity
  8
0
100
AcDbSpline
 62
7
  6
BYLAYER
 70
0
 71
3
 72
26
 73
22
 74
0
 42
0.0000001
 43
0.0000001
 44
0.0000000001
 40
0.0
 40
0.0
 40
0.0
 40
0.0
 40
0.061761147
 40
0.1273512348
 40
0.1961176735
 40
0.2672563144
 40
0.3398535736
 40
0.4129342633
 40
0.4855025535
 40
0.5565843435
 40
0.6252689755
 40
0.6907541633
 40
0.752396354
 40
0.8097698399
 40
0.8627373925
 40
0.8876498367
 40
0.9115842668
 40
0.9346416391
 40
0.956952044
 40
0.978676334
 40
1.0
 40
1.0
 40
1.0
 40
1.0
 10
33.4902768656
 20
27.8113335826
 30
0.0
 10
32.9991775899
 20
27.527803075
 30
0.0
 10
31.9485874924
 20
27.0073854091
 30
0.0
 10
30.2556908075
 20
26.3853626846
 30
0.0
 10
28.4273760464
 20
25.9081941442
 30
0.0
 10
26.5006598955
 20
25.5855063588
 30
0.0
 10
24.5141904159
 20
25.4237363209
 30
0.0
 10
22.5080709372
 20
25.4261411901
 30
0.0
 10
20.5227878171
 20
25.5926773145
 30
0.0
 10
18.5983889687
 20
25.9199846925
 30
0.0
 10
16.7735851508
 20
26.4015150932
 30
0.0
 10
15.0849645913
 20
27.0276903984
 30
0.0
 10
13.566090236
 20
27.7864103266
 30
0.0
 10
12.2473771896
 20
28.6629895527
 30
0.0
 10
11.318261866
 20
29.4956179
 30
0.0
 10
10.7082224501
 20
30.2054518378
 30
0.0
 10
10.3255562893
 20
30.744718134
 30
0.0
 10
10.010470476
 20
31.2988461946
 30
0.0
 10
9.764861082
 20
31.8651886321
 30
0.0
 10
9.590101304
 20
32.4406408903
 30
0.0
 10
9.5211721423
 20
32.8310138644
 30
0.0
 10
9.4991392333
 20
33.0255567736
 30
0.0
  0
SPLINE
  5
286
100
AcDbEntity
  8
0
100
AcDbSpline
 62
7
  6
BYLAYER
 70
0
 71
3
 72
11
 73
7
 74
0
 42
0.0000001
 43
0.0000001
 44
0.0000000001
 40
0.0
 40
0.0
 40
0.0
 40
0.0
 40
0.2615423912
 40
0.5142722237
 40
0.7597900919
 40
1.0
 40
1.0
 40
1.0
 40
1.0
 10
13.3172046125
 20
21.5768070318
 30
0.0
 10
13.2234233496
 20
21.7131280325
 30
0.0
 10
13.0515291299
 20
21.99010489
 30
0.0
 10
12.8411905101
 20
22.4233165781
 30
0.0
 10
12.6843672232
 20
22.8644094829
 30
0.0
 10
12.6155255368
 20
23.1647667385
 30
0.0
 10
12.5906188894
 20
23.3146799048
 30
0.0
  0
SPLINE
  5
287
100
AcDbEntity
  8
0
100
AcDbSpline
 62
7
  6
BYLAYER
 70
0
 71
3
 72
11
 73
7
 74
0
 42
0.0000001
 43
0.0000001
 44
0.0000000001
 40
0.0
 40
0.0
 40
0.0
 40
0.0
 40
0.274852825
 40
0.5340802002
 40
0.7759958269
 40
1.0
 40
1.0
 40
1.0
 40
1.0
 10
18.4283999929
 20
18.6259237609
 30
0.0
 10
18.015830664
 20
18.7586857195
 30
0.0
 10
17.225359238
 20
19.0538131689
 30
0.0
 10
16.1278044933
 20
19.6004318218
 30
0.0
 10
15.1695248595
 20
20.2295162697
 30
0.0
 10
14.6141612108
 20
20.7155458321
 30
0.0
 10
14.3688264654
 20
20.9696666073
 30
0.0
  0
SPLINE
  5
288
100
AcDbEntity
  8
0
100
AcDbSpline
 62
7
  6
BYLAYER
 70
0
 71
3
 72
9
 73
5
 74
0
 42
0.0000001
 43
0.0000001
 44
0.0000000001
 40
0.0
 40
0.0
 40
0.0
 40
0.0
 40
0.5055723827
 40
1.0
 40
1.0
 40
1.0
 40
1.0
 10
22.4901550415
 20
17.5993093416
 30
0.0
 10
21.9782971774
 20
17.6276528203
 30
0.0
 10
20.9676942519
 20
17.7248647966
 30
0.0
 10
19.9686810357
 20
17.906732483
 30
0.0
 10
19.4800218458
 20
18.0187833364
 30
0.0
  0
SPLINE
  5
289
100
AcDbEntity
  8
0
100
AcDbSpline
 62
7
  6
BYLAYER
 70
0
 71
3
 72
14
 73
10
 74
0
 42
0.0000001
 43
0.0000001
 44
0.0000000001
 40
0.0
 40
0.0
 40
0.0
 40
0.0
 40
0.1113576105
 40
0.2280437369
 40
0.3494496693
 40
0.4749091251
 40
0.6036130076
 40
0.7346703066
 40
1.0
 40
1.0
 40
1.0
 40
1.0
 10
30.9650140991
 20
19.6345332157
 30
0.0
 10
30.6982299631
 20
19.4805062424
 30
0.0
 10
30.136979849
 20
19.1904048812
 30
0.0
 10
29.2438752297
 20
18.8180269198
 30
0.0
 10
28.2882611803
 20
18.5016693826
 30
0.0
 10
27.2807662373
 20
18.2447458593
 30
0.0
 10
26.2322251434
 20
18.0500738885
 30
0.0
 10
24.7894966067
 20
17.8756663419
 30
0.0
 10
23.6897852953
 20
17.8447581954
 30
0.0
 10
22.956167196
 20
17.8683599784
 30
0.0
  0
SPLINE
  5
28A
100
AcDbEntity
  8
0
100
AcDbSpline
 62
7
  6
BYLAYER
 70
0
 71
3
 72
10
 73
6
 74
0
 42
0.0000001
 43
0.0000001
 44
0.0000000001
 40
0.0
 40
0.0
 40
0.0
 40
0.0
 40
0.478178244
 40
0.733699698
 40
1.0
 40
1.0
 40
1.0
 40
1.0
 10
32.8745450616
 20
21.1448307701
 30
0.0
 10
32.6152799345
 20
20.8542738339
 30
0.0
 10
32.1729218371
 20
20.4468325589
 30
0.0
 10
31.5140831681
 20
19.967661574
 30
0.0
 10
31.1528257388
 20
19.7429656692
 30
0.0
 10
30.9650140991
 20
19.6345332157
 30
0.0
  0
SPLINE
  5
28B
100
AcDbEntity
  8
0
100
AcDbSpline
 62
7
  6
BYLAYER
 70
0
 71
3
 72
11
 73
7
 74
0
 42
0.0000001
 43
0.0000001
 44
0.0000000001
 40
0.0
 40
0.0
 40
0.0
 40
0.0
 40
0.2351758019
 40
0.478711047
 40
0.7330482634
 40
1.0
 40
1.0
 40
1.0
 40
1.0
 10
34.4370420284
 20
23.0526719498
 30
0.0
 10
34.3922213587
 20
22.865205109
 30
0.0
 10
34.2722007919
 20
22.4899739222
 30
0.0
 10
34.010662809
 20
21.9471768848
 30
0.0
 10
33.6675276379
 20
21.4207352095
 30
0.0
 10
33.39341338
 20
21.0916799781
 30
0.0
 10
33.2448992292
 20
20.931011529
 30
0.0
  0
SPLINE
  5
28C
100
AcDbEntity
  8
0
100
AcDbSpline
 62
7
  6
BYLAYER
 70
0
 71
3
 72
11
 73
7
 74
0
 42
0.0000001
 43
0.0000001
 44
0.0000000001
 40
0.0
 40
0.0
 40
0.0
 40
0.0
 40
0.2701909498
 40
0.5247898326
 40
0.7667046769
 40
1.0
 40
1.0
 40
1.0
 40
1.0
 10
14.3688264654
 20
15.9890018628
 30
0.0
 10
14.1892188308
 20
16.1750416806
 30
0.0
 10
13.8621844067
 20
16.5585905778
 30
0.0
 10
13.4698971709
 20
17.1820663999
 30
0.0
 10
13.1971326341
 20
17.8285861099
 30
0.0
 10
13.0966701543
 20
18.2752537859
 30
0.0
 10
13.0685177383
 20
18.4967519453
 30
0.0
  0
SPLINE
  5
28D
100
AcDbEntity
  8
0
100
AcDbSpline
 62
7
  6
BYLAYER
 70
0
 71
3
 72
11
 73
7
 74
0
 42
0.0000001
 43
0.0000001
 44
0.0000000001
 40
0.0
 40
0.0
 40
0.0
 40
0.0
 40
0.2569193075
 40
0.5105143428
 40
0.758815317
 40
1.0
 40
1.0
 40
1.0
 40
1.0
 10
22.7720234715
 20
12.8945570367
 30
0.0
 10
22.3938083038
 20
12.9105784664
 30
0.0
 10
21.6430506462
 20
12.9660132403
 30
0.0
 10
20.5347978576
 20
13.1195095472
 30
0.0
 10
19.4618264825
 20
13.3414229101
 30
0.0
 10
18.766686802
 20
13.5364006593
 30
0.0
 10
18.4283999929
 20
13.6452590164
 30
0.0
  0
SPLINE
  5
28E
100
AcDbEntity
  8
0
100
AcDbSpline
 62
7
  6
BYLAYER
 70
0
 71
3
 72
10
 73
6
 74
0
 42
0.0000001
 43
0.0000001
 44
0.0000000001
 40
0.0
 40
0.0
 40
0.0
 40
0.0
 40
0.2280447872
 40
0.475375742
 40
1.0
 40
1.0
 40
1.0
 40
1.0
 10
23.0841374002
 20
12.9615784247
 30
0.0
 10
23.0628955717
 20
12.9493145225
 30
0.0
 10
23.016085428
 20
12.9280064528
 30
0.0
 10
22.9123844418
 20
12.8985962343
 30
0.0
 10
22.8284001562
 20
12.8921688853
 30
0.0
 10
22.7720234715
 20
12.8945570367
 30
0.0
  0
SPLINE
  5
28F
100
AcDbEntity
  8
0
100
AcDbSpline
 62
7
  6
BYLAYER
 70
0
 71
3
 72
9
 73
5
 74
0
 42
0.0000001
 43
0.0000001
 44
0.0000000001
 40
0.0
 40
0.0
 40
0.0
 40
0.0
 40
0.2450120171
 40
1.0
 40
1.0
 40
1.0
 40
1.0
 10
27.8054282231
 20
14.299370558
 30
0.0
 10
27.6719606442
 20
14.2584865086
 30
0.0
 10
27.1244270162
 20
14.1008321871
 30
0.0
 10
26.5666930852
 20
13.9790463705
 30
0.0
 10
26.1428053529
 20
13.9060078886
 30
0.0
  0
SPLINE
  5
290
100
AcDbEntity
  8
0
100
AcDbSpline
 62
7
  6
BYLAYER
 70
0
 71
3
 72
21
 73
17
 74
0
 42
0.0000001
 43
0.0000001
 44
0.0000000001
 40
0.0
 40
0.0
 40
0.0
 40
0.0
 40
0.0623712763
 40
0.1287903585
 40
0.1984181445
 40
0.2704151951
 40
0.4174568131
 40
0.5616836551
 40
0.6303119063
 40
0.6954257098
 40
0.756398937
 40
0.812860475
 40
0.8647818656
 40
0.912579733
 40
0.9571722565
 40
1.0
 40
1.0
 40
1.0
 40
1.0
 10
28.631560838
 20
14.7763355986
 30
0.0
 10
28.631560838
 20
14.8385250854
 30
0.0
 10
28.6400392781
 20
14.9670217132
 30
0.0
 10
28.6746582632
 20
15.162140021
 30
0.0
 10
28.7310947134
 20
15.3620968214
 30
0.0
 10
28.8343481418
 20
15.6311112472
 30
0.0
 10
29.0076110392
 20
15.9512516148
 30
0.0
 10
29.2297138842
 20
16.2356456466
 30
0.0
 10
29.4295859988
 20
16.4282287946
 30
0.0
 10
29.5827796172
 20
16.5481268126
 30
0.0
 10
29.7384250022
 20
16.6433677893
 30
0.0
 10
29.8934092503
 20
16.7118659146
 30
0.0
 10
30.044636127
 20
16.7520303791
 30
0.0
 10
30.1891335142
 20
16.7627003414
 30
0.0
 10
30.3236899172
 20
16.7429441733
 30
0.0
 10
30.4052213012
 20
16.7090974623
 30
0.0
 10
30.4422004064
 20
16.6877413194
 30
0.0
  0
SPLINE
  5
291
100
AcDbEntity
  8
0
100
AcDbSpline
 62
7
  6
BYLAYER
 70
0
 71
3
 72
13
 73
9
 74
0
 42
0.0000001
 43
0.0000001
 44
0.0000000001
 40
0.0
 40
0.0
 40
0.0
 40
0.0
 40
0.1141757996
 40
0.2375697486
 40
0.4999996443
 40
0.7624297362
 40
0.885823858
 40
1.0
 40
1.0
 40
1.0
 40
1.0
 10
33.4586110805
 20
16.2352037354
 30
0.0
 10
33.4344249523
 20
16.2212399512
 30
0.0
 10
33.3814787543
 20
16.1966152929
 30
0.0
 10
33.2641924638
 20
16.1609315141
 30
0.0
 10
33.1050581393
 20
16.143689303
 30
0.0
 10
32.9459237151
 20
16.1609308274
 30
0.0
 10
32.8286370571
 20
16.1966139908
 30
0.0
 10
32.7756906008
 20
16.221238384
 30
0.0
 10
32.7515042993
 20
16.2352020358
 30
0.0
  0
SPLINE
  5
292
100
AcDbEntity
  8
0
100
AcDbSpline
 62
7
  6
BYLAYER
 70
0
 71
3
 72
9
 73
5
 74
0
 42
0.0000001
 43
0.0000001
 44
0.0000000001
 40
0.0
 40
0.0
 40
0.0
 40
0.0
 40
0.2316671162
 40
1.0
 40
1.0
 40
1.0
 40
1.0
 10
33.5605178481
 20
16.3202254327
 30
0.0
 10
33.55416959
 20
16.3121332487
 30
0.0
 10
33.5246775184
 20
16.2788400029
 30
0.0
 10
33.4881521311
 20
16.2522591671
 30
0.0
 10
33.4586110805
 20
16.2352037354
 30
0.0
  0
SPLINE
  5
293
100
AcDbEntity
  8
0
100
AcDbSpline
 62
7
  6
BYLAYER
 70
0
 71
3
 72
10
 73
6
 74
0
 42
0.0000001
 43
0.0000001
 44
0.0000000001
 40
0.0
 40
0.0
 40
0.0
 40
0.0
 40
0.2387081779
 40
0.4839338561
 40
1.0
 40
1.0
 40
1.0
 40
1.0
 10
34.4370420284
 20
18.0720072053
 30
0.0
 10
34.4005576011
 20
17.9194075147
 30
0.0
 10
34.3076202338
 20
17.614242276
 30
0.0
 10
34.0448506968
 20
17.0106504886
 30
0.0
 10
33.7698844723
 20
16.5871070288
 30
0.0
 10
33.5605178481
 20
16.3202254327
 30
0.0
  0
SPLINE
  5
294
100
AcDbEntity
  8
0
100
AcDbSpline
 62
7
  6
BYLAYER
 70
0
 71
3
 72
10
 73
6
 74
0
 42
0.0000001
 43
0.0000001
 44
0.0000000001
 40
0.0
 40
0.0
 40
0.0
 40
0.0
 40
0.2805158261
 40
0.5413331929
 40
1.0
 40
1.0
 40
1.0
 40
1.0
 10
30.2295400863
 20
16.303207248
 30
0.0
 10
30.2295400863
 20
16.3462253031
 30
0.0
 10
30.2264486864
 20
16.4293340346
 30
0.0
 10
30.2073852188
 20
16.5814880244
 30
0.0
 10
30.1773739003
 20
16.6892585157
 30
0.0
 10
30.147946847
 20
16.753145124
 30
0.0
  0
SPLINE
  5
295
100
AcDbEntity
  8
0
100
AcDbSpline
 62
7
  6
BYLAYER
 70
0
 71
3
 72
13
 73
9
 74
0
 42
0.0000001
 43
0.0000001
 44
0.0000000001
 40
0.0
 40
0.0
 40
0.0
 40
0.0
 40
0.1141762243
 40
0.2375705078
 40
0.5000006893
 40
0.7624304955
 40
0.8858242827
 40
1.0
 40
1.0
 40
1.0
 40
1.0
 10
32.7515042993
 20
19.011310254
 30
0.0
 10
32.7756906182
 20
18.9973465922
 30
0.0
 10
32.8286371404
 20
18.9727221984
 30
0.0
 10
32.9459238708
 20
18.9370389967
 30
0.0
 10
33.1050583481
 20
18.9197975212
 30
0.0
 10
33.2641926195
 20
18.9370397813
 30
0.0
 10
33.3814788376
 20
18.9727235218
 30
0.0
 10
33.4344249697
 20
18.9973481795
 30
0.0
 10
33.4586110805
 20
19.0113119537
 30
0.0
  0
SPLINE
  5
296
100
AcDbEntity
  8
0
100
AcDbSpline
 62
7
  6
BYLAYER
 70
0
 71
3
 72
9
 73
5
 74
0
 42
0.0000001
 43
0.0000001
 44
0.0000000001
 40
0.0
 40
0.0
 40
0.0
 40
0.0
 40
0.2696633026
 40
1.0
 40
1.0
 40
1.0
 40
1.0
 10
33.4586110805
 20
19.0113119537
 30
0.0
 10
33.4689755945
 20
19.0172958729
 30
0.0
 10
33.5065147151
 20
19.0409083358
 30
0.0
 10
33.5405116815
 20
19.0708316031
 30
0.0
 10
33.5605178481
 20
19.0963336509
 30
0.0
  0
SPLINE
  5
297
100
AcDbEntity
  8
0
100
AcDbSpline
 62
7
  6
BYLAYER
 70
0
 71
3
 72
10
 73
6
 74
0
 42
0.0000001
 43
0.0000001
 44
0.0000000001
 40
0.0
 40
0.0
 40
0.0
 40
0.0
 40
0.5160661439
 40
0.7612918221
 40
1.0
 40
1.0
 40
1.0
 40
1.0
 10
33.5605178481
 20
19.0963336509
 30
0.0
 10
33.7698844723
 20
19.3632152471
 30
0.0
 10
34.0448506968
 20
19.7867587068
 30
0.0
 10
34.3076202338
 20
20.3903504943
 30
0.0
 10
34.4005576011
 20
20.695515733
 30
0.0
 10
34.4370420284
 20
20.8481154235
 30
0.0
  0
SPLINE
  5
298
100
AcDbEntity
  8
0
100
AcDbSpline
 62
7
  6
BYLAYER
 70
0
 71
3
 72
9
 73
5
 74
0
 42
0.0000001
 43
0.0000001
 44
0.0000000001
 40
0.0
 40
0.0
 40
0.0
 40
0.0
 40
0.4858387317
 40
1.0
 40
1.0
 40
1.0
 40
1.0
 10
32.4736976047
 20
20.7155677686
 30
0.0
 10
32.4044406113
 20
20.5095361335
 30
0.0
 10
32.2202576326
 20
20.09870987
 30
0.0
 10
31.9689872194
 20
19.7260053613
 30
0.0
 10
31.8268225231
 20
19.5451634491
 30
0.0
  0
SPLINE
  5
299
100
AcDbEntity
  8
0
100
AcDbSpline
 62
7
  6
BYLAYER
 70
0
 71
3
 72
43
 73
39
 74
0
 42
0.0000001
 43
0.0000001
 44
0.0000000001
 40
0.0
 40
0.0
 40
0.0
 40
0.0
 40
0.0309844774
 40
0.0603710778
 40
0.0881503157
 40
0.1014675872
 40
0.1144208796
 40
0.1393106658
 40
0.1630698367
 40
0.186018242
 40
0.1973171458
 40
0.2085621602
 40
0.2198071698
 40
0.2311060571
 40
0.2540544801
 40
0.2778139105
 40
0.3027035368
 40
0.3156566706
 40
0.3289743034
 40
0.3567555411
 40
0.3861363304
 40
0.4171251
 40
0.4496719671
 40
0.4836773298
 40
0.5190015683
 40
0.5554722733
 40
0.5928900697
 40
0.6310355135
 40
0.6696743817
 40
0.7085622521
 40
0.7474501852
 40
0.7860891202
 40
0.8242343961
 40
0.8616525634
 40
0.8981233396
 40
0.9334458433
 40
0.9674573186
 40
1.0
 40
1.0
 40
1.0
 40
1.0
 10
36.1304506413
 20
35.2685896145
 30
0.0
 10
36.5320168429
 20
35.5004325852
 30
0.0
 10
37.2962989612
 20
35.9848705164
 30
0.0
 10
38.341081296
 20
36.7935268666
 30
0.0
 10
39.10481939
 20
37.5245674863
 30
0.0
 10
39.6371639614
 20
38.1341878108
 30
0.0
 10
40.1042234481
 20
38.741341907
 30
0.0
 10
40.5943003133
 20
39.5259219261
 30
0.0
 10
41.0255583699
 20
40.5111131219
 30
0.0
 10
41.2444386694
 20
41.3555584566
 30
0.0
 10
41.330966833
 20
42.0315328355
 30
0.0
 10
41.35250761
 20
42.5373582454
 30
0.0
 10
41.3309583678
 20
43.0431830339
 30
0.0
 10
41.2444206906
 20
43.7191560367
 30
0.0
 10
41.0255284897
 20
44.5636027964
 30
0.0
 10
40.5942470027
 20
45.5487852719
 30
0.0
 10
40.104170045
 20
46.3333635129
 30
0.0
 10
39.6371090209
 20
46.9405168471
 30
0.0
 10
39.10472834
 20
47.5501530707
 30
0.0
 10
38.3410103935
 20
48.2811117839
 30
0.0
 10
37.2961952041
 20
49.0898661678
 30
0.0
 10
36.1201405948
 20
49.8352450703
 30
0.0
 10
34.8241081178
 20
50.5102868482
 30
0.0
 10
33.4203945154
 20
51.1088095703
 30
0.0
 10
31.9223408463
 20
51.6252039033
 30
0.0
 10
30.34418625
 20
52.0545506755
 30
0.0
 10
28.7009896006
 20
52.3928083968
 30
0.0
 10
27.0084416559
 20
52.6367757931
 30
0.0
 10
25.2827131156
 20
52.7840815507
 30
0.0
 10
23.5403121042
 20
52.8333280332
 30
0.0
 10
21.7979102593
 20
52.7840761636
 30
0.0
 10
20.0721827004
 20
52.6367652285
 30
0.0
 10
18.3796310838
 20
52.3927985377
 30
0.0
 10
16.7364310384
 20
52.054524432
 30
0.0
 10
15.1583057327
 20
51.6251767154
 30
0.0
 10
13.6601531344
 20
51.1087790347
 30
0.0
 10
12.2565491897
 20
50.5102327986
 30
0.0
 10
11.3720342251
 20
50.0495451964
 30
0.0
 10
10.9502733288
 20
49.806042883
 30
0.0
  0
SPLINE
  5
29A
100
AcDbEntity
  8
0
100
AcDbSpline
 62
7
  6
BYLAYER
 70
0
 71
3
 72
27
 73
23
 74
0
 42
0.0000001
 43
0.0000001
 44
0.0000000001
 40
0.0
 40
0.0
 40
0.0
 40
0.0
 40
0.062375816
 40
0.1287096026
 40
0.1982945673
 40
0.2702637645
 40
0.343634465
 40
0.4173602442
 40
0.4903783307
 40
0.5616585291
 40
0.6302494064
 40
0.6953307384
 40
0.7562723312
 40
0.7850802383
 40
0.8127411561
 40
0.8646363635
 40
0.8890204052
 40
0.9124673912
 40
0.9351094105
 40
0.9571123723
 40
0.9786702815
 40
1.0
 40
1.0
 40
1.0
 40
1.0
 10
32.2731670906
 20
37.4955429304
 30
0.0
 10
31.8294639362
 20
37.2393723239
 30
0.0
 10
30.8785838266
 20
36.7705412262
 30
0.0
 10
29.3447022447
 20
36.2147496364
 30
0.0
 10
27.6871034478
 20
35.7939588129
 30
0.0
 10
25.9412661655
 20
35.5171160732
 30
0.0
 10
24.1441914578
 20
35.3900832731
 30
0.0
 10
22.3342345052
 20
35.415547288
 30
0.0
 10
20.5500028146
 20
35.5929840841
 30
0.0
 10
18.829541954
 20
35.9186013074
 30
0.0
 10
17.209338479
 20
36.3855503147
 30
0.0
 10
15.723856819
 20
36.98399202
 30
0.0
 10
14.603465794
 20
37.5933323318
 30
0.0
 10
13.8068304441
 20
38.1382913341
 30
0.0
 10
13.1101359384
 20
38.6929913985
 30
0.0
 10
12.5042330706
 20
39.301613346
 30
0.0
 10
12.013956077
 20
39.9592360481
 30
0.0
 10
11.7160707242
 20
40.4568399635
 30
0.0
 10
11.482415059
 20
40.9662854312
 30
0.0
 10
11.3142909772
 20
41.4848120135
 30
0.0
 10
11.2130161434
 20
42.0094451291
 30
0.0
 10
11.19036722
 20
42.3621178544
 30
0.0
 10
11.1903673945
 20
42.5373162483
 30
0.0
  0
SPLINE
  5
29B
100
AcDbEntity
  8
0
100
AcDbSpline
 62
7
  6
BYLAYER
 70
0
 71
3
 72
39
 73
35
 74
0
 42
0.0000001
 43
0.0000001
 44
0.0000000001
 40
0.0
 40
0.0
 40
0.0
 40
0.0
 40
0.0325500628
 40
0.0665585817
 40
0.1018866334
 40
0.1383609273
 40
0.1757826922
 40
0.2139320864
 40
0.2914356216
 40
0.3689392031
 40
0.4070888122
 40
0.4445106762
 40
0.4809850481
 40
0.5163130688
 40
0.5503220035
 40
0.582871849
 40
0.6138636748
 40
0.6432475166
 40
0.6710312941
 40
0.6843504378
 40
0.6973048009
 40
0.7221969928
 40
0.7459587449
 40
0.7689095649
 40
0.7914355813
 40
0.8139617241
 40
0.836912523
 40
0.8606742079
 40
0.8855665382
 40
0.8985208908
 40
0.9118400465
 40
0.9396240974
 40
0.969007754
 40
1.0
 40
1.0
 40
1.0
 40
1.0
 10
15.1287103356
 20
47.5404607687
 30
0.0
 10
15.4105314233
 20
47.7031699184
 30
0.0
 10
16.0014589733
 20
48.010978059
 30
0.0
 10
16.9392464277
 20
48.4108342577
 30
0.0
 10
17.940139688
 20
48.7558521237
 30
0.0
 10
18.9945224468
 20
49.0427124998
 30
0.0
 10
20.0923949113
 20
49.2687326109
 30
0.0
 10
21.6078609405
 20
49.4871242482
 30
0.0
 10
23.5403363154
 20
49.5955779363
 30
0.0
 10
25.4728137482
 20
49.4871287962
 30
0.0
 10
26.9882844577
 20
49.2687409884
 30
0.0
 10
28.0861598851
 20
49.0427224864
 30
0.0
 10
29.140549341
 20
48.7558624817
 30
0.0
 10
30.1414321692
 20
48.4108546185
 30
0.0
 10
31.0792770773
 20
48.0109673613
 30
0.0
 10
31.9451690295
 20
47.5599457018
 30
0.0
 10
32.7309123154
 20
47.0619527939
 30
0.0
 10
33.4289738557
 20
46.5216135221
 30
0.0
 10
33.9392031571
 20
46.0332235066
 30
0.0
 10
34.2949110453
 20
45.6259310568
 30
0.0
 10
34.6069550254
 20
45.2202702225
 30
0.0
 10
34.9343862569
 20
44.6961032291
 30
0.0
 10
35.2225047125
 20
44.0377878609
 30
0.0
 10
35.3970759347
 20
43.3647321917
 30
0.0
 10
35.4555441242
 20
42.6840838101
 30
0.0
 10
35.397070755
 20
42.003435833
 30
0.0
 10
35.2224916392
 20
41.3303820452
 30
0.0
 10
34.9343711401
 20
40.6720669026
 30
0.0
 10
34.6069327131
 20
40.147903863
 30
0.0
 10
34.2948875004
 20
39.7422418892
 30
0.0
 10
33.9391760557
 20
39.3349506905
 30
0.0
 10
33.428932913
 20
38.8465565028
 30
0.0
 10
32.7309091872
 20
38.306248025
 30
0.0
 10
32.2202749507
 20
37.9826140217
 30
0.0
 10
31.951937266
 20
37.827699436
 30
0.0
  0
SPLINE
  5
29C
100
AcDbEntity
  8
0
100
AcDbSpline
 62
7
  6
BYLAYER
 70
0
 71
3
 72
15
 73
11
 74
0
 42
0.0000001
 43
0.0000001
 44
0.0000000001
 40
0.0
 40
0.0
 40
0.0
 40
0.0
 40
0.1485952833
 40
0.2894802555
 40
0.4226963209
 40
0.5486124619
 40
0.6679704473
 40
0.7819124601
 40
0.8919712714
 40
1.0
 40
1.0
 40
1.0
 40
1.0
 10
32.2731670906
 20
37.5363680513
 30
0.0
 10
32.5517212615
 20
37.6971889073
 30
0.0
 10
33.0818003193
 20
38.0331362466
 30
0.0
 10
33.8064593333
 20
38.5940758714
 30
0.0
 10
34.4332714397
 20
39.1940113644
 30
0.0
 10
34.9560130411
 20
39.8275719118
 30
0.0
 10
35.3693044292
 20
40.4891100352
 30
0.0
 10
35.6684823416
 20
41.1726541603
 30
0.0
 10
35.849744587
 20
41.8712895762
 30
0.0
 10
35.8903597174
 20
42.3443052436
 30
0.0
 10
35.8903610488
 20
42.5781413696
 30
0.0
  0
SPLINE
  5
29D
100
AcDbEntity
  8
0
100
AcDbSpline
 62
7
  6
BYLAYER
 70
0
 71
3
 72
37
 73
33
 74
0
 42
0.0000001
 43
0.0000001
 44
0.0000000001
 40
0.0
 40
0.0
 40
0.0
 40
0.0
 40
0.0309846406
 40
0.0603800506
 40
0.0881642608
 40
0.1144242645
 40
0.1393184469
 40
0.1630810167
 40
0.186032614
 40
0.2085600691
 40
0.2310875541
 40
0.2540396858
 40
0.2778031394
 40
0.3026966678
 40
0.3156520341
 40
0.328971885
 40
0.3567572302
 40
0.3861424227
 40
0.4171362022
 40
0.4496874528
 40
0.4836980532
 40
0.519027431
 40
0.5555033286
 40
0.592926714
 40
0.6310777404
 40
0.7085847027
 40
0.7860909555
 40
0.8616317446
 40
0.898106134
 40
0.9334352784
 40
0.9674562468
 40
1.0
 40
1.0
 40
1.0
 40
1.0
 10
30.0457600956
 20
39.2306178655
 30
0.0
 10
30.2532196077
 20
39.3503977834
 30
0.0
 10
30.6481028217
 20
39.6007256881
 30
0.0
 10
31.1880096682
 20
40.0185634428
 30
0.0
 10
31.6549936705
 20
40.4655657604
 30
0.0
 10
32.0443484236
 20
40.9375680229
 30
0.0
 10
32.3522396261
 20
41.4303584709
 30
0.0
 10
32.5750415866
 20
41.9395275413
 30
0.0
 10
32.7100540178
 20
42.46003719
 30
0.0
 10
32.755267975
 20
42.9864396728
 30
0.0
 10
32.7100176562
 20
43.5128357661
 30
0.0
 10
32.5750313268
 20
44.0333754671
 30
0.0
 10
32.3521545768
 20
44.5424832744
 30
0.0
 10
32.0989447845
 20
44.9478794636
 30
0.0
 10
31.8575891879
 20
45.2615905469
 30
0.0
 10
31.5824977034
 20
45.5765891314
 30
0.0
 10
31.1878813424
 20
45.9542806141
 30
0.0
 10
30.6480234837
 20
46.3721778241
 30
0.0
 10
30.0403282787
 20
46.7572808429
 30
0.0
 10
29.37067838
 20
47.1061080479
 30
0.0
 10
28.6453661164
 20
47.4153441969
 30
0.0
 10
27.871313622
 20
47.6821589632
 30
0.0
 10
27.0558855491
 20
47.9040146612
 30
0.0
 10
26.2068162572
 20
48.0787825287
 30
0.0
 10
25.0348210782
 20
48.2477013449
 30
0.0
 10
23.5401688786
 20
48.3315401584
 30
0.0
 10
21.7569329317
 20
48.2314402812
 30
0.0
 10
20.3091983445
 20
47.9813246967
 30
0.0
 10
19.2093056241
 20
47.6821462441
 30
0.0
 10
18.4351536297
 20
47.4153061223
 30
0.0
 10
17.7099135486
 20
47.1059906591
 30
0.0
 10
17.2528650191
 20
46.8679700675
 30
0.0
 10
17.0349638745
 20
46.7421672908
 30
0.0
  0
SPLINE
  5
29E
100
AcDbEntity
  8
0
100
AcDbSpline
 62
7
  6
BYLAYER
 70
0
 71
3
 72
37
 73
33
 74
0
 42
0.0000001
 43
0.0000001
 44
0.0000000001
 40
0.0
 40
0.0
 40
0.0
 40
0.0
 40
0.0309846406
 40
0.0603800506
 40
0.0881642608
 40
0.1144242645
 40
0.1393184469
 40
0.1630810167
 40
0.186032614
 40
0.2085600691
 40
0.2310875541
 40
0.2540396858
 40
0.2778031394
 40
0.3026966678
 40
0.3156520341
 40
0.328971885
 40
0.3567572302
 40
0.3861424227
 40
0.4171362022
 40
0.4496874528
 40
0.4836980532
 40
0.519027431
 40
0.5555033286
 40
0.592926714
 40
0.6310777404
 40
0.7085847027
 40
0.7860909555
 40
0.8616317446
 40
0.898106134
 40
0.9334352784
 40
0.9674562468
 40
1.0
 40
1.0
 40
1.0
 40
1.0
 10
17.0349638745
 20
46.7421672908
 30
0.0
 10
16.8275043622
 20
46.6223873732
 30
0.0
 10
16.4326211481
 20
46.3720594685
 30
0.0
 10
15.892714302
 20
45.9542217134
 30
0.0
 10
15.4257302996
 20
45.5072193959
 30
0.0
 10
15.0363755465
 20
45.0352171334
 30
0.0
 10
14.728484344
 20
44.5424266854
 30
0.0
 10
14.5056823835
 20
44.033257615
 30
0.0
 10
14.3706699523
 20
43.5127479663
 30
0.0
 10
14.3254559951
 20
42.9863454835
 30
0.0
 10
14.3707063139
 20
42.4599493902
 30
0.0
 10
14.5056926433
 20
41.9394096892
 30
0.0
 10
14.7285693933
 20
41.4303018819
 30
0.0
 10
14.9817791856
 20
41.0249056927
 30
0.0
 10
15.2231347822
 20
40.7111946094
 30
0.0
 10
15.4982262667
 20
40.3961960249
 30
0.0
 10
15.8928426277
 20
40.0185045422
 30
0.0
 10
16.4327004864
 20
39.6006073322
 30
0.0
 10
17.0403956913
 20
39.2155043134
 30
0.0
 10
17.71004559
 20
38.8666771084
 30
0.0
 10
18.4353578537
 20
38.5574409594
 30
0.0
 10
19.2094103481
 20
38.2906261931
 30
0.0
 10
20.024838421
 20
38.0687704951
 30
0.0
 10
20.8739077128
 20
37.8940026277
 30
0.0
 10
22.0459028919
 20
37.7250838114
 30
0.0
 10
23.5405550915
 20
37.6412449979
 30
0.0
 10
25.3237910384
 20
37.7413448751
 30
0.0
 10
26.7715256256
 20
37.9914604595
 30
0.0
 10
27.8714183459
 20
38.2906389122
 30
0.0
 10
28.6455703403
 20
38.5574790342
 30
0.0
 10
29.3708104216
 20
38.866794497
 30
0.0
 10
29.8278589512
 20
39.1048150885
 30
0.0
 10
30.0457600956
 20
39.2306178655
 30
0.0
  0
SPLINE
  5
29F
100
AcDbEntity
  8
0
100
AcDbSpline
 62
7
  6
BYLAYER
 70
0
 71
3
 72
39
 73
35
 74
0
 42
0.0000001
 43
0.0000001
 44
0.0000000001
 40
0.0
 40
0.0
 40
0.0
 40
0.0
 40
0.0325501839
 40
0.0665587833
 40
0.1018869575
 40
0.1383612901
 40
0.1757831797
 40
0.2139325971
 40
0.2914362362
 40
0.3689398968
 40
0.4070894814
 40
0.4445114357
 40
0.480985748
 40
0.5163138236
 40
0.550322709
 40
0.5828726099
 40
0.6138643767
 40
0.6432482067
 40
0.6710320716
 40
0.6843511628
 40
0.6973054223
 40
0.722197727
 40
0.7459594555
 40
0.7689102016
 40
0.7914362304
 40
0.8139623684
 40
0.8369130551
 40
0.860674679
 40
0.8855669859
 40
0.8985212484
 40
0.9118403148
 40
0.9396243152
 40
0.9690078279
 40
1.0
 40
1.0
 40
1.0
 40
1.0
 10
31.9519372651
 20
37.827699436
 30
0.0
 10
31.6701193061
 20
37.6649860753
 30
0.0
 10
31.0791842788
 20
37.3571951339
 30
0.0
 10
30.1414007364
 20
36.9573372709
 30
0.0
 10
29.140505889
 20
36.6123341545
 30
0.0
 10
28.0861272973
 20
36.3254712584
 30
0.0
 10
26.9882562532
 20
36.0994653275
 30
0.0
 10
25.472796064
 20
35.8810760733
 30
0.0
 10
23.540328648
 20
35.7726397165
 30
0.0
 10
21.6078600598
 20
35.8810824117
 30
0.0
 10
20.0923979594
 20
36.0994789891
 30
0.0
 10
18.9945265059
 20
36.3254869437
 30
0.0
 10
17.9401458304
 20
36.6123590877
 30
0.0
 10
16.9392662349
 20
36.9573563573
 30
0.0
 10
16.0014291539
 20
37.357249149
 30
0.0
 10
15.1355395625
 20
37.8082622008
 30
0.0
 10
14.3498033291
 20
38.3062566918
 30
0.0
 10
13.6517456806
 20
38.8465926129
 30
0.0
 10
13.1415141436
 20
39.3349747846
 30
0.0
 10
12.7858081041
 20
39.7422644775
 30
0.0
 10
12.4737789406
 20
40.1479321363
 30
0.0
 10
12.1463276663
 20
40.6720815286
 30
0.0
 10
11.8582172678
 20
41.3303987489
 30
0.0
 10
11.6836565234
 20
42.0034495433
 30
0.0
 10
11.6251550156
 20
42.6840917974
 30
0.0
 10
11.6836540216
 20
43.364733413
 30
0.0
 10
11.8582094937
 20
44.037785411
 30
0.0
 10
12.1463226835
 20
44.696099204
 30
0.0
 10
12.473762793
 20
45.2202543716
 30
0.0
 10
12.7857966206
 20
45.625918747
 30
0.0
 10
13.1414992305
 20
46.0332109175
 30
0.0
 10
13.6517387688
 20
46.5215987546
 30
0.0
 10
14.349746886
 20
47.0619153454
 30
0.0
 10
14.8603800017
 20
47.3855405138
 30
0.0
 10
15.1287117755
 20
47.5404604028
 30
0.0
  0
SPLINE
  5
2A0
100
AcDbEntity
  8
0
100
AcDbSpline
 62
7
  6
BYLAYER
 70
0
 71
3
 72
15
 73
11
 74
0
 42
0.0000001
 43
0.0000001
 44
0.0000000001
 40
0.0
 40
0.0
 40
0.0
 40
0.0
 40
0.1080133074
 40
0.218060494
 40
0.3319956339
 40
0.4513561846
 40
0.5772698192
 40
0.7104870345
 40
0.8514256116
 40
1.0
 40
1.0
 40
1.0
 40
1.0
 10
35.8903565756
 20
42.5373162491
 30
0.0
 10
35.8903563427
 20
42.3035139534
 30
0.0
 10
35.8497198589
 20
41.8305609705
 30
0.0
 10
35.6685261246
 20
41.1319896931
 30
0.0
 10
35.3694030284
 20
40.4484566168
 30
0.0
 10
34.956101301
 20
39.7869453203
 30
0.0
 10
34.4334233455
 20
39.1533346226
 30
0.0
 10
33.8065480435
 20
38.5532963881
 30
0.0
 10
33.0817878934
 20
37.9923721598
 30
0.0
 10
32.5516809028
 20
37.656341995
 30
0.0
 10
32.2731670906
 20
37.4955429304
 30
0.0
  0
SPLINE
  5
2A1
100
AcDbEntity
  8
0
100
AcDbSpline
 62
7
  6
BYLAYER
 70
0
 71
3
 72
27
 73
23
 74
0
 42
0.0000001
 43
0.0000001
 44
0.0000000001
 40
0.0
 40
0.0
 40
0.0
 40
0.0
 40
0.0213307554
 40
0.0428899465
 40
0.0648940774
 40
0.0875376367
 40
0.1109860389
 40
0.1353718731
 40
0.1872707882
 40
0.2149338363
 40
0.2437437891
 40
0.304689875
 40
0.3697758038
 40
0.438371138
 40
0.5096553856
 40
0.5826770077
 40
0.6564053144
 40
0.7297773944
 40
0.8017418835
 40
0.8713171192
 40
0.9376360239
 40
1.0
 40
1.0
 40
1.0
 40
1.0
 10
11.190362591
 20
42.5781413696
 30
0.0
 10
11.1903637801
 20
42.4029342625
 30
0.0
 10
11.2129760381
 20
42.0502382549
 30
0.0
 10
11.3143126462
 20
41.5255868942
 30
0.0
 10
11.4824077364
 20
41.0070165045
 30
0.0
 10
11.7161269563
 20
40.4975606724
 30
0.0
 10
12.0140162669
 20
39.99991427
 30
0.0
 10
12.5043714146
 20
39.34227563
 30
0.0
 10
13.1103258254
 20
38.733617932
 30
0.0
 10
13.8070948338
 20
38.1789046356
 30
0.0
 10
14.6038060358
 20
37.6339289025
 30
0.0
 10
15.7243024656
 20
37.0245863764
 30
0.0
 10
17.2099110834
 20
36.4261570791
 30
0.0
 10
18.8302383195
 20
35.9592409264
 30
0.0
 10
20.5508115594
 20
35.633673453
 30
0.0
 10
22.3351357892
 20
35.4563066819
 30
0.0
 10
24.145157497
 20
35.430919544
 30
0.0
 10
25.9422206164
 20
35.5580483783
 30
0.0
 10
27.6879427338
 20
35.8349464864
 30
0.0
 10
29.3452855814
 20
36.2557700073
 30
0.0
 10
30.8788747268
 20
36.8114911152
 30
0.0
 10
31.829546619
 20
37.2802475851
 30
0.0
 10
32.2731670906
 20
37.5363680513
 30
0.0
  0
SPLINE
  5
2A2
100
AcDbEntity
  8
0
100
AcDbSpline
 62
7
  6
BYLAYER
 70
0
 71
3
 72
12
 73
8
 74
0
 42
0.0000001
 43
0.0000001
 44
0.0000000001
 40
0.0
 40
0.0
 40
0.0
 40
0.0
 40
0.1081689044
 40
0.2183726817
 40
0.4513297034
 40
0.7105252616
 40
1.0
 40
1.0
 40
1.0
 40
1.0
 10
30.4422004064
 20
16.6877413194
 30
0.0
 10
30.466792905
 20
16.6735386795
 30
0.0
 10
30.5140593521
 20
16.6405109015
 30
0.0
 10
30.5988946467
 20
16.5571134156
 30
0.0
 10
30.6829246912
 20
16.4201393815
 30
0.0
 10
30.7413132665
 20
16.221626671
 30
0.0
 10
30.7528723496
 20
16.0770677869
 30
0.0
 10
30.7528723496
 20
16.0010680602
 30
0.0
  0
SPLINE
  5
2A3
100
AcDbEntity
  8
0
100
AcDbSpline
 62
7
  6
BYLAYER
 70
0
 71
3
 72
15
 73
11
 74
0
 42
0.0000001
 43
0.0000001
 44
0.0000000001
 40
0.0
 40
0.0
 40
0.0
 40
0.0
 40
0.1082220695
 40
0.2199760397
 40
0.3361366089
 40
0.4573704793
 40
0.5841596808
 40
0.716816281
 40
0.8554787225
 40
1.0
 40
1.0
 40
1.0
 40
1.0
 10
37.5065154982
 20
32.9788434439
 30
0.0
 10
37.4476273482
 20
32.7653610643
 30
0.0
 10
37.2992038246
 20
32.3388882277
 30
0.0
 10
36.9947109456
 20
31.7204251673
 30
0.0
 10
36.6073022788
 20
31.1183833132
 30
0.0
 10
36.1399016136
 20
30.5363524367
 30
0.0
 10
35.5953374826
 20
29.9778059361
 30
0.0
 10
34.9770540293
 20
29.4458766158
 30
0.0
 10
34.2889001868
 20
28.9439774222
 30
0.0
 10
33.7965048942
 20
28.6373944814
 30
0.0
 10
33.5404036189
 20
28.4895052971
 30
0.0
  0
SPLINE
  5
2A4
100
AcDbEntity
  8
0
100
AcDbSpline
 62
7
  6
BYLAYER
 70
0
 71
3
 72
11
 73
7
 74
0
 42
0.0000001
 43
0.0000001
 44
0.0000000001
 40
0.0
 40
0.0
 40
0.0
 40
0.0
 40
0.2332953231
 40
0.4752101674
 40
0.7298090502
 40
1.0
 40
1.0
 40
1.0
 40
1.0
 10
13.0685177383
 20
21.2728601635
 30
0.0
 10
13.0966701543
 20
21.0513620042
 30
0.0
 10
13.1971326341
 20
20.6046943281
 30
0.0
 10
13.4698971709
 20
19.9581746181
 30
0.0
 10
13.8621844067
 20
19.3346987961
 30
0.0
 10
14.1892188308
 20
18.9511498988
 30
0.0
 10
14.3688264654
 20
18.765110081
 30
0.0
  0
SPLINE
  5
2A5
100
AcDbEntity
  8
0
100
AcDbSpline
 62
7
  6
BYLAYER
 70
0
 71
3
 72
11
 73
7
 74
0
 42
0.0000001
 43
0.0000001
 44
0.0000000001
 40
0.0
 40
0.0
 40
0.0
 40
0.0
 40
0.241184683
 40
0.4894856572
 40
0.7430806925
 40
1.0
 40
1.0
 40
1.0
 40
1.0
 10
18.4283999929
 20
16.4213672346
 30
0.0
 10
18.766686802
 20
16.3125088775
 30
0.0
 10
19.4618264825
 20
16.1175311283
 30
0.0
 10
20.5347978576
 20
15.8956177654
 30
0.0
 10
21.6430506462
 20
15.7421214585
 30
0.0
 10
22.3938083038
 20
15.6866866847
 30
0.0
 10
22.7720234715
 20
15.670665255
 30
0.0
  0
SPLINE
  5
2A6
100
AcDbEntity
  8
0
100
AcDbSpline
 62
7
  6
BYLAYER
 70
0
 71
3
 72
10
 73
6
 74
0
 42
0.0000001
 43
0.0000001
 44
0.0000000001
 40
0.0
 40
0.0
 40
0.0
 40
0.0
 40
0.524624258
 40
0.7719552128
 40
1.0
 40
1.0
 40
1.0
 40
1.0
 10
22.7720234715
 20
15.670665255
 30
0.0
 10
22.8284001562
 20
15.6682771035
 30
0.0
 10
22.9123844418
 20
15.6747044525
 30
0.0
 10
23.016085428
 20
15.7041146711
 30
0.0
 10
23.0628955717
 20
15.7254227407
 30
0.0
 10
23.0841374002
 20
15.7376866429
 30
0.0
  0
SPLINE
  5
2A7
100
AcDbEntity
  8
0
100
AcDbSpline
 62
7
  6
BYLAYER
 70
0
 71
3
 72
14
 73
10
 74
0
 42
0.0000001
 43
0.0000001
 44
0.0000000001
 40
0.0
 40
0.0
 40
0.0
 40
0.0
 40
0.2648008174
 40
0.3959457586
 40
0.5248496364
 40
0.6505313182
 40
0.7720974727
 40
0.8888108125
 40
1.0
 40
1.0
 40
1.0
 40
1.0
 10
24.3785781356
 20
16.485027889
 30
0.0
 10
23.7153678007
 20
16.4496078251
 30
0.0
 10
22.7187975451
 20
16.4594321748
 30
0.0
 10
21.409101961
 20
16.5980338962
 30
0.0
 10
20.4549706643
 20
16.7627369395
 30
0.0
 10
19.5376876044
 20
16.9865519022
 30
0.0
 10
18.66798452
 20
17.2668032864
 30
0.0
 10
17.8563839337
 20
17.6002065673
 30
0.0
 10
17.3472331721
 20
17.8620465775
 30
0.0
 10
17.1057170664
 20
18.0014828117
 30
0.0
  0
SPLINE
  5
2A8
100
AcDbEntity
  8
0
100
AcDbSpline
 62
7
  6
BYLAYER
 70
0
 71
3
 72
26
 73
22
 74
0
 42
0.0000001
 43
0.0000001
 44
0.0000000001
 40
0.0
 40
0.0
 40
0.0
 40
0.0
 40
0.0609666106
 40
0.1256045068
 40
0.1933116219
 40
0.2633694554
 40
0.3349482899
 40
0.4071586017
 40
0.4790884409
 40
0.5498336266
 40
0.6185356116
 40
0.6844224606
 40
0.7468446631
 40
0.8053256687
 40
0.8330201842
 40
0.8596631386
 40
0.9098361071
 40
0.9335126833
 40
0.9563488779
 40
0.9784629793
 40
1.0
 40
1.0
 40
1.0
 40
1.0
 10
33.5404036189
 20
28.4895052971
 30
0.0
 10
33.0651267393
 20
28.215161239
 30
0.0
 10
32.0506960615
 20
27.709639267
 30
0.0
 10
30.4184099368
 20
27.0993101015
 30
0.0
 10
28.657127331
 20
26.6236012668
 30
0.0
 10
26.8000357092
 20
26.2914516108
 30
0.0
 10
24.8817123162
 20
26.1090070938
 30
0.0
 10
22.9381617653
 20
26.0796952964
 30
0.0
 10
21.0058693067
 20
26.2040853503
 30
0.0
 10
19.1211161245
 20
26.4798454606
 30
0.0
 10
17.3192613362
 20
26.9018225345
 30
0.0
 10
15.6339386099
 20
27.4622216129
 30
0.0
 10
14.0967179855
 20
28.1506467101
 30
0.0
 10
12.9420543711
 20
28.8329602908
 30
0.0
 10
12.1226418808
 20
29.4341594561
 30
0.0
 10
11.4047677141
 20
30.0428549573
 30
0.0
 10
10.7809651424
 20
30.7047318641
 30
0.0
 10
10.2749697747
 20
31.4141388204
 30
0.0
 10
9.9656970931
 20
31.9501060958
 30
0.0
 10
9.7212279483
 20
32.4975265887
 30
0.0
 10
9.6008919916
 20
32.8725907954
 30
0.0
 10
9.5524697108
 20
33.0603054052
 30
0.0
  0
SPLINE
  5
2A9
100
AcDbEntity
  8
0
100
AcDbSpline
 62
7
  6
BYLAYER
 70
0
 71
3
 72
12
 73
8
 74
0
 42
0.0000001
 43
0.0000001
 44
0.0000000001
 40
0.0
 40
0.0
 40
0.0
 40
0.0
 40
0.2802281876
 40
0.5387470859
 40
0.7772767185
 40
0.8903153924
 40
1.0
 40
1.0
 40
1.0
 40
1.0
 10
16.8495863163
 20
18.1555045589
 30
0.0
 10
16.5689472606
 20
18.3312824628
 30
0.0
 10
16.0490996345
 20
18.7028764474
 30
0.0
 10
15.3865033094
 20
19.344207643
 30
0.0
 10
14.9611099101
 20
19.9323973332
 30
0.0
 10
14.7142142661
 20
20.4193188976
 30
0.0
 10
14.6213596052
 20
20.6663111846
 30
0.0
 10
14.5829503765
 20
20.7901029473
 30
0.0
  0
ENDSEC
  0
SECTION
  2
OBJECTS
  0
DICTIONARY
  5
C
100
AcDbDictionary
280
0
281
1
  3
ACAD_GROUP
350
D
  3
ACAD_MLINESTYLE
350
17
  3
ACAD_LAYOUT
350
1A
  3
ACAD_PLOTSETTINGS
350
19
  3
ACAD_PLOTSTYLENAME
350
E
  0
DICTIONARY
  5
D
102
{ACAD_REACTORS
330
C
102
}
100
AcDbDictionary
280
0
281
1
  0
ACDBDICTIONARYWDFLT
  5
E
102
{ACAD_REACTORS
330
C
102
}
100
AcDbDictionary
281
1
  3
Normal
350
F
100
AcDbDictionaryWithDefault
340
F
  0
DICTIONARY
  5
17
102
{ACAD_REACTORS
330
C
102
}
100
AcDbDictionary
280
0
281
1
  3
Standard
350
18
  0
DICTIONARY
  5
19
102
{ACAD_REACTORS
330
C
102
}
100
AcDbDictionary
281
1
  0
DICTIONARY
  5
1A
102
{ACAD_REACTORS
330
C
102
}
100
AcDbDictionary
281
1
  3
Model
350
2AA
  3
Layout1
350
2AB
  0
ACDBPLACEHOLDER
  5
F
102
{ACAD_REACTORS
330
E
102
}
  0
MLINESTYLE
  5
18
102
{ACAD_REACTORS
330
17
102
}
100
AcDbMlineStyle
  2
STANDARD
 70
0
  3

 62
256
 51
90.0
 52
90.0
 71
2
 49
0.5
 62
256
  6
BYLAYER
 49
-0.5
 62
256
  6
BYLAYER
  0
LAYOUT
  5
2AA
102
{ACAD_REACTORS
330
1A
102
}
100
AcDbPlotSettings
  1

  2
none_device
  4

  6

 40
0.0
 41
0.0
 42
0.0
 43
0.0
 44
210.0
 45
297.0
 46
0.0
 47
0.0
 48
0.0
 49
0.0
140
0.0
141
0.0
142
1.0
143
1.0
 70
1024
 72
1
 73
0
 74
0
  7

 75
0
147
1.0
148
0.0
149
0.0
100
AcDbLayout
  1
Model
 70
0
 71
0
 10
0.0
 20
0.0
 11
210.0
 21
297.0
 12
0.0
 22
0.0
 32
0.0
 14
0.0
 24
0.0
 34
0.0
 15
0.0
 25
0.0
 35
0.0
146
0.0
 13
0.0
 23
0.0
 33
0.0
 16
1.0
 26
0.0
 36
0.0
 17
0.0
 27
1.0
 37
0.0
 76
0
330
210
345
0
346
0
  0
LAYOUT
  5
2AB
102
{ACAD_REACTORS
330
1A
102
}
100
AcDbPlotSettings
  1

  2
none_device
  4

  6

 40
0.0
 41
0.0
 42
0.0
 43
0.0
 44
210.0
 45
297.0
 46
0.0
 47
0.0
 48
0.0
 49
0.0
140
0.0
141
0.0
142
1.0
143
1.0
 70
0
 72
1
 73
0
 74
0
  7

 75
0
147
1.0
148
0.0
149
0.0
100
AcDbLayout
  1
Layout1
 70
0
 71
1
 10
0.0
 20
0.0
 11
210.0
 21
297.0
 12
0.0
 22
0.0
 32
0.0
 14
0.0
 24
0.0
 34
0.0
 15
0.0
 25
0.0
 35
0.0
146
0.0
 13
0.0
 23
0.0
 33
0.0
 16
1.0
 26
0.0
 36
0.0
 17
0.0
 27
1.0
 37
0.0
 76
0
330
211
345
0
346
0
  0
ENDSEC
  0
EOF
