999
DXF file: C:\Users\sesa63760\Dev\_Creo\CAD\MCADID0005118_3D-CAD\drw0001_3.dxf
999
Pro/ENGINEER 2019471 by Parametric Technology Corporation
  0
SECTION
  2
HEADER
  9
$ACADVER
  1
AC1024
  9
$DWGCODEPAGE
  3
ANSI_1252
  9
$EXTMAX
 10
58.605910874
 20
82.8855025217
 30
0.0
  9
$EXTMIN
 10
0.0
 20
0.0
 30
0.0
  9
$LIMMIN
 10
0.0
 20
0.0
  9
$LIMMAX
 10
58.605910874
 20
82.8855025217
  9
$VIEWCTR
 10
29.302955437
 20
41.4427512609
  9
$VIEWSIZE
 40
82.8855025217
  9
$CLAYER
  8
0
  9
$LTSCALE
 40
5.402906831
  9
$CELTYPE
  6
BYLAYER
  9
$DIMSCALE
 40
1.0
  9
$DIMASZ
 40
0.6976894152
  9
$DIMEXO
 40
1.0
  9
$DIMDLI
 40
3.7329174469
  9
$DIMEXE
 40
1.0
  9
$DIMCEN
 40
0.8841120269
  9
$DIMLFAC
 40
1.0
  9
$DIMBLK
  1
_FILLED
  9
$DIMALT
 70
0
  9
$DIMALTF
 40
0.0393700787
  9
$DIMTXT
 40
0.9767651812
  9
$DIMTOL
 70
1
  9
$DIMLIM
 70
0
  9
$DIMTFAC
 40
1.0
  9
$DIMTP
 40
0.01
  9
$DIMTM
 40
0.01
  9
$DIMGAP
 40
0.625
  9
$DIMDSEP
 70
46
  9
$AUNITS
 70
0
  9
$PDMODE
 70
3
  9
$PDSIZE
 40
0.3125
  9
$HANDSEED
  5
299
  9
$TILEMODE
 70
1
  9
$MEASUREMENT
 70
1
  9
$INSUNITS
 70
4
  0
ENDSEC
  0
SECTION
  2
CLASSES
  0
CLASS
  1
ACDBDICTIONARYWDFLT
  2
AcDbDictionaryWithDefault
  3
AutoCAD 2000
 90
0
 91
1
280
0
281
0
  0
CLASS
  1
ACDBPLACEHOLDER
  2
AcDbPlaceHolder
  3
AutoCAD 2000
 90
0
 91
1
280
0
281
0
  0
CLASS
  1
LAYOUT
  2
AcDbLayout
  3
AutoCAD 2000
 90
0
 91
0
280
0
281
0
  0
ENDSEC
  0
SECTION
  2
TABLES
  0
TABLE
  2
VPORT
  5
8
100
AcDbSymbolTable
 70
2
  0
VPORT
  5
1F4
100
AcDbSymbolTableRecord
100
AcDbViewportTableRecord
  2
*ACTIVE
 70
0
 10
0.0
 20
0.0
 11
1.0
 21
1.0
 12
29.302955437
 22
41.4427512609
 13
0.0
 23
0.0
 14
1.0
 24
1.0
 15
0.0
 25
0.0
 16
0.0
 26
0.0
 36
1.0
 17
0.0
 27
0.0
 37
0.0
 40
82.8855025217
 41
0.7070707071
 42
50.0
 43
0.0
 44
0.0
 50
0.0
 51
0.0
 71
0
 72
100
 73
1
 74
1
 75
0
 76
0
 77
0
 78
0
  0
ENDTAB
  0
TABLE
  2
LTYPE
  5
5
100
AcDbSymbolTable
 70
6
  0
LTYPE
  5
14
100
AcDbSymbolTableRecord
100
AcDbLinetypeTableRecord
  2
BYBLOCK
 70
0
  3

 72
65
 73
0
 40
0.0
  0
LTYPE
  5
15
100
AcDbSymbolTableRecord
100
AcDbLinetypeTableRecord
  2
BYLAYER
 70
0
  3

 72
65
 73
0
 40
0.0
  0
LTYPE
  5
16
100
AcDbSymbolTableRecord
100
AcDbLinetypeTableRecord
  2
CONTINUOUS
 70
64
  3
Solid line
 72
65
 73
0
 40
0.0
  0
LTYPE
  5
1F5
100
AcDbSymbolTableRecord
100
AcDbLinetypeTableRecord
  2
CENTER
 70
64
  3
____ _ ____ _ ____ _ ____ _ ____ _ ____ _ ____
 72
65
 73
4
 40
0.6
 49
0.375
 74
0
 49
-0.075
 74
0
 49
0.075
 74
0
 49
-0.075
 74
0
  0
LTYPE
  5
1F6
100
AcDbSymbolTableRecord
100
AcDbLinetypeTableRecord
  2
HIDDEN
 70
64
  3
- - - - - - - - - - - - - - - - - - - -
 72
65
 73
2
 40
0.2
 49
0.1
 74
0
 49
-0.1
 74
0
  0
LTYPE
  5
1F7
100
AcDbSymbolTableRecord
100
AcDbLinetypeTableRecord
  2
PHANTOM
 70
64
  3
_____ _ _ _____ _ _ _____ _ _ _____
 72
65
 73
6
 40
0.8
 49
0.45
 74
0
 49
-0.05
 74
0
 49
0.1
 74
0
 49
-0.05
 74
0
 49
0.1
 74
0
 49
-0.05
 74
0
  0
LTYPE
  5
1F8
100
AcDbSymbolTableRecord
100
AcDbLinetypeTableRecord
  2
DOT
 70
64
  3
. . . . . . . . . . . . . . . . . . . .
 72
65
 73
2
 40
0.2
 49
0.1
 74
0
 49
-0.1
 74
0
  0
LTYPE
  5
1F9
100
AcDbSymbolTableRecord
100
AcDbLinetypeTableRecord
  2
DASHED
 70
64
  3
- - - - - - - - - - - - - - - - - - - -
 72
65
 73
2
 40
0.2
 49
0.1
 74
0
 49
-0.1
 74
0
  0
ENDTAB
  0
TABLE
  2
LAYER
  5
2
100
AcDbSymbolTable
 70
36
  0
LAYER
  5
10
100
AcDbSymbolTableRecord
100
AcDbLayerTableRecord
  2
0
 70
0
 62
7
  6
CONTINUOUS
370
-3
390
F
  0
LAYER
  5
1FA
100
AcDbSymbolTableRecord
100
AcDbLayerTableRecord
  2
DEFAULT_1
 70
0
 62
7
  6
CENTER
370
-3
390
F
  0
LAYER
  5
1FB
100
AcDbSymbolTableRecord
100
AcDbLayerTableRecord
  2
DEFAULT_2
 70
0
 62
7
  6
HIDDEN
370
-3
390
F
  0
LAYER
  5
1FC
100
AcDbSymbolTableRecord
100
AcDbLayerTableRecord
  2
DEFAULT_3
 70
0
 62
7
  6
PHANTOM
370
-3
390
F
  0
LAYER
  5
1FD
100
AcDbSymbolTableRecord
100
AcDbLayerTableRecord
  2
00_COMPONENTS
 70
0
 62
7
  6
CONTINUOUS
370
-3
390
F
  0
LAYER
  5
1FE
100
AcDbSymbolTableRecord
100
AcDbLayerTableRecord
  2
01_1_DEFAULT_DATUMS
 70
0
 62
7
  6
CONTINUOUS
370
-3
390
F
  0
LAYER
  5
1FF
100
AcDbSymbolTableRecord
100
AcDbLayerTableRecord
  2
01_PLANES
 70
0
 62
7
  6
CONTINUOUS
370
-3
390
F
  0
LAYER
  5
200
100
AcDbSymbolTableRecord
100
AcDbLayerTableRecord
  2
02_COORD_SYS
 70
0
 62
7
  6
CONTINUOUS
370
-3
390
F
  0
LAYER
  5
201
100
AcDbSymbolTableRecord
100
AcDbLayerTableRecord
  2
03_AXES
 70
0
 62
7
  6
CONTINUOUS
370
-3
390
F
  0
LAYER
  5
202
100
AcDbSymbolTableRecord
100
AcDbLayerTableRecord
  2
04_POINTS
 70
0
 62
7
  6
CONTINUOUS
370
-3
390
F
  0
LAYER
  5
203
100
AcDbSymbolTableRecord
100
AcDbLayerTableRecord
  2
05_CURVES
 70
0
 62
7
  6
CONTINUOUS
370
-3
390
F
  0
LAYER
  5
204
100
AcDbSymbolTableRecord
100
AcDbLayerTableRecord
  2
06_SURFS
 70
0
 62
7
  6
CONTINUOUS
370
-3
390
F
  0
LAYER
  5
205
100
AcDbSymbolTableRecord
100
AcDbLayerTableRecord
  2
07_COSMETICS
 70
0
 62
7
  6
CONTINUOUS
370
-3
390
F
  0
LAYER
  5
206
100
AcDbSymbolTableRecord
100
AcDbLayerTableRecord
  2
10_NOTES
 70
0
 62
7
  6
CONTINUOUS
370
-3
390
F
  0
LAYER
  5
207
100
AcDbSymbolTableRecord
100
AcDbLayerTableRecord
  2
11_NOTES_PUB
 70
0
 62
7
  6
CONTINUOUS
370
-3
390
F
  0
LAYER
  5
208
100
AcDbSymbolTableRecord
100
AcDbLayerTableRecord
  2
13_REF_GTOL
 70
0
 62
7
  6
CONTINUOUS
370
-3
390
F
  0
LAYER
  5
209
100
AcDbSymbolTableRecord
100
AcDbLayerTableRecord
  2
16_MISC
 70
0
 62
7
  6
CONTINUOUS
370
-3
390
F
  0
LAYER
  5
20A
100
AcDbSymbolTableRecord
100
AcDbLayerTableRecord
  2
17_NO_PRINT
 70
0
 62
7
  6
CONTINUOUS
370
-3
390
F
  0
LAYER
  5
20B
100
AcDbSymbolTableRecord
100
AcDbLayerTableRecord
  2
18_DATUM_CAMS_JOINTS
 70
0
 62
7
  6
CONTINUOUS
370
-3
390
F
  0
LAYER
  5
20C
100
AcDbSymbolTableRecord
100
AcDbLayerTableRecord
  2
19_DATUM_FUNCTIONAL
 70
0
 62
7
  6
CONTINUOUS
370
-3
390
F
  0
LAYER
  5
20D
100
AcDbSymbolTableRecord
100
AcDbLayerTableRecord
  2
20_DATUM_KINEMATIC_SCHEME
 70
0
 62
7
  6
CONTINUOUS
370
-3
390
F
  0
ENDTAB
  0
TABLE
  2
STYLE
  5
3
100
AcDbSymbolTable
 70
1
  0
STYLE
  5
11
100
AcDbSymbolTableRecord
100
AcDbTextStyleTableRecord
  2
STANDARD
 70
0
 40
0.0
 41
1.0
 50
0.0
 71
0
 42
0.2
  3
ARIAL.TTF
  4

  0
STYLE
  5
20E
100
AcDbSymbolTableRecord
100
AcDbTextStyleTableRecord
  2
TEXTSTYLE_1
 70
0
 40
0.0
 41
0.8
 50
0.0
 71
0
 42
0.2
  3
gdt
  4

  0
ENDTAB
  0
TABLE
  2
VIEW
  5
6
100
AcDbSymbolTable
 70
0
  0
ENDTAB
  0
TABLE
  2
UCS
  5
7
100
AcDbSymbolTable
 70
0
  0
ENDTAB
  0
TABLE
  2
APPID
  5
9
100
AcDbSymbolTable
 70
1
  0
APPID
  5
20F
100
AcDbSymbolTableRecord
100
AcDbRegAppTableRecord
  2
ACAD
 70
0
  0
ENDTAB
  0
TABLE
  2
BLOCK_RECORD
  5
1
100
AcDbSymbolTable
 70
0
  0
BLOCK_RECORD
  5
210
100
AcDbSymbolTableRecord
100
AcDbBlockTableRecord
  2
*Model_Space
  0
BLOCK_RECORD
  5
211
100
AcDbSymbolTableRecord
100
AcDbBlockTableRecord
  2
*Paper_Space
  0
BLOCK_RECORD
  5
212
100
AcDbSymbolTableRecord
100
AcDbBlockTableRecord
  2
_FILLED
  0
ENDTAB
  0
TABLE
  2
DIMSTYLE
  5
A
100
AcDbSymbolTable
 70
1
100
AcDbDimStyleTable
 71
0
  0
DIMSTYLE
105
213
100
AcDbSymbolTableRecord
100
AcDbDimStyleTableRecord
  2
STANDARD
 70
0
  3

  4

 40
1.0
 41
0.6976894152
 42
1.0
 43
0.38
 44
1.0
 45
0.0
 46
0.0
 47
0.01
 48
0.01
140
0.9767651812
141
0.09
142
0.0
143
25.4
144
1.0
145
0.0
146
1.0
147
0.625
 71
1
 72
0
 73
0
 74
0
 75
0
 76
0
 77
1
 78
8
 79
2
170
0
171
1
172
0
173
0
174
0
175
0
176
0
177
0
178
0
270
2
179
2
271
2
272
2
273
2
274
2
275
0
280
0
281
0
282
0
283
1
284
8
285
0
286
0
287
3
288
0
340
11
278
46
341
212
342
212
343
212
344
212
  0
ENDTAB
  0
ENDSEC
  0
SECTION
  2
BLOCKS
  0
BLOCK
  5
20
100
AcDbEntity
  8
0
100
AcDbBlockBegin
  2
*Model_Space
 70
0
 10
0.0
 20
0.0
 30
0.0
  3
*Model_Space
  1

  0
ENDBLK
  5
21
100
AcDbEntity
  8
0
100
AcDbBlockEnd
  0
BLOCK
  5
1C
100
AcDbEntity
  8
0
100
AcDbBlockBegin
  2
*Paper_Space
 70
0
 10
0.0
 20
0.0
 30
0.0
  3
*Paper_Space
  1

  0
ENDBLK
  5
1D
100
AcDbEntity
  8
0
100
AcDbBlockEnd
  0
BLOCK
  5
214
100
AcDbEntity
  8
0
100
AcDbBlockBegin
  2
_FILLED
 70
64
 10
0.0
 20
0.0
  3
_FILLED
  1

  0
SOLID
  5
215
100
AcDbEntity
  8
0
  6
BYBLOCK
 62
0
100
AcDbTrace
 10
0.0
 20
0.0
 11
-1.0
 21
0.25
 12
-1.0
 22
-0.25
 13
-1.0
 23
-0.25
  0
ENDBLK
  5
216
100
AcDbEntity
  8
0
  6
BYBLOCK
 62
0
100
AcDbBlockEnd
  0
ENDSEC
  0
SECTION
  2
ENTITIES
  0
LINE
  5
217
100
AcDbEntity
  8
0
100
AcDbLine
 62
7
  6
BYLAYER
 10
15.3645637848
 20
6.6450433478
 11
25.0145637848
 21
6.6450433478
  0
LINE
  5
218
100
AcDbEntity
  8
0
100
AcDbLine
 62
7
  6
BYLAYER
 10
25.2145637848
 20
6.6450433478
 11
35.0145637848
 21
6.6450433478
  0
LINE
  5
219
100
AcDbEntity
  8
0
100
AcDbLine
 62
7
  6
BYLAYER
 10
35.2145637848
 20
6.6450433478
 11
44.8645637848
 21
6.6450433478
  0
LINE
  5
21A
100
AcDbEntity
  8
0
100
AcDbLine
 62
7
  6
BYLAYER
 10
16.6145637848
 20
8.4262612245
 11
23.6145637848
 21
8.4262612245
  0
LINE
  5
21B
100
AcDbEntity
  8
0
100
AcDbLine
 62
7
  6
BYLAYER
 10
26.6145637848
 20
8.4262612245
 11
33.6145637848
 21
8.4262612245
  0
LINE
  5
21C
100
AcDbEntity
  8
0
100
AcDbLine
 62
7
  6
BYLAYER
 10
36.6145637848
 20
8.4262612245
 11
43.6145637848
 21
8.4262612245
  0
LINE
  5
21D
100
AcDbEntity
  8
0
100
AcDbLine
 62
7
  6
BYLAYER
 10
15.3645637848
 20
10.7662612245
 11
16.6145637848
 21
10.7662612245
  0
LINE
  5
21E
100
AcDbEntity
  8
0
100
AcDbLine
 62
7
  6
BYLAYER
 10
23.6145637848
 20
10.7662612245
 11
25.0145637848
 21
10.7662612245
  0
LINE
  5
21F
100
AcDbEntity
  8
0
100
AcDbLine
 62
7
  6
BYLAYER
 10
25.2145637848
 20
10.7662612245
 11
26.6145637848
 21
10.7662612245
  0
LINE
  5
220
100
AcDbEntity
  8
0
100
AcDbLine
 62
7
  6
BYLAYER
 10
33.6145637848
 20
10.7662612245
 11
35.0145637848
 21
10.7662612245
  0
LINE
  5
221
100
AcDbEntity
  8
0
100
AcDbLine
 62
7
  6
BYLAYER
 10
35.2145637848
 20
10.7662612245
 11
36.6145637848
 21
10.7662612245
  0
LINE
  5
222
100
AcDbEntity
  8
0
100
AcDbLine
 62
7
  6
BYLAYER
 10
43.6145637848
 20
10.7662612245
 11
44.8645637848
 21
10.7662612245
  0
LINE
  5
223
100
AcDbEntity
  8
0
100
AcDbLine
 62
7
  6
BYLAYER
 10
24.3645637848
 20
11.6462612245
 11
25.0145637848
 21
11.6462612245
  0
LINE
  5
224
100
AcDbEntity
  8
0
100
AcDbLine
 62
7
  6
BYLAYER
 10
25.2145637848
 20
11.6462612245
 11
25.8645637848
 21
11.6462612245
  0
LINE
  5
225
100
AcDbEntity
  8
0
100
AcDbLine
 62
7
  6
BYLAYER
 10
34.3645637848
 20
11.6462612245
 11
35.0145637848
 21
11.6462612245
  0
LINE
  5
226
100
AcDbEntity
  8
0
100
AcDbLine
 62
7
  6
BYLAYER
 10
35.2145637848
 20
11.6462612245
 11
35.8645637848
 21
11.6462612245
  0
LINE
  5
227
100
AcDbEntity
  8
0
100
AcDbLine
 62
7
  6
BYLAYER
 10
43.6145637848
 20
16.3062612245
 11
36.6145637848
 21
16.3062612245
  0
LINE
  5
228
100
AcDbEntity
  8
0
100
AcDbLine
 62
7
  6
BYLAYER
 10
33.6145637848
 20
16.3062612245
 11
26.6145637848
 21
16.3062612245
  0
LINE
  5
229
100
AcDbEntity
  8
0
100
AcDbLine
 62
7
  6
BYLAYER
 10
23.6145637848
 20
16.3062612245
 11
16.6145637848
 21
16.3062612245
  0
LINE
  5
22A
100
AcDbEntity
  8
0
100
AcDbLine
 62
7
  6
BYLAYER
 10
15.3645637848
 20
16.6440875867
 11
24.3645637848
 21
16.6440875867
  0
LINE
  5
22B
100
AcDbEntity
  8
0
100
AcDbLine
 62
7
  6
BYLAYER
 10
25.8645637848
 20
16.6440875867
 11
34.3645637848
 21
16.6440875867
  0
LINE
  5
22C
100
AcDbEntity
  8
0
100
AcDbLine
 62
7
  6
BYLAYER
 10
35.8645637848
 20
16.6440875867
 11
44.8645637848
 21
16.6440875867
  0
LINE
  5
22D
100
AcDbEntity
  8
0
100
AcDbLine
 62
7
  6
BYLAYER
 10
35.8645637848
 20
19.3599957232
 11
35.2145637848
 21
19.3599957232
  0
LINE
  5
22E
100
AcDbEntity
  8
0
100
AcDbLine
 62
7
  6
BYLAYER
 10
35.0145637848
 20
19.3599957232
 11
34.3645637848
 21
19.3599957232
  0
LINE
  5
22F
100
AcDbEntity
  8
0
100
AcDbLine
 62
7
  6
BYLAYER
 10
25.8645637848
 20
19.3683460207
 11
25.2145637848
 21
19.3683460207
  0
LINE
  5
230
100
AcDbEntity
  8
0
100
AcDbLine
 62
7
  6
BYLAYER
 10
25.0145637848
 20
19.3683460207
 11
24.3645637848
 21
19.3683460207
  0
LINE
  5
231
100
AcDbEntity
  8
0
100
AcDbLine
 62
7
  6
BYLAYER
 10
15.1645637848
 20
27.2463592852
 11
15.1645637848
 21
37.0461369169
  0
LINE
  5
232
100
AcDbEntity
  8
0
100
AcDbLine
 62
7
  6
BYLAYER
 10
15.3645637848
 20
26.4462612245
 11
25.0145637848
 21
26.4462612245
  0
LINE
  5
233
100
AcDbEntity
  8
0
100
AcDbLine
 62
7
  6
BYLAYER
 10
25.2145637848
 20
26.4462612245
 11
27.3835865477
 21
26.4462612245
  0
LINE
  5
234
100
AcDbEntity
  8
0
100
AcDbLine
 62
7
  6
BYLAYER
 10
32.8455410219
 20
26.4462612245
 11
35.0145637848
 21
26.4462612245
  0
LINE
  5
235
100
AcDbEntity
  8
0
100
AcDbLine
 62
7
  6
BYLAYER
 10
35.2145637848
 20
26.4462612245
 11
44.8645637848
 21
26.4462612245
  0
LINE
  5
236
100
AcDbEntity
  8
0
100
AcDbLine
 62
7
  6
BYLAYER
 10
15.3645637848
 20
6.6450433478
 11
15.3645637848
 21
27.2462613702
  0
LINE
  5
237
100
AcDbEntity
  8
0
100
AcDbLine
 62
7
  6
BYLAYER
 10
15.4495637848
 20
37.0451448375
 11
15.4495637848
 21
43.0450433478
  0
LINE
  5
238
100
AcDbEntity
  8
0
100
AcDbLine
 62
7
  6
BYLAYER
 10
15.8645637848
 20
50.6462633478
 11
15.8645637848
 21
61.8462633478
  0
LINE
  5
239
100
AcDbEntity
  8
0
100
AcDbLine
 62
7
  6
BYLAYER
 10
16.6145637848
 20
8.4262612245
 11
16.6145637848
 21
16.3062612245
  0
LINE
  5
23A
100
AcDbEntity
  8
0
100
AcDbLine
 62
7
  6
BYLAYER
 10
15.1645637848
 20
27.2462613702
 11
27.3835865477
 21
27.246261415
  0
LINE
  5
23B
100
AcDbEntity
  8
0
100
AcDbLine
 62
7
  6
BYLAYER
 10
32.8455410219
 20
27.246261415
 11
45.0645637848
 21
27.2462613702
  0
LINE
  5
23C
100
AcDbEntity
  8
0
100
AcDbLine
 62
7
  6
BYLAYER
 10
21.6145637848
 20
28.5472549174
 11
23.4645637848
 21
28.5472546276
  0
LINE
  5
23D
100
AcDbEntity
  8
0
100
AcDbLine
 62
7
  6
BYLAYER
 10
38.6145637848
 20
28.5636727986
 11
36.7645637848
 21
28.5636719399
  0
LINE
  5
23E
100
AcDbEntity
  8
0
100
AcDbLine
 62
7
  6
BYLAYER
 10
15.1645637848
 20
28.8051069903
 11
21.6145637848
 21
28.8051069903
  0
LINE
  5
23F
100
AcDbEntity
  8
0
100
AcDbLine
 62
7
  6
BYLAYER
 10
38.6145637848
 20
28.8051069903
 11
45.0645637848
 21
28.8051069903
  0
LINE
  5
240
100
AcDbEntity
  8
0
100
AcDbLine
 62
7
  6
BYLAYER
 10
17.9895637848
 20
43.0450433478
 11
17.9895637848
 21
43.2450433478
  0
LINE
  5
241
100
AcDbEntity
  8
0
100
AcDbLine
 62
7
  6
BYLAYER
 10
17.9910056166
 20
61.8462633478
 11
17.9910056166
 21
76.6462633478
  0
LINE
  5
242
100
AcDbEntity
  8
0
100
AcDbLine
 62
7
  6
BYLAYER
 10
18.7256435364
 20
61.8462633478
 11
18.7256435364
 21
76.6462633478
  0
LINE
  5
243
100
AcDbEntity
  8
0
100
AcDbLine
 62
7
  6
BYLAYER
 10
19.2395637848
 20
43.2450433478
 11
19.2395637848
 21
50.6462633478
  0
LINE
  5
244
100
AcDbEntity
  8
0
100
AcDbLine
 62
7
  6
BYLAYER
 10
19.2495637848
 20
43.0450433478
 11
19.2495637848
 21
37.0450433478
  0
LINE
  5
245
100
AcDbEntity
  8
0
100
AcDbLine
 62
7
  6
BYLAYER
 10
27.8876089008
 20
29.7472613084
 11
23.4645637848
 21
28.5636719399
  0
LINE
  5
246
100
AcDbEntity
  8
0
100
AcDbLine
 62
7
  6
BYLAYER
 10
27.8876089008
 20
29.7472611902
 11
32.3415186688
 21
29.7472611902
  0
LINE
  5
247
100
AcDbEntity
  8
0
100
AcDbLine
 62
7
  6
BYLAYER
 10
30.1471564148
 20
30.2985406347
 11
30.0819711548
 21
30.2985406347
  0
LINE
  5
248
100
AcDbEntity
  8
0
100
AcDbLine
 62
7
  6
BYLAYER
 10
29.3580275697
 20
31.7453350773
 11
30.8710999999
 21
31.7453350773
  0
LINE
  5
249
100
AcDbEntity
  8
0
100
AcDbLine
 62
7
  6
BYLAYER
 10
36.7645637848
 20
28.5636719399
 11
32.3415186688
 21
29.7472613084
  0
LINE
  5
24A
100
AcDbEntity
  8
0
100
AcDbLine
 62
7
  6
BYLAYER
 10
21.5769997294
 20
43.0450433478
 11
21.5769997294
 21
43.2450433478
  0
LINE
  5
24B
100
AcDbEntity
  8
0
100
AcDbLine
 62
7
  6
BYLAYER
 10
21.6145637848
 20
27.2467591315
 11
21.6145637848
 21
33.547257321
  0
LINE
  5
24C
100
AcDbEntity
  8
0
100
AcDbLine
 62
7
  6
BYLAYER
 10
15.1645637848
 20
32.6630625695
 11
21.6145637848
 21
32.6630625695
  0
LINE
  5
24D
100
AcDbEntity
  8
0
100
AcDbLine
 62
7
  6
BYLAYER
 10
38.6145637848
 20
32.6630625695
 11
45.0645637848
 21
32.6630625695
  0
LINE
  5
24E
100
AcDbEntity
  8
0
100
AcDbLine
 62
7
  6
BYLAYER
 10
38.6145637848
 20
33.5472545767
 11
21.6145637848
 21
33.547257321
  0
LINE
  5
24F
100
AcDbEntity
  8
0
100
AcDbLine
 62
7
  6
BYLAYER
 10
23.3645637848
 20
37.0450433478
 11
23.3645637848
 21
43.0450433478
  0
LINE
  5
250
100
AcDbEntity
  8
0
100
AcDbLine
 62
7
  6
BYLAYER
 10
23.4645637848
 20
33.5472545767
 11
23.4645637848
 21
28.5472546276
  0
LINE
  5
251
100
AcDbEntity
  8
0
100
AcDbLine
 62
7
  6
BYLAYER
 10
23.6145637848
 20
8.4262612245
 11
23.6145637848
 21
16.3062612245
  0
LINE
  5
252
100
AcDbEntity
  8
0
100
AcDbLine
 62
7
  6
BYLAYER
 10
24.3645637848
 20
11.6462612245
 11
24.3645637848
 21
19.3683460207
  0
LINE
  5
253
100
AcDbEntity
  8
0
100
AcDbLine
 62
7
  6
BYLAYER
 10
25.0145637848
 20
6.6450433478
 11
25.0145637848
 21
27.246261415
  0
LINE
  5
254
100
AcDbEntity
  8
0
100
AcDbLine
 62
7
  6
BYLAYER
 10
25.2145637848
 20
27.246261415
 11
25.2145637848
 21
6.6450433478
  0
LINE
  5
255
100
AcDbEntity
  8
0
100
AcDbLine
 62
7
  6
BYLAYER
 10
25.8645637848
 20
35.6450433478
 11
34.3645637848
 21
35.6450433478
  0
LINE
  5
256
100
AcDbEntity
  8
0
100
AcDbLine
 62
7
  6
BYLAYER
 10
27.6712261425
 20
33.5472510865
 11
28.7421802383
 21
32.2894051742
  0
LINE
  5
257
100
AcDbEntity
  8
0
100
AcDbLine
 62
7
  6
BYLAYER
 10
25.8645637848
 20
19.3683460207
 11
25.8645637848
 21
11.6462612245
  0
LINE
  5
258
100
AcDbEntity
  8
0
100
AcDbLine
 62
7
  6
BYLAYER
 10
25.8645637848
 20
35.6450433478
 11
25.8645637848
 21
37.0450433478
  0
LINE
  5
259
100
AcDbEntity
  8
0
100
AcDbLine
 62
7
  6
BYLAYER
 10
26.4153941648
 20
35.6450433478
 11
26.4153941648
 21
37.0450433478
  0
LINE
  5
25A
100
AcDbEntity
  8
0
100
AcDbLine
 62
7
  6
BYLAYER
 10
26.6145637848
 20
43.0450433478
 11
26.6145637848
 21
37.0450433478
  0
LINE
  5
25B
100
AcDbEntity
  8
0
100
AcDbLine
 62
7
  6
BYLAYER
 10
26.6145637848
 20
8.4262612245
 11
26.6145637848
 21
16.3062612245
  0
LINE
  5
25C
100
AcDbEntity
  8
0
100
AcDbLine
 62
7
  6
BYLAYER
 10
26.6279428173
 20
35.6450433478
 11
26.6279428173
 21
37.0450433478
  0
LINE
  5
25D
100
AcDbEntity
  8
0
100
AcDbLine
 62
7
  6
BYLAYER
 10
27.3835865477
 20
27.9652984113
 11
27.3835865477
 21
25.5032790288
  0
LINE
  5
25E
100
AcDbEntity
  8
0
100
AcDbLine
 62
7
  6
BYLAYER
 10
27.4820744686
 20
43.2450433478
 11
27.4820744686
 21
43.0450433478
  0
LINE
  5
25F
100
AcDbEntity
  8
0
100
AcDbLine
 62
7
  6
BYLAYER
 10
15.1645637848
 20
37.0460228275
 11
45.0645637848
 21
37.0460228275
  0
LINE
  5
260
100
AcDbEntity
  8
0
100
AcDbLine
 62
7
  6
BYLAYER
 10
28.1145637848
 20
28.2675519675
 11
28.1145637848
 21
28.7109805146
  0
LINE
  5
261
100
AcDbEntity
  8
0
100
AcDbLine
 62
7
  6
BYLAYER
 10
28.1145637848
 20
33.5472556465
 11
28.1145637848
 21
35.6450433478
  0
LINE
  5
262
100
AcDbEntity
  8
0
100
AcDbLine
 62
7
  6
BYLAYER
 10
28.1145637848
 20
43.0450433478
 11
28.1145637848
 21
48.6462612246
  0
LINE
  5
263
100
AcDbEntity
  8
0
100
AcDbLine
 62
7
  6
BYLAYER
 10
28.7421802382
 20
29.7472612007
 11
28.7421802383
 21
32.2894051742
  0
LINE
  5
264
100
AcDbEntity
  8
0
100
AcDbLine
 62
7
  6
BYLAYER
 10
30.0819711547
 20
30.2985406347
 11
30.0819711547
 21
29.7472611375
  0
LINE
  5
265
100
AcDbEntity
  8
0
100
AcDbLine
 62
7
  6
BYLAYER
 10
30.1471564149
 20
29.7472611375
 11
30.1471564149
 21
30.2985406347
  0
LINE
  5
266
100
AcDbEntity
  8
0
100
AcDbLine
 62
7
  6
BYLAYER
 10
31.4869473314
 20
32.2894051743
 11
31.4869473314
 21
29.7472612007
  0
LINE
  5
267
100
AcDbEntity
  8
0
100
AcDbLine
 62
7
  6
BYLAYER
 10
32.1145637848
 20
28.2678659625
 11
32.1145637848
 21
28.7109805146
  0
LINE
  5
268
100
AcDbEntity
  8
0
100
AcDbLine
 62
7
  6
BYLAYER
 10
32.1145637848
 20
33.5472556465
 11
32.1145637848
 21
35.6450433478
  0
LINE
  5
269
100
AcDbEntity
  8
0
100
AcDbLine
 62
7
  6
BYLAYER
 10
32.1145637848
 20
43.0450433478
 11
32.1145637848
 21
48.6462612246
  0
LINE
  5
26A
100
AcDbEntity
  8
0
100
AcDbLine
 62
7
  6
BYLAYER
 10
32.747053101
 20
43.0450433478
 11
32.747053101
 21
43.2450433478
  0
LINE
  5
26B
100
AcDbEntity
  8
0
100
AcDbLine
 62
7
  6
BYLAYER
 10
32.8455410219
 20
27.9652984113
 11
32.8455410219
 21
25.5032790288
  0
LINE
  5
26C
100
AcDbEntity
  8
0
100
AcDbLine
 62
7
  6
BYLAYER
 10
15.4495637848
 20
43.0450433478
 11
44.7795637848
 21
43.0450433478
  0
LINE
  5
26D
100
AcDbEntity
  8
0
100
AcDbLine
 62
7
  6
BYLAYER
 10
17.9895637848
 20
43.2450433478
 11
28.1145637848
 21
43.2450433478
  0
LINE
  5
26E
100
AcDbEntity
  8
0
100
AcDbLine
 62
7
  6
BYLAYER
 10
32.1145637848
 20
43.2450433478
 11
42.2395637848
 21
43.2450433478
  0
LINE
  5
26F
100
AcDbEntity
  8
0
100
AcDbLine
 62
7
  6
BYLAYER
 10
33.6011847523
 20
35.6450433478
 11
33.6011847523
 21
37.0450433478
  0
LINE
  5
270
100
AcDbEntity
  8
0
100
AcDbLine
 62
7
  6
BYLAYER
 10
33.6145637848
 20
8.4262612245
 11
33.6145637848
 21
16.3062612245
  0
LINE
  5
271
100
AcDbEntity
  8
0
100
AcDbLine
 62
7
  6
BYLAYER
 10
33.6145637848
 20
37.0450433478
 11
33.6145637848
 21
43.0450433478
  0
LINE
  5
272
100
AcDbEntity
  8
0
100
AcDbLine
 62
7
  6
BYLAYER
 10
33.8137334048
 20
35.6450433478
 11
33.8137334048
 21
37.0450433478
  0
LINE
  5
273
100
AcDbEntity
  8
0
100
AcDbLine
 62
7
  6
BYLAYER
 10
34.3645637848
 20
11.6462612245
 11
34.3645637848
 21
19.3599957232
  0
LINE
  5
274
100
AcDbEntity
  8
0
100
AcDbLine
 62
7
  6
BYLAYER
 10
34.3645637848
 20
35.6450433478
 11
34.3645637848
 21
37.0450433478
  0
LINE
  5
275
100
AcDbEntity
  8
0
100
AcDbLine
 62
7
  6
BYLAYER
 10
35.0145637848
 20
6.6450433478
 11
35.0145637848
 21
27.246261415
  0
LINE
  5
276
100
AcDbEntity
  8
0
100
AcDbLine
 62
7
  6
BYLAYER
 10
35.2145637848
 20
27.246261415
 11
35.2145637848
 21
6.6450433478
  0
LINE
  5
277
100
AcDbEntity
  8
0
100
AcDbLine
 62
7
  6
BYLAYER
 10
35.725102586
 20
61.8462633478
 11
35.725102586
 21
76.6462633478
  0
LINE
  5
278
100
AcDbEntity
  8
0
100
AcDbLine
 62
7
  6
BYLAYER
 10
35.8645637848
 20
19.3599957232
 11
35.8645637848
 21
11.6462612245
  0
LINE
  5
279
100
AcDbEntity
  8
0
100
AcDbLine
 62
7
  6
BYLAYER
 10
36.6145637848
 20
8.4262612245
 11
36.6145637848
 21
16.3062612245
  0
LINE
  5
27A
100
AcDbEntity
  8
0
100
AcDbLine
 62
7
  6
BYLAYER
 10
36.7645637848
 20
33.5472545767
 11
36.7645637848
 21
28.5636719399
  0
LINE
  5
27B
100
AcDbEntity
  8
0
100
AcDbLine
 62
7
  6
BYLAYER
 10
36.8645637848
 20
43.0450433478
 11
36.8645637848
 21
37.0450433478
  0
LINE
  5
27C
100
AcDbEntity
  8
0
100
AcDbLine
 62
7
  6
BYLAYER
 10
38.0124550668
 20
61.8462633478
 11
38.0124550668
 21
76.6462633478
  0
LINE
  5
27D
100
AcDbEntity
  8
0
100
AcDbLine
 62
7
  6
BYLAYER
 10
32.5579014271
 20
33.5472510865
 11
31.4869473314
 21
32.2894051743
  0
LINE
  5
27E
100
AcDbEntity
  8
0
100
AcDbLine
 62
7
  6
BYLAYER
 10
38.6145637848
 20
27.2467591315
 11
38.6145637848
 21
33.5472558293
  0
LINE
  5
27F
100
AcDbEntity
  8
0
100
AcDbLine
 62
7
  6
BYLAYER
 10
38.6521278402
 20
43.2450433478
 11
38.6521278402
 21
43.0450433478
  0
LINE
  5
280
100
AcDbEntity
  8
0
100
AcDbLine
 62
7
  6
BYLAYER
 10
15.8645637848
 20
50.6462633478
 11
44.3645637848
 21
50.6462633478
  0
LINE
  5
281
100
AcDbEntity
  8
0
100
AcDbLine
 62
7
  6
BYLAYER
 10
40.9795637848
 20
37.0450433478
 11
40.9795637848
 21
43.0450433478
  0
LINE
  5
282
100
AcDbEntity
  8
0
100
AcDbLine
 62
7
  6
BYLAYER
 10
40.9895637848
 20
43.2450433478
 11
40.9895637848
 21
50.6462633478
  0
LINE
  5
283
100
AcDbEntity
  8
0
100
AcDbLine
 62
7
  6
BYLAYER
 10
41.9583972588
 20
61.8462633478
 11
41.9583972588
 21
76.6462633478
  0
LINE
  5
284
100
AcDbEntity
  8
0
100
AcDbLine
 62
7
  6
BYLAYER
 10
42.2381220507
 20
61.8462633478
 11
42.2381220507
 21
76.6462633478
  0
LINE
  5
285
100
AcDbEntity
  8
0
100
AcDbLine
 62
7
  6
BYLAYER
 10
42.2395637848
 20
43.0450433478
 11
42.2395637848
 21
43.2450433478
  0
LINE
  5
286
100
AcDbEntity
  8
0
100
AcDbLine
 62
7
  6
BYLAYER
 10
43.6145637848
 20
8.4262612245
 11
43.6145637848
 21
16.3062612245
  0
LINE
  5
287
100
AcDbEntity
  8
0
100
AcDbLine
 62
7
  6
BYLAYER
 10
44.3645637848
 20
50.6462633478
 11
44.3645637848
 21
61.8462633478
  0
LINE
  5
288
100
AcDbEntity
  8
0
100
AcDbLine
 62
7
  6
BYLAYER
 10
44.7795637848
 20
43.0450433478
 11
44.7795637848
 21
37.0451448376
  0
LINE
  5
289
100
AcDbEntity
  8
0
100
AcDbLine
 62
7
  6
BYLAYER
 10
44.8645637848
 20
6.6450433478
 11
44.8645637848
 21
27.2462613702
  0
LINE
  5
28A
100
AcDbEntity
  8
0
100
AcDbLine
 62
7
  6
BYLAYER
 10
45.0645637848
 20
27.2463592852
 11
45.0645637848
 21
37.0461369169
  0
LINE
  5
28B
100
AcDbEntity
  8
0
100
AcDbLine
 62
7
  6
BYLAYER
 10
44.3645637848
 20
61.8462633478
 11
15.8645637848
 21
61.8462633478
  0
LINE
  5
28C
100
AcDbEntity
  8
0
100
AcDbLine
 62
7
  6
BYLAYER
 10
42.2380367207
 20
76.6462633478
 11
17.9911259293
 21
76.6462633478
  0
SPLINE
  5
28D
100
AcDbEntity
  8
0
100
AcDbSpline
 62
7
  6
BYLAYER
 70
0
 71
3
 72
33
 73
29
 74
0
 42
0.0000001
 43
0.0000001
 44
0.0000000001
 40
0.0
 40
0.0
 40
0.0
 40
0.0
 40
0.0084976074
 40
0.0134889539
 40
0.0191991114
 40
0.0331543138
 40
0.0508315984
 40
0.0723221505
 40
0.0975830947
 40
0.1264582145
 40
0.1587230087
 40
0.2323313658
 40
0.3158266872
 40
0.4061603379
 40
0.4999888734
 40
0.5938176552
 40
0.6841522015
 40
0.7676502059
 40
0.8412643861
 40
0.8735319736
 40
0.9024102935
 40
0.9276732442
 40
0.9491657114
 40
0.9668445979
 40
0.9808005433
 40
0.9865108935
 40
0.9915023472
 40
1.0
 40
1.0
 40
1.0
 40
1.0
 10
32.1145637848
 20
48.6462612246
 30
0.0
 10
32.1145637848
 20
48.6580414038
 30
0.0
 10
32.108477035
 20
48.6768461969
 30
0.0
 10
32.0926985504
 20
48.6983168162
 30
0.0
 10
32.0682229304
 20
48.7223925983
 30
0.0
 10
32.0246435049
 20
48.751020106
 30
0.0
 10
31.957901165
 20
48.782397543
 30
0.0
 10
31.8737409301
 20
48.8126287918
 30
0.0
 10
31.7728653761
 20
48.8413762497
 30
0.0
 10
31.6561291471
 20
48.8683768222
 30
0.0
 10
31.4725639013
 20
48.9031946914
 30
0.0
 10
31.2123543919
 20
48.9391200865
 30
0.0
 10
30.8706503669
 20
48.9701297616
 30
0.0
 10
30.5000056243
 20
48.9892638789
 30
0.0
 10
30.1146099648
 20
48.9957412149
 30
0.0
 10
29.7292130086
 20
48.9892673883
 30
0.0
 10
29.3585627923
 20
48.9701358382
 30
0.0
 10
29.0168456665
 20
48.9391270093
 30
0.0
 10
28.7566199575
 20
48.9032039672
 30
0.0
 10
28.5730385034
 20
48.8683837772
 30
0.0
 10
28.4562907091
 20
48.8413839908
 30
0.0
 10
28.3554054251
 20
48.8126344929
 30
0.0
 10
28.2712377054
 20
48.7824015651
 30
0.0
 10
28.2044892524
 20
48.7510231252
 30
0.0
 10
28.160906818
 20
48.7223937349
 30
0.0
 10
28.1364298882
 20
48.698317229
 30
0.0
 10
28.1206508266
 20
48.6768464488
 30
0.0
 10
28.1145637848
 20
48.6580414668
 30
0.0
 10
28.1145637848
 20
48.6462612246
 30
0.0
  0
SPLINE
  5
28E
100
AcDbEntity
  8
0
100
AcDbSpline
 62
7
  6
BYLAYER
 70
0
 71
3
 72
35
 73
31
 74
0
 42
0.0000001
 43
0.0000001
 44
0.0000000001
 40
0.0
 40
0.0
 40
0.0
 40
0.0
 40
0.00413118
 40
0.0085711623
 40
0.0135616395
 40
0.0192707806
 40
0.0332247796
 40
0.0508963273
 40
0.0723842318
 40
0.0976437605
 40
0.1265106225
 40
0.1587743649
 40
0.2323682786
 40
0.3158524709
 40
0.4061762116
 40
0.4999915443
 40
0.5938067231
 40
0.6841307252
 40
0.7676172996
 40
0.841215549
 40
0.8734812693
 40
0.9023505906
 40
0.9276121029
 40
0.9491013469
 40
0.9667742135
 40
0.9807288946
 40
0.9864382099
 40
0.9914287879
 40
0.9958688127
 40
1.0
 40
1.0
 40
1.0
 40
1.0
 10
32.8455410219
 20
25.5032790288
 30
0.0
 10
32.8455410219
 20
25.4954576677
 30
0.0
 10
32.843128161
 20
25.4791546827
 30
0.0
 10
32.8326755326
 20
25.4554444347
 30
0.0
 10
32.8156981511
 20
25.4321385969
 30
0.0
 10
32.7822689772
 20
25.3993403981
 30
0.0
 10
32.7227540522
 20
25.3602267765
 30
0.0
 10
32.6316275683
 20
25.3173901179
 30
0.0
 10
32.5167050408
 20
25.2761085345
 30
0.0
 10
32.3789629783
 20
25.2368578267
 30
0.0
 10
32.2195610577
 20
25.1999681113
 30
0.0
 10
31.9689058802
 20
25.1524549053
 30
0.0
 10
31.6135938633
 20
25.1033758615
 30
0.0
 10
31.1469971639
 20
25.061033215
 30
0.0
 10
30.6408749499
 20
25.0349115033
 30
0.0
 10
30.1146123563
 20
25.0260735047
 30
0.0
 10
29.588349221
 20
25.0349086369
 30
0.0
 10
29.0822221485
 20
25.0610275848
 30
0.0
 10
28.6156119453
 20
25.1033670965
 30
0.0
 10
28.2602829655
 20
25.1524442013
 30
0.0
 10
28.0096113894
 20
25.1999600784
 30
0.0
 10
27.850197092
 20
25.2368500469
 30
0.0
 10
27.7124437181
 20
25.2761012373
 30
0.0
 10
27.5975128872
 20
25.3173856226
 30
0.0
 10
27.5063797904
 20
25.3602231319
 30
0.0
 10
27.4468612484
 20
25.3993388581
 30
0.0
 10
27.4134305178
 20
25.432138045
 30
0.0
 10
27.3964525072
 20
25.4554441692
 30
0.0
 10
27.3859994996
 20
25.4791545718
 30
0.0
 10
27.3835865477
 20
25.4954576538
 30
0.0
 10
27.3835865477
 20
25.5032790288
 30
0.0
  0
SPLINE
  5
28F
100
AcDbEntity
  8
0
100
AcDbSpline
 62
7
  6
BYLAYER
 70
0
 71
3
 72
35
 73
31
 74
0
 42
0.0000001
 43
0.0000001
 44
0.0000000001
 40
0.0
 40
0.0
 40
0.0
 40
0.0
 40
0.00413118
 40
0.0085711623
 40
0.0135616395
 40
0.0192707806
 40
0.0332247796
 40
0.0508963273
 40
0.0723842318
 40
0.0976437605
 40
0.1265106225
 40
0.1587743649
 40
0.2323682786
 40
0.3158524709
 40
0.4061762116
 40
0.4999915443
 40
0.5938067231
 40
0.6841307252
 40
0.7676172996
 40
0.841215549
 40
0.8734812693
 40
0.9023505906
 40
0.9276121029
 40
0.9491013469
 40
0.9667742135
 40
0.9807288946
 40
0.9864382099
 40
0.9914287879
 40
0.9958688127
 40
1.0
 40
1.0
 40
1.0
 40
1.0
 10
32.8455410219
 20
27.9652984113
 30
0.0
 10
32.8455410219
 20
27.9731197725
 30
0.0
 10
32.843128161
 20
27.9894227574
 30
0.0
 10
32.8326755326
 20
28.0131330054
 30
0.0
 10
32.8156981511
 20
28.0364388432
 30
0.0
 10
32.7822689772
 20
28.069237042
 30
0.0
 10
32.7227540522
 20
28.1083506637
 30
0.0
 10
32.6316275683
 20
28.1511873223
 30
0.0
 10
32.5167050408
 20
28.1924689056
 30
0.0
 10
32.3789629783
 20
28.2317196134
 30
0.0
 10
32.2195610577
 20
28.2686093289
 30
0.0
 10
31.9689058802
 20
28.3161225348
 30
0.0
 10
31.6135938633
 20
28.3652015786
 30
0.0
 10
31.1469971639
 20
28.4075442251
 30
0.0
 10
30.6408749499
 20
28.4336659368
 30
0.0
 10
30.1146123563
 20
28.4425039354
 30
0.0
 10
29.588349221
 20
28.4336688033
 30
0.0
 10
29.0822221485
 20
28.4075498554
 30
0.0
 10
28.6156119453
 20
28.3652103437
 30
0.0
 10
28.2602829655
 20
28.3161332388
 30
0.0
 10
28.0096113894
 20
28.2686173617
 30
0.0
 10
27.850197092
 20
28.2317273932
 30
0.0
 10
27.7124437181
 20
28.1924762029
 30
0.0
 10
27.5975128872
 20
28.1511918176
 30
0.0
 10
27.5063797904
 20
28.1083543082
 30
0.0
 10
27.4468612484
 20
28.069238582
 30
0.0
 10
27.4134305178
 20
28.0364393952
 30
0.0
 10
27.3964525072
 20
28.013133271
 30
0.0
 10
27.3859994996
 20
27.9894228684
 30
0.0
 10
27.3835865477
 20
27.9731197863
 30
0.0
 10
27.3835865477
 20
27.9652984113
 30
0.0
  0
SPLINE
  5
290
100
AcDbEntity
  8
0
100
AcDbSpline
 62
7
  6
BYLAYER
 70
0
 71
3
 72
35
 73
31
 74
0
 42
0.0000001
 43
0.0000001
 44
0.0000000001
 40
0.0
 40
0.0
 40
0.0
 40
0.0
 40
0.00413118
 40
0.0085711623
 40
0.0135616395
 40
0.0192707806
 40
0.0332247796
 40
0.0508963273
 40
0.0723842318
 40
0.0976437605
 40
0.1265106225
 40
0.1587743649
 40
0.2323682786
 40
0.3158524709
 40
0.4061762116
 40
0.4999915443
 40
0.5938067231
 40
0.6841307252
 40
0.7676172996
 40
0.841215549
 40
0.8734812693
 40
0.9023505906
 40
0.9276121029
 40
0.9491013469
 40
0.9667742135
 40
0.9807288946
 40
0.9864382099
 40
0.9914287879
 40
0.9958688127
 40
1.0
 40
1.0
 40
1.0
 40
1.0
 10
27.3835865477
 20
25.5032790288
 30
0.0
 10
27.3835865477
 20
25.51110039
 30
0.0
 10
27.3859994086
 20
25.5274033749
 30
0.0
 10
27.396452037
 20
25.5511136229
 30
0.0
 10
27.4134294185
 20
25.5744194607
 30
0.0
 10
27.4468585924
 20
25.6072176595
 30
0.0
 10
27.5063735174
 20
25.6463312811
 30
0.0
 10
27.5975000013
 20
25.6891679397
 30
0.0
 10
27.7124225288
 20
25.7304495231
 30
0.0
 10
27.8501645913
 20
25.7697002309
 30
0.0
 10
28.0095665119
 20
25.8065899463
 30
0.0
 10
28.2602216894
 20
25.8541031523
 30
0.0
 10
28.6155337063
 20
25.9031821961
 30
0.0
 10
29.0821304057
 20
25.9455248426
 30
0.0
 10
29.5882526197
 20
25.9716465543
 30
0.0
 10
30.1145152133
 20
25.9804845529
 30
0.0
 10
30.6407783486
 20
25.9716494207
 30
0.0
 10
31.1469054211
 20
25.9455304728
 30
0.0
 10
31.6135156243
 20
25.9031909612
 30
0.0
 10
31.9688446041
 20
25.8541138563
 30
0.0
 10
32.2195161802
 20
25.8065979792
 30
0.0
 10
32.3789304777
 20
25.7697080107
 30
0.0
 10
32.5166838515
 20
25.7304568203
 30
0.0
 10
32.6316146824
 20
25.689172435
 30
0.0
 10
32.7227477792
 20
25.6463349257
 30
0.0
 10
32.7822663212
 20
25.6072191995
 30
0.0
 10
32.8156970518
 20
25.5744200126
 30
0.0
 10
32.8326750624
 20
25.5511138884
 30
0.0
 10
32.84312807
 20
25.5274034858
 30
0.0
 10
32.8455410219
 20
25.5111004038
 30
0.0
 10
32.8455410219
 20
25.5032790288
 30
0.0
  0
ELLIPSE
  5
291
100
AcDbEntity
  8
0
100
AcDbEllipse
 62
7
  6
BYLAYER
 10
30.1145637848
 20
28.7109805146
 30
0.0
 11
2.0
 21
-0.0
 31
0.0
 40
0.5321062193
 41
1.8004135711
 42
3.1415926536
  0
ELLIPSE
  5
292
100
AcDbEntity
  8
0
100
AcDbEllipse
 62
7
  6
BYLAYER
 10
30.1145637848
 20
83.0593524296
 30
0.0
 11
-0.0
 21
52.7634650947
 31
0.0
 40
0.0615956514
 41
-3.1315639839
 42
-2.9066570343
  0
ELLIPSE
  5
293
100
AcDbEntity
  8
0
100
AcDbEllipse
 62
7
  6
BYLAYER
 10
30.1145637848
 20
39.7550743258
 30
0.0
 11
0.0
 21
8.2359873396
 31
0.0
 40
0.3946096401
 41
-2.9066570343
 42
-2.705642518
  0
ELLIPSE
  5
294
100
AcDbEntity
  8
0
100
AcDbEllipse
 62
7
  6
BYLAYER
 10
30.1145637848
 20
83.0593524296
 30
0.0
 11
-0.0
 21
52.7634650947
 31
0.0
 40
0.0615956514
 41
-3.3765282729
 42
-3.1516213232
  0
ELLIPSE
  5
295
100
AcDbEntity
  8
0
100
AcDbEllipse
 62
7
  6
BYLAYER
 10
30.1145637848
 20
39.7550743258
 30
0.0
 11
0.0
 21
8.2359873396
 31
0.0
 40
0.3946096401
 41
-3.5775427891
 42
-3.3765282729
  0
ELLIPSE
  5
296
100
AcDbEntity
  8
0
100
AcDbEllipse
 62
7
  6
BYLAYER
 10
30.1145637848
 20
28.7109805146
 30
0.0
 11
2.0
 21
0.0
 31
0.0
 40
0.5321062193
 41
-0.0
 42
1.3411790825
  0
ENDSEC
  0
SECTION
  2
OBJECTS
  0
DICTIONARY
  5
C
100
AcDbDictionary
280
0
281
1
  3
ACAD_GROUP
350
D
  3
ACAD_MLINESTYLE
350
17
  3
ACAD_LAYOUT
350
1A
  3
ACAD_PLOTSETTINGS
350
19
  3
ACAD_PLOTSTYLENAME
350
E
  0
DICTIONARY
  5
D
102
{ACAD_REACTORS
330
C
102
}
100
AcDbDictionary
280
0
281
1
  0
ACDBDICTIONARYWDFLT
  5
E
102
{ACAD_REACTORS
330
C
102
}
100
AcDbDictionary
281
1
  3
Normal
350
F
100
AcDbDictionaryWithDefault
340
F
  0
DICTIONARY
  5
17
102
{ACAD_REACTORS
330
C
102
}
100
AcDbDictionary
280
0
281
1
  3
Standard
350
18
  0
DICTIONARY
  5
19
102
{ACAD_REACTORS
330
C
102
}
100
AcDbDictionary
281
1
  0
DICTIONARY
  5
1A
102
{ACAD_REACTORS
330
C
102
}
100
AcDbDictionary
281
1
  3
Model
350
297
  3
Layout1
350
298
  0
ACDBPLACEHOLDER
  5
F
102
{ACAD_REACTORS
330
E
102
}
  0
MLINESTYLE
  5
18
102
{ACAD_REACTORS
330
17
102
}
100
AcDbMlineStyle
  2
STANDARD
 70
0
  3

 62
256
 51
90.0
 52
90.0
 71
2
 49
0.5
 62
256
  6
BYLAYER
 49
-0.5
 62
256
  6
BYLAYER
  0
LAYOUT
  5
297
102
{ACAD_REACTORS
330
1A
102
}
100
AcDbPlotSettings
  1

  2
none_device
  4

  6

 40
0.0
 41
0.0
 42
0.0
 43
0.0
 44
210.0
 45
297.0
 46
0.0
 47
0.0
 48
0.0
 49
0.0
140
0.0
141
0.0
142
1.0
143
1.0
 70
1024
 72
1
 73
0
 74
0
  7

 75
0
147
1.0
148
0.0
149
0.0
100
AcDbLayout
  1
Model
 70
0
 71
0
 10
0.0
 20
0.0
 11
210.0
 21
297.0
 12
0.0
 22
0.0
 32
0.0
 14
0.0
 24
0.0
 34
0.0
 15
0.0
 25
0.0
 35
0.0
146
0.0
 13
0.0
 23
0.0
 33
0.0
 16
1.0
 26
0.0
 36
0.0
 17
0.0
 27
1.0
 37
0.0
 76
0
330
210
345
0
346
0
  0
LAYOUT
  5
298
102
{ACAD_REACTORS
330
1A
102
}
100
AcDbPlotSettings
  1

  2
none_device
  4

  6

 40
0.0
 41
0.0
 42
0.0
 43
0.0
 44
210.0
 45
297.0
 46
0.0
 47
0.0
 48
0.0
 49
0.0
140
0.0
141
0.0
142
1.0
143
1.0
 70
0
 72
1
 73
0
 74
0
  7

 75
0
147
1.0
148
0.0
149
0.0
100
AcDbLayout
  1
Layout1
 70
0
 71
1
 10
0.0
 20
0.0
 11
210.0
 21
297.0
 12
0.0
 22
0.0
 32
0.0
 14
0.0
 24
0.0
 34
0.0
 15
0.0
 25
0.0
 35
0.0
146
0.0
 13
0.0
 23
0.0
 33
0.0
 16
1.0
 26
0.0
 36
0.0
 17
0.0
 27
1.0
 37
0.0
 76
0
330
211
345
0
346
0
  0
ENDSEC
  0
EOF
