999
DXF file: C:\Users\sesa63760\Dev\_Creo\CAD\MCADID0005230_3D-CAD\drw0001_2.dxf
999
Pro/ENGINEER 2019471 by Parametric Technology Corporation
  0
SECTION
  2
HEADER
  9
$ACADVER
  1
AC1024
  9
$DWGCODEPAGE
  3
ANSI_1252
  9
$EXTMAX
 10
70.9034675293
 20
100.27776122
 30
0.0
  9
$EXTMIN
 10
0.0
 20
0.0
 30
0.0
  9
$LIMMIN
 10
0.0
 20
0.0
  9
$LIMMAX
 10
70.9034675293
 20
100.27776122
  9
$VIEWCTR
 10
35.4517337647
 20
50.13888061
  9
$VIEWSIZE
 40
100.27776122
  9
$CLAYER
  8
0
  9
$LTSCALE
 40
6.5366244351
  9
$CELTYPE
  6
BYLAYER
  9
$DIMSCALE
 40
1.0
  9
$DIMASZ
 40
0.8440888992
  9
$DIMEXO
 40
1.0
  9
$DIMDLI
 40
4.5162132461
  9
$DIMEXE
 40
1.0
  9
$DIMCEN
 40
1.069629453
  9
$DIMLFAC
 40
1.0
  9
$DIMBLK
  1
_FILLED
  9
$DIMALT
 70
0
  9
$DIMALTF
 40
0.0393700787
  9
$DIMTXT
 40
1.1817244588
  9
$DIMTOL
 70
1
  9
$DIMLIM
 70
0
  9
$DIMTFAC
 40
1.0
  9
$DIMTP
 40
0.01
  9
$DIMTM
 40
0.01
  9
$DIMGAP
 40
0.625
  9
$DIMDSEP
 70
46
  9
$AUNITS
 70
0
  9
$PDMODE
 70
3
  9
$PDSIZE
 40
0.3125
  9
$HANDSEED
  5
288
  9
$TILEMODE
 70
1
  9
$MEASUREMENT
 70
1
  9
$INSUNITS
 70
4
  0
ENDSEC
  0
SECTION
  2
CLASSES
  0
CLASS
  1
ACDBDICTIONARYWDFLT
  2
AcDbDictionaryWithDefault
  3
AutoCAD 2000
 90
0
 91
1
280
0
281
0
  0
CLASS
  1
ACDBPLACEHOLDER
  2
AcDbPlaceHolder
  3
AutoCAD 2000
 90
0
 91
1
280
0
281
0
  0
CLASS
  1
LAYOUT
  2
AcDbLayout
  3
AutoCAD 2000
 90
0
 91
0
280
0
281
0
  0
ENDSEC
  0
SECTION
  2
TABLES
  0
TABLE
  2
VPORT
  5
8
100
AcDbSymbolTable
 70
2
  0
VPORT
  5
1F4
100
AcDbSymbolTableRecord
100
AcDbViewportTableRecord
  2
*ACTIVE
 70
0
 10
0.0
 20
0.0
 11
1.0
 21
1.0
 12
35.4517337647
 22
50.13888061
 13
0.0
 23
0.0
 14
1.0
 24
1.0
 15
0.0
 25
0.0
 16
0.0
 26
0.0
 36
1.0
 17
0.0
 27
0.0
 37
0.0
 40
100.27776122
 41
0.7070707071
 42
50.0
 43
0.0
 44
0.0
 50
0.0
 51
0.0
 71
0
 72
100
 73
1
 74
1
 75
0
 76
0
 77
0
 78
0
  0
ENDTAB
  0
TABLE
  2
LTYPE
  5
5
100
AcDbSymbolTable
 70
6
  0
LTYPE
  5
14
100
AcDbSymbolTableRecord
100
AcDbLinetypeTableRecord
  2
BYBLOCK
 70
0
  3

 72
65
 73
0
 40
0.0
  0
LTYPE
  5
15
100
AcDbSymbolTableRecord
100
AcDbLinetypeTableRecord
  2
BYLAYER
 70
0
  3

 72
65
 73
0
 40
0.0
  0
LTYPE
  5
16
100
AcDbSymbolTableRecord
100
AcDbLinetypeTableRecord
  2
CONTINUOUS
 70
64
  3
Solid line
 72
65
 73
0
 40
0.0
  0
LTYPE
  5
1F5
100
AcDbSymbolTableRecord
100
AcDbLinetypeTableRecord
  2
CENTER
 70
64
  3
____ _ ____ _ ____ _ ____ _ ____ _ ____ _ ____
 72
65
 73
4
 40
0.6
 49
0.375
 74
0
 49
-0.075
 74
0
 49
0.075
 74
0
 49
-0.075
 74
0
  0
LTYPE
  5
1F6
100
AcDbSymbolTableRecord
100
AcDbLinetypeTableRecord
  2
HIDDEN
 70
64
  3
- - - - - - - - - - - - - - - - - - - -
 72
65
 73
2
 40
0.2
 49
0.1
 74
0
 49
-0.1
 74
0
  0
LTYPE
  5
1F7
100
AcDbSymbolTableRecord
100
AcDbLinetypeTableRecord
  2
PHANTOM
 70
64
  3
_____ _ _ _____ _ _ _____ _ _ _____
 72
65
 73
6
 40
0.8
 49
0.45
 74
0
 49
-0.05
 74
0
 49
0.1
 74
0
 49
-0.05
 74
0
 49
0.1
 74
0
 49
-0.05
 74
0
  0
LTYPE
  5
1F8
100
AcDbSymbolTableRecord
100
AcDbLinetypeTableRecord
  2
DOT
 70
64
  3
. . . . . . . . . . . . . . . . . . . .
 72
65
 73
2
 40
0.2
 49
0.1
 74
0
 49
-0.1
 74
0
  0
LTYPE
  5
1F9
100
AcDbSymbolTableRecord
100
AcDbLinetypeTableRecord
  2
DASHED
 70
64
  3
- - - - - - - - - - - - - - - - - - - -
 72
65
 73
2
 40
0.2
 49
0.1
 74
0
 49
-0.1
 74
0
  0
ENDTAB
  0
TABLE
  2
LAYER
  5
2
100
AcDbSymbolTable
 70
36
  0
LAYER
  5
10
100
AcDbSymbolTableRecord
100
AcDbLayerTableRecord
  2
0
 70
0
 62
7
  6
CONTINUOUS
370
-3
390
F
  0
LAYER
  5
1FA
100
AcDbSymbolTableRecord
100
AcDbLayerTableRecord
  2
DEFAULT_1
 70
0
 62
7
  6
CENTER
370
-3
390
F
  0
LAYER
  5
1FB
100
AcDbSymbolTableRecord
100
AcDbLayerTableRecord
  2
DEFAULT_2
 70
0
 62
7
  6
HIDDEN
370
-3
390
F
  0
LAYER
  5
1FC
100
AcDbSymbolTableRecord
100
AcDbLayerTableRecord
  2
DEFAULT_3
 70
0
 62
7
  6
PHANTOM
370
-3
390
F
  0
LAYER
  5
1FD
100
AcDbSymbolTableRecord
100
AcDbLayerTableRecord
  2
00_COMPONENTS
 70
0
 62
7
  6
CONTINUOUS
370
-3
390
F
  0
LAYER
  5
1FE
100
AcDbSymbolTableRecord
100
AcDbLayerTableRecord
  2
00_COMPONENTS_1
 70
0
 62
7
  6
CONTINUOUS
370
-3
390
F
  0
LAYER
  5
1FF
100
AcDbSymbolTableRecord
100
AcDbLayerTableRecord
  2
00_COMPONENTS_2
 70
0
 62
7
  6
CONTINUOUS
370
-3
390
F
  0
LAYER
  5
200
100
AcDbSymbolTableRecord
100
AcDbLayerTableRecord
  2
00_COMPONENTS_3
 70
0
 62
7
  6
CONTINUOUS
370
-3
390
F
  0
LAYER
  5
201
100
AcDbSymbolTableRecord
100
AcDbLayerTableRecord
  2
01_1_DEFAULT_DATUMS
 70
0
 62
7
  6
CONTINUOUS
370
-3
390
F
  0
LAYER
  5
202
100
AcDbSymbolTableRecord
100
AcDbLayerTableRecord
  2
01_PLANES
 70
0
 62
7
  6
CONTINUOUS
370
-3
390
F
  0
LAYER
  5
203
100
AcDbSymbolTableRecord
100
AcDbLayerTableRecord
  2
02_COORD_SYS
 70
0
 62
7
  6
CONTINUOUS
370
-3
390
F
  0
LAYER
  5
204
100
AcDbSymbolTableRecord
100
AcDbLayerTableRecord
  2
03_AXES
 70
0
 62
7
  6
CONTINUOUS
370
-3
390
F
  0
LAYER
  5
205
100
AcDbSymbolTableRecord
100
AcDbLayerTableRecord
  2
03_AXES_1
 70
0
 62
7
  6
CONTINUOUS
370
-3
390
F
  0
LAYER
  5
206
100
AcDbSymbolTableRecord
100
AcDbLayerTableRecord
  2
03_AXES_2
 70
0
 62
7
  6
CONTINUOUS
370
-3
390
F
  0
LAYER
  5
207
100
AcDbSymbolTableRecord
100
AcDbLayerTableRecord
  2
04_POINTS
 70
0
 62
7
  6
CONTINUOUS
370
-3
390
F
  0
LAYER
  5
208
100
AcDbSymbolTableRecord
100
AcDbLayerTableRecord
  2
05_CURVES
 70
0
 62
7
  6
CONTINUOUS
370
-3
390
F
  0
LAYER
  5
209
100
AcDbSymbolTableRecord
100
AcDbLayerTableRecord
  2
06_SURFS
 70
0
 62
7
  6
CONTINUOUS
370
-3
390
F
  0
LAYER
  5
20A
100
AcDbSymbolTableRecord
100
AcDbLayerTableRecord
  2
07_COSMETICS
 70
0
 62
7
  6
CONTINUOUS
370
-3
390
F
  0
LAYER
  5
20B
100
AcDbSymbolTableRecord
100
AcDbLayerTableRecord
  2
10_NOTES
 70
0
 62
7
  6
CONTINUOUS
370
-3
390
F
  0
LAYER
  5
20C
100
AcDbSymbolTableRecord
100
AcDbLayerTableRecord
  2
11_NOTES_PUB
 70
0
 62
7
  6
CONTINUOUS
370
-3
390
F
  0
LAYER
  5
20D
100
AcDbSymbolTableRecord
100
AcDbLayerTableRecord
  2
13_REF_GTOL
 70
0
 62
7
  6
CONTINUOUS
370
-3
390
F
  0
LAYER
  5
20E
100
AcDbSymbolTableRecord
100
AcDbLayerTableRecord
  2
16_MISC
 70
0
 62
7
  6
CONTINUOUS
370
-3
390
F
  0
LAYER
  5
20F
100
AcDbSymbolTableRecord
100
AcDbLayerTableRecord
  2
17_NO_PRINT
 70
0
 62
7
  6
CONTINUOUS
370
-3
390
F
  0
LAYER
  5
210
100
AcDbSymbolTableRecord
100
AcDbLayerTableRecord
  2
18_DATUM_CAMS_JOINTS
 70
0
 62
7
  6
CONTINUOUS
370
-3
390
F
  0
LAYER
  5
211
100
AcDbSymbolTableRecord
100
AcDbLayerTableRecord
  2
19_DATUM_FUNCTIONAL
 70
0
 62
7
  6
CONTINUOUS
370
-3
390
F
  0
LAYER
  5
212
100
AcDbSymbolTableRecord
100
AcDbLayerTableRecord
  2
20_DATUM_KINEMATIC_SCHEME
 70
0
 62
7
  6
CONTINUOUS
370
-3
390
F
  0
LAYER
  5
213
100
AcDbSymbolTableRecord
100
AcDbLayerTableRecord
  2
INTFCLR_30296
 70
0
 62
7
  6
CONTINUOUS
370
-3
390
F
  0
LAYER
  5
214
100
AcDbSymbolTableRecord
100
AcDbLayerTableRecord
  2
INTFCLR_35
 70
0
 62
7
  6
CONTINUOUS
370
-3
390
F
  0
LAYER
  5
215
100
AcDbSymbolTableRecord
100
AcDbLayerTableRecord
  2
INTFCLR_59147
 70
0
 62
7
  6
CONTINUOUS
370
-3
390
F
  0
LAYER
  5
216
100
AcDbSymbolTableRecord
100
AcDbLayerTableRecord
  2
INTF_BLANK
 70
0
 62
7
  6
CONTINUOUS
370
-3
390
F
  0
LAYER
  5
217
100
AcDbSymbolTableRecord
100
AcDbLayerTableRecord
  2
_BLACK_HOLE
 70
0
 62
7
  6
CONTINUOUS
370
-3
390
F
  0
ENDTAB
  0
TABLE
  2
STYLE
  5
3
100
AcDbSymbolTable
 70
1
  0
STYLE
  5
11
100
AcDbSymbolTableRecord
100
AcDbTextStyleTableRecord
  2
STANDARD
 70
0
 40
0.0
 41
1.0
 50
0.0
 71
0
 42
0.2
  3
ARIAL.TTF
  4

  0
STYLE
  5
218
100
AcDbSymbolTableRecord
100
AcDbTextStyleTableRecord
  2
TEXTSTYLE_1
 70
0
 40
0.0
 41
0.8
 50
0.0
 71
0
 42
0.2
  3
gdt
  4

  0
ENDTAB
  0
TABLE
  2
VIEW
  5
6
100
AcDbSymbolTable
 70
0
  0
ENDTAB
  0
TABLE
  2
UCS
  5
7
100
AcDbSymbolTable
 70
0
  0
ENDTAB
  0
TABLE
  2
APPID
  5
9
100
AcDbSymbolTable
 70
1
  0
APPID
  5
219
100
AcDbSymbolTableRecord
100
AcDbRegAppTableRecord
  2
ACAD
 70
0
  0
ENDTAB
  0
TABLE
  2
BLOCK_RECORD
  5
1
100
AcDbSymbolTable
 70
0
  0
BLOCK_RECORD
  5
21A
100
AcDbSymbolTableRecord
100
AcDbBlockTableRecord
  2
*Model_Space
  0
BLOCK_RECORD
  5
21B
100
AcDbSymbolTableRecord
100
AcDbBlockTableRecord
  2
*Paper_Space
  0
BLOCK_RECORD
  5
21C
100
AcDbSymbolTableRecord
100
AcDbBlockTableRecord
  2
_FILLED
  0
ENDTAB
  0
TABLE
  2
DIMSTYLE
  5
A
100
AcDbSymbolTable
 70
1
100
AcDbDimStyleTable
 71
0
  0
DIMSTYLE
105
21D
100
AcDbSymbolTableRecord
100
AcDbDimStyleTableRecord
  2
STANDARD
 70
0
  3

  4

 40
1.0
 41
0.8440888992
 42
1.0
 43
0.38
 44
1.0
 45
0.0
 46
0.0
 47
0.01
 48
0.01
140
1.1817244588
141
0.09
142
0.0
143
25.4
144
1.0
145
0.0
146
1.0
147
0.625
 71
1
 72
0
 73
0
 74
0
 75
0
 76
0
 77
1
 78
8
 79
2
170
0
171
1
172
0
173
0
174
0
175
0
176
0
177
0
178
0
270
2
179
2
271
2
272
2
273
2
274
2
275
0
280
0
281
0
282
0
283
1
284
8
285
0
286
0
287
3
288
0
340
11
278
46
341
21C
342
21C
343
21C
344
21C
  0
ENDTAB
  0
ENDSEC
  0
SECTION
  2
BLOCKS
  0
BLOCK
  5
20
100
AcDbEntity
  8
0
100
AcDbBlockBegin
  2
*Model_Space
 70
0
 10
0.0
 20
0.0
 30
0.0
  3
*Model_Space
  1

  0
ENDBLK
  5
21
100
AcDbEntity
  8
0
100
AcDbBlockEnd
  0
BLOCK
  5
1C
100
AcDbEntity
  8
0
100
AcDbBlockBegin
  2
*Paper_Space
 70
0
 10
0.0
 20
0.0
 30
0.0
  3
*Paper_Space
  1

  0
ENDBLK
  5
1D
100
AcDbEntity
  8
0
100
AcDbBlockEnd
  0
BLOCK
  5
21E
100
AcDbEntity
  8
0
100
AcDbBlockBegin
  2
_FILLED
 70
64
 10
0.0
 20
0.0
  3
_FILLED
  1

  0
SOLID
  5
21F
100
AcDbEntity
  8
0
  6
BYBLOCK
 62
0
100
AcDbTrace
 10
0.0
 20
0.0
 11
-1.0
 21
0.25
 12
-1.0
 22
-0.25
 13
-1.0
 23
-0.25
  0
ENDBLK
  5
220
100
AcDbEntity
  8
0
  6
BYBLOCK
 62
0
100
AcDbBlockEnd
  0
ENDSEC
  0
SECTION
  2
ENTITIES
  0
LINE
  5
221
100
AcDbEntity
  8
00_COMPONENTS
100
AcDbLine
 62
7
  6
BYLAYER
 10
7.7740897559
 20
56.8496071512
 11
7.7740897559
 21
48.9121115595
  0
LINE
  5
222
100
AcDbEntity
  8
00_COMPONENTS_2
100
AcDbLine
 62
7
  6
BYLAYER
 10
9.3742897559
 20
48.9121093553
 11
9.3742897559
 21
45.2608593553
  0
LINE
  5
223
100
AcDbEntity
  8
00_COMPONENTS_2
100
AcDbLine
 62
7
  6
BYLAYER
 10
9.3742897559
 20
23.7216593553
 11
9.3742897559
 21
45.2472519401
  0
LINE
  5
224
100
AcDbEntity
  8
00_COMPONENTS
100
AcDbLine
 62
7
  6
BYLAYER
 10
9.3742897559
 20
48.9121115595
 11
9.3742897559
 21
55.3700593553
  0
LINE
  5
225
100
AcDbEntity
  8
00_COMPONENTS_2
100
AcDbLine
 62
7
  6
BYLAYER
 10
9.3742897559
 20
55.3700593553
 11
9.3742897559
 21
66.5968593553
  0
LINE
  5
226
100
AcDbEntity
  8
00_COMPONENTS_2
100
AcDbLine
 62
7
  6
BYLAYER
 10
10.9490897559
 20
23.7216593553
 11
9.3742897559
 21
23.7216593553
  0
LINE
  5
227
100
AcDbEntity
  8
00_COMPONENTS_2
100
AcDbLine
 62
7
  6
BYLAYER
 10
60.9362897559
 20
23.7216593553
 11
62.5110897559
 21
23.7216593553
  0
LINE
  5
228
100
AcDbEntity
  8
00_COMPONENTS_2
100
AcDbLine
 62
7
  6
BYLAYER
 10
10.9490897559
 20
23.7216593553
 11
10.9490897559
 21
38.6568593553
  0
LINE
  5
229
100
AcDbEntity
  8
00_COMPONENTS_2
100
AcDbLine
 62
7
  6
BYLAYER
 10
10.9490897559
 20
45.2608593553
 11
10.9490897559
 21
50.5313593553
  0
LINE
  5
22A
100
AcDbEntity
  8
00_COMPONENTS_2
100
AcDbLine
 62
7
  6
BYLAYER
 10
10.9490897559
 20
55.2303593553
 11
10.9490897559
 21
55.3700593553
  0
LINE
  5
22B
100
AcDbEntity
  8
00_COMPONENTS_1
100
AcDbLine
 62
7
  6
BYLAYER
 10
11.4490897559
 20
72.141192958
 11
11.4490897559
 21
66.5968593553
  0
LINE
  5
22C
100
AcDbEntity
  8
00_COMPONENTS_1
100
AcDbLine
 62
7
  6
BYLAYER
 10
11.4490897559
 20
55.3700593553
 11
11.4490897559
 21
45.2608593553
  0
LINE
  5
22D
100
AcDbEntity
  8
00_COMPONENTS_1
100
AcDbLine
 62
7
  6
BYLAYER
 10
11.4490897559
 20
38.6568593553
 11
11.4490897559
 21
27.677203318
  0
LINE
  5
22E
100
AcDbEntity
  8
00_COMPONENTS_2
100
AcDbLine
 62
7
  6
BYLAYER
 10
12.4222897559
 20
66.5968593553
 11
12.4222897559
 21
55.3700593553
  0
LINE
  5
22F
100
AcDbEntity
  8
00_COMPONENTS_2
100
AcDbLine
 62
7
  6
BYLAYER
 10
12.4222897559
 20
45.2608593553
 11
12.4222897559
 21
38.6568593553
  0
LINE
  5
230
100
AcDbEntity
  8
00_COMPONENTS_2
100
AcDbLine
 62
7
  6
BYLAYER
 10
12.4730897559
 20
55.3700593553
 11
12.4730897559
 21
45.2608593553
  0
LINE
  5
231
100
AcDbEntity
  8
00_COMPONENTS_1
100
AcDbLine
 62
7
  6
BYLAYER
 10
13.0238897559
 20
72.1280449505
 11
13.0238897559
 21
66.5968593553
  0
LINE
  5
232
100
AcDbEntity
  8
00_COMPONENTS_1
100
AcDbLine
 62
7
  6
BYLAYER
 10
13.0238897559
 20
27.6772248599
 11
13.0238897559
 21
38.6568593553
  0
LINE
  5
233
100
AcDbEntity
  8
00_COMPONENTS_1
100
AcDbLine
 62
7
  6
BYLAYER
 10
14.5478897559
 20
72.5224851753
 11
14.5478897559
 21
66.5968593553
  0
LINE
  5
234
100
AcDbEntity
  8
00_COMPONENTS_1
100
AcDbLine
 62
7
  6
BYLAYER
 10
13.0238897559
 20
27.6771307579
 11
11.4490897559
 21
27.6771307579
  0
LINE
  5
235
100
AcDbEntity
  8
00_COMPONENTS_1
100
AcDbLine
 62
7
  6
BYLAYER
 10
58.9978897559
 20
27.6771307579
 11
60.5726897559
 21
27.6771307579
  0
LINE
  5
236
100
AcDbEntity
  8
00_COMPONENTS_2
100
AcDbLine
 62
7
  6
BYLAYER
 10
9.3742897559
 20
27.8295183126
 11
10.9490897559
 21
27.8295183126
  0
LINE
  5
237
100
AcDbEntity
  8
00_COMPONENTS_2
100
AcDbLine
 62
7
  6
BYLAYER
 10
60.9362897559
 20
27.8295183126
 11
62.5110897559
 21
27.8295183126
  0
LINE
  5
238
100
AcDbEntity
  8
00_COMPONENTS_1
100
AcDbLine
 62
7
  6
BYLAYER
 10
11.4490897559
 20
30.4876637677
 11
13.0238897559
 21
30.4876637677
  0
LINE
  5
239
100
AcDbEntity
  8
00_COMPONENTS_1
100
AcDbLine
 62
7
  6
BYLAYER
 10
58.9978897559
 20
30.4876637677
 11
60.5726897559
 21
30.4876637677
  0
LINE
  5
23A
100
AcDbEntity
  8
00_COMPONENTS_2
100
AcDbLine
 62
7
  6
BYLAYER
 10
62.5110897559
 20
36.5321047223
 11
60.9362897559
 21
36.5321047223
  0
LINE
  5
23B
100
AcDbEntity
  8
00_COMPONENTS_2
100
AcDbLine
 62
7
  6
BYLAYER
 10
10.9490897559
 20
36.5321047223
 11
9.3742897559
 21
36.5321047223
  0
LINE
  5
23C
100
AcDbEntity
  8
00_COMPONENTS_2
100
AcDbLine
 62
7
  6
BYLAYER
 10
38.1016897559
 20
38.4373088696
 11
33.6566897559
 21
38.4373088696
  0
LINE
  5
23D
100
AcDbEntity
  8
00_COMPONENTS_2
100
AcDbLine
 62
7
  6
BYLAYER
 10
9.3742897559
 20
38.6568593553
 11
17.4024295636
 21
38.6568593553
  0
LINE
  5
23E
100
AcDbEntity
  8
00_COMPONENTS_2
100
AcDbLine
 62
7
  6
BYLAYER
 10
54.4829499483
 20
38.6568593553
 11
62.5110897559
 21
38.6568593553
  0
LINE
  5
23F
100
AcDbEntity
  8
00_COMPONENTS_2
100
AcDbLine
 62
7
  6
BYLAYER
 10
31.3706897559
 20
35.5163088696
 11
31.3706897559
 21
38.3028911975
  0
LINE
  5
240
100
AcDbEntity
  8
00_COMPONENTS_2
100
AcDbLine
 62
7
  6
BYLAYER
 10
32.6406897559
 20
67.7978676214
 11
32.6406897559
 21
70.4068593553
  0
LINE
  5
241
100
AcDbEntity
  8
00_COMPONENTS_2
100
AcDbLine
 62
7
  6
BYLAYER
 10
33.6566897559
 20
38.4373088696
 11
33.6566897559
 21
35.5163088696
  0
LINE
  5
242
100
AcDbEntity
  8
00_COMPONENTS_2
100
AcDbLine
 62
7
  6
BYLAYER
 10
62.5043088799
 20
45.2608593553
 11
60.7014492341
 21
45.2608593553
  0
LINE
  5
243
100
AcDbEntity
  8
00_COMPONENTS_2
100
AcDbLine
 62
7
  6
BYLAYER
 10
12.4730897559
 20
45.2608593553
 11
9.381070632
 21
45.2608593553
  0
LINE
  5
244
100
AcDbEntity
  8
00_COMPONENTS_2
100
AcDbLine
 62
7
  6
BYLAYER
 10
62.5110897559
 20
45.77401704
 11
60.9362897559
 21
45.77401704
  0
LINE
  5
245
100
AcDbEntity
  8
00_COMPONENTS_2
100
AcDbLine
 62
7
  6
BYLAYER
 10
10.9490897559
 20
45.77401704
 11
9.3742897559
 21
45.77401704
  0
LINE
  5
246
100
AcDbEntity
  8
00_COMPONENTS_2
100
AcDbLine
 62
7
  6
BYLAYER
 10
9.3742897559
 20
46.706461201
 11
10.9490897559
 21
46.706461201
  0
LINE
  5
247
100
AcDbEntity
  8
00_COMPONENTS_2
100
AcDbLine
 62
7
  6
BYLAYER
 10
60.9362897559
 20
46.706461201
 11
62.5110897559
 21
46.706461201
  0
LINE
  5
248
100
AcDbEntity
  8
00_COMPONENTS_2
100
AcDbLine
 62
7
  6
BYLAYER
 10
59.4122897559
 20
45.2608593553
 11
62.4143030658
 21
45.2476769487
  0
LINE
  5
249
100
AcDbEntity
  8
00_COMPONENTS_1
100
AcDbLine
 62
7
420
3604575
  6
BYLAYER
 10
36.0108897559
 20
62.1962226629
 11
36.0108897559
 21
61.7886344306
  0
LINE
  5
24A
100
AcDbEntity
  8
00_COMPONENTS
100
AcDbLine
 62
7
  6
BYLAYER
 10
64.1112897559
 20
48.9121093553
 11
62.5110897559
 21
48.9121093553
  0
LINE
  5
24B
100
AcDbEntity
  8
00_COMPONENTS
100
AcDbLine
 62
7
  6
BYLAYER
 10
7.7740897559
 20
48.9121093553
 11
9.3742897559
 21
48.9121093553
  0
LINE
  5
24C
100
AcDbEntity
  8
00_COMPONENTS_2
100
AcDbLine
 62
7
  6
BYLAYER
 10
62.5110897559
 20
50.0603379288
 11
60.9362897559
 21
50.0603379288
  0
LINE
  5
24D
100
AcDbEntity
  8
00_COMPONENTS_2
100
AcDbLine
 62
7
  6
BYLAYER
 10
10.9490897559
 20
50.0603379288
 11
9.3742897559
 21
50.0603379288
  0
LINE
  5
24E
100
AcDbEntity
  8
00_COMPONENTS_1
100
AcDbLine
 62
7
  6
BYLAYER
 10
60.5726897559
 20
50.2674570378
 11
59.4122897559
 21
50.2674570378
  0
LINE
  5
24F
100
AcDbEntity
  8
00_COMPONENTS_1
100
AcDbLine
 62
7
  6
BYLAYER
 10
12.4730897559
 20
50.2674570378
 11
11.4490897559
 21
50.2674570378
  0
LINE
  5
250
100
AcDbEntity
  8
00_COMPONENTS_2
100
AcDbLine
 62
7
  6
BYLAYER
 10
38.1016897559
 20
35.5163088696
 11
38.1016897559
 21
38.4373088696
  0
LINE
  5
251
100
AcDbEntity
  8
00_COMPONENTS_2
100
AcDbLine
 62
7
  6
BYLAYER
 10
38.7366897559
 20
70.4068593553
 11
38.7366897559
 21
67.9013088696
  0
LINE
  5
252
100
AcDbEntity
  8
00_COMPONENTS
100
AcDbLine
 62
7
  6
BYLAYER
 10
62.5110897559
 20
50.5313593553
 11
60.5726897559
 21
50.5313593553
  0
LINE
  5
253
100
AcDbEntity
  8
00_COMPONENTS
100
AcDbLine
 62
7
  6
BYLAYER
 10
9.3742897559
 20
50.5313593553
 11
11.4490897559
 21
50.5313593553
  0
LINE
  5
254
100
AcDbEntity
  8
00_COMPONENTS_1
100
AcDbLine
 62
7
  6
BYLAYER
 10
50.9269182278
 20
51.054783686
 11
20.9564260362
 21
51.054783686
  0
LINE
  5
255
100
AcDbEntity
  8
00_COMPONENTS_2
100
AcDbLine
 62
7
  6
BYLAYER
 10
40.3876897559
 20
38.2636669228
 11
40.3876897559
 21
35.5163088696
  0
LINE
  5
256
100
AcDbEntity
  8
00_COMPONENTS
100
AcDbLine
 62
7
  6
BYLAYER
 10
62.5110897559
 20
55.2303593553
 11
60.5726897559
 21
55.2303593553
  0
LINE
  5
257
100
AcDbEntity
  8
00_COMPONENTS
100
AcDbLine
 62
7
  6
BYLAYER
 10
9.3742897559
 20
55.2303593553
 11
11.4490897559
 21
55.2303593553
  0
LINE
  5
258
100
AcDbEntity
  8
00_COMPONENTS_2
100
AcDbLine
 62
7
  6
BYLAYER
 10
9.3742897559
 20
55.3700593553
 11
12.4730897559
 21
55.3700593553
  0
LINE
  5
259
100
AcDbEntity
  8
00_COMPONENTS_2
100
AcDbLine
 62
7
  6
BYLAYER
 10
59.4122897559
 20
55.3700593553
 11
62.5110897559
 21
55.3700593553
  0
LINE
  5
25A
100
AcDbEntity
  8
00_COMPONENTS
100
AcDbLine
 62
7
  6
BYLAYER
 10
64.1112897559
 20
56.8496093553
 11
62.5110897559
 21
56.8496093553
  0
LINE
  5
25B
100
AcDbEntity
  8
00_COMPONENTS
100
AcDbLine
 62
7
  6
BYLAYER
 10
7.7740897559
 20
56.8496093553
 11
9.3742897559
 21
56.8496093553
  0
LINE
  5
25C
100
AcDbEntity
  8
00_COMPONENTS_2
100
AcDbLine
 62
7
  6
BYLAYER
 10
62.5110897559
 20
66.5968593553
 11
54.8618537967
 21
66.5968593553
  0
LINE
  5
25D
100
AcDbEntity
  8
00_COMPONENTS_2
100
AcDbLine
 62
7
  6
BYLAYER
 10
17.0235257152
 20
66.5968593553
 11
9.3742897559
 21
66.5968593553
  0
LINE
  5
25E
100
AcDbEntity
  8
00_COMPONENTS_2
100
AcDbLine
 62
7
  6
BYLAYER
 10
32.6406897559
 20
70.4068593553
 11
38.7366897559
 21
70.4068593553
  0
LINE
  5
25F
100
AcDbEntity
  8
00_COMPONENTS_1
100
AcDbLine
 62
7
  6
BYLAYER
 10
57.4738897559
 20
66.5968593553
 11
57.4738897559
 21
72.5224851753
  0
LINE
  5
260
100
AcDbEntity
  8
00_COMPONENTS_1
100
AcDbLine
 62
7
  6
BYLAYER
 10
58.9978897559
 20
38.6568593553
 11
58.9978897559
 21
27.677203318
  0
LINE
  5
261
100
AcDbEntity
  8
00_COMPONENTS_1
100
AcDbLine
 62
7
  6
BYLAYER
 10
58.9978897559
 20
66.5968593553
 11
58.9978897559
 21
72.1280449505
  0
LINE
  5
262
100
AcDbEntity
  8
00_COMPONENTS_1
100
AcDbLine
 62
7
  6
BYLAYER
 10
14.5478897559
 20
72.5224851753
 11
23.6869971565
 21
72.5224851753
  0
LINE
  5
263
100
AcDbEntity
  8
00_COMPONENTS_1
100
AcDbLine
 62
7
  6
BYLAYER
 10
48.1990228753
 20
72.5224851753
 11
57.4738897559
 21
72.5224851753
  0
LINE
  5
264
100
AcDbEntity
  8
00_COMPONENTS_1
100
AcDbLine
 62
7
  6
BYLAYER
 10
57.5246897559
 20
72.9300734075
 11
47.4667561655
 21
72.9300734075
  0
LINE
  5
265
100
AcDbEntity
  8
00_COMPONENTS_1
100
AcDbLine
 62
7
  6
BYLAYER
 10
24.4195009008
 20
72.9300734075
 11
14.4970897559
 21
72.9300734075
  0
LINE
  5
266
100
AcDbEntity
  8
00_COMPONENTS_2
100
AcDbLine
 62
7
  6
BYLAYER
 10
59.4122897559
 20
45.2608593553
 11
59.4122897559
 21
55.3700593553
  0
LINE
  5
267
100
AcDbEntity
  8
00_COMPONENTS_2
100
AcDbLine
 62
7
  6
BYLAYER
 10
59.4630897559
 20
38.6568593553
 11
59.4630897559
 21
45.260636283
  0
LINE
  5
268
100
AcDbEntity
  8
00_COMPONENTS_2
100
AcDbLine
 62
7
  6
BYLAYER
 10
59.4630897559
 20
55.370069754
 11
59.4630897559
 21
66.5968593553
  0
LINE
  5
269
100
AcDbEntity
  8
00_COMPONENTS_1
100
AcDbLine
 62
7
  6
BYLAYER
 10
60.5726897559
 20
27.6772248599
 11
60.5726897559
 21
38.6568593553
  0
LINE
  5
26A
100
AcDbEntity
  8
00_COMPONENTS_1
100
AcDbLine
 62
7
  6
BYLAYER
 10
60.5726897559
 20
45.2557638201
 11
60.5726897559
 21
55.3700593553
  0
LINE
  5
26B
100
AcDbEntity
  8
00_COMPONENTS_1
100
AcDbLine
 62
7
  6
BYLAYER
 10
60.5726897559
 20
66.5968593553
 11
60.5726897559
 21
72.141192958
  0
LINE
  5
26C
100
AcDbEntity
  8
00_COMPONENTS_2
100
AcDbLine
 62
7
  6
BYLAYER
 10
60.9362897559
 20
55.3700593553
 11
60.9362897559
 21
55.2303593553
  0
LINE
  5
26D
100
AcDbEntity
  8
00_COMPONENTS_2
100
AcDbLine
 62
7
  6
BYLAYER
 10
60.9362897559
 20
50.5313593553
 11
60.9362897559
 21
45.2608593553
  0
LINE
  5
26E
100
AcDbEntity
  8
00_COMPONENTS_2
100
AcDbLine
 62
7
  6
BYLAYER
 10
60.9362897559
 20
38.6568593553
 11
60.9362897559
 21
23.7216770571
  0
LINE
  5
26F
100
AcDbEntity
  8
00_COMPONENTS_2
100
AcDbLine
 62
7
  6
BYLAYER
 10
62.4143030658
 20
45.2476769487
 11
62.4143030658
 21
45.2608593553
  0
LINE
  5
270
100
AcDbEntity
  8
00_COMPONENTS_2
100
AcDbLine
 62
7
  6
BYLAYER
 10
62.5110897559
 20
66.5968593553
 11
62.5110897559
 21
55.3700593553
  0
LINE
  5
271
100
AcDbEntity
  8
00_COMPONENTS
100
AcDbLine
 62
7
  6
BYLAYER
 10
62.5110897559
 20
55.3700593553
 11
62.5110897559
 21
48.9121115595
  0
LINE
  5
272
100
AcDbEntity
  8
00_COMPONENTS_2
100
AcDbLine
 62
7
  6
BYLAYER
 10
62.5110897559
 20
23.7216805706
 11
62.5110897559
 21
45.2472519401
  0
LINE
  5
273
100
AcDbEntity
  8
00_COMPONENTS_2
100
AcDbLine
 62
7
  6
BYLAYER
 10
62.5110897559
 20
45.2608593553
 11
62.5110897559
 21
48.9121115595
  0
LINE
  5
274
100
AcDbEntity
  8
00_COMPONENTS
100
AcDbLine
 62
7
  6
BYLAYER
 10
64.1112897559
 20
48.9121115595
 11
64.1112897559
 21
56.8496071512
  0
ARC
  5
275
100
AcDbEntity
  8
00_COMPONENTS_2
100
AcDbCircle
 62
7
  6
BYLAYER
 10
35.9426897559
 20
52.8808593553
 40
23.368
100
AcDbArc
 50
217.4952497646
 51
322.5047502354
  0
ARC
  5
276
100
AcDbEntity
  8
00_COMPONENTS_2
100
AcDbCircle
 62
7
  6
BYLAYER
 10
35.9426897559
 20
52.8808593553
 40
23.368
100
AcDbArc
 50
35.9413298912
 51
144.0586701088
  0
ARC
  5
277
100
AcDbEntity
  8
00_COMPONENTS_2
100
AcDbCircle
 62
7
  6
BYLAYER
 10
35.9426897559
 20
52.8808593553
 40
15.2781
100
AcDbArc
 50
102.4816162126
 51
252.5873257277
  0
ARC
  5
278
100
AcDbEntity
  8
00_COMPONENTS_2
100
AcDbCircle
 62
7
  6
BYLAYER
 10
35.9426897559
 20
52.8808593553
 40
15.2781
100
AcDbArc
 50
286.9142000078
 51
79.4626679747
  0
ARC
  5
279
100
AcDbEntity
  8
00_COMPONENTS_1
100
AcDbCircle
 62
7
  6
BYLAYER
 10
35.8809522226
 20
62.1979902636
 40
2.0227798652
100
AcDbArc
 50
185.9481035335
 51
191.2619070167
  0
ARC
  5
27A
100
AcDbEntity
  8
00_COMPONENTS_1
100
AcDbCircle
 62
7
  6
BYLAYER
 10
36.1408567041
 20
62.1979823288
 40
2.0227500166
100
AcDbArc
 50
348.7322844786
 51
354.0529909868
  0
ARC
  5
27B
100
AcDbEntity
  8
00_COMPONENTS_2
100
AcDbCircle
 62
7
  6
BYLAYER
 10
32.5136897559
 20
35.5163088696
 40
1.143
100
AcDbArc
 50
180.0
 51
360.0
  0
ARC
  5
27C
100
AcDbEntity
  8
00_COMPONENTS_2
100
AcDbCircle
 62
7
  6
BYLAYER
 10
39.2446897559
 20
35.5163088696
 40
1.143
100
AcDbArc
 50
180.0
 51
360.0
  0
SPLINE
  5
27D
100
AcDbEntity
  8
00_COMPONENTS_1
100
AcDbSpline
 62
7
  6
BYLAYER
 70
0
 71
3
 72
23
 73
19
 74
0
 42
0.0000001
 43
0.0000001
 44
0.0000000001
 40
0.0
 40
0.0
 40
0.0
 40
0.0
 40
0.0614540171
 40
0.1231237907
 40
0.1851333796
 40
0.2475065697
 40
0.3102415341
 40
0.3732955271
 40
0.4365835776
 40
0.4999940087
 40
0.5634041239
 40
0.6266917068
 40
0.68974603
 40
0.7524823821
 40
0.8148582675
 40
0.8768708028
 40
0.9385433585
 40
1.0
 40
1.0
 40
1.0
 40
1.0
 10
38.1246180376
 20
61.8027499904
 30
0.0
 10
38.1012047397
 20
61.6852465007
 30
0.0
 10
38.0330266959
 20
61.4535154151
 30
0.0
 10
37.8708385338
 20
61.1290700299
 30
0.0
 10
37.653477858
 20
60.8363426628
 30
0.0
 10
37.3873675328
 20
60.58416151
 30
0.0
 10
37.0805066943
 20
60.3799049818
 30
0.0
 10
36.7420170157
 20
60.2295462366
 30
0.0
 10
36.3818965117
 20
60.1375657643
 30
0.0
 10
36.0108223496
 20
60.1066253744
 30
0.0
 10
35.6397516551
 20
60.1375915087
 30
0.0
 10
35.2796365781
 20
60.229588982
 30
0.0
 10
34.9411533435
 20
60.3799693555
 30
0.0
 10
34.6343006597
 20
60.5842539101
 30
0.0
 10
34.3681981508
 20
60.8364629746
 30
0.0
 10
34.1508470434
 20
61.1292185166
 30
0.0
 10
33.988682869
 20
61.4536945724
 30
0.0
 10
33.9205238771
 20
61.685442313
 30
0.0
 10
33.8971215577
 20
61.8029532068
 30
0.0
  0
SPLINE
  5
27E
100
AcDbEntity
  8
00_COMPONENTS_1
100
AcDbSpline
 62
7
  6
BYLAYER
 70
0
 71
3
 72
19
 73
15
 74
0
 42
0.0000001
 43
0.0000001
 44
0.0000000001
 40
0.0
 40
0.0
 40
0.0
 40
0.0
 40
0.0239832992
 40
0.0509103939
 40
0.0827888415
 40
0.1207132833
 40
0.165166928
 40
0.2162481843
 40
0.2737932366
 40
0.3374992203
 40
0.4814916084
 40
0.6436975942
 40
0.8186240493
 40
1.0
 40
1.0
 40
1.0
 40
1.0
 10
11.4490897559
 20
72.141192958
 30
0.0
 10
11.4490897559
 20
72.1674088947
 30
0.0
 10
11.4605061424
 20
72.2234121051
 30
0.0
 10
11.5079569439
 20
72.3018885476
 30
0.0
 10
11.5833709973
 20
72.3770157543
 30
0.0
 10
11.6857851937
 20
72.4492058837
 30
0.0
 10
11.8145345816
 20
72.5183521027
 30
0.0
 10
11.9686545207
 20
72.583955683
 30
0.0
 10
12.1468309026
 20
72.6454766828
 30
0.0
 10
12.4259465911
 20
72.7243915953
 30
0.0
 10
12.8224460895
 20
72.8061760863
 30
0.0
 10
13.343903192
 20
72.8767883272
 30
0.0
 10
13.9092856079
 20
72.9203092189
 30
0.0
 10
14.2988292741
 20
72.9300734075
 30
0.0
 10
14.4970897559
 20
72.9300734075
 30
0.0
  0
SPLINE
  5
27F
100
AcDbEntity
  8
00_COMPONENTS_1
100
AcDbSpline
 62
7
  6
BYLAYER
 70
0
 71
3
 72
19
 73
15
 74
0
 42
0.0000001
 43
0.0000001
 44
0.0000000001
 40
0.0
 40
0.0
 40
0.0
 40
0.0
 40
0.1813759507
 40
0.3563024058
 40
0.5185083916
 40
0.6625007797
 40
0.7262067634
 40
0.7837518157
 40
0.834833072
 40
0.8792867167
 40
0.9172111585
 40
0.9490896061
 40
0.9760167008
 40
1.0
 40
1.0
 40
1.0
 40
1.0
 10
57.5246897559
 20
72.9300734075
 30
0.0
 10
57.7229502377
 20
72.9300734075
 30
0.0
 10
58.112493904
 20
72.9203092189
 30
0.0
 10
58.6778763199
 20
72.8767883272
 30
0.0
 10
59.1993334224
 20
72.8061760863
 30
0.0
 10
59.5958329208
 20
72.7243915953
 30
0.0
 10
59.8749486093
 20
72.6454766828
 30
0.0
 10
60.0531249912
 20
72.583955683
 30
0.0
 10
60.2072449303
 20
72.5183521027
 30
0.0
 10
60.3359943182
 20
72.4492058837
 30
0.0
 10
60.4384085146
 20
72.3770157543
 30
0.0
 10
60.513822568
 20
72.3018885476
 30
0.0
 10
60.5612733695
 20
72.2234121051
 30
0.0
 10
60.5726897559
 20
72.1674088947
 30
0.0
 10
60.5726897559
 20
72.141192958
 30
0.0
  0
SPLINE
  5
280
100
AcDbEntity
  8
00_COMPONENTS_1
100
AcDbSpline
 62
7
  6
BYLAYER
 70
0
 71
3
 72
23
 73
19
 74
0
 42
0.0000001
 43
0.0000001
 44
0.0000000001
 40
0.0
 40
0.0
 40
0.0
 40
0.0
 40
0.0614238018
 40
0.1230393929
 40
0.184931728
 40
0.2472251276
 40
0.3099369412
 40
0.3730392262
 40
0.4364373301
 40
0.4999939242
 40
0.5635502535
 40
0.6269480392
 40
0.6900510513
 40
0.752765312
 40
0.8150619561
 40
0.8769571725
 40
0.9385755825
 40
1.0
 40
1.0
 40
1.0
 40
1.0
 10
38.1635397559
 20
61.7886344306
 30
0.0
 10
38.1635397559
 20
61.9245306401
 30
0.0
 10
38.1356543972
 20
62.19754339
 30
0.0
 10
38.0121341953
 20
62.5904024287
 30
0.0
 10
37.8114854404
 20
62.9523712962
 30
0.0
 10
37.5418283829
 20
63.2693820658
 30
0.0
 10
37.2134470566
 20
63.5293400602
 30
0.0
 10
36.8390746977
 20
63.7223759068
 30
0.0
 10
36.4330561971
 20
63.8411784315
 30
0.0
 10
36.0109319224
 20
63.8812849279
 30
0.0
 10
35.5888069236
 20
63.8411924992
 30
0.0
 10
35.1827844777
 20
63.722403578
 30
0.0
 10
34.8083970213
 20
63.5293831915
 30
0.0
 10
34.4799957787
 20
63.2694264444
 30
0.0
 10
34.210319438
 20
62.9524068781
 30
0.0
 10
34.0096541725
 20
62.5904241557
 30
0.0
 10
33.8861268772
 20
62.1975523056
 30
0.0
 10
33.8582397559
 20
61.9245320022
 30
0.0
 10
33.8582397559
 20
61.7886344306
 30
0.0
  0
SPLINE
  5
281
100
AcDbEntity
  8
00_COMPONENTS_1
100
AcDbSpline
 62
7
  6
BYLAYER
 70
0
 71
3
 72
23
 73
19
 74
0
 42
0.0000001
 43
0.0000001
 44
0.0000000001
 40
0.0
 40
0.0
 40
0.0
 40
0.0
 40
0.0614238018
 40
0.1230393929
 40
0.184931728
 40
0.2472251276
 40
0.3099369412
 40
0.3730392262
 40
0.4364373301
 40
0.4999939242
 40
0.5635502535
 40
0.6269480392
 40
0.6900510513
 40
0.752765312
 40
0.8150619561
 40
0.8769571725
 40
0.9385755825
 40
1.0
 40
1.0
 40
1.0
 40
1.0
 10
33.8582397559
 20
61.7886344306
 30
0.0
 10
33.8582397559
 20
61.6527382211
 30
0.0
 10
33.8861251147
 20
61.3797254713
 30
0.0
 10
34.0096453166
 20
60.9868664326
 30
0.0
 10
34.2102940715
 20
60.624897565
 30
0.0
 10
34.479951129
 20
60.3078867955
 30
0.0
 10
34.8083324553
 20
60.047928801
 30
0.0
 10
35.1827048142
 20
59.8548929545
 30
0.0
 10
35.5887233148
 20
59.7360904297
 30
0.0
 10
36.0108475895
 20
59.6959839334
 30
0.0
 10
36.4329725883
 20
59.736076362
 30
0.0
 10
36.8389950342
 20
59.8548652833
 30
0.0
 10
37.2133824906
 20
60.0478856698
 30
0.0
 10
37.5417837332
 20
60.3078424168
 30
0.0
 10
37.8114600739
 20
60.6248619831
 30
0.0
 10
38.0121253394
 20
60.9868447056
 30
0.0
 10
38.1356526346
 20
61.3797165557
 30
0.0
 10
38.1635397559
 20
61.6527368591
 30
0.0
 10
38.1635397559
 20
61.7886344306
 30
0.0
  0
SPLINE
  5
282
100
AcDbEntity
  8
00_COMPONENTS_1
100
AcDbSpline
 62
7
  6
BYLAYER
 70
0
 71
3
 72
19
 73
15
 74
0
 42
0.0000001
 43
0.0000001
 44
0.0000000001
 40
0.0
 40
0.0
 40
0.0
 40
0.0
 40
0.0239726005
 40
0.0509012207
 40
0.082782409
 40
0.1207178625
 40
0.1651654214
 40
0.2162433357
 40
0.2737951614
 40
0.33749413
 40
0.4814951813
 40
0.6436808952
 40
0.8186655558
 40
1.0
 40
1.0
 40
1.0
 40
1.0
 10
58.9978897559
 20
72.1280449505
 30
0.0
 10
58.9978897559
 20
72.1411469946
 30
0.0
 10
58.9921684674
 20
72.1691415596
 30
0.0
 10
58.9684433647
 20
72.2083706712
 30
0.0
 10
58.9307558391
 20
72.2459662442
 30
0.0
 10
58.8795322443
 20
72.2820477269
 30
0.0
 10
58.815165566
 20
72.3166335498
 30
0.0
 10
58.7381020371
 20
72.3494251788
 30
0.0
 10
58.6490132811
 20
72.3801739367
 30
0.0
 10
58.509458869
 20
72.4196574684
 30
0.0
 10
58.3112151241
 20
72.4605275063
 30
0.0
 10
58.050465194
 20
72.4958484289
 30
0.0
 10
57.7677759827
 20
72.5175928312
 30
0.0
 10
57.5729967295
 20
72.5224851753
 30
0.0
 10
57.4738897559
 20
72.5224851753
 30
0.0
  0
SPLINE
  5
283
100
AcDbEntity
  8
00_COMPONENTS_1
100
AcDbSpline
 62
7
  6
BYLAYER
 70
0
 71
3
 72
19
 73
15
 74
0
 42
0.0000001
 43
0.0000001
 44
0.0000000001
 40
0.0
 40
0.0
 40
0.0
 40
0.0
 40
0.1813343932
 40
0.3563189674
 40
0.5185046693
 40
0.6625057352
 40
0.7262047145
 40
0.7837565625
 40
0.8348344904
 40
0.879282073
 40
0.9172175519
 40
0.9490987585
 40
0.9760273945
 40
1.0
 40
1.0
 40
1.0
 40
1.0
 10
14.5478897559
 20
72.5224851753
 30
0.0
 10
14.4487828107
 20
72.5224851753
 30
0.0
 10
14.2540036333
 20
72.517592843
 30
0.0
 10
13.9713145046
 20
72.4958484463
 30
0.0
 10
13.7105646204
 20
72.4605275416
 30
0.0
 10
13.5123208637
 20
72.4196575265
 30
0.0
 10
13.3727664271
 20
72.3801739895
 30
0.0
 10
13.2836776395
 20
72.3494252468
 30
0.0
 10
13.2066140788
 20
72.3166336094
 30
0.0
 10
13.1422473641
 20
72.2820477845
 30
0.0
 10
13.0910237268
 20
72.2459662959
 30
0.0
 10
13.0533361869
 20
72.2083706916
 30
0.0
 10
13.0296110596
 20
72.1691415726
 30
0.0
 10
13.0238897559
 20
72.1411469973
 30
0.0
 10
13.0238897559
 20
72.1280449505
 30
0.0
  0
SPLINE
  5
284
100
AcDbEntity
  8
00_COMPONENTS_2
100
AcDbSpline
 62
7
  6
BYLAYER
 70
0
 71
3
 72
11
 73
7
 74
0
 42
0.0000001
 43
0.0000001
 44
0.0000000001
 40
0.0
 40
0.0
 40
0.0
 40
0.0
 40
0.3548320708
 40
0.6188414515
 40
0.8162145576
 40
1.0
 40
1.0
 40
1.0
 40
1.0
 10
62.5110897559
 20
45.2472519401
 30
0.0
 10
62.5110897559
 20
45.2492407362
 30
0.0
 10
62.5109134552
 20
45.2527196229
 30
0.0
 10
62.5098132642
 20
45.2572015256
 30
0.0
 10
62.5075701297
 20
45.2602746592
 30
0.0
 10
62.5053389779
 20
45.2608593553
 30
0.0
 10
62.5043088799
 20
45.2608593553
 30
0.0
  0
SPLINE
  5
285
100
AcDbEntity
  8
00_COMPONENTS_2
100
AcDbSpline
 62
7
  6
BYLAYER
 70
0
 71
3
 72
11
 73
7
 74
0
 42
0.0000001
 43
0.0000001
 44
0.0000000001
 40
0.0
 40
0.0
 40
0.0
 40
0.0
 40
0.1837856677
 40
0.3811588542
 40
0.6451680748
 40
1.0
 40
1.0
 40
1.0
 40
1.0
 10
9.381070632
 20
45.2608593553
 30
0.0
 10
9.3800405324
 20
45.2608593553
 30
0.0
 10
9.3778093783
 20
45.26027466
 30
0.0
 10
9.3755662374
 20
45.2572015278
 30
0.0
 10
9.3744660523
 20
45.2527196218
 30
0.0
 10
9.3742897559
 20
45.2492407361
 30
0.0
 10
9.3742897559
 20
45.2472519401
 30
0.0
  0
ENDSEC
  0
SECTION
  2
OBJECTS
  0
DICTIONARY
  5
C
100
AcDbDictionary
280
0
281
1
  3
ACAD_GROUP
350
D
  3
ACAD_MLINESTYLE
350
17
  3
ACAD_LAYOUT
350
1A
  3
ACAD_PLOTSETTINGS
350
19
  3
ACAD_PLOTSTYLENAME
350
E
  0
DICTIONARY
  5
D
102
{ACAD_REACTORS
330
C
102
}
100
AcDbDictionary
280
0
281
1
  0
ACDBDICTIONARYWDFLT
  5
E
102
{ACAD_REACTORS
330
C
102
}
100
AcDbDictionary
281
1
  3
Normal
350
F
100
AcDbDictionaryWithDefault
340
F
  0
DICTIONARY
  5
17
102
{ACAD_REACTORS
330
C
102
}
100
AcDbDictionary
280
0
281
1
  3
Standard
350
18
  0
DICTIONARY
  5
19
102
{ACAD_REACTORS
330
C
102
}
100
AcDbDictionary
281
1
  0
DICTIONARY
  5
1A
102
{ACAD_REACTORS
330
C
102
}
100
AcDbDictionary
281
1
  3
Model
350
286
  3
Layout1
350
287
  0
ACDBPLACEHOLDER
  5
F
102
{ACAD_REACTORS
330
E
102
}
  0
MLINESTYLE
  5
18
102
{ACAD_REACTORS
330
17
102
}
100
AcDbMlineStyle
  2
STANDARD
 70
0
  3

 62
256
 51
90.0
 52
90.0
 71
2
 49
0.5
 62
256
  6
BYLAYER
 49
-0.5
 62
256
  6
BYLAYER
  0
LAYOUT
  5
286
102
{ACAD_REACTORS
330
1A
102
}
100
AcDbPlotSettings
  1

  2
none_device
  4

  6

 40
0.0
 41
0.0
 42
0.0
 43
0.0
 44
210.0
 45
297.0
 46
0.0
 47
0.0
 48
0.0
 49
0.0
140
0.0
141
0.0
142
1.0
143
1.0
 70
1024
 72
1
 73
0
 74
0
  7

 75
0
147
1.0
148
0.0
149
0.0
100
AcDbLayout
  1
Model
 70
0
 71
0
 10
0.0
 20
0.0
 11
210.0
 21
297.0
 12
0.0
 22
0.0
 32
0.0
 14
0.0
 24
0.0
 34
0.0
 15
0.0
 25
0.0
 35
0.0
146
0.0
 13
0.0
 23
0.0
 33
0.0
 16
1.0
 26
0.0
 36
0.0
 17
0.0
 27
1.0
 37
0.0
 76
0
330
21A
345
0
346
0
  0
LAYOUT
  5
287
102
{ACAD_REACTORS
330
1A
102
}
100
AcDbPlotSettings
  1

  2
none_device
  4

  6

 40
0.0
 41
0.0
 42
0.0
 43
0.0
 44
210.0
 45
297.0
 46
0.0
 47
0.0
 48
0.0
 49
0.0
140
0.0
141
0.0
142
1.0
143
1.0
 70
0
 72
1
 73
0
 74
0
  7

 75
0
147
1.0
148
0.0
149
0.0
100
AcDbLayout
  1
Layout1
 70
0
 71
1
 10
0.0
 20
0.0
 11
210.0
 21
297.0
 12
0.0
 22
0.0
 32
0.0
 14
0.0
 24
0.0
 34
0.0
 15
0.0
 25
0.0
 35
0.0
146
0.0
 13
0.0
 23
0.0
 33
0.0
 16
1.0
 26
0.0
 36
0.0
 17
0.0
 27
1.0
 37
0.0
 76
0
330
21B
345
0
346
0
  0
ENDSEC
  0
EOF
