999
DXF file: C:\Users\sesa63760\Dev\_Creo\CAD\MCADID0004797_3D-CAD\drw0001_4.dxf
999
Pro/ENGINEER 2019471 by Parametric Technology Corporation
  0
SECTION
  2
HEADER
  9
$ACADVER
  1
AC1024
  9
$DWGCODEPAGE
  3
ANSI_1252
  9
$EXTMAX
 10
79.6795541623
 20
112.6896551724
 30
0.0
  9
$EXTMIN
 10
0.0
 20
0.0
 30
0.0
  9
$LIMMIN
 10
0.0
 20
0.0
  9
$LIMMAX
 10
79.6795541623
 20
112.6896551724
  9
$VIEWCTR
 10
39.8397770812
 20
56.3448275862
  9
$VIEWSIZE
 40
112.6896551724
  9
$CLAYER
  8
0
  9
$LTSCALE
 40
7.3456960409
  9
$CELTYPE
  6
BYLAYER
  9
$DIMSCALE
 40
1.0
  9
$DIMASZ
 40
0.948566121
  9
$DIMEXO
 40
1.0
  9
$DIMDLI
 40
5.0752081737
  9
$DIMEXE
 40
1.0
  9
$DIMCEN
 40
1.2020229885
  9
$DIMLFAC
 40
1.0
  9
$DIMBLK
  1
_FILLED
  9
$DIMALT
 70
0
  9
$DIMALTF
 40
0.0393700787
  9
$DIMTXT
 40
1.3279925694
  9
$DIMTOL
 70
1
  9
$DIMLIM
 70
0
  9
$DIMTFAC
 40
1.0
  9
$DIMTP
 40
0.01
  9
$DIMTM
 40
0.01
  9
$DIMGAP
 40
0.625
  9
$DIMDSEP
 70
46
  9
$AUNITS
 70
0
  9
$PDMODE
 70
3
  9
$PDSIZE
 40
0.3125
  9
$HANDSEED
  5
2FB
  9
$TILEMODE
 70
1
  9
$MEASUREMENT
 70
1
  9
$INSUNITS
 70
4
  0
ENDSEC
  0
SECTION
  2
CLASSES
  0
CLASS
  1
ACDBDICTIONARYWDFLT
  2
AcDbDictionaryWithDefault
  3
AutoCAD 2000
 90
0
 91
1
280
0
281
0
  0
CLASS
  1
ACDBPLACEHOLDER
  2
AcDbPlaceHolder
  3
AutoCAD 2000
 90
0
 91
1
280
0
281
0
  0
CLASS
  1
LAYOUT
  2
AcDbLayout
  3
AutoCAD 2000
 90
0
 91
0
280
0
281
0
  0
ENDSEC
  0
SECTION
  2
TABLES
  0
TABLE
  2
VPORT
  5
8
100
AcDbSymbolTable
 70
2
  0
VPORT
  5
1F4
100
AcDbSymbolTableRecord
100
AcDbViewportTableRecord
  2
*ACTIVE
 70
0
 10
0.0
 20
0.0
 11
1.0
 21
1.0
 12
39.8397770812
 22
56.3448275862
 13
0.0
 23
0.0
 14
1.0
 24
1.0
 15
0.0
 25
0.0
 16
0.0
 26
0.0
 36
1.0
 17
0.0
 27
0.0
 37
0.0
 40
112.6896551724
 41
0.7070707071
 42
50.0
 43
0.0
 44
0.0
 50
0.0
 51
0.0
 71
0
 72
100
 73
1
 74
1
 75
0
 76
0
 77
0
 78
0
  0
ENDTAB
  0
TABLE
  2
LTYPE
  5
5
100
AcDbSymbolTable
 70
6
  0
LTYPE
  5
14
100
AcDbSymbolTableRecord
100
AcDbLinetypeTableRecord
  2
BYBLOCK
 70
0
  3

 72
65
 73
0
 40
0.0
  0
LTYPE
  5
15
100
AcDbSymbolTableRecord
100
AcDbLinetypeTableRecord
  2
BYLAYER
 70
0
  3

 72
65
 73
0
 40
0.0
  0
LTYPE
  5
16
100
AcDbSymbolTableRecord
100
AcDbLinetypeTableRecord
  2
CONTINUOUS
 70
64
  3
Solid line
 72
65
 73
0
 40
0.0
  0
LTYPE
  5
1F5
100
AcDbSymbolTableRecord
100
AcDbLinetypeTableRecord
  2
CENTER
 70
64
  3
____ _ ____ _ ____ _ ____ _ ____ _ ____ _ ____
 72
65
 73
4
 40
0.6
 49
0.375
 74
0
 49
-0.075
 74
0
 49
0.075
 74
0
 49
-0.075
 74
0
  0
LTYPE
  5
1F6
100
AcDbSymbolTableRecord
100
AcDbLinetypeTableRecord
  2
HIDDEN
 70
64
  3
- - - - - - - - - - - - - - - - - - - -
 72
65
 73
2
 40
0.2
 49
0.1
 74
0
 49
-0.1
 74
0
  0
LTYPE
  5
1F7
100
AcDbSymbolTableRecord
100
AcDbLinetypeTableRecord
  2
PHANTOM
 70
64
  3
_____ _ _ _____ _ _ _____ _ _ _____
 72
65
 73
6
 40
0.8
 49
0.45
 74
0
 49
-0.05
 74
0
 49
0.1
 74
0
 49
-0.05
 74
0
 49
0.1
 74
0
 49
-0.05
 74
0
  0
LTYPE
  5
1F8
100
AcDbSymbolTableRecord
100
AcDbLinetypeTableRecord
  2
DOT
 70
64
  3
. . . . . . . . . . . . . . . . . . . .
 72
65
 73
2
 40
0.2
 49
0.1
 74
0
 49
-0.1
 74
0
  0
LTYPE
  5
1F9
100
AcDbSymbolTableRecord
100
AcDbLinetypeTableRecord
  2
DASHED
 70
64
  3
- - - - - - - - - - - - - - - - - - - -
 72
65
 73
2
 40
0.2
 49
0.1
 74
0
 49
-0.1
 74
0
  0
ENDTAB
  0
TABLE
  2
LAYER
  5
2
100
AcDbSymbolTable
 70
36
  0
LAYER
  5
10
100
AcDbSymbolTableRecord
100
AcDbLayerTableRecord
  2
0
 70
0
 62
7
  6
CONTINUOUS
370
-3
390
F
  0
LAYER
  5
1FA
100
AcDbSymbolTableRecord
100
AcDbLayerTableRecord
  2
DEFAULT_1
 70
0
 62
7
  6
CENTER
370
-3
390
F
  0
LAYER
  5
1FB
100
AcDbSymbolTableRecord
100
AcDbLayerTableRecord
  2
DEFAULT_2
 70
0
 62
7
  6
HIDDEN
370
-3
390
F
  0
LAYER
  5
1FC
100
AcDbSymbolTableRecord
100
AcDbLayerTableRecord
  2
DEFAULT_3
 70
0
 62
7
  6
PHANTOM
370
-3
390
F
  0
LAYER
  5
1FD
100
AcDbSymbolTableRecord
100
AcDbLayerTableRecord
  2
00_COMPONENTS
 70
0
 62
7
  6
CONTINUOUS
370
-3
390
F
  0
LAYER
  5
1FE
100
AcDbSymbolTableRecord
100
AcDbLayerTableRecord
  2
01_1_DEFAULT_DATUMS
 70
0
 62
7
  6
CONTINUOUS
370
-3
390
F
  0
LAYER
  5
1FF
100
AcDbSymbolTableRecord
100
AcDbLayerTableRecord
  2
01_PLANES
 70
0
 62
7
  6
CONTINUOUS
370
-3
390
F
  0
LAYER
  5
200
100
AcDbSymbolTableRecord
100
AcDbLayerTableRecord
  2
02_COORD_SYS
 70
0
 62
7
  6
CONTINUOUS
370
-3
390
F
  0
LAYER
  5
201
100
AcDbSymbolTableRecord
100
AcDbLayerTableRecord
  2
03_AXES
 70
0
 62
7
  6
CONTINUOUS
370
-3
390
F
  0
LAYER
  5
202
100
AcDbSymbolTableRecord
100
AcDbLayerTableRecord
  2
04_POINTS
 70
0
 62
7
  6
CONTINUOUS
370
-3
390
F
  0
LAYER
  5
203
100
AcDbSymbolTableRecord
100
AcDbLayerTableRecord
  2
05_CURVES
 70
0
 62
7
  6
CONTINUOUS
370
-3
390
F
  0
LAYER
  5
204
100
AcDbSymbolTableRecord
100
AcDbLayerTableRecord
  2
06_SURFS
 70
0
 62
7
  6
CONTINUOUS
370
-3
390
F
  0
LAYER
  5
205
100
AcDbSymbolTableRecord
100
AcDbLayerTableRecord
  2
07_COSMETICS
 70
0
 62
7
  6
CONTINUOUS
370
-3
390
F
  0
LAYER
  5
206
100
AcDbSymbolTableRecord
100
AcDbLayerTableRecord
  2
10_NOTES
 70
0
 62
7
  6
CONTINUOUS
370
-3
390
F
  0
LAYER
  5
207
100
AcDbSymbolTableRecord
100
AcDbLayerTableRecord
  2
11_NOTES_PUB
 70
0
 62
7
  6
CONTINUOUS
370
-3
390
F
  0
LAYER
  5
208
100
AcDbSymbolTableRecord
100
AcDbLayerTableRecord
  2
13_REF_GTOL
 70
0
 62
7
  6
CONTINUOUS
370
-3
390
F
  0
LAYER
  5
209
100
AcDbSymbolTableRecord
100
AcDbLayerTableRecord
  2
16_MISC
 70
0
 62
7
  6
CONTINUOUS
370
-3
390
F
  0
LAYER
  5
20A
100
AcDbSymbolTableRecord
100
AcDbLayerTableRecord
  2
17_NO_PRINT
 70
0
 62
7
  6
CONTINUOUS
370
-3
390
F
  0
LAYER
  5
20B
100
AcDbSymbolTableRecord
100
AcDbLayerTableRecord
  2
18_DATUM_CAMS_JOINTS
 70
0
 62
7
  6
CONTINUOUS
370
-3
390
F
  0
LAYER
  5
20C
100
AcDbSymbolTableRecord
100
AcDbLayerTableRecord
  2
19_DATUM_FUNCTIONAL
 70
0
 62
7
  6
CONTINUOUS
370
-3
390
F
  0
LAYER
  5
20D
100
AcDbSymbolTableRecord
100
AcDbLayerTableRecord
  2
20_DATUM_KINEMATIC_SCHEME
 70
0
 62
7
  6
CONTINUOUS
370
-3
390
F
  0
ENDTAB
  0
TABLE
  2
STYLE
  5
3
100
AcDbSymbolTable
 70
1
  0
STYLE
  5
11
100
AcDbSymbolTableRecord
100
AcDbTextStyleTableRecord
  2
STANDARD
 70
0
 40
0.0
 41
1.0
 50
0.0
 71
0
 42
0.2
  3
ARIAL.TTF
  4

  0
STYLE
  5
20E
100
AcDbSymbolTableRecord
100
AcDbTextStyleTableRecord
  2
TEXTSTYLE_1
 70
0
 40
0.0
 41
0.8
 50
0.0
 71
0
 42
0.2
  3
gdt
  4

  0
ENDTAB
  0
TABLE
  2
VIEW
  5
6
100
AcDbSymbolTable
 70
0
  0
ENDTAB
  0
TABLE
  2
UCS
  5
7
100
AcDbSymbolTable
 70
0
  0
ENDTAB
  0
TABLE
  2
APPID
  5
9
100
AcDbSymbolTable
 70
1
  0
APPID
  5
20F
100
AcDbSymbolTableRecord
100
AcDbRegAppTableRecord
  2
ACAD
 70
0
  0
ENDTAB
  0
TABLE
  2
BLOCK_RECORD
  5
1
100
AcDbSymbolTable
 70
0
  0
BLOCK_RECORD
  5
210
100
AcDbSymbolTableRecord
100
AcDbBlockTableRecord
  2
*Model_Space
  0
BLOCK_RECORD
  5
211
100
AcDbSymbolTableRecord
100
AcDbBlockTableRecord
  2
*Paper_Space
  0
BLOCK_RECORD
  5
212
100
AcDbSymbolTableRecord
100
AcDbBlockTableRecord
  2
_FILLED
  0
ENDTAB
  0
TABLE
  2
DIMSTYLE
  5
A
100
AcDbSymbolTable
 70
1
100
AcDbDimStyleTable
 71
0
  0
DIMSTYLE
105
213
100
AcDbSymbolTableRecord
100
AcDbDimStyleTableRecord
  2
STANDARD
 70
0
  3

  4

 40
1.0
 41
0.948566121
 42
1.0
 43
0.38
 44
1.0
 45
0.0
 46
0.0
 47
0.01
 48
0.01
140
1.3279925694
141
0.09
142
0.0
143
25.4
144
1.0
145
0.0
146
1.0
147
0.625
 71
1
 72
0
 73
0
 74
0
 75
0
 76
0
 77
1
 78
8
 79
2
170
0
171
1
172
0
173
0
174
0
175
0
176
0
177
0
178
0
270
2
179
2
271
2
272
2
273
2
274
2
275
0
280
0
281
0
282
0
283
1
284
8
285
0
286
0
287
3
288
0
340
11
278
46
341
212
342
212
343
212
344
212
  0
ENDTAB
  0
ENDSEC
  0
SECTION
  2
BLOCKS
  0
BLOCK
  5
20
100
AcDbEntity
  8
0
100
AcDbBlockBegin
  2
*Model_Space
 70
0
 10
0.0
 20
0.0
 30
0.0
  3
*Model_Space
  1

  0
ENDBLK
  5
21
100
AcDbEntity
  8
0
100
AcDbBlockEnd
  0
BLOCK
  5
1C
100
AcDbEntity
  8
0
100
AcDbBlockBegin
  2
*Paper_Space
 70
0
 10
0.0
 20
0.0
 30
0.0
  3
*Paper_Space
  1

  0
ENDBLK
  5
1D
100
AcDbEntity
  8
0
100
AcDbBlockEnd
  0
BLOCK
  5
214
100
AcDbEntity
  8
0
100
AcDbBlockBegin
  2
_FILLED
 70
64
 10
0.0
 20
0.0
  3
_FILLED
  1

  0
SOLID
  5
215
100
AcDbEntity
  8
0
  6
BYBLOCK
 62
0
100
AcDbTrace
 10
0.0
 20
0.0
 11
-1.0
 21
0.25
 12
-1.0
 22
-0.25
 13
-1.0
 23
-0.25
  0
ENDBLK
  5
216
100
AcDbEntity
  8
0
  6
BYBLOCK
 62
0
100
AcDbBlockEnd
  0
ENDSEC
  0
SECTION
  2
ENTITIES
  0
LINE
  5
217
100
AcDbEntity
  8
0
100
AcDbLine
 62
7
  6
BYLAYER
 10
8.8742603272
 20
28.7500013959
 11
9.3742613005
 21
28.2500005082
  0
LINE
  5
218
100
AcDbEntity
  8
0
100
AcDbLine
 62
7
  6
BYLAYER
 10
8.8742598398
 20
28.7500971988
 11
8.8742598398
 21
50.7499028012
  0
LINE
  5
219
100
AcDbEntity
  8
0
100
AcDbLine
 62
7
  6
BYLAYER
 10
9.3742607922
 20
28.25
 11
9.3742607922
 21
51.25
  0
LINE
  5
21A
100
AcDbEntity
  8
0
100
AcDbLine
 62
7
  6
BYLAYER
 10
10.3742598398
 20
51.2498070639
 11
10.3742598398
 21
28.2501920201
  0
LINE
  5
21B
100
AcDbEntity
  8
0
100
AcDbLine
 62
7
  6
BYLAYER
 10
10.8742598398
 20
24.75
 11
10.8742598398
 21
72.1300019199
  0
LINE
  5
21C
100
AcDbEntity
  8
0
100
AcDbLine
 62
7
  6
BYLAYER
 10
10.8742598398
 20
77.2098412876
 11
10.8742598398
 21
88.25
  0
LINE
  5
21D
100
AcDbEntity
  8
0
100
AcDbLine
 62
7
  6
BYLAYER
 10
15.357885664
 20
72.7663741758
 11
15.406991904
 21
72.8766685965
  0
LINE
  5
21E
100
AcDbEntity
  8
0
100
AcDbLine
 62
7
  6
BYLAYER
 10
52.1741636664
 20
23.65
 11
29.5743560132
 21
23.65
  0
LINE
  5
21F
100
AcDbEntity
  8
0
100
AcDbLine
 62
7
  6
BYLAYER
 10
70.8742598398
 20
24.75
 11
10.8742598398
 21
24.75
  0
LINE
  5
220
100
AcDbEntity
  8
0
100
AcDbLine
 62
7
  6
BYLAYER
 10
11.2024093238
 20
31.1113164168
 11
10.8336211248
 21
77.2098412876
  0
LINE
  5
221
100
AcDbEntity
  8
0
100
AcDbLine
 62
7
  6
BYLAYER
 10
15.290673832
 20
71.9835872519
 11
15.2548356416
 21
71.7827320642
  0
LINE
  5
222
100
AcDbEntity
  8
0
100
AcDbLine
 62
7
  6
BYLAYER
 10
16.4578458476
 20
72.5164127481
 11
16.493684038
 21
72.7172679358
  0
LINE
  5
223
100
AcDbEntity
  8
0
100
AcDbLine
 62
7
  6
BYLAYER
 10
16.3415277756
 20
71.6233314035
 11
16.3906340155
 21
71.7336258242
  0
LINE
  5
224
100
AcDbEntity
  8
0
100
AcDbLine
 62
7
  6
BYLAYER
 10
15.5313130509
 20
71.9070532111
 11
15.3660129762
 21
71.7417531364
  0
LINE
  5
225
100
AcDbEntity
  8
0
100
AcDbLine
 62
7
  6
BYLAYER
 10
16.2172066287
 20
72.5929467889
 11
16.3825067034
 21
72.7582468636
  0
LINE
  5
226
100
AcDbEntity
  8
0
100
AcDbLine
 62
7
  6
BYLAYER
 10
65.9742598398
 20
27.75
 11
55.7242598398
 21
27.75
  0
LINE
  5
227
100
AcDbEntity
  8
0
100
AcDbLine
 62
7
  6
BYLAYER
 10
26.0242598398
 20
27.75
 11
15.7742598398
 21
27.75
  0
LINE
  5
228
100
AcDbEntity
  8
0
100
AcDbLine
 62
7
  6
BYLAYER
 10
10.8742598398
 20
28.25
 11
9.3742618087
 21
28.25
  0
LINE
  5
229
100
AcDbEntity
  8
0
100
AcDbLine
 62
7
  6
BYLAYER
 10
70.8742598398
 20
28.25
 11
72.3742578709
 21
28.25
  0
LINE
  5
22A
100
AcDbEntity
  8
0
100
AcDbLine
 62
7
  6
BYLAYER
 10
15.406991904
 20
73.9474789479
 11
15.406991904
 21
72.8766685965
  0
LINE
  5
22B
100
AcDbEntity
  8
0
100
AcDbLine
 62
7
  6
BYLAYER
 10
15.406991904
 20
71.6305758018
 11
15.406991904
 21
70.5525210521
  0
LINE
  5
22C
100
AcDbEntity
  8
0
100
AcDbLine
 62
7
  6
BYLAYER
 10
15.7742598398
 20
27.75
 11
15.7742598398
 21
31.1478912209
  0
LINE
  5
22D
100
AcDbEntity
  8
0
100
AcDbLine
 62
7
  6
BYLAYER
 10
16.3415277756
 20
70.5525210521
 11
16.3415277756
 21
71.6233314035
  0
LINE
  5
22E
100
AcDbEntity
  8
0
100
AcDbLine
 62
7
  6
BYLAYER
 10
16.3415277756
 20
72.8694241982
 11
16.3415277756
 21
73.9474789479
  0
LINE
  5
22F
100
AcDbEntity
  8
0
100
AcDbLine
 62
7
  6
BYLAYER
 10
15.2475912432
 20
72.7172679358
 11
15.357885664
 21
72.7663741758
  0
LINE
  5
230
100
AcDbEntity
  8
0
100
AcDbLine
 62
7
  6
BYLAYER
 10
16.3906340155
 20
71.7336258242
 11
16.5009284363
 21
71.7827320642
  0
LINE
  5
231
100
AcDbEntity
  8
0
100
AcDbLine
 62
7
  6
BYLAYER
 10
71.200489416
 20
31.5913010575
 11
11.2024093238
 21
31.1113164168
  0
LINE
  5
232
100
AcDbEntity
  8
0
100
AcDbLine
 62
7
  6
BYLAYER
 10
70.8742598398
 20
31.35
 11
65.9742598398
 21
31.35
  0
LINE
  5
233
100
AcDbEntity
  8
0
100
AcDbLine
 62
7
  6
BYLAYER
 10
55.7242598398
 20
31.35
 11
41.0378572224
 21
31.35
  0
LINE
  5
234
100
AcDbEntity
  8
0
100
AcDbLine
 62
7
  6
BYLAYER
 10
11.2004998551
 20
31.35
 11
10.8742598398
 21
31.35
  0
LINE
  5
235
100
AcDbEntity
  8
0
100
AcDbLine
 62
7
  6
BYLAYER
 10
15.2902618359
 20
72.5165185807
 11
15.2475912432
 21
72.7172679358
  0
LINE
  5
236
100
AcDbEntity
  8
0
100
AcDbLine
 62
7
  6
BYLAYER
 10
8.8742603272
 20
50.7499986041
 11
9.3742613005
 21
51.2499994918
  0
LINE
  5
237
100
AcDbEntity
  8
0
100
AcDbLine
 62
7
  6
BYLAYER
 10
15.3660129762
 20
71.7417531364
 11
15.406991904
 21
71.6305758018
  0
LINE
  5
238
100
AcDbEntity
  8
0
100
AcDbLine
 62
7
  6
BYLAYER
 10
16.4582578436
 20
71.9834814193
 11
16.5009284363
 21
71.7827320642
  0
LINE
  5
239
100
AcDbEntity
  8
0
100
AcDbLine
 62
7
  6
BYLAYER
 10
26.0242598398
 20
31.2298912209
 11
26.0242598398
 21
27.75
  0
LINE
  5
23A
100
AcDbEntity
  8
0
100
AcDbLine
 62
7
  6
BYLAYER
 10
16.3825067034
 20
72.7582468636
 11
16.3415277756
 21
72.8694241982
  0
LINE
  5
23B
100
AcDbEntity
  8
0
100
AcDbLine
 62
7
  6
BYLAYER
 10
27.3742598398
 20
77.85
 11
27.3742598398
 21
88.35
  0
LINE
  5
23C
100
AcDbEntity
  8
0
100
AcDbLine
 62
7
  6
BYLAYER
 10
29.5742598398
 20
24.75
 11
29.5742598398
 21
23.65
  0
LINE
  5
23D
100
AcDbEntity
  8
0
100
AcDbLine
 62
7
  6
BYLAYER
 10
16.2308106697
 20
71.8934491701
 11
16.3906340155
 21
71.7336258242
  0
LINE
  5
23E
100
AcDbEntity
  8
0
100
AcDbLine
 62
7
  6
BYLAYER
 10
15.5177090099
 20
72.6065508299
 11
15.357885664
 21
72.7663741758
  0
LINE
  5
23F
100
AcDbEntity
  8
0
100
AcDbLine
 62
7
  6
BYLAYER
 10
65.2475912432
 20
72.7172679358
 11
65.357885664
 21
72.7663741758
  0
LINE
  5
240
100
AcDbEntity
  8
0
100
AcDbLine
 62
7
  6
BYLAYER
 10
66.3906340155
 20
71.7336258242
 11
66.5009284363
 21
71.7827320642
  0
LINE
  5
241
100
AcDbEntity
  8
0
100
AcDbLine
 62
7
  6
BYLAYER
 10
10.8742598398
 20
51.25
 11
9.3742618087
 21
51.25
  0
LINE
  5
242
100
AcDbEntity
  8
0
100
AcDbLine
 62
7
  6
BYLAYER
 10
71.0432198244
 20
51.25
 11
72.3742578709
 21
51.25
  0
LINE
  5
243
100
AcDbEntity
  8
0
100
AcDbLine
 62
7
  6
BYLAYER
 10
65.5313130509
 20
71.9070532111
 11
65.3660129762
 21
71.7417531364
  0
LINE
  5
244
100
AcDbEntity
  8
0
100
AcDbLine
 62
7
  6
BYLAYER
 10
66.2172066287
 20
72.5929467889
 11
66.3825067034
 21
72.7582468636
  0
LINE
  5
245
100
AcDbEntity
  8
0
100
AcDbLine
 62
7
  6
BYLAYER
 10
15.2548356416
 20
71.7827320642
 11
15.3660129762
 21
71.7417531364
  0
LINE
  5
246
100
AcDbEntity
  8
0
100
AcDbLine
 62
7
  6
BYLAYER
 10
16.493684038
 20
72.7172679358
 11
16.3825067034
 21
72.7582468636
  0
LINE
  5
247
100
AcDbEntity
  8
0
100
AcDbLine
 62
7
  6
BYLAYER
 10
52.1742598398
 20
24.75
 11
52.1742598398
 21
23.65
  0
LINE
  5
248
100
AcDbEntity
  8
0
100
AcDbLine
 62
7
  6
BYLAYER
 10
65.6078404965
 20
71.6664128154
 11
65.406991904
 21
71.6305758018
  0
LINE
  5
249
100
AcDbEntity
  8
0
100
AcDbLine
 62
7
  6
BYLAYER
 10
66.140679183
 20
72.8335871846
 11
66.3415277756
 21
72.8694241982
  0
LINE
  5
24A
100
AcDbEntity
  8
0
100
AcDbLine
 62
7
  6
BYLAYER
 10
16.1407762972
 20
71.6660024475
 11
16.3415277756
 21
71.6233314035
  0
LINE
  5
24B
100
AcDbEntity
  8
0
100
AcDbLine
 62
7
  6
BYLAYER
 10
15.6077433824
 20
72.8339975525
 11
15.406991904
 21
72.8766685965
  0
LINE
  5
24C
100
AcDbEntity
  8
0
100
AcDbLine
 62
7
  6
BYLAYER
 10
54.3742598398
 20
88.35
 11
54.3742598398
 21
77.85
  0
LINE
  5
24D
100
AcDbEntity
  8
0
100
AcDbLine
 62
7
  6
BYLAYER
 10
55.7242598398
 20
27.75
 11
55.7242598398
 21
31.4674912209
  0
LINE
  5
24E
100
AcDbEntity
  8
0
100
AcDbLine
 62
7
  6
BYLAYER
 10
65.357885664
 20
72.7663741758
 11
65.406991904
 21
72.8766685965
  0
LINE
  5
24F
100
AcDbEntity
  8
0
100
AcDbLine
 62
7
  6
BYLAYER
 10
10.8868998551
 20
70.55
 11
10.8742598398
 21
70.55
  0
LINE
  5
250
100
AcDbEntity
  8
0
100
AcDbLine
 62
7
  6
BYLAYER
 10
66.3415277756
 20
71.6233314035
 11
66.3906340155
 21
71.7336258242
  0
LINE
  5
251
100
AcDbEntity
  8
0
100
AcDbLine
 62
7
  6
BYLAYER
 10
68.3812081095
 20
71.7827320642
 11
66.5009284363
 21
71.7827320642
  0
LINE
  5
252
100
AcDbEntity
  8
0
100
AcDbLine
 62
7
  6
BYLAYER
 10
65.2548356416
 20
71.7827320642
 11
63.36731157
 21
71.7827320642
  0
LINE
  5
253
100
AcDbEntity
  8
0
100
AcDbLine
 62
7
  6
BYLAYER
 10
18.3812081095
 20
71.7827320642
 11
16.5009284363
 21
71.7827320642
  0
LINE
  5
254
100
AcDbEntity
  8
0
100
AcDbLine
 62
7
  6
BYLAYER
 10
15.2548356416
 20
71.7827320642
 11
13.36731157
 21
71.7827320642
  0
LINE
  5
255
100
AcDbEntity
  8
0
100
AcDbLine
 62
7
  6
BYLAYER
 10
68.7508470208
 20
71.887098941
 11
66.8380793791
 21
71.887098941
  0
LINE
  5
256
100
AcDbEntity
  8
0
100
AcDbLine
 62
7
  6
BYLAYER
 10
64.910404322
 20
71.887098941
 11
62.9976726587
 21
71.887098941
  0
LINE
  5
257
100
AcDbEntity
  8
0
100
AcDbLine
 62
7
  6
BYLAYER
 10
18.7508470208
 20
71.887098941
 11
16.8380793791
 21
71.887098941
  0
LINE
  5
258
100
AcDbEntity
  8
0
100
AcDbLine
 62
7
  6
BYLAYER
 10
14.910404322
 20
71.887098941
 11
12.9976726587
 21
71.887098941
  0
LINE
  5
259
100
AcDbEntity
  8
0
100
AcDbLine
 62
7
  6
BYLAYER
 10
12.9976726587
 20
72.612901059
 11
14.9104403005
 21
72.612901059
  0
LINE
  5
25A
100
AcDbEntity
  8
0
100
AcDbLine
 62
7
  6
BYLAYER
 10
16.8381153575
 20
72.612901059
 11
18.7508470208
 21
72.612901059
  0
LINE
  5
25B
100
AcDbEntity
  8
0
100
AcDbLine
 62
7
  6
BYLAYER
 10
62.9976726587
 20
72.612901059
 11
64.9104403005
 21
72.612901059
  0
LINE
  5
25C
100
AcDbEntity
  8
0
100
AcDbLine
 62
7
  6
BYLAYER
 10
66.8381153575
 20
72.612901059
 11
68.7508470208
 21
72.612901059
  0
LINE
  5
25D
100
AcDbEntity
  8
0
100
AcDbLine
 62
7
  6
BYLAYER
 10
13.36731157
 20
72.7172679358
 11
15.2475912432
 21
72.7172679358
  0
LINE
  5
25E
100
AcDbEntity
  8
0
100
AcDbLine
 62
7
  6
BYLAYER
 10
16.493684038
 20
72.7172679358
 11
18.3812081095
 21
72.7172679358
  0
LINE
  5
25F
100
AcDbEntity
  8
0
100
AcDbLine
 62
7
  6
BYLAYER
 10
63.36731157
 20
72.7172679358
 11
65.2475912432
 21
72.7172679358
  0
LINE
  5
260
100
AcDbEntity
  8
0
100
AcDbLine
 62
7
  6
BYLAYER
 10
66.493684038
 20
72.7172679358
 11
68.3812081095
 21
72.7172679358
  0
LINE
  5
261
100
AcDbEntity
  8
0
100
AcDbLine
 62
7
  6
BYLAYER
 10
65.290673832
 20
71.9835872519
 11
65.2548356416
 21
71.7827320642
  0
LINE
  5
262
100
AcDbEntity
  8
0
100
AcDbLine
 62
7
  6
BYLAYER
 10
15.6078404965
 20
71.6664128154
 11
15.406991904
 21
71.6305758018
  0
LINE
  5
263
100
AcDbEntity
  8
0
100
AcDbLine
 62
7
  6
BYLAYER
 10
16.140679183
 20
72.8335871846
 11
16.3415277756
 21
72.8694241982
  0
LINE
  5
264
100
AcDbEntity
  8
0
100
AcDbLine
 62
7
  6
BYLAYER
 10
10.8336211248
 20
77.2098412876
 11
70.831701217
 21
77.6898259284
  0
LINE
  5
265
100
AcDbEntity
  8
0
100
AcDbLine
 62
7
  6
BYLAYER
 10
10.8742598398
 20
77.25
 11
15.8534601727
 21
77.25
  0
LINE
  5
266
100
AcDbEntity
  8
0
100
AcDbLine
 62
7
  6
BYLAYER
 10
70.8352198244
 20
77.25
 11
70.8742598398
 21
77.25
  0
LINE
  5
267
100
AcDbEntity
  8
0
100
AcDbLine
 62
7
  6
BYLAYER
 10
66.1407762972
 20
71.6660024475
 11
66.3415277756
 21
71.6233314035
  0
LINE
  5
268
100
AcDbEntity
  8
0
100
AcDbLine
 62
7
  6
BYLAYER
 10
65.6077433824
 20
72.8339975525
 11
65.406991904
 21
72.8766685965
  0
LINE
  5
269
100
AcDbEntity
  8
0
100
AcDbLine
 62
7
  6
BYLAYER
 10
72.8742593523
 20
50.7499986041
 11
72.3742583791
 21
51.2499994918
  0
LINE
  5
26A
100
AcDbEntity
  8
0
100
AcDbLine
 62
7
  6
BYLAYER
 10
65.406991904
 20
73.9474789479
 11
65.406991904
 21
72.8766685965
  0
LINE
  5
26B
100
AcDbEntity
  8
0
100
AcDbLine
 62
7
  6
BYLAYER
 10
65.406991904
 20
71.6305758018
 11
65.406991904
 21
70.5525210521
  0
LINE
  5
26C
100
AcDbEntity
  8
0
100
AcDbLine
 62
7
  6
BYLAYER
 10
66.4578458476
 20
72.5164127481
 11
66.493684038
 21
72.7172679358
  0
LINE
  5
26D
100
AcDbEntity
  8
0
100
AcDbLine
 62
7
  6
BYLAYER
 10
54.3742598398
 20
77.85
 11
27.3742598398
 21
77.85
  0
LINE
  5
26E
100
AcDbEntity
  8
0
100
AcDbLine
 62
7
  6
BYLAYER
 10
25.2265318966
 20
78.65
 11
27.3742598398
 21
78.65
  0
LINE
  5
26F
100
AcDbEntity
  8
0
100
AcDbLine
 62
7
  6
BYLAYER
 10
54.3742598398
 20
78.65
 11
56.5219877829
 21
78.65
  0
LINE
  5
270
100
AcDbEntity
  8
0
100
AcDbLine
 62
7
  6
BYLAYER
 10
63.0624541414
 20
80.65
 11
59.6860655382
 21
80.65
  0
LINE
  5
271
100
AcDbEntity
  8
0
100
AcDbLine
 62
7
  6
BYLAYER
 10
22.0624541414
 20
80.65
 11
18.6860655382
 21
80.65
  0
LINE
  5
272
100
AcDbEntity
  8
0
100
AcDbLine
 62
7
  6
BYLAYER
 10
65.2548356416
 20
71.7827320642
 11
65.3660129762
 21
71.7417531364
  0
LINE
  5
273
100
AcDbEntity
  8
0
100
AcDbLine
 62
7
  6
BYLAYER
 10
66.493684038
 20
72.7172679358
 11
66.3825067034
 21
72.7582468636
  0
LINE
  5
274
100
AcDbEntity
  8
0
100
AcDbLine
 62
7
  6
BYLAYER
 10
65.9742598398
 20
31.5494912209
 11
65.9742598398
 21
27.75
  0
LINE
  5
275
100
AcDbEntity
  8
0
100
AcDbLine
 62
7
  6
BYLAYER
 10
66.3415277756
 20
70.5525210521
 11
66.3415277756
 21
71.6233314035
  0
LINE
  5
276
100
AcDbEntity
  8
0
100
AcDbLine
 62
7
  6
BYLAYER
 10
66.3415277756
 20
72.8694241982
 11
66.3415277756
 21
73.9474789479
  0
LINE
  5
277
100
AcDbEntity
  8
0
100
AcDbLine
 62
7
  6
BYLAYER
 10
65.2902618359
 20
72.5165185807
 11
65.2475912432
 21
72.7172679358
  0
LINE
  5
278
100
AcDbEntity
  8
0
100
AcDbLine
 62
7
  6
BYLAYER
 10
70.831701217
 20
77.6898259284
 11
71.200489416
 21
31.5913010575
  0
LINE
  5
279
100
AcDbEntity
  8
0
100
AcDbLine
 62
7
  6
BYLAYER
 10
70.8742598398
 20
24.75
 11
70.8742598398
 21
31.5886912209
  0
LINE
  5
27A
100
AcDbEntity
  8
0
100
AcDbLine
 62
7
  6
BYLAYER
 10
70.8742598398
 20
72.3699980801
 11
70.8742598398
 21
88.25
  0
LINE
  5
27B
100
AcDbEntity
  8
0
100
AcDbLine
 62
7
  6
BYLAYER
 10
71.3742598398
 20
51.25
 11
71.3742598398
 21
28.2501929361
  0
LINE
  5
27C
100
AcDbEntity
  8
0
100
AcDbLine
 62
7
  6
BYLAYER
 10
18.6860655382
 20
85.85
 11
22.0624541414
 21
85.85
  0
LINE
  5
27D
100
AcDbEntity
  8
0
100
AcDbLine
 62
7
  6
BYLAYER
 10
59.6860655382
 20
85.85
 11
63.0624541414
 21
85.85
  0
LINE
  5
27E
100
AcDbEntity
  8
0
100
AcDbLine
 62
7
  6
BYLAYER
 10
65.5177090099
 20
72.6065508299
 11
65.357885664
 21
72.7663741758
  0
LINE
  5
27F
100
AcDbEntity
  8
0
100
AcDbLine
 62
7
  6
BYLAYER
 10
66.2308106697
 20
71.8934491701
 11
66.3906340155
 21
71.7336258242
  0
LINE
  5
280
100
AcDbEntity
  8
0
100
AcDbLine
 62
7
  6
BYLAYER
 10
65.3660129762
 20
71.7417531364
 11
65.406991904
 21
71.6305758018
  0
LINE
  5
281
100
AcDbEntity
  8
0
100
AcDbLine
 62
7
  6
BYLAYER
 10
66.3825067034
 20
72.7582468636
 11
66.3415277756
 21
72.8694241982
  0
LINE
  5
282
100
AcDbEntity
  8
0
100
AcDbLine
 62
7
  6
BYLAYER
 10
66.4582578436
 20
71.9834814193
 11
66.5009284363
 21
71.7827320642
  0
LINE
  5
283
100
AcDbEntity
  8
0
100
AcDbLine
 62
7
  6
BYLAYER
 10
72.3742588873
 20
51.25
 11
72.3742588873
 21
28.25
  0
LINE
  5
284
100
AcDbEntity
  8
0
100
AcDbLine
 62
7
  6
BYLAYER
 10
72.8742598398
 20
50.7499028012
 11
72.8742598398
 21
28.7500971988
  0
LINE
  5
285
100
AcDbEntity
  8
0
100
AcDbLine
 62
7
  6
BYLAYER
 10
10.8742598398
 20
88.25
 11
27.3742598398
 21
88.25
  0
LINE
  5
286
100
AcDbEntity
  8
0
100
AcDbLine
 62
7
  6
BYLAYER
 10
54.3742598398
 20
88.25
 11
70.8742598398
 21
88.25
  0
LINE
  5
287
100
AcDbEntity
  8
0
100
AcDbLine
 62
7
  6
BYLAYER
 10
27.3742598398
 20
88.35
 11
54.3742598398
 21
88.35
  0
LINE
  5
288
100
AcDbEntity
  8
0
100
AcDbLine
 62
7
  6
BYLAYER
 10
72.8742593523
 20
28.7500013959
 11
72.3742583791
 21
28.2500005082
  0
ARC
  5
289
100
AcDbEntity
  8
0
100
AcDbCircle
 62
7
  6
BYLAYER
 10
-214.4782471228
 20
14.6614962332
 40
237.3259424002
100
AcDbArc
 50
14.1887178613
 51
14.3518496499
  0
ARC
  5
28A
100
AcDbEntity
  8
0
100
AcDbCircle
 62
7
  6
BYLAYER
 10
-164.4782471228
 20
14.6614962332
 40
237.3259424002
100
AcDbArc
 50
14.1887178613
 51
14.3518496499
  0
ARC
  5
28B
100
AcDbEntity
  8
0
100
AcDbCircle
 62
7
  6
BYLAYER
 10
-16.7073472521
 20
-59.5112493842
 40
135.6127633759
100
AcDbArc
 50
75.6785440682
 51
75.8441030542
  0
ARC
  5
28C
100
AcDbEntity
  8
0
100
AcDbCircle
 62
7
  6
BYLAYER
 10
33.2926527485
 20
-59.5112493818
 40
135.6127633735
100
AcDbArc
 50
75.6785440682
 51
75.8441030542
  0
ARC
  5
28D
100
AcDbEntity
  8
0
100
AcDbCircle
 62
7
  6
BYLAYER
 10
-166.4409839108
 20
117.6249879863
 40
187.7603927878
100
AcDbArc
 50
345.6254004244
 51
345.8316121649
  0
ARC
  5
28E
100
AcDbEntity
  8
0
100
AcDbCircle
 62
7
  6
BYLAYER
 10
-116.4409839079
 20
117.6249879855
 40
187.7603927848
100
AcDbArc
 50
345.6254004244
 51
345.8316121649
  0
ARC
  5
28F
100
AcDbEntity
  8
0
100
AcDbCircle
 62
7
  6
BYLAYER
 10
-27.773518588
 20
247.6206478283
 40
180.6042892972
100
AcDbArc
 50
284.1763732511
 51
284.3008357581
  0
ARC
  5
290
100
AcDbEntity
  8
0
100
AcDbCircle
 62
7
  6
BYLAYER
 10
22.2264814135
 20
247.6206478221
 40
180.6042892908
100
AcDbArc
 50
284.1763732511
 51
284.3008357581
  0
ARC
  5
291
100
AcDbEntity
  8
0
100
AcDbCircle
 62
7
  6
BYLAYER
 10
21.3742598398
 20
83.25
 40
6.0
100
AcDbArc
 50
272.5773354958
 51
360.0
  0
ARC
  5
292
100
AcDbEntity
  8
0
100
AcDbCircle
 62
7
  6
BYLAYER
 10
20.3742598398
 20
83.25
 40
3.1
100
AcDbArc
 50
122.9958854736
 51
237.0041145264
  0
ARC
  5
293
100
AcDbEntity
  8
0
100
AcDbCircle
 62
7
  6
BYLAYER
 10
20.3742598398
 20
83.25
 40
3.1
100
AcDbArc
 50
302.9958854736
 51
57.0041145264
  0
CIRCLE
  5
294
100
AcDbEntity
  8
0
100
AcDbCircle
 62
7
  6
BYLAYER
 10
15.8742598398
 20
72.25
 40
3.0
  0
ARC
  5
295
100
AcDbEntity
  8
0
100
AcDbCircle
 62
7
  6
BYLAYER
 10
15.8742598398
 20
72.25
 40
2.8993880369
100
AcDbArc
 50
172.8097324032
 51
187.1902675968
  0
ARC
  5
296
100
AcDbEntity
  8
0
100
AcDbCircle
 62
7
  6
BYLAYER
 10
15.8742598398
 20
72.25
 40
2.8993880369
100
AcDbArc
 50
352.8097324032
 51
7.1902675968
  0
ARC
  5
297
100
AcDbEntity
  8
0
100
AcDbCircle
 62
7
  6
BYLAYER
 10
15.8742598398
 20
72.25
 40
2.8489817302
100
AcDbArc
 50
188.7550103386
 51
351.2449896614
  0
ARC
  5
298
100
AcDbEntity
  8
0
100
AcDbCircle
 62
7
  6
BYLAYER
 10
15.8742598398
 20
72.25
 40
2.8489817302
100
AcDbArc
 50
8.7550103386
 51
171.2449896614
  0
ARC
  5
299
100
AcDbEntity
  8
0
100
AcDbCircle
 62
7
  6
BYLAYER
 10
15.8742598398
 20
72.25
 40
2.5501233207
100
AcDbArc
 50
190.5581570357
 51
349.4418429643
  0
ARC
  5
29A
100
AcDbEntity
  8
0
100
AcDbCircle
 62
7
  6
BYLAYER
 10
15.8742598398
 20
72.25
 40
2.5501233207
100
AcDbArc
 50
10.5581570357
 51
169.4418429643
  0
ARC
  5
29B
100
AcDbEntity
  8
0
100
AcDbCircle
 62
7
  6
BYLAYER
 10
15.8742598398
 20
72.25
 40
1.7606175344
100
AcDbArc
 50
254.6092763651
 51
285.3907236349
  0
ARC
  5
29C
100
AcDbEntity
  8
0
100
AcDbCircle
 62
7
  6
BYLAYER
 10
15.8742598398
 20
72.25
 40
1.7606175344
100
AcDbArc
 50
74.6092763651
 51
105.3907236349
  0
ARC
  5
29D
100
AcDbEntity
  8
0
100
AcDbCircle
 62
7
  6
BYLAYER
 10
15.8742598398
 20
72.25
 40
1.3123743192
100
AcDbArc
 50
250.7303350173
 51
289.2684647375
  0
ARC
  5
29E
100
AcDbEntity
  8
0
100
AcDbCircle
 62
7
  6
BYLAYER
 10
15.8742598398
 20
72.25
 40
1.3123743192
100
AcDbArc
 50
70.7303350173
 51
109.2684647375
  0
ARC
  5
29F
100
AcDbEntity
  8
0
100
AcDbCircle
 62
7
  6
BYLAYER
 10
15.8742598398
 20
72.25
 40
1.0299038341
100
AcDbArc
 50
159.3680222874
 51
200.6319777126
  0
ARC
  5
2A0
100
AcDbEntity
  8
0
100
AcDbCircle
 62
7
  6
BYLAYER
 10
15.8742598398
 20
72.25
 40
1.0299038341
100
AcDbArc
 50
339.3680222874
 51
20.6319777126
  0
ARC
  5
2A1
100
AcDbEntity
  8
0
100
AcDbCircle
 62
7
  6
BYLAYER
 10
15.8742598398
 20
72.25
 40
0.635
100
AcDbArc
 50
245.0838345996
 51
295.0060406168
  0
ARC
  5
2A2
100
AcDbEntity
  8
0
100
AcDbCircle
 62
7
  6
BYLAYER
 10
15.8742598398
 20
72.25
 40
0.635
100
AcDbArc
 50
334.9939604507
 51
24.9161654004
  0
ARC
  5
2A3
100
AcDbEntity
  8
0
100
AcDbCircle
 62
7
  6
BYLAYER
 10
15.8742598398
 20
72.25
 40
0.635
100
AcDbArc
 50
65.0838345996
 51
115.0060395494
  0
ARC
  5
2A4
100
AcDbEntity
  8
0
100
AcDbCircle
 62
7
  6
BYLAYER
 10
15.8742598398
 20
72.25
 40
0.635
100
AcDbArc
 50
154.9939604507
 51
204.9161654004
  0
ARC
  5
2A5
100
AcDbEntity
  8
0
100
AcDbCircle
 62
7
  6
BYLAYER
 10
198.1895036045
 20
26.8750120101
 40
187.7603928023
100
AcDbArc
 50
165.6254004244
 51
165.8316121648
  0
ARC
  5
2A6
100
AcDbEntity
  8
0
100
AcDbCircle
 62
7
  6
BYLAYER
 10
248.1895036016
 20
26.8750120109
 40
187.7603927994
100
AcDbArc
 50
165.6254004244
 51
165.8316121648
  0
ARC
  5
2A7
100
AcDbEntity
  8
0
100
AcDbCircle
 62
7
  6
BYLAYER
 10
109.5220402254
 20
-103.1206555441
 40
180.6042972575
100
AcDbArc
 50
104.1763732538
 51
104.3008357553
  0
ARC
  5
2A8
100
AcDbEntity
  8
0
100
AcDbCircle
 62
7
  6
BYLAYER
 10
59.5220402153
 20
-103.1206555046
 40
180.6042972168
100
AcDbArc
 50
104.1763732537
 51
104.3008357554
  0
ARC
  5
2A9
100
AcDbEntity
  8
0
100
AcDbCircle
 62
7
  6
BYLAYER
 10
246.2267667209
 20
129.8385037461
 40
237.3259423161
100
AcDbArc
 50
194.1887178612
 51
194.3518496499
  0
ARC
  5
2AA
100
AcDbEntity
  8
0
100
AcDbCircle
 62
7
  6
BYLAYER
 10
296.2267667068
 20
129.8385037425
 40
237.3259423016
100
AcDbArc
 50
194.1887178612
 51
194.3518496499
  0
ARC
  5
2AB
100
AcDbEntity
  8
0
100
AcDbCircle
 62
7
  6
BYLAYER
 10
48.4558670071
 20
204.0112496787
 40
135.61276368
100
AcDbArc
 50
255.6785440681
 51
255.8441030538
  0
ARC
  5
2AC
100
AcDbEntity
  8
0
100
AcDbCircle
 62
7
  6
BYLAYER
 10
98.4558670068
 20
204.0112496776
 40
135.6127636788
100
AcDbArc
 50
255.6785440681
 51
255.8441030538
  0
ARC
  5
2AD
100
AcDbEntity
  8
0
100
AcDbCircle
 62
7
  6
BYLAYER
 10
60.3742598398
 20
83.25
 40
6.0
100
AcDbArc
 50
180.0
 51
251.140150662
  0
ARC
  5
2AE
100
AcDbEntity
  8
0
100
AcDbCircle
 62
7
  6
BYLAYER
 10
61.3742598398
 20
83.25
 40
3.1
100
AcDbArc
 50
122.9958854736
 51
237.0041145264
  0
ARC
  5
2AF
100
AcDbEntity
  8
0
100
AcDbCircle
 62
7
  6
BYLAYER
 10
61.3742598398
 20
83.25
 40
3.1
100
AcDbArc
 50
302.9958854736
 51
57.0041145264
  0
CIRCLE
  5
2B0
100
AcDbEntity
  8
0
100
AcDbCircle
 62
7
  6
BYLAYER
 10
65.8742598398
 20
72.25
 40
3.0
  0
ARC
  5
2B1
100
AcDbEntity
  8
0
100
AcDbCircle
 62
7
  6
BYLAYER
 10
65.8742598398
 20
72.25
 40
2.8993880369
100
AcDbArc
 50
172.8097324032
 51
187.1902675968
  0
ARC
  5
2B2
100
AcDbEntity
  8
0
100
AcDbCircle
 62
7
  6
BYLAYER
 10
65.8742598398
 20
72.25
 40
2.8993880369
100
AcDbArc
 50
352.8097324032
 51
7.1902675968
  0
ARC
  5
2B3
100
AcDbEntity
  8
0
100
AcDbCircle
 62
7
  6
BYLAYER
 10
65.8742598398
 20
72.25
 40
2.8489817302
100
AcDbArc
 50
188.7550103386
 51
351.2449896614
  0
ARC
  5
2B4
100
AcDbEntity
  8
0
100
AcDbCircle
 62
7
  6
BYLAYER
 10
65.8742598398
 20
72.25
 40
2.8489817302
100
AcDbArc
 50
8.7550103386
 51
171.2449896614
  0
ARC
  5
2B5
100
AcDbEntity
  8
0
100
AcDbCircle
 62
7
  6
BYLAYER
 10
65.8742598398
 20
72.25
 40
2.5501233207
100
AcDbArc
 50
190.5581570357
 51
349.4418429643
  0
ARC
  5
2B6
100
AcDbEntity
  8
0
100
AcDbCircle
 62
7
  6
BYLAYER
 10
65.8742598398
 20
72.25
 40
2.5501233207
100
AcDbArc
 50
10.5581570357
 51
169.4418429643
  0
ARC
  5
2B7
100
AcDbEntity
  8
0
100
AcDbCircle
 62
7
  6
BYLAYER
 10
65.8742598398
 20
72.25
 40
1.7606175344
100
AcDbArc
 50
254.6092763651
 51
285.3907236349
  0
ARC
  5
2B8
100
AcDbEntity
  8
0
100
AcDbCircle
 62
7
  6
BYLAYER
 10
65.8742598398
 20
72.25
 40
1.7606175344
100
AcDbArc
 50
74.6092763651
 51
105.3907236349
  0
ARC
  5
2B9
100
AcDbEntity
  8
0
100
AcDbCircle
 62
7
  6
BYLAYER
 10
65.8742598398
 20
72.25
 40
1.3123743192
100
AcDbArc
 50
250.7303350173
 51
289.2684647375
  0
ARC
  5
2BA
100
AcDbEntity
  8
0
100
AcDbCircle
 62
7
  6
BYLAYER
 10
65.8742598398
 20
72.25
 40
1.3123743192
100
AcDbArc
 50
70.7303350173
 51
109.2684647375
  0
ARC
  5
2BB
100
AcDbEntity
  8
0
100
AcDbCircle
 62
7
  6
BYLAYER
 10
65.8742598398
 20
72.25
 40
1.0299038341
100
AcDbArc
 50
159.3680222874
 51
200.6319777126
  0
ARC
  5
2BC
100
AcDbEntity
  8
0
100
AcDbCircle
 62
7
  6
BYLAYER
 10
65.8742598398
 20
72.25
 40
1.0299038341
100
AcDbArc
 50
339.3680222874
 51
20.6319777126
  0
ARC
  5
2BD
100
AcDbEntity
  8
0
100
AcDbCircle
 62
7
  6
BYLAYER
 10
65.8742598398
 20
72.25
 40
0.635
100
AcDbArc
 50
245.0838345996
 51
295.0060406168
  0
ARC
  5
2BE
100
AcDbEntity
  8
0
100
AcDbCircle
 62
7
  6
BYLAYER
 10
65.8742598398
 20
72.25
 40
0.635
100
AcDbArc
 50
334.9939604507
 51
24.9161654004
  0
ARC
  5
2BF
100
AcDbEntity
  8
0
100
AcDbCircle
 62
7
  6
BYLAYER
 10
65.8742598398
 20
72.25
 40
0.635
100
AcDbArc
 50
65.0838345996
 51
115.0060395494
  0
ARC
  5
2C0
100
AcDbEntity
  8
0
100
AcDbCircle
 62
7
  6
BYLAYER
 10
65.8742598398
 20
72.25
 40
0.635
100
AcDbArc
 50
154.9939604507
 51
204.9161654004
  0
SPLINE
  5
2C1
100
AcDbEntity
  8
0
100
AcDbSpline
 62
7
  6
BYLAYER
 70
0
 71
3
 72
9
 73
5
 74
0
 42
0.0000001
 43
0.0000001
 44
0.0000000001
 40
0.0
 40
0.0
 40
0.0
 40
0.0
 40
0.2544124182
 40
1.0
 40
1.0
 40
1.0
 40
1.0
 10
15.5313130509
 20
71.9070532111
 30
0.0
 10
15.5379253308
 20
71.8873689911
 30
0.0
 10
15.563637689
 20
71.809904211
 30
0.0
 10
15.5884711534
 20
71.7321505428
 30
0.0
 10
15.6067396042
 20
71.674102506
 30
0.0
  0
SPLINE
  5
2C2
100
AcDbEntity
  8
0
100
AcDbSpline
 62
7
  6
BYLAYER
 70
0
 71
3
 72
9
 73
5
 74
0
 42
0.0000001
 43
0.0000001
 44
0.0000000001
 40
0.0
 40
0.0
 40
0.0
 40
0.0
 40
0.2459824255
 40
1.0
 40
1.0
 40
1.0
 40
1.0
 10
15.2983623458
 20
71.9824797645
 30
0.0
 10
15.3175133619
 20
71.9764526976
 30
0.0
 10
15.3953318674
 20
71.9518353675
 30
0.0
 10
15.4729738809
 20
71.9266503769
 30
0.0
 10
15.5313130509
 20
71.9070532111
 30
0.0
  0
SPLINE
  5
2C3
100
AcDbEntity
  8
0
100
AcDbSpline
 62
7
  6
BYLAYER
 70
0
 71
3
 72
9
 73
5
 74
0
 42
0.0000001
 43
0.0000001
 44
0.0000000001
 40
0.0
 40
0.0
 40
0.0
 40
0.0
 40
0.2542068433
 40
1.0
 40
1.0
 40
1.0
 40
1.0
 10
16.2308106697
 20
71.8934491701
 30
0.0
 10
16.2231344281
 20
71.8749834616
 30
0.0
 10
16.1931950725
 20
71.8022358644
 30
0.0
 10
16.1641099955
 20
71.7291394182
 30
0.0
 10
16.1426831008
 20
71.6745228302
 30
0.0
  0
SPLINE
  5
2C4
100
AcDbEntity
  8
0
100
AcDbSpline
 62
7
  6
BYLAYER
 70
0
 71
3
 72
9
 73
5
 74
0
 42
0.0000001
 43
0.0000001
 44
0.0000000001
 40
0.0
 40
0.0
 40
0.0
 40
0.0
 40
0.2460382598
 40
1.0
 40
1.0
 40
1.0
 40
1.0
 10
16.4497370096
 20
71.981576739
 30
0.0
 10
16.4317189621
 20
71.9745079926
 30
0.0
 10
16.3585341085
 20
71.9456567913
 30
0.0
 10
16.2855786789
 20
71.9162163698
 30
0.0
 10
16.2308106697
 20
71.8934491701
 30
0.0
  0
LINE
  5
2C5
100
AcDbEntity
  8
0
100
AcDbLine
 62
7
  6
BYLAYER
 10
16.4582573923
 20
71.9834835426
 11
16.4497370096
 21
71.981576739
  0
SPLINE
  5
2C6
100
AcDbEntity
  8
0
100
AcDbSpline
 62
7
  6
BYLAYER
 70
0
 71
3
 72
17
 73
13
 74
0
 42
0.0000001
 43
0.0000001
 44
0.0000000001
 40
0.0
 40
0.0
 40
0.0
 40
0.0
 40
0.0175753679
 40
0.0421130052
 40
0.0739913459
 40
0.1131814747
 40
0.2124512873
 40
0.3370542949
 40
0.4830348768
 40
0.6456926451
 40
0.8199649731
 40
1.0
 40
1.0
 40
1.0
 40
1.0
 10
18.6900458159
 20
71.8163570186
 30
0.0
 10
18.6888386391
 20
71.8149772971
 30
0.0
 10
18.6851827962
 20
71.8123906482
 30
0.0
 10
18.6781699917
 20
71.8091698215
 30
0.0
 10
18.668692971
 20
71.8059984012
 30
0.0
 10
18.6514843697
 20
71.8015554714
 30
0.0
 10
18.6244453519
 20
71.7966940369
 30
0.0
 10
18.5861642494
 20
71.7918596265
 30
0.0
 10
18.5411363498
 20
71.7879028637
 30
0.0
 10
18.4908452081
 20
71.784955821
 30
0.0
 10
18.4369463905
 20
71.7831415426
 30
0.0
 10
18.3999874724
 20
71.7827320642
 30
0.0
 10
18.3812081095
 20
71.7827320642
 30
0.0
  0
SPLINE
  5
2C7
100
AcDbEntity
  8
0
100
AcDbSpline
 62
7
  6
BYLAYER
 70
0
 71
3
 72
17
 73
13
 74
0
 42
0.0000001
 43
0.0000001
 44
0.0000000001
 40
0.0
 40
0.0
 40
0.0
 40
0.0
 40
0.1800318635
 40
0.3542997836
 40
0.5169581248
 40
0.6629405863
 40
0.7875456577
 40
0.886817177
 40
0.9260080412
 40
0.9578867593
 40
0.9824245822
 40
1.0
 40
1.0
 40
1.0
 40
1.0
 10
13.36731157
 20
71.7827320642
 30
0.0
 10
13.3485325373
 20
71.7827320642
 30
0.0
 10
13.3115744087
 20
71.7831414844
 30
0.0
 10
13.257676322
 20
71.7849557598
 30
0.0
 10
13.2073853809
 20
71.7879027217
 30
0.0
 10
13.1623570066
 20
71.7918594563
 30
0.0
 10
13.1240753099
 20
71.7966938717
 30
0.0
 10
13.0970358268
 20
71.801555369
 30
0.0
 10
13.0798269295
 20
71.8059983302
 30
0.0
 10
13.0703497808
 20
71.8091697967
 30
0.0
 10
13.0633369143
 20
71.8123906382
 30
0.0
 10
13.0596810439
 20
71.8149772932
 30
0.0
 10
13.0584738636
 20
71.8163570186
 30
0.0
  0
LINE
  5
2C8
100
AcDbEntity
  8
0
100
AcDbLine
 62
7
  6
BYLAYER
 10
15.6067396042
 20
71.674102506
 11
15.6078470917
 21
71.6664139922
  0
LINE
  5
2C9
100
AcDbEntity
  8
0
100
AcDbLine
 62
7
  6
BYLAYER
 10
16.1407762972
 20
71.6660024475
 11
16.1426831008
 21
71.6745228302
  0
SPLINE
  5
2CA
100
AcDbEntity
  8
0
100
AcDbSpline
 62
7
  6
BYLAYER
 70
0
 71
3
 72
13
 73
9
 74
0
 42
0.0000001
 43
0.0000001
 44
0.0000000001
 40
0.0
 40
0.0
 40
0.0
 40
0.0
 40
0.3040834018
 40
0.5864774407
 40
0.7127235784
 40
0.8253673602
 40
0.9218930726
 40
1.0
 40
1.0
 40
1.0
 40
1.0
 10
16.3415277756
 20
70.5525210521
 30
0.0
 10
16.3415277756
 20
70.5992152138
 30
0.0
 10
16.3401080652
 20
70.689278187
 30
0.0
 10
16.3346887225
 20
70.7986192945
 30
0.0
 10
16.3279711958
 20
70.878390875
 30
0.0
 10
16.3222129287
 20
70.9295840034
 30
0.0
 10
16.315660181
 20
70.9732161554
 30
0.0
 10
16.3103052922
 20
70.9995206421
 30
0.0
 10
16.3073366459
 20
71.0111413182
 30
0.0
  0
SPLINE
  5
2CB
100
AcDbEntity
  8
0
100
AcDbSpline
 62
7
  6
BYLAYER
 70
0
 71
3
 72
13
 73
9
 74
0
 42
0.0000001
 43
0.0000001
 44
0.0000000001
 40
0.0
 40
0.0
 40
0.0
 40
0.0
 40
0.0780896679
 40
0.1745486834
 40
0.2871301148
 40
0.4133513732
 40
0.6957897274
 40
1.0
 40
1.0
 40
1.0
 40
1.0
 10
15.4412534804
 20
71.0115047288
 30
0.0
 10
15.4382831044
 20
70.9998772818
 30
0.0
 10
15.432919074
 20
70.9735660466
 30
0.0
 10
15.4263509933
 20
70.9299229591
 30
0.0
 10
15.4205792683
 20
70.878713457
 30
0.0
 10
15.4138462997
 20
70.7988851637
 30
0.0
 10
15.4084149492
 20
70.6894339283
 30
0.0
 10
15.406991904
 20
70.5992722448
 30
0.0
 10
15.406991904
 20
70.5525210521
 30
0.0
  0
SPLINE
  5
2CC
100
AcDbEntity
  8
0
100
AcDbSpline
 62
7
  6
BYLAYER
 70
0
 71
3
 72
17
 73
13
 74
0
 42
0.0000001
 43
0.0000001
 44
0.0000000001
 40
0.0
 40
0.0
 40
0.0
 40
0.0
 40
0.0175753679
 40
0.0421130052
 40
0.0739913459
 40
0.1131814747
 40
0.2124512873
 40
0.3370542949
 40
0.4830348768
 40
0.6456926451
 40
0.8199649731
 40
1.0
 40
1.0
 40
1.0
 40
1.0
 10
13.0584738636
 20
72.6836429814
 30
0.0
 10
13.0596810405
 20
72.6850227029
 30
0.0
 10
13.0633368833
 20
72.6876093518
 30
0.0
 10
13.0703496878
 20
72.6908301785
 30
0.0
 10
13.0798267086
 20
72.6940015988
 30
0.0
 10
13.0970353098
 20
72.6984445286
 30
0.0
 10
13.1240743276
 20
72.7033059631
 30
0.0
 10
13.1623554301
 20
72.7081403735
 30
0.0
 10
13.2073833297
 20
72.7120971363
 30
0.0
 10
13.2576744714
 20
72.715044179
 30
0.0
 10
13.3115732891
 20
72.7168584574
 30
0.0
 10
13.3485322072
 20
72.7172679358
 30
0.0
 10
13.36731157
 20
72.7172679358
 30
0.0
  0
SPLINE
  5
2CD
100
AcDbEntity
  8
0
100
AcDbSpline
 62
7
  6
BYLAYER
 70
0
 71
3
 72
17
 73
13
 74
0
 42
0.0000001
 43
0.0000001
 44
0.0000000001
 40
0.0
 40
0.0
 40
0.0
 40
0.0
 40
0.1800318635
 40
0.3542997836
 40
0.5169581248
 40
0.6629405863
 40
0.7875456577
 40
0.886817177
 40
0.9260080412
 40
0.9578867593
 40
0.9824245822
 40
1.0
 40
1.0
 40
1.0
 40
1.0
 10
18.3812081095
 20
72.7172679358
 30
0.0
 10
18.3999871422
 20
72.7172679358
 30
0.0
 10
18.4369452709
 20
72.7168585156
 30
0.0
 10
18.4908433575
 20
72.7150442402
 30
0.0
 10
18.5411342987
 20
72.7120972783
 30
0.0
 10
18.586162673
 20
72.7081405437
 30
0.0
 10
18.6244443696
 20
72.7033061283
 30
0.0
 10
18.6514838528
 20
72.698444631
 30
0.0
 10
18.66869275
 20
72.6940016698
 30
0.0
 10
18.6781698988
 20
72.6908302033
 30
0.0
 10
18.6851827652
 20
72.6876093618
 30
0.0
 10
18.6888386356
 20
72.6850227068
 30
0.0
 10
18.6900458159
 20
72.6836429814
 30
0.0
  0
LINE
  5
2CE
100
AcDbEntity
  8
0
100
AcDbLine
 62
7
  6
BYLAYER
 10
15.2902622872
 20
72.5165164574
 11
15.29878267
 21
72.5184232611
  0
SPLINE
  5
2CF
100
AcDbEntity
  8
0
100
AcDbSpline
 62
7
  6
BYLAYER
 70
0
 71
3
 72
13
 73
9
 74
0
 42
0.0000001
 43
0.0000001
 44
0.0000000001
 40
0.0
 40
0.0
 40
0.0
 40
0.0
 40
0.3040834017
 40
0.5864774408
 40
0.7127235784
 40
0.8253673602
 40
0.9218930726
 40
1.0
 40
1.0
 40
1.0
 40
1.0
 10
15.406991904
 20
73.9474789479
 30
0.0
 10
15.406991904
 20
73.9007847862
 30
0.0
 10
15.4084116143
 20
73.810721813
 30
0.0
 10
15.4138309571
 20
73.7013807055
 30
0.0
 10
15.4205484838
 20
73.621609125
 30
0.0
 10
15.4263067509
 20
73.5704159966
 30
0.0
 10
15.4328594985
 20
73.5267838446
 30
0.0
 10
15.4382143874
 20
73.5004793579
 30
0.0
 10
15.4411830336
 20
73.4888586818
 30
0.0
  0
SPLINE
  5
2D0
100
AcDbEntity
  8
0
100
AcDbSpline
 62
7
  6
BYLAYER
 70
0
 71
3
 72
13
 73
9
 74
0
 42
0.0000001
 43
0.0000001
 44
0.0000000001
 40
0.0
 40
0.0
 40
0.0
 40
0.0
 40
0.078089668
 40
0.1745486835
 40
0.2871301148
 40
0.4133513731
 40
0.6957897275
 40
1.0
 40
1.0
 40
1.0
 40
1.0
 10
16.3072661991
 20
73.4884952712
 30
0.0
 10
16.3102365751
 20
73.5001227182
 30
0.0
 10
16.3156006056
 20
73.5264339534
 30
0.0
 10
16.3221686862
 20
73.5700770409
 30
0.0
 10
16.3279404113
 20
73.6212865431
 30
0.0
 10
16.3346733799
 20
73.7011148363
 30
0.0
 10
16.3401047303
 20
73.8105660717
 30
0.0
 10
16.3415277756
 20
73.9007277552
 30
0.0
 10
16.3415277756
 20
73.9474789479
 30
0.0
  0
LINE
  5
2D1
100
AcDbEntity
  8
0
100
AcDbLine
 62
7
  6
BYLAYER
 10
16.4578458476
 20
72.5164127481
 11
16.4501573338
 21
72.5175202355
  0
SPLINE
  5
2D2
100
AcDbEntity
  8
0
100
AcDbSpline
 62
7
  6
BYLAYER
 70
0
 71
3
 72
9
 73
5
 74
0
 42
0.0000001
 43
0.0000001
 44
0.0000000001
 40
0.0
 40
0.0
 40
0.0
 40
0.0
 40
0.2544124182
 40
1.0
 40
1.0
 40
1.0
 40
1.0
 10
16.2172066287
 20
72.5929467889
 30
0.0
 10
16.2105943487
 20
72.6126310089
 30
0.0
 10
16.1848819905
 20
72.690095789
 30
0.0
 10
16.1600485261
 20
72.7678494572
 30
0.0
 10
16.1417800753
 20
72.825897494
 30
0.0
  0
SPLINE
  5
2D3
100
AcDbEntity
  8
0
100
AcDbSpline
 62
7
  6
BYLAYER
 70
0
 71
3
 72
9
 73
5
 74
0
 42
0.0000001
 43
0.0000001
 44
0.0000000001
 40
0.0
 40
0.0
 40
0.0
 40
0.0
 40
0.2459824255
 40
1.0
 40
1.0
 40
1.0
 40
1.0
 10
16.4501573338
 20
72.5175202355
 30
0.0
 10
16.4310063176
 20
72.5235473024
 30
0.0
 10
16.3531878122
 20
72.5481646325
 30
0.0
 10
16.2755457986
 20
72.5733496231
 30
0.0
 10
16.2172066287
 20
72.5929467889
 30
0.0
  0
SPLINE
  5
2D4
100
AcDbEntity
  8
0
100
AcDbSpline
 62
7
  6
BYLAYER
 70
0
 71
3
 72
9
 73
5
 74
0
 42
0.0000001
 43
0.0000001
 44
0.0000000001
 40
0.0
 40
0.0
 40
0.0
 40
0.0
 40
0.2542038863
 40
1.0
 40
1.0
 40
1.0
 40
1.0
 10
15.5177090099
 20
72.6065508299
 30
0.0
 10
15.4992435163
 20
72.5988746776
 30
0.0
 10
15.4264957525
 20
72.5689357291
 30
0.0
 10
15.3533994742
 20
72.5398502405
 30
0.0
 10
15.29878267
 20
72.5184232611
 30
0.0
  0
SPLINE
  5
2D5
100
AcDbEntity
  8
0
100
AcDbSpline
 62
7
  6
BYLAYER
 70
0
 71
3
 72
9
 73
5
 74
0
 42
0.0000001
 43
0.0000001
 44
0.0000000001
 40
0.0
 40
0.0
 40
0.0
 40
0.0
 40
0.2460388638
 40
1.0
 40
1.0
 40
1.0
 40
1.0
 10
15.6058365787
 20
72.8254771698
 30
0.0
 10
15.598767815
 20
72.8074590779
 30
0.0
 10
15.5699170763
 20
72.734274041
 30
0.0
 10
15.5404761915
 20
72.6613187957
 30
0.0
 10
15.5177090099
 20
72.6065508299
 30
0.0
  0
SPLINE
  5
2D6
100
AcDbEntity
  8
0
100
AcDbSpline
 62
7
  6
BYLAYER
 70
0
 71
3
 72
12
 73
8
 74
0
 42
0.0000001
 43
0.0000001
 44
0.0000000001
 40
0.0
 40
0.0
 40
0.0
 40
0.0
 40
0.3011555666
 40
0.4640090751
 40
0.5775251531
 40
0.7752125248
 40
1.0
 40
1.0
 40
1.0
 40
1.0
 10
16.1417800753
 20
72.825897494
 30
0.0
 10
16.1416681866
 20
72.8266713367
 30
0.0
 10
16.1413716131
 20
72.8278384372
 30
0.0
 10
16.141158696
 20
72.8293337811
 30
0.0
 10
16.1413115894
 20
72.8305665615
 30
0.0
 10
16.1409741434
 20
72.8319380442
 30
0.0
 10
16.1407554931
 20
72.8330083109
 30
0.0
 10
16.1406725879
 20
72.8335860078
 30
0.0
  0
LINE
  5
2D7
100
AcDbEntity
  8
0
100
AcDbLine
 62
7
  6
BYLAYER
 10
15.6077433824
 20
72.8339975525
 11
15.6058365787
 21
72.8254771698
  0
SPLINE
  5
2D8
100
AcDbEntity
  8
0
100
AcDbSpline
 62
7
  6
BYLAYER
 70
0
 71
3
 72
12
 73
8
 74
0
 42
0.0000001
 43
0.0000001
 44
0.0000000001
 40
0.0
 40
0.0
 40
0.0
 40
0.0
 40
0.301041753
 40
0.4640909988
 40
0.577568552
 40
0.775023956
 40
1.0
 40
1.0
 40
1.0
 40
1.0
 10
15.290673832
 20
71.9835872519
 30
0.0
 10
15.291447501
 20
71.9834762279
 30
0.0
 10
15.2926147515
 20
71.9831793026
 30
0.0
 10
15.2941101438
 20
71.9829654021
 30
0.0
 10
15.2953427111
 20
71.9831186026
 30
0.0
 10
15.2967141041
 20
71.9827817824
 30
0.0
 10
15.2977842521
 20
71.9825633501
 30
0.0
 10
15.2983623458
 20
71.9824797645
 30
0.0
  0
SPLINE
  5
2D9
100
AcDbEntity
  8
0
100
AcDbSpline
 62
7
  6
BYLAYER
 70
0
 71
3
 72
9
 73
5
 74
0
 42
0.0000001
 43
0.0000001
 44
0.0000000001
 40
0.0
 40
0.0
 40
0.0
 40
0.0
 40
0.2544124182
 40
1.0
 40
1.0
 40
1.0
 40
1.0
 10
65.5313130509
 20
71.9070532111
 30
0.0
 10
65.5379253308
 20
71.8873689911
 30
0.0
 10
65.563637689
 20
71.809904211
 30
0.0
 10
65.5884711534
 20
71.7321505428
 30
0.0
 10
65.6067396042
 20
71.674102506
 30
0.0
  0
SPLINE
  5
2DA
100
AcDbEntity
  8
0
100
AcDbSpline
 62
7
  6
BYLAYER
 70
0
 71
3
 72
9
 73
5
 74
0
 42
0.0000001
 43
0.0000001
 44
0.0000000001
 40
0.0
 40
0.0
 40
0.0
 40
0.0
 40
0.2459824255
 40
1.0
 40
1.0
 40
1.0
 40
1.0
 10
65.2983623458
 20
71.9824797645
 30
0.0
 10
65.3175133619
 20
71.9764526976
 30
0.0
 10
65.3953318674
 20
71.9518353675
 30
0.0
 10
65.4729738809
 20
71.9266503769
 30
0.0
 10
65.5313130509
 20
71.9070532111
 30
0.0
  0
SPLINE
  5
2DB
100
AcDbEntity
  8
0
100
AcDbSpline
 62
7
  6
BYLAYER
 70
0
 71
3
 72
9
 73
5
 74
0
 42
0.0000001
 43
0.0000001
 44
0.0000000001
 40
0.0
 40
0.0
 40
0.0
 40
0.0
 40
0.2542068433
 40
1.0
 40
1.0
 40
1.0
 40
1.0
 10
66.2308106697
 20
71.8934491701
 30
0.0
 10
66.2231344281
 20
71.8749834616
 30
0.0
 10
66.1931950725
 20
71.8022358644
 30
0.0
 10
66.1641099955
 20
71.7291394182
 30
0.0
 10
66.1426831008
 20
71.6745228302
 30
0.0
  0
SPLINE
  5
2DC
100
AcDbEntity
  8
0
100
AcDbSpline
 62
7
  6
BYLAYER
 70
0
 71
3
 72
9
 73
5
 74
0
 42
0.0000001
 43
0.0000001
 44
0.0000000001
 40
0.0
 40
0.0
 40
0.0
 40
0.0
 40
0.2460382598
 40
1.0
 40
1.0
 40
1.0
 40
1.0
 10
66.4497370096
 20
71.981576739
 30
0.0
 10
66.4317189621
 20
71.9745079926
 30
0.0
 10
66.3585341085
 20
71.9456567913
 30
0.0
 10
66.2855786789
 20
71.9162163698
 30
0.0
 10
66.2308106697
 20
71.8934491701
 30
0.0
  0
LINE
  5
2DD
100
AcDbEntity
  8
0
100
AcDbLine
 62
7
  6
BYLAYER
 10
66.4582573923
 20
71.9834835426
 11
66.4497370096
 21
71.981576739
  0
SPLINE
  5
2DE
100
AcDbEntity
  8
0
100
AcDbSpline
 62
7
  6
BYLAYER
 70
0
 71
3
 72
17
 73
13
 74
0
 42
0.0000001
 43
0.0000001
 44
0.0000000001
 40
0.0
 40
0.0
 40
0.0
 40
0.0
 40
0.0175753679
 40
0.0421130052
 40
0.0739913459
 40
0.1131814747
 40
0.2124512873
 40
0.3370542949
 40
0.4830348768
 40
0.6456926451
 40
0.8199649731
 40
1.0
 40
1.0
 40
1.0
 40
1.0
 10
68.6900458159
 20
71.8163570186
 30
0.0
 10
68.6888386391
 20
71.8149772971
 30
0.0
 10
68.6851827962
 20
71.8123906482
 30
0.0
 10
68.6781699917
 20
71.8091698215
 30
0.0
 10
68.668692971
 20
71.8059984012
 30
0.0
 10
68.6514843697
 20
71.8015554714
 30
0.0
 10
68.6244453519
 20
71.7966940369
 30
0.0
 10
68.5861642494
 20
71.7918596265
 30
0.0
 10
68.5411363498
 20
71.7879028637
 30
0.0
 10
68.4908452081
 20
71.784955821
 30
0.0
 10
68.4369463905
 20
71.7831415426
 30
0.0
 10
68.3999874724
 20
71.7827320642
 30
0.0
 10
68.3812081095
 20
71.7827320642
 30
0.0
  0
SPLINE
  5
2DF
100
AcDbEntity
  8
0
100
AcDbSpline
 62
7
  6
BYLAYER
 70
0
 71
3
 72
17
 73
13
 74
0
 42
0.0000001
 43
0.0000001
 44
0.0000000001
 40
0.0
 40
0.0
 40
0.0
 40
0.0
 40
0.1800318635
 40
0.3542997836
 40
0.5169581248
 40
0.6629405863
 40
0.7875456577
 40
0.886817177
 40
0.9260080412
 40
0.9578867593
 40
0.9824245822
 40
1.0
 40
1.0
 40
1.0
 40
1.0
 10
63.36731157
 20
71.7827320642
 30
0.0
 10
63.3485325373
 20
71.7827320642
 30
0.0
 10
63.3115744087
 20
71.7831414844
 30
0.0
 10
63.257676322
 20
71.7849557598
 30
0.0
 10
63.2073853809
 20
71.7879027217
 30
0.0
 10
63.1623570066
 20
71.7918594563
 30
0.0
 10
63.1240753099
 20
71.7966938717
 30
0.0
 10
63.0970358268
 20
71.801555369
 30
0.0
 10
63.0798269295
 20
71.8059983302
 30
0.0
 10
63.0703497808
 20
71.8091697967
 30
0.0
 10
63.0633369143
 20
71.8123906382
 30
0.0
 10
63.0596810439
 20
71.8149772932
 30
0.0
 10
63.0584738636
 20
71.8163570186
 30
0.0
  0
LINE
  5
2E0
100
AcDbEntity
  8
0
100
AcDbLine
 62
7
  6
BYLAYER
 10
65.6067396042
 20
71.674102506
 11
65.6078470917
 21
71.6664139922
  0
LINE
  5
2E1
100
AcDbEntity
  8
0
100
AcDbLine
 62
7
  6
BYLAYER
 10
66.1407762972
 20
71.6660024475
 11
66.1426831008
 21
71.6745228302
  0
SPLINE
  5
2E2
100
AcDbEntity
  8
0
100
AcDbSpline
 62
7
  6
BYLAYER
 70
0
 71
3
 72
13
 73
9
 74
0
 42
0.0000001
 43
0.0000001
 44
0.0000000001
 40
0.0
 40
0.0
 40
0.0
 40
0.0
 40
0.3040834018
 40
0.5864774407
 40
0.7127235784
 40
0.8253673602
 40
0.9218930726
 40
1.0
 40
1.0
 40
1.0
 40
1.0
 10
66.3415277756
 20
70.5525210521
 30
0.0
 10
66.3415277756
 20
70.5992152138
 30
0.0
 10
66.3401080652
 20
70.689278187
 30
0.0
 10
66.3346887225
 20
70.7986192945
 30
0.0
 10
66.3279711958
 20
70.878390875
 30
0.0
 10
66.3222129287
 20
70.9295840034
 30
0.0
 10
66.315660181
 20
70.9732161554
 30
0.0
 10
66.3103052922
 20
70.9995206421
 30
0.0
 10
66.3073366459
 20
71.0111413182
 30
0.0
  0
SPLINE
  5
2E3
100
AcDbEntity
  8
0
100
AcDbSpline
 62
7
  6
BYLAYER
 70
0
 71
3
 72
13
 73
9
 74
0
 42
0.0000001
 43
0.0000001
 44
0.0000000001
 40
0.0
 40
0.0
 40
0.0
 40
0.0
 40
0.0780896679
 40
0.1745486834
 40
0.2871301148
 40
0.4133513732
 40
0.6957897274
 40
1.0
 40
1.0
 40
1.0
 40
1.0
 10
65.4412534804
 20
71.0115047288
 30
0.0
 10
65.4382831044
 20
70.9998772818
 30
0.0
 10
65.432919074
 20
70.9735660466
 30
0.0
 10
65.4263509933
 20
70.9299229591
 30
0.0
 10
65.4205792683
 20
70.878713457
 30
0.0
 10
65.4138462997
 20
70.7988851637
 30
0.0
 10
65.4084149492
 20
70.6894339283
 30
0.0
 10
65.406991904
 20
70.5992722448
 30
0.0
 10
65.406991904
 20
70.5525210521
 30
0.0
  0
SPLINE
  5
2E4
100
AcDbEntity
  8
0
100
AcDbSpline
 62
7
  6
BYLAYER
 70
0
 71
3
 72
17
 73
13
 74
0
 42
0.0000001
 43
0.0000001
 44
0.0000000001
 40
0.0
 40
0.0
 40
0.0
 40
0.0
 40
0.0175753679
 40
0.0421130052
 40
0.0739913459
 40
0.1131814747
 40
0.2124512873
 40
0.3370542949
 40
0.4830348768
 40
0.6456926451
 40
0.8199649731
 40
1.0
 40
1.0
 40
1.0
 40
1.0
 10
63.0584738636
 20
72.6836429814
 30
0.0
 10
63.0596810405
 20
72.6850227029
 30
0.0
 10
63.0633368833
 20
72.6876093518
 30
0.0
 10
63.0703496878
 20
72.6908301785
 30
0.0
 10
63.0798267086
 20
72.6940015988
 30
0.0
 10
63.0970353098
 20
72.6984445286
 30
0.0
 10
63.1240743276
 20
72.7033059631
 30
0.0
 10
63.1623554301
 20
72.7081403735
 30
0.0
 10
63.2073833297
 20
72.7120971363
 30
0.0
 10
63.2576744714
 20
72.715044179
 30
0.0
 10
63.3115732891
 20
72.7168584574
 30
0.0
 10
63.3485322072
 20
72.7172679358
 30
0.0
 10
63.36731157
 20
72.7172679358
 30
0.0
  0
SPLINE
  5
2E5
100
AcDbEntity
  8
0
100
AcDbSpline
 62
7
  6
BYLAYER
 70
0
 71
3
 72
17
 73
13
 74
0
 42
0.0000001
 43
0.0000001
 44
0.0000000001
 40
0.0
 40
0.0
 40
0.0
 40
0.0
 40
0.1800318635
 40
0.3542997836
 40
0.5169581248
 40
0.6629405863
 40
0.7875456577
 40
0.886817177
 40
0.9260080412
 40
0.9578867593
 40
0.9824245822
 40
1.0
 40
1.0
 40
1.0
 40
1.0
 10
68.3812081095
 20
72.7172679358
 30
0.0
 10
68.3999871422
 20
72.7172679358
 30
0.0
 10
68.4369452709
 20
72.7168585156
 30
0.0
 10
68.4908433575
 20
72.7150442402
 30
0.0
 10
68.5411342987
 20
72.7120972783
 30
0.0
 10
68.586162673
 20
72.7081405437
 30
0.0
 10
68.6244443696
 20
72.7033061283
 30
0.0
 10
68.6514838528
 20
72.698444631
 30
0.0
 10
68.66869275
 20
72.6940016698
 30
0.0
 10
68.6781698988
 20
72.6908302033
 30
0.0
 10
68.6851827652
 20
72.6876093618
 30
0.0
 10
68.6888386356
 20
72.6850227068
 30
0.0
 10
68.6900458159
 20
72.6836429814
 30
0.0
  0
LINE
  5
2E6
100
AcDbEntity
  8
0
100
AcDbLine
 62
7
  6
BYLAYER
 10
65.2902622872
 20
72.5165164574
 11
65.29878267
 21
72.5184232611
  0
SPLINE
  5
2E7
100
AcDbEntity
  8
0
100
AcDbSpline
 62
7
  6
BYLAYER
 70
0
 71
3
 72
13
 73
9
 74
0
 42
0.0000001
 43
0.0000001
 44
0.0000000001
 40
0.0
 40
0.0
 40
0.0
 40
0.0
 40
0.3040834017
 40
0.5864774408
 40
0.7127235784
 40
0.8253673602
 40
0.9218930726
 40
1.0
 40
1.0
 40
1.0
 40
1.0
 10
65.406991904
 20
73.9474789479
 30
0.0
 10
65.406991904
 20
73.9007847862
 30
0.0
 10
65.4084116143
 20
73.810721813
 30
0.0
 10
65.4138309571
 20
73.7013807055
 30
0.0
 10
65.4205484838
 20
73.621609125
 30
0.0
 10
65.4263067509
 20
73.5704159966
 30
0.0
 10
65.4328594985
 20
73.5267838446
 30
0.0
 10
65.4382143874
 20
73.5004793579
 30
0.0
 10
65.4411830336
 20
73.4888586818
 30
0.0
  0
SPLINE
  5
2E8
100
AcDbEntity
  8
0
100
AcDbSpline
 62
7
  6
BYLAYER
 70
0
 71
3
 72
13
 73
9
 74
0
 42
0.0000001
 43
0.0000001
 44
0.0000000001
 40
0.0
 40
0.0
 40
0.0
 40
0.0
 40
0.078089668
 40
0.1745486835
 40
0.2871301148
 40
0.4133513731
 40
0.6957897275
 40
1.0
 40
1.0
 40
1.0
 40
1.0
 10
66.3072661991
 20
73.4884952712
 30
0.0
 10
66.3102365751
 20
73.5001227182
 30
0.0
 10
66.3156006056
 20
73.5264339534
 30
0.0
 10
66.3221686862
 20
73.5700770409
 30
0.0
 10
66.3279404113
 20
73.6212865431
 30
0.0
 10
66.3346733799
 20
73.7011148363
 30
0.0
 10
66.3401047303
 20
73.8105660717
 30
0.0
 10
66.3415277756
 20
73.9007277552
 30
0.0
 10
66.3415277756
 20
73.9474789479
 30
0.0
  0
LINE
  5
2E9
100
AcDbEntity
  8
0
100
AcDbLine
 62
7
  6
BYLAYER
 10
66.4578458476
 20
72.5164127481
 11
66.4501573338
 21
72.5175202355
  0
SPLINE
  5
2EA
100
AcDbEntity
  8
0
100
AcDbSpline
 62
7
  6
BYLAYER
 70
0
 71
3
 72
9
 73
5
 74
0
 42
0.0000001
 43
0.0000001
 44
0.0000000001
 40
0.0
 40
0.0
 40
0.0
 40
0.0
 40
0.2544124182
 40
1.0
 40
1.0
 40
1.0
 40
1.0
 10
66.2172066287
 20
72.5929467889
 30
0.0
 10
66.2105943487
 20
72.6126310089
 30
0.0
 10
66.1848819905
 20
72.690095789
 30
0.0
 10
66.1600485261
 20
72.7678494572
 30
0.0
 10
66.1417800753
 20
72.825897494
 30
0.0
  0
SPLINE
  5
2EB
100
AcDbEntity
  8
0
100
AcDbSpline
 62
7
  6
BYLAYER
 70
0
 71
3
 72
9
 73
5
 74
0
 42
0.0000001
 43
0.0000001
 44
0.0000000001
 40
0.0
 40
0.0
 40
0.0
 40
0.0
 40
0.2459824255
 40
1.0
 40
1.0
 40
1.0
 40
1.0
 10
66.4501573338
 20
72.5175202355
 30
0.0
 10
66.4310063176
 20
72.5235473024
 30
0.0
 10
66.3531878122
 20
72.5481646325
 30
0.0
 10
66.2755457986
 20
72.5733496231
 30
0.0
 10
66.2172066287
 20
72.5929467889
 30
0.0
  0
SPLINE
  5
2EC
100
AcDbEntity
  8
0
100
AcDbSpline
 62
7
  6
BYLAYER
 70
0
 71
3
 72
9
 73
5
 74
0
 42
0.0000001
 43
0.0000001
 44
0.0000000001
 40
0.0
 40
0.0
 40
0.0
 40
0.0
 40
0.2542038863
 40
1.0
 40
1.0
 40
1.0
 40
1.0
 10
65.5177090099
 20
72.6065508299
 30
0.0
 10
65.4992435163
 20
72.5988746776
 30
0.0
 10
65.4264957525
 20
72.5689357291
 30
0.0
 10
65.3533994742
 20
72.5398502405
 30
0.0
 10
65.29878267
 20
72.5184232611
 30
0.0
  0
SPLINE
  5
2ED
100
AcDbEntity
  8
0
100
AcDbSpline
 62
7
  6
BYLAYER
 70
0
 71
3
 72
9
 73
5
 74
0
 42
0.0000001
 43
0.0000001
 44
0.0000000001
 40
0.0
 40
0.0
 40
0.0
 40
0.0
 40
0.2460388638
 40
1.0
 40
1.0
 40
1.0
 40
1.0
 10
65.6058365787
 20
72.8254771698
 30
0.0
 10
65.598767815
 20
72.8074590779
 30
0.0
 10
65.5699170763
 20
72.734274041
 30
0.0
 10
65.5404761915
 20
72.6613187957
 30
0.0
 10
65.5177090099
 20
72.6065508299
 30
0.0
  0
SPLINE
  5
2EE
100
AcDbEntity
  8
0
100
AcDbSpline
 62
7
  6
BYLAYER
 70
0
 71
3
 72
12
 73
8
 74
0
 42
0.0000001
 43
0.0000001
 44
0.0000000001
 40
0.0
 40
0.0
 40
0.0
 40
0.0
 40
0.3011555666
 40
0.4640090751
 40
0.5775251531
 40
0.7752125248
 40
1.0
 40
1.0
 40
1.0
 40
1.0
 10
66.1417800753
 20
72.825897494
 30
0.0
 10
66.1416681866
 20
72.8266713367
 30
0.0
 10
66.1413716131
 20
72.8278384372
 30
0.0
 10
66.141158696
 20
72.8293337811
 30
0.0
 10
66.1413115894
 20
72.8305665615
 30
0.0
 10
66.1409741434
 20
72.8319380442
 30
0.0
 10
66.1407554931
 20
72.8330083109
 30
0.0
 10
66.1406725879
 20
72.8335860078
 30
0.0
  0
LINE
  5
2EF
100
AcDbEntity
  8
0
100
AcDbLine
 62
7
  6
BYLAYER
 10
65.6077433824
 20
72.8339975525
 11
65.6058365787
 21
72.8254771698
  0
SPLINE
  5
2F0
100
AcDbEntity
  8
0
100
AcDbSpline
 62
7
  6
BYLAYER
 70
0
 71
3
 72
12
 73
8
 74
0
 42
0.0000001
 43
0.0000001
 44
0.0000000001
 40
0.0
 40
0.0
 40
0.0
 40
0.0
 40
0.301041753
 40
0.4640909988
 40
0.577568552
 40
0.775023956
 40
1.0
 40
1.0
 40
1.0
 40
1.0
 10
65.290673832
 20
71.9835872519
 30
0.0
 10
65.291447501
 20
71.9834762279
 30
0.0
 10
65.2926147515
 20
71.9831793026
 30
0.0
 10
65.2941101438
 20
71.9829654021
 30
0.0
 10
65.2953427111
 20
71.9831186026
 30
0.0
 10
65.2967141041
 20
71.9827817824
 30
0.0
 10
65.2977842521
 20
71.9825633501
 30
0.0
 10
65.2983623458
 20
71.9824797645
 30
0.0
  0
ELLIPSE
  5
2F1
100
AcDbEntity
  8
0
100
AcDbEllipse
 62
7
  6
BYLAYER
 10
15.8742598398
 20
76.820831165
 30
0.0
 11
-0.0
 21
6.4148596508
 31
0.0
 40
0.7016335375
 41
-2.4656822927
 42
-2.4482436442
  0
ELLIPSE
  5
2F2
100
AcDbEntity
  8
0
100
AcDbEllipse
 62
7
  6
BYLAYER
 10
15.8742598398
 20
76.820831165
 30
0.0
 11
0.0
 21
6.4148596508
 31
0.0
 40
0.7016335375
 41
-3.834941663
 42
-3.8175030145
  0
ELLIPSE
  5
2F3
100
AcDbEntity
  8
0
100
AcDbEllipse
 62
7
  6
BYLAYER
 10
15.8742598398
 20
67.679168835
 30
0.0
 11
0.0
 21
6.4148596508
 31
0.0
 40
0.7016335375
 41
-0.6933490094
 42
-0.6759103609
  0
ELLIPSE
  5
2F4
100
AcDbEntity
  8
0
100
AcDbEllipse
 62
7
  6
BYLAYER
 10
15.8742598398
 20
67.679168835
 30
0.0
 11
-0.0
 21
6.4148596508
 31
0.0
 40
0.7016335375
 41
0.6759103609
 42
0.6933490094
  0
ELLIPSE
  5
2F5
100
AcDbEntity
  8
0
100
AcDbEllipse
 62
7
  6
BYLAYER
 10
65.8742598398
 20
76.820831165
 30
0.0
 11
0.0
 21
6.4148596508
 31
0.0
 40
0.7016335375
 41
-2.4656822927
 42
-2.4482436442
  0
ELLIPSE
  5
2F6
100
AcDbEntity
  8
0
100
AcDbEllipse
 62
7
  6
BYLAYER
 10
65.8742598398
 20
76.820831165
 30
0.0
 11
0.0
 21
6.4148596508
 31
0.0
 40
0.7016335375
 41
-3.834941663
 42
-3.8175030145
  0
ELLIPSE
  5
2F7
100
AcDbEntity
  8
0
100
AcDbEllipse
 62
7
  6
BYLAYER
 10
65.8742598398
 20
67.679168835
 30
0.0
 11
-0.0
 21
6.4148596508
 31
0.0
 40
0.7016335375
 41
-0.6933490094
 42
-0.6759103609
  0
ELLIPSE
  5
2F8
100
AcDbEntity
  8
0
100
AcDbEllipse
 62
7
  6
BYLAYER
 10
65.8742598398
 20
67.679168835
 30
0.0
 11
0.0
 21
6.4148596508
 31
0.0
 40
0.7016335375
 41
0.6759103609
 42
0.6933490094
  0
ENDSEC
  0
SECTION
  2
OBJECTS
  0
DICTIONARY
  5
C
100
AcDbDictionary
280
0
281
1
  3
ACAD_GROUP
350
D
  3
ACAD_MLINESTYLE
350
17
  3
ACAD_LAYOUT
350
1A
  3
ACAD_PLOTSETTINGS
350
19
  3
ACAD_PLOTSTYLENAME
350
E
  0
DICTIONARY
  5
D
102
{ACAD_REACTORS
330
C
102
}
100
AcDbDictionary
280
0
281
1
  0
ACDBDICTIONARYWDFLT
  5
E
102
{ACAD_REACTORS
330
C
102
}
100
AcDbDictionary
281
1
  3
Normal
350
F
100
AcDbDictionaryWithDefault
340
F
  0
DICTIONARY
  5
17
102
{ACAD_REACTORS
330
C
102
}
100
AcDbDictionary
280
0
281
1
  3
Standard
350
18
  0
DICTIONARY
  5
19
102
{ACAD_REACTORS
330
C
102
}
100
AcDbDictionary
281
1
  0
DICTIONARY
  5
1A
102
{ACAD_REACTORS
330
C
102
}
100
AcDbDictionary
281
1
  3
Model
350
2F9
  3
Layout1
350
2FA
  0
ACDBPLACEHOLDER
  5
F
102
{ACAD_REACTORS
330
E
102
}
  0
MLINESTYLE
  5
18
102
{ACAD_REACTORS
330
17
102
}
100
AcDbMlineStyle
  2
STANDARD
 70
0
  3

 62
256
 51
90.0
 52
90.0
 71
2
 49
0.5
 62
256
  6
BYLAYER
 49
-0.5
 62
256
  6
BYLAYER
  0
LAYOUT
  5
2F9
102
{ACAD_REACTORS
330
1A
102
}
100
AcDbPlotSettings
  1

  2
none_device
  4

  6

 40
0.0
 41
0.0
 42
0.0
 43
0.0
 44
210.0
 45
297.0
 46
0.0
 47
0.0
 48
0.0
 49
0.0
140
0.0
141
0.0
142
1.0
143
1.0
 70
1024
 72
1
 73
0
 74
0
  7

 75
0
147
1.0
148
0.0
149
0.0
100
AcDbLayout
  1
Model
 70
0
 71
0
 10
0.0
 20
0.0
 11
210.0
 21
297.0
 12
0.0
 22
0.0
 32
0.0
 14
0.0
 24
0.0
 34
0.0
 15
0.0
 25
0.0
 35
0.0
146
0.0
 13
0.0
 23
0.0
 33
0.0
 16
1.0
 26
0.0
 36
0.0
 17
0.0
 27
1.0
 37
0.0
 76
0
330
210
345
0
346
0
  0
LAYOUT
  5
2FA
102
{ACAD_REACTORS
330
1A
102
}
100
AcDbPlotSettings
  1

  2
none_device
  4

  6

 40
0.0
 41
0.0
 42
0.0
 43
0.0
 44
210.0
 45
297.0
 46
0.0
 47
0.0
 48
0.0
 49
0.0
140
0.0
141
0.0
142
1.0
143
1.0
 70
0
 72
1
 73
0
 74
0
  7

 75
0
147
1.0
148
0.0
149
0.0
100
AcDbLayout
  1
Layout1
 70
0
 71
1
 10
0.0
 20
0.0
 11
210.0
 21
297.0
 12
0.0
 22
0.0
 32
0.0
 14
0.0
 24
0.0
 34
0.0
 15
0.0
 25
0.0
 35
0.0
146
0.0
 13
0.0
 23
0.0
 33
0.0
 16
1.0
 26
0.0
 36
0.0
 17
0.0
 27
1.0
 37
0.0
 76
0
330
211
345
0
346
0
  0
ENDSEC
  0
EOF
