999
DXF file: C:\Users\sesa63760\Dev\_Creo\CAD\MCADID0005533_3D-CAD\drw0001_5.dxf
999
Pro/ENGINEER 2019471 by Parametric Technology Corporation
  0
SECTION
  2
HEADER
  9
$ACADVER
  1
AC1024
  9
$DWGCODEPAGE
  3
ANSI_1252
  9
$EXTMAX
 10
91.5712045832
 20
129.507846482
 30
0.0
  9
$EXTMIN
 10
0.0
 20
0.0
 30
0.0
  9
$LIMMIN
 10
0.0
 20
0.0
  9
$LIMMAX
 10
91.5712045832
 20
129.507846482
  9
$VIEWCTR
 10
45.7856022916
 20
64.753923241
  9
$VIEWSIZE
 40
129.507846482
  9
$CLAYER
  8
0
  9
$LTSCALE
 40
8.4419929559
  9
$CELTYPE
  6
BYLAYER
  9
$DIMSCALE
 40
1.0
  9
$DIMASZ
 40
1.0901333879
  9
$DIMEXO
 40
1.0
  9
$DIMDLI
 40
5.8326496786
  9
$DIMEXE
 40
1.0
  9
$DIMCEN
 40
1.3814170291
  9
$DIMLFAC
 40
1.0
  9
$DIMBLK
  1
_FILLED
  9
$DIMALT
 70
0
  9
$DIMALTF
 40
0.0393700787
  9
$DIMTXT
 40
1.5261867431
  9
$DIMTOL
 70
1
  9
$DIMLIM
 70
0
  9
$DIMTFAC
 40
1.0
  9
$DIMTP
 40
0.01
  9
$DIMTM
 40
0.01
  9
$DIMGAP
 40
0.625
  9
$DIMDSEP
 70
46
  9
$AUNITS
 70
0
  9
$PDMODE
 70
3
  9
$PDSIZE
 40
0.3125
  9
$HANDSEED
  5
2E5
  9
$TILEMODE
 70
1
  9
$MEASUREMENT
 70
1
  9
$INSUNITS
 70
4
  0
ENDSEC
  0
SECTION
  2
CLASSES
  0
CLASS
  1
ACDBDICTIONARYWDFLT
  2
AcDbDictionaryWithDefault
  3
AutoCAD 2000
 90
0
 91
1
280
0
281
0
  0
CLASS
  1
ACDBPLACEHOLDER
  2
AcDbPlaceHolder
  3
AutoCAD 2000
 90
0
 91
1
280
0
281
0
  0
CLASS
  1
LAYOUT
  2
AcDbLayout
  3
AutoCAD 2000
 90
0
 91
0
280
0
281
0
  0
ENDSEC
  0
SECTION
  2
TABLES
  0
TABLE
  2
VPORT
  5
8
100
AcDbSymbolTable
 70
2
  0
VPORT
  5
1F4
100
AcDbSymbolTableRecord
100
AcDbViewportTableRecord
  2
*ACTIVE
 70
0
 10
0.0
 20
0.0
 11
1.0
 21
1.0
 12
45.7856022916
 22
64.753923241
 13
0.0
 23
0.0
 14
1.0
 24
1.0
 15
0.0
 25
0.0
 16
0.0
 26
0.0
 36
1.0
 17
0.0
 27
0.0
 37
0.0
 40
129.507846482
 41
0.7070707071
 42
50.0
 43
0.0
 44
0.0
 50
0.0
 51
0.0
 71
0
 72
100
 73
1
 74
1
 75
0
 76
0
 77
0
 78
0
  0
ENDTAB
  0
TABLE
  2
LTYPE
  5
5
100
AcDbSymbolTable
 70
6
  0
LTYPE
  5
14
100
AcDbSymbolTableRecord
100
AcDbLinetypeTableRecord
  2
BYBLOCK
 70
0
  3

 72
65
 73
0
 40
0.0
  0
LTYPE
  5
15
100
AcDbSymbolTableRecord
100
AcDbLinetypeTableRecord
  2
BYLAYER
 70
0
  3

 72
65
 73
0
 40
0.0
  0
LTYPE
  5
16
100
AcDbSymbolTableRecord
100
AcDbLinetypeTableRecord
  2
CONTINUOUS
 70
64
  3
Solid line
 72
65
 73
0
 40
0.0
  0
LTYPE
  5
1F5
100
AcDbSymbolTableRecord
100
AcDbLinetypeTableRecord
  2
CENTER
 70
64
  3
____ _ ____ _ ____ _ ____ _ ____ _ ____ _ ____
 72
65
 73
4
 40
0.6
 49
0.375
 74
0
 49
-0.075
 74
0
 49
0.075
 74
0
 49
-0.075
 74
0
  0
LTYPE
  5
1F6
100
AcDbSymbolTableRecord
100
AcDbLinetypeTableRecord
  2
HIDDEN
 70
64
  3
- - - - - - - - - - - - - - - - - - - -
 72
65
 73
2
 40
0.2
 49
0.1
 74
0
 49
-0.1
 74
0
  0
LTYPE
  5
1F7
100
AcDbSymbolTableRecord
100
AcDbLinetypeTableRecord
  2
PHANTOM
 70
64
  3
_____ _ _ _____ _ _ _____ _ _ _____
 72
65
 73
6
 40
0.8
 49
0.45
 74
0
 49
-0.05
 74
0
 49
0.1
 74
0
 49
-0.05
 74
0
 49
0.1
 74
0
 49
-0.05
 74
0
  0
LTYPE
  5
1F8
100
AcDbSymbolTableRecord
100
AcDbLinetypeTableRecord
  2
DOT
 70
64
  3
. . . . . . . . . . . . . . . . . . . .
 72
65
 73
2
 40
0.2
 49
0.1
 74
0
 49
-0.1
 74
0
  0
LTYPE
  5
1F9
100
AcDbSymbolTableRecord
100
AcDbLinetypeTableRecord
  2
DASHED
 70
64
  3
- - - - - - - - - - - - - - - - - - - -
 72
65
 73
2
 40
0.2
 49
0.1
 74
0
 49
-0.1
 74
0
  0
ENDTAB
  0
TABLE
  2
LAYER
  5
2
100
AcDbSymbolTable
 70
36
  0
LAYER
  5
10
100
AcDbSymbolTableRecord
100
AcDbLayerTableRecord
  2
0
 70
0
 62
7
  6
CONTINUOUS
370
-3
390
F
  0
LAYER
  5
1FA
100
AcDbSymbolTableRecord
100
AcDbLayerTableRecord
  2
DEFAULT_1
 70
0
 62
7
  6
CENTER
370
-3
390
F
  0
LAYER
  5
1FB
100
AcDbSymbolTableRecord
100
AcDbLayerTableRecord
  2
DEFAULT_2
 70
0
 62
7
  6
HIDDEN
370
-3
390
F
  0
LAYER
  5
1FC
100
AcDbSymbolTableRecord
100
AcDbLayerTableRecord
  2
DEFAULT_3
 70
0
 62
7
  6
PHANTOM
370
-3
390
F
  0
LAYER
  5
1FD
100
AcDbSymbolTableRecord
100
AcDbLayerTableRecord
  2
00_COMPONENTS
 70
0
 62
7
  6
CONTINUOUS
370
-3
390
F
  0
LAYER
  5
1FE
100
AcDbSymbolTableRecord
100
AcDbLayerTableRecord
  2
01_1_DEFAULT_DATUMS
 70
0
 62
7
  6
CONTINUOUS
370
-3
390
F
  0
LAYER
  5
1FF
100
AcDbSymbolTableRecord
100
AcDbLayerTableRecord
  2
01_PLANES
 70
0
 62
7
  6
CONTINUOUS
370
-3
390
F
  0
LAYER
  5
200
100
AcDbSymbolTableRecord
100
AcDbLayerTableRecord
  2
02_COORD_SYS
 70
0
 62
7
  6
CONTINUOUS
370
-3
390
F
  0
LAYER
  5
201
100
AcDbSymbolTableRecord
100
AcDbLayerTableRecord
  2
03_AXES
 70
0
 62
7
  6
CONTINUOUS
370
-3
390
F
  0
LAYER
  5
202
100
AcDbSymbolTableRecord
100
AcDbLayerTableRecord
  2
04_POINTS
 70
0
 62
7
  6
CONTINUOUS
370
-3
390
F
  0
LAYER
  5
203
100
AcDbSymbolTableRecord
100
AcDbLayerTableRecord
  2
05_CURVES
 70
0
 62
7
  6
CONTINUOUS
370
-3
390
F
  0
LAYER
  5
204
100
AcDbSymbolTableRecord
100
AcDbLayerTableRecord
  2
06_SURFS
 70
0
 62
7
  6
CONTINUOUS
370
-3
390
F
  0
LAYER
  5
205
100
AcDbSymbolTableRecord
100
AcDbLayerTableRecord
  2
07_COSMETICS
 70
0
 62
7
  6
CONTINUOUS
370
-3
390
F
  0
LAYER
  5
206
100
AcDbSymbolTableRecord
100
AcDbLayerTableRecord
  2
10_NOTES
 70
0
 62
7
  6
CONTINUOUS
370
-3
390
F
  0
LAYER
  5
207
100
AcDbSymbolTableRecord
100
AcDbLayerTableRecord
  2
11_NOTES_PUB
 70
0
 62
7
  6
CONTINUOUS
370
-3
390
F
  0
LAYER
  5
208
100
AcDbSymbolTableRecord
100
AcDbLayerTableRecord
  2
13_REF_GTOL
 70
0
 62
7
  6
CONTINUOUS
370
-3
390
F
  0
LAYER
  5
209
100
AcDbSymbolTableRecord
100
AcDbLayerTableRecord
  2
16_MISC
 70
0
 62
7
  6
CONTINUOUS
370
-3
390
F
  0
LAYER
  5
20A
100
AcDbSymbolTableRecord
100
AcDbLayerTableRecord
  2
17_NO_PRINT
 70
0
 62
7
  6
CONTINUOUS
370
-3
390
F
  0
LAYER
  5
20B
100
AcDbSymbolTableRecord
100
AcDbLayerTableRecord
  2
18_DATUM_CAMS_JOINTS
 70
0
 62
7
  6
CONTINUOUS
370
-3
390
F
  0
LAYER
  5
20C
100
AcDbSymbolTableRecord
100
AcDbLayerTableRecord
  2
19_DATUM_FUNCTIONAL
 70
0
 62
7
  6
CONTINUOUS
370
-3
390
F
  0
LAYER
  5
20D
100
AcDbSymbolTableRecord
100
AcDbLayerTableRecord
  2
20_DATUM_KINEMATIC_SCHEME
 70
0
 62
7
  6
CONTINUOUS
370
-3
390
F
  0
ENDTAB
  0
TABLE
  2
STYLE
  5
3
100
AcDbSymbolTable
 70
1
  0
STYLE
  5
11
100
AcDbSymbolTableRecord
100
AcDbTextStyleTableRecord
  2
STANDARD
 70
0
 40
0.0
 41
1.0
 50
0.0
 71
0
 42
0.2
  3
ARIAL.TTF
  4

  0
STYLE
  5
20E
100
AcDbSymbolTableRecord
100
AcDbTextStyleTableRecord
  2
TEXTSTYLE_1
 70
0
 40
0.0
 41
0.8
 50
0.0
 71
0
 42
0.2
  3
gdt
  4

  0
ENDTAB
  0
TABLE
  2
VIEW
  5
6
100
AcDbSymbolTable
 70
0
  0
ENDTAB
  0
TABLE
  2
UCS
  5
7
100
AcDbSymbolTable
 70
0
  0
ENDTAB
  0
TABLE
  2
APPID
  5
9
100
AcDbSymbolTable
 70
1
  0
APPID
  5
20F
100
AcDbSymbolTableRecord
100
AcDbRegAppTableRecord
  2
ACAD
 70
0
  0
ENDTAB
  0
TABLE
  2
BLOCK_RECORD
  5
1
100
AcDbSymbolTable
 70
0
  0
BLOCK_RECORD
  5
210
100
AcDbSymbolTableRecord
100
AcDbBlockTableRecord
  2
*Model_Space
  0
BLOCK_RECORD
  5
211
100
AcDbSymbolTableRecord
100
AcDbBlockTableRecord
  2
*Paper_Space
  0
BLOCK_RECORD
  5
212
100
AcDbSymbolTableRecord
100
AcDbBlockTableRecord
  2
_FILLED
  0
ENDTAB
  0
TABLE
  2
DIMSTYLE
  5
A
100
AcDbSymbolTable
 70
1
100
AcDbDimStyleTable
 71
0
  0
DIMSTYLE
105
213
100
AcDbSymbolTableRecord
100
AcDbDimStyleTableRecord
  2
STANDARD
 70
0
  3

  4

 40
1.0
 41
1.0901333879
 42
1.0
 43
0.38
 44
1.0
 45
0.0
 46
0.0
 47
0.01
 48
0.01
140
1.5261867431
141
0.09
142
0.0
143
25.4
144
1.0
145
0.0
146
1.0
147
0.625
 71
1
 72
0
 73
0
 74
0
 75
0
 76
0
 77
1
 78
8
 79
2
170
0
171
1
172
0
173
0
174
0
175
0
176
0
177
0
178
0
270
2
179
2
271
2
272
2
273
2
274
2
275
0
280
0
281
0
282
0
283
1
284
8
285
0
286
0
287
3
288
0
340
11
278
46
341
212
342
212
343
212
344
212
  0
ENDTAB
  0
ENDSEC
  0
SECTION
  2
BLOCKS
  0
BLOCK
  5
20
100
AcDbEntity
  8
0
100
AcDbBlockBegin
  2
*Model_Space
 70
0
 10
0.0
 20
0.0
 30
0.0
  3
*Model_Space
  1

  0
ENDBLK
  5
21
100
AcDbEntity
  8
0
100
AcDbBlockEnd
  0
BLOCK
  5
1C
100
AcDbEntity
  8
0
100
AcDbBlockBegin
  2
*Paper_Space
 70
0
 10
0.0
 20
0.0
 30
0.0
  3
*Paper_Space
  1

  0
ENDBLK
  5
1D
100
AcDbEntity
  8
0
100
AcDbBlockEnd
  0
BLOCK
  5
214
100
AcDbEntity
  8
0
100
AcDbBlockBegin
  2
_FILLED
 70
64
 10
0.0
 20
0.0
  3
_FILLED
  1

  0
SOLID
  5
215
100
AcDbEntity
  8
0
  6
BYBLOCK
 62
0
100
AcDbTrace
 10
0.0
 20
0.0
 11
-1.0
 21
0.25
 12
-1.0
 22
-0.25
 13
-1.0
 23
-0.25
  0
ENDBLK
  5
216
100
AcDbEntity
  8
0
  6
BYBLOCK
 62
0
100
AcDbBlockEnd
  0
ENDSEC
  0
SECTION
  2
ENTITIES
  0
LINE
  5
217
100
AcDbEntity
  8
0
100
AcDbLine
 62
7
  6
BYLAYER
 10
10.6742338757
 20
68.7333856549
 11
10.6742338757
 21
70.891493499
  0
LINE
  5
218
100
AcDbEntity
  8
0
100
AcDbLine
 62
7
  6
BYLAYER
 10
11.8742338757
 20
58.0429417787
 11
11.8742338757
 21
63.4196192539
  0
LINE
  5
219
100
AcDbEntity
  8
0
100
AcDbLine
 62
7
  6
BYLAYER
 10
11.8742338757
 20
66.4052599
 11
11.8742338757
 21
72.7047434725
  0
LINE
  5
21A
100
AcDbEntity
  8
0
100
AcDbLine
 62
7
  6
BYLAYER
 10
12.0742338757
 20
67.5807723898
 11
12.0742338757
 21
70.727076281
  0
LINE
  5
21B
100
AcDbEntity
  8
0
100
AcDbLine
 62
7
  6
BYLAYER
 10
12.1742338757
 20
73.045704604
 11
12.1742338757
 21
74.1124328224
  0
LINE
  5
21C
100
AcDbEntity
  8
0
100
AcDbLine
 62
7
  6
BYLAYER
 10
13.4742338757
 20
72.8604821194
 11
13.4742338757
 21
75.0124395769
  0
LINE
  5
21D
100
AcDbEntity
  8
0
100
AcDbLine
 62
7
  6
BYLAYER
 10
11.8742338757
 20
58.0429417787
 11
12.1742346754
 21
57.5241134502
  0
LINE
  5
21E
100
AcDbEntity
  8
0
100
AcDbLine
 62
7
  6
BYLAYER
 10
15.0752338757
 20
55.8125783161
 11
15.0752338757
 21
56.5124394628
  0
LINE
  5
21F
100
AcDbEntity
  8
0
100
AcDbLine
 62
7
  6
BYLAYER
 10
15.2442338757
 20
64.1124395769
 11
15.2442338757
 21
65.7124395769
  0
LINE
  5
220
100
AcDbEntity
  8
0
100
AcDbLine
 62
7
  6
BYLAYER
 10
15.2742338757
 20
75.0124395769
 11
15.2742338757
 21
70.727076281
  0
LINE
  5
221
100
AcDbEntity
  8
0
100
AcDbLine
 62
7
  6
BYLAYER
 10
15.2742338757
 20
61.7124395769
 11
15.2742338757
 21
58.2003548613
  0
LINE
  5
222
100
AcDbEntity
  8
0
100
AcDbLine
 62
7
  6
BYLAYER
 10
12.1742338757
 20
74.1124395769
 11
13.0742338757
 21
75.0124395769
  0
LINE
  5
223
100
AcDbEntity
  8
0
100
AcDbLine
 62
7
  6
BYLAYER
 10
17.1742338757
 20
65.7124395769
 11
17.1742338757
 21
64.1124395769
  0
LINE
  5
224
100
AcDbEntity
  8
0
100
AcDbLine
 62
7
  6
BYLAYER
 10
17.9632338757
 20
54.7724395769
 11
17.9632338757
 21
58.1124396263
  0
LINE
  5
225
100
AcDbEntity
  8
0
100
AcDbLine
 62
7
  6
BYLAYER
 10
17.9632338757
 20
58.2003081392
 11
17.9632338757
 21
75.0124395769
  0
LINE
  5
226
100
AcDbEntity
  8
0
100
AcDbLine
 62
7
  6
BYLAYER
 10
20.9741260915
 20
75.0124395769
 11
20.9741260915
 21
75.4124379167
  0
LINE
  5
227
100
AcDbEntity
  8
0
100
AcDbLine
 62
7
  6
BYLAYER
 10
21.1497663101
 20
75.0124395769
 11
21.1497663101
 21
75.4088791752
  0
LINE
  5
228
100
AcDbEntity
  8
0
100
AcDbLine
 62
7
  6
BYLAYER
 10
24.9732338757
 20
75.0124395769
 11
24.9732338757
 21
75.220203641
  0
LINE
  5
229
100
AcDbEntity
  8
0
100
AcDbLine
 62
7
  6
BYLAYER
 10
26.1632338757
 20
75.0124395769
 11
26.1632338757
 21
72.7386775691
  0
LINE
  5
22A
100
AcDbEntity
  8
0
100
AcDbLine
 62
7
  6
BYLAYER
 10
26.1632338757
 20
61.7124397745
 11
26.1632338757
 21
58.1124396263
  0
LINE
  5
22B
100
AcDbEntity
  8
0
100
AcDbLine
 62
7
  6
BYLAYER
 10
26.1632338757
 20
62.4124395769
 11
26.1632338757
 21
67.4124395769
  0
LINE
  5
22C
100
AcDbEntity
  8
0
100
AcDbLine
 62
7
  6
BYLAYER
 10
26.5632338757
 20
54.4126824945
 11
26.5632338757
 21
54.7724395769
  0
LINE
  5
22D
100
AcDbEntity
  8
0
100
AcDbLine
 62
7
  6
BYLAYER
 10
11.8742338757
 20
58.7124395769
 11
14.7908844558
 21
61.629090157
  0
LINE
  5
22E
100
AcDbEntity
  8
0
100
AcDbLine
 62
7
  6
BYLAYER
 10
26.5742338757
 20
54.2874395769
 11
26.5742338757
 21
75.5374395769
  0
LINE
  5
22F
100
AcDbEntity
  8
0
100
AcDbLine
 62
7
  6
BYLAYER
 10
26.8242338757
 20
54.0374395769
 11
26.8242338757
 21
75.7874395769
  0
LINE
  5
230
100
AcDbEntity
  8
0
100
AcDbLine
 62
7
  6
BYLAYER
 10
26.9142338762
 20
73.5846722796
 11
26.9142338762
 21
73.3773847322
  0
LINE
  5
231
100
AcDbEntity
  8
0
100
AcDbLine
 62
7
  6
BYLAYER
 10
26.9142338762
 20
59.6213807938
 11
26.9142338762
 21
59.3297981134
  0
LINE
  5
232
100
AcDbEntity
  8
0
100
AcDbLine
 62
7
  6
BYLAYER
 10
27.2732338757
 20
75.7873397067
 11
27.2732338757
 21
75.5521352963
  0
LINE
  5
233
100
AcDbEntity
  8
0
100
AcDbLine
 62
7
  6
BYLAYER
 10
28.5395311856
 20
74.6557185199
 11
28.5395311856
 21
72.0147991738
  0
LINE
  5
234
100
AcDbEntity
  8
0
100
AcDbLine
 62
7
  6
BYLAYER
 10
28.5395311856
 20
61.4122826337
 11
28.5395311856
 21
57.7456405078
  0
LINE
  5
235
100
AcDbEntity
  8
0
100
AcDbLine
 62
7
  6
BYLAYER
 10
28.7385833998
 20
57.6989345525
 11
28.7385833998
 21
61.471268438
  0
LINE
  5
236
100
AcDbEntity
  8
0
100
AcDbLine
 62
7
  6
BYLAYER
 10
28.7385833998
 20
71.9675541441
 11
28.7385833998
 21
74.6922448426
  0
LINE
  5
237
100
AcDbEntity
  8
0
100
AcDbLine
 62
7
  6
BYLAYER
 10
29.5232338757
 20
51.3374398198
 11
29.5232338757
 21
78.4874393341
  0
LINE
  5
238
100
AcDbEntity
  8
0
100
AcDbLine
 62
7
  6
BYLAYER
 10
30.7732340806
 20
50.6624395695
 11
30.7732340806
 21
79.1624395844
  0
LINE
  5
239
100
AcDbEntity
  8
0
100
AcDbLine
 62
7
  6
BYLAYER
 10
13.0742338757
 20
64.1124395769
 11
11.8742338757
 21
63.4196192539
  0
LINE
  5
23A
100
AcDbEntity
  8
0
100
AcDbLine
 62
7
  6
BYLAYER
 10
27.9112457853
 20
74.3838657163
 11
28.5395311856
 21
74.6557185199
  0
LINE
  5
23B
100
AcDbEntity
  8
0
100
AcDbLine
 62
7
  6
BYLAYER
 10
11.8742338757
 20
66.4052599
 11
13.0742338757
 21
65.7124395769
  0
LINE
  5
23C
100
AcDbEntity
  8
0
100
AcDbLine
 62
7
  6
BYLAYER
 10
31.9732338757
 20
63.8624395769
 11
31.9732338757
 21
65.9624395769
  0
LINE
  5
23D
100
AcDbEntity
  8
0
100
AcDbLine
 62
7
  6
BYLAYER
 10
53.4440976675
 20
51.5256705897
 11
40.8829710038
 21
51.4135173249
  0
LINE
  5
23E
100
AcDbEntity
  8
0
100
AcDbLine
 62
7
  6
BYLAYER
 10
30.7732340806
 20
50.6624395732
 11
40.6593096989
 21
50.6624395732
  0
LINE
  5
23F
100
AcDbEntity
  8
0
100
AcDbLine
 62
7
  6
BYLAYER
 10
29.5232338757
 20
51.3374398198
 11
30.7732340806
 21
51.3374398198
  0
LINE
  5
240
100
AcDbEntity
  8
0
100
AcDbLine
 62
7
  6
BYLAYER
 10
54.0714197899
 20
51.5881465019
 11
57.3983796979
 21
51.5881465019
  0
LINE
  5
241
100
AcDbEntity
  8
0
100
AcDbLine
 62
7
  6
BYLAYER
 10
53.7414198602
 20
53.5131464915
 11
54.0714197899
 21
53.5131464915
  0
LINE
  5
242
100
AcDbEntity
  8
0
100
AcDbLine
 62
7
  6
BYLAYER
 10
26.8242338757
 20
54.0374395769
 11
29.5232338757
 21
54.0374395769
  0
LINE
  5
243
100
AcDbEntity
  8
0
100
AcDbLine
 62
7
  6
BYLAYER
 10
26.5632338757
 20
54.4124395769
 11
26.5742338757
 21
54.4124395769
  0
LINE
  5
244
100
AcDbEntity
  8
0
100
AcDbLine
 62
7
  6
BYLAYER
 10
17.9632338757
 20
54.7724395769
 11
26.5632338757
 21
54.7724395769
  0
LINE
  5
245
100
AcDbEntity
  8
0
100
AcDbLine
 62
7
  6
BYLAYER
 10
67.8311006425
 20
57.2172131474
 11
81.9200289578
 21
57.4780876945
  0
LINE
  5
246
100
AcDbEntity
  8
0
100
AcDbLine
 62
7
  6
BYLAYER
 10
15.0752338757
 20
55.8124395769
 11
17.9632338757
 21
55.8124395769
  0
LINE
  5
247
100
AcDbEntity
  8
0
100
AcDbLine
 62
7
  6
BYLAYER
 10
40.6593096989
 20
79.1624395807
 11
40.6593096989
 21
50.6624395732
  0
LINE
  5
248
100
AcDbEntity
  8
0
100
AcDbLine
 62
7
  6
BYLAYER
 10
40.8826703816
 20
78.4127787081
 11
40.8828492887
 21
51.4135162382
  0
LINE
  5
249
100
AcDbEntity
  8
0
100
AcDbLine
 62
7
  6
BYLAYER
 10
11.8742338757
 20
58.1124395769
 11
26.1632338757
 21
58.1124395769
  0
LINE
  5
24A
100
AcDbEntity
  8
0
100
AcDbLine
 62
7
  6
BYLAYER
 10
17.9632338757
 20
58.2002667674
 11
15.2742338757
 21
58.2002667674
  0
LINE
  5
24B
100
AcDbEntity
  8
0
100
AcDbLine
 62
7
  6
BYLAYER
 10
15.2742338757
 20
58.2704320426
 11
11.8742338757
 21
58.2704320426
  0
LINE
  5
24C
100
AcDbEntity
  8
0
100
AcDbLine
 62
7
  6
BYLAYER
 10
26.1632338757
 20
58.270930143
 11
17.9632338757
 21
58.270930143
  0
LINE
  5
24D
100
AcDbEntity
  8
0
100
AcDbLine
 62
7
  6
BYLAYER
 10
30.7732338757
 20
59.8606459939
 11
29.5232338757
 21
59.8606459939
  0
LINE
  5
24E
100
AcDbEntity
  8
0
100
AcDbLine
 62
7
  6
BYLAYER
 10
28.7385833998
 20
57.698894086
 11
29.5232338757
 21
57.6988536218
  0
LINE
  5
24F
100
AcDbEntity
  8
0
100
AcDbLine
 62
7
  6
BYLAYER
 10
15.2742338757
 20
61.0362154202
 11
14.198009719
 21
61.0362154202
  0
LINE
  5
250
100
AcDbEntity
  8
0
100
AcDbLine
 62
7
  6
BYLAYER
 10
29.5232338757
 20
61.4713710348
 11
28.7385833998
 21
61.4713197411
  0
LINE
  5
251
100
AcDbEntity
  8
0
100
AcDbLine
 62
7
  6
BYLAYER
 10
15.2742338757
 20
61.7124395769
 11
14.9759649369
 21
61.7124395769
  0
LINE
  5
252
100
AcDbEntity
  8
0
100
AcDbLine
 62
7
  6
BYLAYER
 10
26.1632338757
 20
61.7124397745
 11
17.9632338757
 21
61.7124397745
  0
LINE
  5
253
100
AcDbEntity
  8
0
100
AcDbLine
 62
7
  6
BYLAYER
 10
26.1632338757
 20
62.4124395769
 11
17.9632338757
 21
62.4124395769
  0
LINE
  5
254
100
AcDbEntity
  8
0
100
AcDbLine
 62
7
  6
BYLAYER
 10
40.6593096989
 20
50.6624395769
 11
40.8829710144
 21
51.413517342
  0
LINE
  5
255
100
AcDbEntity
  8
0
100
AcDbLine
 62
7
  6
BYLAYER
 10
31.9732338757
 20
63.8624395769
 11
30.7732338757
 21
63.7574395769
  0
LINE
  5
256
100
AcDbEntity
  8
0
100
AcDbLine
 62
7
  6
BYLAYER
 10
63.7332338757
 20
62.6673755467
 11
58.9214198602
 21
62.6673755467
  0
LINE
  5
257
100
AcDbEntity
  8
0
100
AcDbLine
 62
7
  6
BYLAYER
 10
17.1742338757
 20
64.1124395769
 11
13.0742338757
 21
64.1124395769
  0
LINE
  5
258
100
AcDbEntity
  8
0
100
AcDbLine
 62
7
  6
BYLAYER
 10
30.7732338757
 20
66.0674395769
 11
31.9732338757
 21
65.9624395769
  0
LINE
  5
259
100
AcDbEntity
  8
0
100
AcDbLine
 62
7
  6
BYLAYER
 10
40.8824897939
 20
78.4129777998
 11
40.6593096989
 21
79.162439577
  0
LINE
  5
25A
100
AcDbEntity
  8
0
100
AcDbLine
 62
7
  6
BYLAYER
 10
13.0742338757
 20
65.7124395769
 11
17.1742338757
 21
65.7124395769
  0
LINE
  5
25B
100
AcDbEntity
  8
0
100
AcDbLine
 62
7
  6
BYLAYER
 10
17.9632338757
 20
67.4124395769
 11
21.0272402963
 21
67.4124395769
  0
LINE
  5
25C
100
AcDbEntity
  8
0
100
AcDbLine
 62
7
  6
BYLAYER
 10
23.5192274552
 20
67.4124395769
 11
26.1632338757
 21
67.4124395769
  0
LINE
  5
25D
100
AcDbEntity
  8
0
100
AcDbLine
 62
7
  6
BYLAYER
 10
12.0742338757
 20
67.5807723898
 11
17.9632338757
 21
67.5807723898
  0
LINE
  5
25E
100
AcDbEntity
  8
0
100
AcDbLine
 62
7
  6
BYLAYER
 10
63.8796804852
 20
72.8012386284
 11
66.6578461559
 21
74.7656985357
  0
LINE
  5
25F
100
AcDbEntity
  8
0
100
AcDbLine
 62
7
  6
BYLAYER
 10
66.6578461559
 20
72.2908248015
 11
63.8796804852
 21
70.3263648943
  0
LINE
  5
260
100
AcDbEntity
  8
0
100
AcDbLine
 62
7
  6
BYLAYER
 10
58.5714198602
 20
68.0237094142
 11
58.7813450264
 21
68.0237094142
  0
LINE
  5
261
100
AcDbEntity
  8
0
100
AcDbLine
 62
7
  6
BYLAYER
 10
58.9214198602
 20
68.3949404743
 11
63.7332338757
 21
68.3949404743
  0
LINE
  5
262
100
AcDbEntity
  8
0
100
AcDbLine
 62
7
  6
BYLAYER
 10
63.7332338757
 20
69.7737986976
 11
58.9214198602
 21
69.7737986976
  0
LINE
  5
263
100
AcDbEntity
  8
0
100
AcDbLine
 62
7
  6
BYLAYER
 10
29.5232338757
 20
69.96423316
 11
30.7732338757
 21
69.96423316
  0
LINE
  5
264
100
AcDbEntity
  8
0
100
AcDbLine
 62
7
  6
BYLAYER
 10
10.6742338757
 20
68.7333856549
 11
11.8742338757
 21
68.7124395769
  0
LINE
  5
265
100
AcDbEntity
  8
0
100
AcDbLine
 62
7
  6
BYLAYER
 10
63.8796811135
 20
59.5126563421
 11
66.6578421781
 21
57.548199423
  0
LINE
  5
266
100
AcDbEntity
  8
0
100
AcDbLine
 62
7
  6
BYLAYER
 10
53.4440976675
 20
78.3006227778
 11
53.4440976675
 21
51.5256705897
  0
LINE
  5
267
100
AcDbEntity
  8
0
100
AcDbLine
 62
7
  6
BYLAYER
 10
53.7414198602
 20
78.0006251284
 11
53.7414198602
 21
51.8256682391
  0
LINE
  5
268
100
AcDbEntity
  8
0
100
AcDbLine
 62
7
  6
BYLAYER
 10
54.0714197899
 20
51.5882401058
 11
54.0714197899
 21
78.2383075726
  0
LINE
  5
269
100
AcDbEntity
  8
0
100
AcDbLine
 62
7
  6
BYLAYER
 10
11.8742338757
 20
70.9124395769
 11
10.6742338757
 21
70.891493499
  0
LINE
  5
26A
100
AcDbEntity
  8
0
100
AcDbLine
 62
7
  6
BYLAYER
 10
15.2742338757
 20
70.727076281
 11
12.0742338757
 21
70.727076281
  0
LINE
  5
26B
100
AcDbEntity
  8
0
100
AcDbLine
 62
7
  6
BYLAYER
 10
57.3983811386
 20
71.9721212658
 11
54.0714197899
 21
71.9721212658
  0
LINE
  5
26C
100
AcDbEntity
  8
0
100
AcDbLine
 62
7
  6
BYLAYER
 10
54.0714197899
 20
72.0588849305
 11
57.3983811386
 21
72.0588849305
  0
LINE
  5
26D
100
AcDbEntity
  8
0
100
AcDbLine
 62
7
  6
BYLAYER
 10
58.5714198602
 20
72.1956394232
 11
58.7297160781
 21
72.1956394232
  0
LINE
  5
26E
100
AcDbEntity
  8
0
100
AcDbLine
 62
7
  6
BYLAYER
 10
13.3400434855
 20
72.5577001261
 11
15.2742338757
 21
72.5577001261
  0
LINE
  5
26F
100
AcDbEntity
  8
0
100
AcDbLine
 62
7
  6
BYLAYER
 10
26.1632338757
 20
72.7386775691
 11
17.9632338757
 21
72.7386775691
  0
LINE
  5
270
100
AcDbEntity
  8
0
100
AcDbLine
 62
7
  6
BYLAYER
 10
15.2742338757
 20
72.8604821194
 11
13.4742338757
 21
72.8604821194
  0
LINE
  5
271
100
AcDbEntity
  8
0
100
AcDbLine
 62
7
  6
BYLAYER
 10
28.7385833998
 20
71.967512985
 11
29.5232338757
 21
71.9674718357
  0
LINE
  5
272
100
AcDbEntity
  8
0
100
AcDbLine
 62
7
  6
BYLAYER
 10
81.9337380261
 20
72.3606805687
 11
67.8311005573
 21
72.6218081437
  0
LINE
  5
273
100
AcDbEntity
  8
0
100
AcDbLine
 62
7
  6
BYLAYER
 10
57.3983796979
 20
78.2381468655
 11
57.3983796979
 21
76.214761953
  0
LINE
  5
274
100
AcDbEntity
  8
0
100
AcDbLine
 62
7
  6
BYLAYER
 10
57.3983796979
 20
76.1601042614
 11
57.3983796979
 21
72.0588849305
  0
LINE
  5
275
100
AcDbEntity
  8
0
100
AcDbLine
 62
7
  6
BYLAYER
 10
57.3983796979
 20
71.9721212658
 11
57.3983796979
 21
51.5881465019
  0
LINE
  5
276
100
AcDbEntity
  8
0
100
AcDbLine
 62
7
  6
BYLAYER
 10
57.6938238226
 20
51.8360522304
 11
57.6938238226
 21
71.7921152061
  0
LINE
  5
277
100
AcDbEntity
  8
0
100
AcDbLine
 62
7
  6
BYLAYER
 10
57.6938238226
 20
71.8791993537
 11
57.6938238226
 21
75.9804186846
  0
LINE
  5
278
100
AcDbEntity
  8
0
100
AcDbLine
 62
7
  6
BYLAYER
 10
57.6938238226
 20
76.0347558932
 11
57.6938238226
 21
77.9902411371
  0
LINE
  5
279
100
AcDbEntity
  8
0
100
AcDbLine
 62
7
  6
BYLAYER
 10
28.7385833998
 20
74.6922448426
 11
29.5232338757
 21
74.6923727583
  0
LINE
  5
27A
100
AcDbEntity
  8
0
100
AcDbLine
 62
7
  6
BYLAYER
 10
17.9632338757
 20
73.207016002
 11
26.1632338757
 21
73.207016002
  0
LINE
  5
27B
100
AcDbEntity
  8
0
100
AcDbLine
 62
7
  6
BYLAYER
 10
26.1632338757
 20
73.5200190066
 11
17.9632338757
 21
73.5200190066
  0
LINE
  5
27C
100
AcDbEntity
  8
0
100
AcDbLine
 62
7
  6
BYLAYER
 10
15.2742338757
 20
74.0124395769
 11
17.9632338757
 21
74.0124395769
  0
LINE
  5
27D
100
AcDbEntity
  8
0
100
AcDbLine
 62
7
  6
BYLAYER
 10
26.1632338757
 20
75.0124395769
 11
17.9632338757
 21
75.0124395769
  0
LINE
  5
27E
100
AcDbEntity
  8
0
100
AcDbLine
 62
7
  6
BYLAYER
 10
15.2742338757
 20
75.0124395769
 11
13.0742338757
 21
75.0124395769
  0
LINE
  5
27F
100
AcDbEntity
  8
0
100
AcDbLine
 62
7
  6
BYLAYER
 10
21.1498061718
 20
75.4124395769
 11
26.5742338757
 21
75.4124395769
  0
LINE
  5
280
100
AcDbEntity
  8
0
100
AcDbLine
 62
7
  6
BYLAYER
 10
29.5232338757
 20
75.5521352963
 11
27.2732338757
 21
75.5521352963
  0
LINE
  5
281
100
AcDbEntity
  8
0
100
AcDbLine
 62
7
  6
BYLAYER
 10
28.7385833998
 20
74.6922448426
 11
28.7280611033
 21
74.6923548246
  0
LINE
  5
282
100
AcDbEntity
  8
0
100
AcDbLine
 62
7
  6
BYLAYER
 10
67.8311005573
 20
75.0966818779
 11
81.9337380261
 21
74.8355543029
  0
LINE
  5
283
100
AcDbEntity
  8
0
100
AcDbLine
 62
7
  6
BYLAYER
 10
58.5714198602
 20
56.8133433074
 11
58.5714198602
 21
73.0130376102
  0
LINE
  5
284
100
AcDbEntity
  8
0
100
AcDbLine
 62
7
  6
BYLAYER
 10
58.9214198602
 20
72.4629828093
 11
58.9214198602
 21
57.3633105582
  0
LINE
  5
285
100
AcDbEntity
  8
0
100
AcDbLine
 62
7
  6
BYLAYER
 10
58.5714198602
 20
56.8131464736
 11
57.6938238468
 21
51.8360523676
  0
LINE
  5
286
100
AcDbEntity
  8
0
100
AcDbLine
 62
7
  6
BYLAYER
 10
28.7280611033
 20
74.6923548246
 11
28.5395311856
 21
74.6557185199
  0
LINE
  5
287
100
AcDbEntity
  8
0
100
AcDbLine
 62
7
  6
BYLAYER
 10
26.8242338757
 20
75.7874395769
 11
27.2732338757
 21
75.7874395769
  0
LINE
  5
288
100
AcDbEntity
  8
0
100
AcDbLine
 62
7
  6
BYLAYER
 10
57.3983811386
 20
76.1601042614
 11
54.0714197899
 21
76.1601042614
  0
LINE
  5
289
100
AcDbEntity
  8
0
100
AcDbLine
 62
7
  6
BYLAYER
 10
54.0714197899
 20
76.214761953
 11
57.3983811386
 21
76.214761953
  0
LINE
  5
28A
100
AcDbEntity
  8
0
100
AcDbLine
 62
7
  6
BYLAYER
 10
53.7414198602
 20
76.313146876
 11
54.0714197899
 21
76.313146876
  0
LINE
  5
28B
100
AcDbEntity
  8
0
100
AcDbLine
 62
7
  6
BYLAYER
 10
54.0714197899
 20
78.2381468655
 11
57.3983796979
 21
78.2381468655
  0
LINE
  5
28C
100
AcDbEntity
  8
0
100
AcDbLine
 62
7
  6
BYLAYER
 10
57.6941524783
 20
75.9790727401
 11
57.7028854205
 21
75.9433087016
  0
LINE
  5
28D
100
AcDbEntity
  8
0
100
AcDbLine
 62
7
  6
BYLAYER
 10
57.6941526208
 20
71.7907667968
 11
57.6988806942
 21
71.7713768533
  0
LINE
  5
28E
100
AcDbEntity
  8
0
100
AcDbLine
 62
7
  6
BYLAYER
 10
57.7188978797
 20
71.7762255027
 11
57.6941535036
 21
71.8778492102
  0
LINE
  5
28F
100
AcDbEntity
  8
0
100
AcDbLine
 62
7
  6
BYLAYER
 10
57.7153127678
 20
75.9463110314
 11
57.6941537611
 21
76.0334028075
  0
LINE
  5
290
100
AcDbEntity
  8
0
100
AcDbLine
 62
7
  6
BYLAYER
 10
58.414719052
 20
72.9760807667
 11
58.5714198602
 21
72.3116532637
  0
LINE
  5
291
100
AcDbEntity
  8
0
100
AcDbLine
 62
7
  6
BYLAYER
 10
58.5495251541
 20
68.205291562
 11
58.5714198602
 21
68.1120708256
  0
LINE
  5
292
100
AcDbEntity
  8
0
100
AcDbLine
 62
7
  6
BYLAYER
 10
58.5714198602
 20
73.0131468938
 11
57.6938238468
 21
77.9902409999
  0
LINE
  5
293
100
AcDbEntity
  8
0
100
AcDbLine
 62
7
  6
BYLAYER
 10
30.7732340806
 20
78.4874393341
 11
29.5232338757
 21
78.4874393341
  0
LINE
  5
294
100
AcDbEntity
  8
0
100
AcDbLine
 62
7
  6
BYLAYER
 10
40.6593096989
 20
79.1624395807
 11
30.7732340806
 21
79.1624395807
  0
LINE
  5
295
100
AcDbEntity
  8
0
100
AcDbLine
 62
7
  6
BYLAYER
 10
53.4440976675
 20
78.3006227778
 11
40.8825487464
 21
78.4127798127
  0
LINE
  5
296
100
AcDbEntity
  8
0
100
AcDbLine
 62
7
  6
BYLAYER
 10
63.7332338757
 20
72.5512386284
 11
63.7329189303
 21
59.7377740276
  0
LINE
  5
297
100
AcDbEntity
  8
0
100
AcDbLine
 62
7
  6
BYLAYER
 10
63.8796804852
 20
70.3263648943
 11
63.8796804852
 21
72.8012386284
  0
LINE
  5
298
100
AcDbEntity
  8
0
100
AcDbLine
 62
7
  6
BYLAYER
 10
63.7332338757
 20
59.7492550663
 11
63.7329945054
 21
59.7377741886
  0
LINE
  5
299
100
AcDbEntity
  8
0
100
AcDbLine
 62
7
  6
BYLAYER
 10
66.6578461559
 20
74.7656985357
 11
66.6578461559
 21
72.2908248015
  0
LINE
  5
29A
100
AcDbEntity
  8
0
100
AcDbLine
 62
7
  6
BYLAYER
 10
67.8311005573
 20
72.6218081437
 11
67.8311005573
 21
75.0966818779
  0
LINE
  5
29B
100
AcDbEntity
  8
0
100
AcDbLine
 62
7
  6
BYLAYER
 10
81.9337380261
 20
74.8355543029
 11
81.9337380261
 21
72.3606805687
  0
LINE
  5
29C
100
AcDbEntity
  8
0
100
AcDbLine
 62
7
  6
BYLAYER
 10
82.4073230059
 20
74.5196235021
 11
82.4073230059
 21
72.0447497679
  0
LINE
  5
29D
100
AcDbEntity
  8
0
100
AcDbLine
 62
7
  6
BYLAYER
 10
83.4332340171
 20
64.9198774257
 11
83.4332340171
 21
67.3947511598
  0
LINE
  5
29E
100
AcDbEntity
  8
0
100
AcDbLine
 62
7
  6
BYLAYER
 10
82.4017097232
 20
57.7757423862
 11
83.4332291301
 21
64.9198774257
  0
LINE
  5
29F
100
AcDbEntity
  8
0
100
AcDbLine
 62
7
  6
BYLAYER
 10
83.4332291301
 20
64.9198774257
 11
82.4073230059
 21
72.0447497679
  0
LINE
  5
2A0
100
AcDbEntity
  8
0
100
AcDbLine
 62
7
  6
BYLAYER
 10
82.4073230059
 20
74.5196235021
 11
83.4332291301
 21
67.3947511598
  0
ARC
  5
2A1
100
AcDbEntity
  8
0
100
AcDbCircle
 62
7
  6
BYLAYER
 10
-367.3732519622
 20
-27.7023961373
 40
437.5296589038
100
AcDbArc
 50
13.30336213
 51
13.7029659544
  0
ARC
  5
2A2
100
AcDbEntity
  8
0
100
AcDbCircle
 62
7
  6
BYLAYER
 10
-327.0797497081
 20
-22.1152807194
 40
396.0878734483
100
AcDbArc
 50
13.181980428
 51
13.7123262661
  0
ARC
  5
2A3
100
AcDbEntity
  8
0
100
AcDbCircle
 62
7
  6
BYLAYER
 10
-311.8675206085
 20
-18.2986378972
 40
380.3839073423
100
AcDbArc
 50
13.144767712
 51
13.6969908257
  0
ARC
  5
2A4
100
AcDbEntity
  8
0
100
AcDbCircle
 62
7
  6
BYLAYER
 10
19.9492481869
 20
75.258571993
 40
19.3693959726
100
AcDbArc
 50
250.1705729421
 51
255.4257269645
  0
ARC
  5
2A5
100
AcDbEntity
  8
0
100
AcDbCircle
 62
7
  6
BYLAYER
 10
18.879654066
 20
72.4533124916
 40
16.3655186659
100
AcDbArc
 50
245.8160635936
 51
246.3384222923
  0
ARC
  5
2A6
100
AcDbEntity
  8
0
100
AcDbCircle
 62
7
  6
BYLAYER
 10
22.199092539
 20
64.6031968484
 40
10.5536116593
100
AcDbArc
 50
163.6121475337
 51
168.0488949659
  0
ARC
  5
2A7
100
AcDbEntity
  8
0
100
AcDbCircle
 62
7
  6
BYLAYER
 10
67.7892189207
 20
70.3597922773
 40
2.2624035563
100
AcDbArc
 50
88.9392793817
 51
90.0000340763
  0
ARC
  5
2A8
100
AcDbEntity
  8
0
100
AcDbCircle
 62
7
  6
BYLAYER
 10
67.7892189207
 20
72.8346660118
 40
2.262403556
100
AcDbArc
 50
88.9392793817
 51
90.0000340764
  0
ARC
  5
2A9
100
AcDbEntity
  8
0
100
AcDbCircle
 62
7
  6
BYLAYER
 10
67.7892187856
 20
59.4792279414
 40
2.2624024882
100
AcDbArc
 50
269.9999659231
 51
271.0607266971
  0
CIRCLE
  5
2AA
100
AcDbEntity
  8
0
100
AcDbCircle
 62
7
  6
BYLAYER
 10
22.2732338757
 20
67.3124395769
 40
1.25
  0
ARC
  5
2AB
100
AcDbEntity
  8
0
100
AcDbCircle
 62
7
  6
BYLAYER
 10
58.5218137273
 20
67.5758375748
 40
0.5208099216
100
AcDbArc
 50
82.6829298807
 51
84.5344028441
  0
ARC
  5
2AC
100
AcDbEntity
  8
0
100
AcDbCircle
 62
7
  6
BYLAYER
 10
58.5224843853
 20
71.6829217146
 40
0.5149079094
100
AcDbArc
 50
76.0024089151
 51
84.5465313928
  0
ARC
  5
2AD
100
AcDbEntity
  8
0
100
AcDbCircle
 62
7
  6
BYLAYER
 10
58.5225895182
 20
71.7271581807
 40
0.5131107664
100
AcDbArc
 50
78.3248548013
 51
84.5391658619
  0
ARC
  5
2AE
100
AcDbEntity
  8
0
100
AcDbCircle
 62
7
  6
BYLAYER
 10
58.5235808007
 20
67.5875056029
 40
0.5090119268
100
AcDbArc
 50
75.9644764992
 51
82.7129438247
  0
ARC
  5
2AF
100
AcDbEntity
  8
0
100
AcDbCircle
 62
7
  6
BYLAYER
 10
57.3983368061
 20
71.6558489225
 40
0.4030360104
100
AcDbArc
 50
86.9494019384
 51
89.9936976726
  0
ARC
  5
2B0
100
AcDbEntity
  8
0
100
AcDbCircle
 62
7
  6
BYLAYER
 10
57.3983619353
 20
75.8142307648
 40
0.4005311887
100
AcDbArc
 50
88.0815363482
 51
89.9972529688
  0
ARC
  5
2B1
100
AcDbEntity
  8
0
100
AcDbCircle
 62
7
  6
BYLAYER
 10
58.5214198602
 20
57.3631466837
 40
0.4
100
AcDbArc
 50
277.1807557809
 51
360.0
  0
ARC
  5
2B2
100
AcDbEntity
  8
0
100
AcDbCircle
 62
7
  6
BYLAYER
 10
58.5214198602
 20
72.4631466837
 40
0.4
100
AcDbArc
 50
0.0
 51
82.8192442191
  0
ARC
  5
2B3
100
AcDbEntity
  8
0
100
AcDbCircle
 62
7
  6
BYLAYER
 10
57.3983811386
 20
77.938146477
 40
0.3000003885
100
AcDbArc
 50
10.0000270127
 51
90.0
  0
ARC
  5
2B4
100
AcDbEntity
  8
0
100
AcDbCircle
 62
7
  6
BYLAYER
 10
57.3983811386
 20
51.8881468905
 40
0.3000003885
100
AcDbArc
 50
270.0
 51
349.9999729873
  0
ARC
  5
2B5
100
AcDbEntity
  8
0
100
AcDbCircle
 62
7
  6
BYLAYER
 10
53.441419855
 20
78.0006347239
 40
0.3000000053
100
AcDbArc
 50
0.0000004148
 51
89.4884425458
  0
ARC
  5
2B6
100
AcDbEntity
  8
0
100
AcDbCircle
 62
7
  6
BYLAYER
 10
53.441419855
 20
51.8256586436
 40
0.3000000053
100
AcDbArc
 50
270.5115574542
 51
359.9999995852
  0
ARC
  5
2B7
100
AcDbEntity
  8
0
100
AcDbCircle
 62
7
  6
BYLAYER
 10
26.8242338757
 20
75.5374395769
 40
0.25
100
AcDbArc
 50
90.0
 51
180.0
  0
ARC
  5
2B8
100
AcDbEntity
  8
0
100
AcDbCircle
 62
7
  6
BYLAYER
 10
26.8242338757
 20
54.2874395769
 40
0.25
100
AcDbArc
 50
180.0
 51
270.0
  0
ARC
  5
2B9
100
AcDbEntity
  8
0
100
AcDbCircle
 62
7
  6
BYLAYER
 10
14.9768760947
 20
61.4632525678
 40
0.2491886749
100
AcDbArc
 50
90.2095023294
 51
138.2785263788
  0
SPLINE
  5
2BA
100
AcDbEntity
  8
0
100
AcDbSpline
 62
7
  6
BYLAYER
 70
0
 71
3
 72
11
 73
7
 74
0
 42
0.0000001
 43
0.0000001
 44
0.0000000001
 40
0.0
 40
0.0
 40
0.0
 40
0.0
 40
0.229036569
 40
0.4679705796
 40
0.7240852928
 40
1.0
 40
1.0
 40
1.0
 40
1.0
 10
63.7329230439
 20
59.7377741664
 30
0.0
 10
63.7329363376
 20
59.7163746825
 30
0.0
 10
63.7398276865
 20
59.6723945291
 30
0.0
 10
63.7697372524
 20
59.6107648911
 30
0.0
 10
63.817308787
 20
59.555765104
 30
0.0
 10
63.8576141082
 20
59.5259840043
 30
0.0
 10
63.8796811135
 20
59.5126563421
 30
0.0
  0
LINE
  5
2BB
100
AcDbEntity
  8
0
100
AcDbLine
 62
7
  6
BYLAYER
 10
12.1742338757
 20
73.045704604
 11
11.8742338757
 21
72.7047434725
  0
SPLINE
  5
2BC
100
AcDbEntity
  8
0
100
AcDbSpline
 62
7
  6
BYLAYER
 70
0
 71
3
 72
11
 73
7
 74
0
 42
0.0000001
 43
0.0000001
 44
0.0000000001
 40
0.0
 40
0.0
 40
0.0
 40
0.0
 40
0.2830920363
 40
0.5490661912
 40
0.7873550685
 40
1.0
 40
1.0
 40
1.0
 40
1.0
 10
57.3983811386
 20
76.1601042614
 30
0.0
 10
57.4333459087
 20
76.1601042614
 30
0.0
 10
57.5014718405
 20
76.1513769143
 30
0.0
 10
57.5926833702
 20
76.1142257999
 30
0.0
 10
57.6617880116
 20
76.0560172488
 30
0.0
 10
57.6879470906
 20
76.004592966
 30
0.0
 10
57.6941524783
 20
75.9790727401
 30
0.0
  0
SPLINE
  5
2BD
100
AcDbEntity
  8
0
100
AcDbSpline
 62
7
  6
BYLAYER
 70
0
 71
3
 72
9
 73
5
 74
0
 42
0.0000001
 43
0.0000001
 44
0.0000000001
 40
0.0
 40
0.0
 40
0.0
 40
0.0
 40
0.2596976353
 40
1.0
 40
1.0
 40
1.0
 40
1.0
 10
58.6470308773
 20
72.1825398953
 30
0.0
 10
58.6593338325
 20
72.1794559952
 30
0.0
 10
58.7062222233
 20
72.1657671945
 30
0.0
 10
58.7510373411
 20
72.144644623
 30
0.0
 10
58.7813450266
 20
72.1249287451
 30
0.0
  0
SPLINE
  5
2BE
100
AcDbEntity
  8
0
100
AcDbSpline
 62
7
  6
BYLAYER
 70
0
 71
3
 72
9
 73
5
 74
0
 42
0.0000001
 43
0.0000001
 44
0.0000000001
 40
0.0
 40
0.0
 40
0.0
 40
0.0
 40
0.5008048075
 40
1.0
 40
1.0
 40
1.0
 40
1.0
 10
12.3116207731
 20
57.463611365
 30
0.0
 10
12.487298084
 20
57.386560318
 30
0.0
 10
12.8409983727
 20
57.2393135827
 30
0.0
 10
13.1989393295
 20
57.1027279012
 30
0.0
 10
13.3787401654
 20
57.0376520194
 30
0.0
  0
SPLINE
  5
2BF
100
AcDbEntity
  8
0
100
AcDbSpline
 62
7
  6
BYLAYER
 70
0
 71
3
 72
19
 73
15
 74
0
 42
0.0000001
 43
0.0000001
 44
0.0000000001
 40
0.0
 40
0.0
 40
0.0
 40
0.0
 40
0.0517128511
 40
0.1053430644
 40
0.1622487636
 40
0.223216063
 40
0.3564715866
 40
0.4999915195
 40
0.6435117143
 40
0.7767725198
 40
0.8377441258
 40
0.8946534192
 40
0.9482865794
 40
1.0
 40
1.0
 40
1.0
 40
1.0
 10
75.4332338757
 20
64.9195106448
 30
0.0
 10
75.4332338757
 20
65.0123368245
 30
0.0
 10
75.4602457165
 20
65.2023799718
 30
0.0
 10
75.5780673321
 20
65.4720850634
 30
0.0
 10
75.7672995423
 20
65.7183499
 30
0.0
 10
76.1129152246
 20
66.0119832007
 30
0.0
 10
76.6765566053
 20
66.2665831028
 30
0.0
 10
77.4331871802
 20
66.3685208142
 30
0.0
 10
78.1898310996
 20
66.2666065718
 30
0.0
 10
78.7534954565
 20
66.0120154526
 30
0.0
 10
79.0991414995
 20
65.7183806128
 30
0.0
 10
79.288389552
 20
65.4721027111
 30
0.0
 10
79.4062200683
 20
65.2023873479
 30
0.0
 10
79.4332338757
 20
65.0123378469
 30
0.0
 10
79.4332338757
 20
64.9195106448
 30
0.0
  0
SPLINE
  5
2C0
100
AcDbEntity
  8
0
100
AcDbSpline
 62
7
  6
BYLAYER
 70
0
 71
3
 72
9
 73
5
 74
0
 42
0.0000001
 43
0.0000001
 44
0.0000000001
 40
0.0
 40
0.0
 40
0.0
 40
0.0
 40
0.235616425
 40
1.0
 40
1.0
 40
1.0
 40
1.0
 10
66.6578421781
 20
57.548199423
 30
0.0
 10
66.7341175636
 20
57.49426416
 30
0.0
 10
67.0794337938
 20
57.2963021163
 30
0.0
 10
67.4861516234
 20
57.2168254533
 30
0.0
 10
67.7892174401
 20
57.2168254533
 30
0.0
  0
SPLINE
  5
2C1
100
AcDbEntity
  8
0
100
AcDbSpline
 62
7
  6
BYLAYER
 70
0
 71
3
 72
11
 73
7
 74
0
 42
0.0000001
 43
0.0000001
 44
0.0000000001
 40
0.0
 40
0.0
 40
0.0
 40
0.0
 40
0.2829570419
 40
0.5487867264
 40
0.7874039575
 40
1.0
 40
1.0
 40
1.0
 40
1.0
 10
81.9200289578
 20
57.4780876945
 30
0.0
 10
81.97699015
 20
57.4791223941
 30
0.0
 10
82.087757622
 20
57.4943837072
 30
0.0
 10
82.2359853321
 20
57.555882771
 30
0.0
 10
82.3489385748
 20
57.6501012996
 30
0.0
 10
82.3921826942
 20
57.7340119804
 30
0.0
 10
82.4017097232
 20
57.7757423862
 30
0.0
  0
SPLINE
  5
2C2
100
AcDbEntity
  8
0
100
AcDbSpline
 62
7
  6
BYLAYER
 70
0
 71
3
 72
11
 73
7
 74
0
 42
0.0000001
 43
0.0000001
 44
0.0000000001
 40
0.0
 40
0.0
 40
0.0
 40
0.0
 40
0.2464087364
 40
0.5001867995
 40
0.7538669577
 40
1.0
 40
1.0
 40
1.0
 40
1.0
 10
76.4940347213
 20
66.1458168914
 30
0.0
 10
76.6421641676
 20
66.0901233034
 30
0.0
 10
76.9546615826
 20
66.00675565
 30
0.0
 10
77.4394405075
 20
65.9661681367
 30
0.0
 10
77.9238610668
 20
66.0088629721
 30
0.0
 10
78.2357474169
 20
66.0936136378
 30
0.0
 10
78.3834315676
 20
66.1499828707
 30
0.0
  0
SPLINE
  5
2C3
100
AcDbEntity
  8
0
100
AcDbSpline
 62
7
  6
BYLAYER
 70
0
 71
3
 72
10
 73
6
 74
0
 42
0.0000001
 43
0.0000001
 44
0.0000000001
 40
0.0
 40
0.0
 40
0.0
 40
0.0
 40
0.2323663516
 40
0.4732915223
 40
1.0
 40
1.0
 40
1.0
 40
1.0
 10
63.7332338757
 20
72.5512386284
 30
0.0
 10
63.7332338757
 20
72.5744456844
 30
0.0
 10
63.740008535
 20
72.6219644583
 30
0.0
 10
63.7802876902
 20
72.7143674457
 30
0.0
 10
63.8367296622
 20
72.7708678102
 30
0.0
 10
63.8796804852
 20
72.8012386284
 30
0.0
  0
SPLINE
  5
2C4
100
AcDbEntity
  8
0
100
AcDbSpline
 62
7
  6
BYLAYER
 70
0
 71
3
 72
9
 73
5
 74
0
 42
0.0000001
 43
0.0000001
 44
0.0000000001
 40
0.0
 40
0.0
 40
0.0
 40
0.0
 40
0.2356165518
 40
1.0
 40
1.0
 40
1.0
 40
1.0
 10
66.6578461559
 20
74.7656985357
 30
0.0
 10
66.734121479
 20
74.8196333374
 30
0.0
 10
67.0794369037
 20
75.0175935828
 30
0.0
 10
67.486153001
 20
75.0970695677
 30
0.0
 10
67.7892175751
 20
75.0970695677
 30
0.0
  0
SPLINE
  5
2C5
100
AcDbEntity
  8
0
100
AcDbSpline
 62
7
  6
BYLAYER
 70
0
 71
3
 72
11
 73
7
 74
0
 42
0.0000001
 43
0.0000001
 44
0.0000000001
 40
0.0
 40
0.0
 40
0.0
 40
0.0
 40
0.284591287
 40
0.5503432921
 40
0.7878531952
 40
1.0
 40
1.0
 40
1.0
 40
1.0
 10
81.9337380261
 20
74.8355543029
 30
0.0
 10
81.9915520334
 20
74.833205876
 30
0.0
 10
82.1033750258
 20
74.8151385322
 30
0.0
 10
82.251381999
 20
74.7486613021
 30
0.0
 10
82.3615490524
 20
74.6491628092
 30
0.0
 10
82.4003345045
 20
74.562186219
 30
0.0
 10
82.4073230059
 20
74.5196235021
 30
0.0
  0
SPLINE
  5
2C6
100
AcDbEntity
  8
0
100
AcDbSpline
 62
7
  6
BYLAYER
 70
0
 71
3
 72
11
 73
7
 74
0
 42
0.0000001
 43
0.0000001
 44
0.0000000001
 40
0.0
 40
0.0
 40
0.0
 40
0.0
 40
0.2831421555
 40
0.5490995683
 40
0.7873444878
 40
1.0
 40
1.0
 40
1.0
 40
1.0
 10
57.3983811386
 20
71.9721212658
 30
0.0
 10
57.4333722346
 20
71.9721212658
 30
0.0
 10
57.5015430833
 20
71.9633664831
 30
0.0
 10
57.5927770069
 20
71.9261095148
 30
0.0
 10
57.661838909
 20
71.8677765235
 30
0.0
 10
57.6879539989
 20
71.8163055741
 30
0.0
 10
57.6941526208
 20
71.7907667968
 30
0.0
  0
SPLINE
  5
2C7
100
AcDbEntity
  8
0
100
AcDbSpline
 62
7
  6
BYLAYER
 70
0
 71
3
 72
9
 73
5
 74
0
 42
0.0000001
 43
0.0000001
 44
0.0000000001
 40
0.0
 40
0.0
 40
0.0
 40
0.0
 40
0.2571605582
 40
1.0
 40
1.0
 40
1.0
 40
1.0
 10
58.5714198602
 20
67.9952994983
 30
0.0
 10
58.5854382747
 20
67.9939508467
 30
0.0
 10
58.6397117707
 20
67.9865558725
 30
0.0
 10
58.6928433187
 20
67.970183948
 30
0.0
 10
58.7297160779
 20
67.952998736
 30
0.0
  0
SPLINE
  5
2C8
100
AcDbEntity
  8
0
100
AcDbSpline
 62
7
  6
BYLAYER
 70
0
 71
3
 72
10
 73
6
 74
0
 42
0.0000001
 43
0.0000001
 44
0.0000000001
 40
0.0
 40
0.0
 40
0.0
 40
0.0
 40
0.5267084777
 40
0.7676336484
 40
1.0
 40
1.0
 40
1.0
 40
1.0
 10
63.8796804852
 20
70.3263648943
 30
0.0
 10
63.8367296622
 20
70.2959940761
 30
0.0
 10
63.7802876902
 20
70.2394937116
 30
0.0
 10
63.740008535
 20
70.1470907241
 30
0.0
 10
63.7332338757
 20
70.0995719502
 30
0.0
 10
63.7332338757
 20
70.0763648943
 30
0.0
  0
SPLINE
  5
2C9
100
AcDbEntity
  8
0
100
AcDbSpline
 62
7
  6
BYLAYER
 70
0
 71
3
 72
14
 73
10
 74
0
 42
0.0000001
 43
0.0000001
 44
0.0000000001
 40
0.0
 40
0.0
 40
0.0
 40
0.0
 40
0.120257893
 40
0.2420035522
 40
0.3656009963
 40
0.4907576164
 40
0.6170592731
 40
0.7441810561
 40
1.0
 40
1.0
 40
1.0
 40
1.0
 10
26.9142338762
 20
59.3297981134
 30
0.0
 10
26.9294038998
 20
59.2374709808
 30
0.0
 10
26.9898254311
 20
59.0559957515
 30
0.0
 10
27.1421973294
 20
58.8138703107
 30
0.0
 10
27.3336221244
 20
58.5971939026
 30
0.0
 10
27.5499338638
 20
58.4007634436
 30
0.0
 10
27.7828513829
 20
58.2201089871
 30
0.0
 10
28.1093860129
 20
57.995454423
 30
0.0
 10
28.3656736552
 20
57.8428476743
 30
0.0
 10
28.5393935736
 20
57.7457035921
 30
0.0
  0
SPLINE
  5
2CA
100
AcDbEntity
  8
0
100
AcDbSpline
 62
7
  6
BYLAYER
 70
0
 71
3
 72
9
 73
5
 74
0
 42
0.0000001
 43
0.0000001
 44
0.0000000001
 40
0.0
 40
0.0
 40
0.0
 40
0.0
 40
0.5020704894
 40
1.0
 40
1.0
 40
1.0
 40
1.0
 10
28.7280611033
 20
61.4714449545
 30
0.0
 10
28.6946076824
 20
61.4714449545
 30
0.0
 10
28.6275821205
 20
61.4604478465
 30
0.0
 10
28.5671204403
 20
61.4304091078
 30
0.0
 10
28.5393932472
 20
61.4121896264
 30
0.0
  0
SPLINE
  5
2CB
100
AcDbEntity
  8
0
100
AcDbSpline
 62
7
  6
BYLAYER
 70
0
 71
3
 72
9
 73
5
 74
0
 42
0.0000001
 43
0.0000001
 44
0.0000000001
 40
0.0
 40
0.0
 40
0.0
 40
0.0
 40
0.4899334435
 40
1.0
 40
1.0
 40
1.0
 40
1.0
 10
28.5393935736
 20
57.7457035921
 30
0.0
 10
28.5677449324
 20
57.7309040894
 30
0.0
 10
28.629221101
 20
57.7071094634
 30
0.0
 10
28.6947652313
 20
57.6987953091
 30
0.0
 10
28.7280611033
 20
57.6987953091
 30
0.0
  0
LINE
  5
2CC
100
AcDbEntity
  8
0
100
AcDbLine
 62
7
  6
BYLAYER
 10
28.7280611033
 20
57.6987953091
 11
28.7385833998
 21
57.698894086
  0
LINE
  5
2CD
100
AcDbEntity
  8
0
100
AcDbLine
 62
7
  6
BYLAYER
 10
28.7385833998
 20
61.4713197411
 11
28.7280611033
 21
61.4714449545
  0
SPLINE
  5
2CE
100
AcDbEntity
  8
0
100
AcDbSpline
 62
7
  6
BYLAYER
 70
0
 71
3
 72
9
 73
5
 74
0
 42
0.0000001
 43
0.0000001
 44
0.0000000001
 40
0.0
 40
0.0
 40
0.0
 40
0.0
 40
0.4942603792
 40
1.0
 40
1.0
 40
1.0
 40
1.0
 10
58.781333873
 20
72.1249287451
 30
0.0
 10
58.773802676
 20
72.1372595942
 30
0.0
 10
58.757345402
 20
72.1614537192
 30
0.0
 10
58.7393528601
 20
72.1845508698
 30
0.0
 10
58.7295741735
 20
72.1956394232
 30
0.0
  0
SPLINE
  5
2CF
100
AcDbEntity
  8
0
100
AcDbSpline
 62
7
  6
BYLAYER
 70
0
 71
3
 72
9
 73
5
 74
0
 42
0.0000001
 43
0.0000001
 44
0.0000000001
 40
0.0
 40
0.0
 40
0.0
 40
0.0
 40
0.2440792857
 40
1.0
 40
1.0
 40
1.0
 40
1.0
 10
58.7297160781
 20
72.1956394232
 30
0.0
 10
58.7216864946
 20
72.1993817547
 30
0.0
 10
58.6883309372
 20
72.2137165795
 30
0.0
 10
58.6532885946
 20
72.2240827023
 30
0.0
 10
58.6264238912
 20
72.229653038
 30
0.0
  0
SPLINE
  5
2D0
100
AcDbEntity
  8
0
100
AcDbSpline
 62
7
  6
BYLAYER
 70
0
 71
3
 72
11
 73
7
 74
0
 42
0.0000001
 43
0.0000001
 44
0.0000000001
 40
0.0
 40
0.0
 40
0.0
 40
0.0
 40
0.2498871539
 40
0.4998554411
 40
0.7498922542
 40
1.0
 40
1.0
 40
1.0
 40
1.0
 10
58.5714198602
 20
72.3547115128
 30
0.0
 10
58.5020199538
 20
72.6543265055
 30
0.0
 10
58.3612862686
 20
73.2532101373
 30
0.0
 10
58.1482939809
 20
74.1512233029
 30
0.0
 10
57.9332108279
 20
75.0490189501
 30
0.0
 10
57.7879140936
 20
75.6471762694
 30
0.0
 10
57.7153127678
 20
75.9463110314
 30
0.0
  0
SPLINE
  5
2D1
100
AcDbEntity
  8
0
100
AcDbSpline
 62
7
  6
BYLAYER
 70
0
 71
3
 72
9
 73
5
 74
0
 42
0.0000001
 43
0.0000001
 44
0.0000000001
 40
0.0
 40
0.0
 40
0.0
 40
0.0
 40
0.4704344232
 40
1.0
 40
1.0
 40
1.0
 40
1.0
 10
57.6941537611
 20
76.0334028075
 30
0.0
 10
57.6877227848
 20
76.0598989023
 30
0.0
 10
57.6600783786
 20
76.1132880318
 30
0.0
 10
57.6138839456
 20
76.1506341985
 30
0.0
 10
57.58741666
 20
76.1661748398
 30
0.0
  0
SPLINE
  5
2D2
100
AcDbEntity
  8
0
100
AcDbSpline
 62
7
  6
BYLAYER
 70
0
 71
3
 72
9
 73
5
 74
0
 42
0.0000001
 43
0.0000001
 44
0.0000000001
 40
0.0
 40
0.0
 40
0.0
 40
0.0
 40
0.2385993481
 40
1.0
 40
1.0
 40
1.0
 40
1.0
 10
57.58741666
 20
76.1661748398
 30
0.0
 10
57.5748493484
 20
76.1735539147
 30
0.0
 10
57.5199364612
 20
76.2005911238
 30
0.0
 10
57.4582506283
 20
76.2129826742
 30
0.0
 10
57.4117706184
 20
76.2145374476
 30
0.0
  0
SPLINE
  5
2D3
100
AcDbEntity
  8
0
100
AcDbSpline
 62
7
  6
BYLAYER
 70
0
 71
3
 72
8
 73
4
 74
0
 42
0.0000001
 43
0.0000001
 44
0.0000000001
 40
0.0
 40
0.0
 40
0.0
 40
0.0
 40
1.0
 40
1.0
 40
1.0
 40
1.0
 10
12.0742338757
 20
70.727076281
 30
0.0
 10
12.4736899581
 20
71.3522314772
 30
0.0
 10
12.8996892219
 20
71.9606471103
 30
0.0
 10
13.3400434855
 20
72.5577001261
 30
0.0
  0
SPLINE
  5
2D4
100
AcDbEntity
  8
0
100
AcDbSpline
 62
7
  6
BYLAYER
 70
0
 71
3
 72
12
 73
8
 74
0
 42
0.0000001
 43
0.0000001
 44
0.0000000001
 40
0.0
 40
0.0
 40
0.0
 40
0.0
 40
0.4092327748
 40
0.7284483517
 40
0.8453951565
 40
0.9305969457
 40
1.0
 40
1.0
 40
1.0
 40
1.0
 10
21.1497663101
 20
75.4088793134
 30
0.0
 10
21.1258035969
 20
75.4091646748
 30
0.0
 10
21.0823034357
 20
75.4098748398
 30
0.0
 10
21.0353261287
 20
75.4107683585
 30
0.0
 10
21.001286194
 20
75.4117600657
 30
0.0
 10
20.9918370974
 20
75.411774992
 30
0.0
 10
20.9700812897
 20
75.4128345157
 30
0.0
 10
20.9741260916
 20
75.4124379167
 30
0.0
  0
SPLINE
  5
2D5
100
AcDbEntity
  8
0
100
AcDbSpline
 62
7
  6
BYLAYER
 70
0
 71
3
 72
9
 73
5
 74
0
 42
0.0000001
 43
0.0000001
 44
0.0000000001
 40
0.0
 40
0.0
 40
0.0
 40
0.0
 40
0.2403631713
 40
1.0
 40
1.0
 40
1.0
 40
1.0
 10
58.7813450264
 20
68.0237094142
 30
0.0
 10
58.7715039619
 20
68.0301112632
 30
0.0
 10
58.7293890161
 20
68.0549221119
 30
0.0
 10
58.6830178528
 20
68.0723001709
 30
0.0
 10
58.6470281213
 20
68.0813212574
 30
0.0
  0
SPLINE
  5
2D6
100
AcDbEntity
  8
0
100
AcDbSpline
 62
7
  6
BYLAYER
 70
0
 71
3
 72
9
 73
5
 74
0
 42
0.0000001
 43
0.0000001
 44
0.0000000001
 40
0.0
 40
0.0
 40
0.0
 40
0.0
 40
0.4704087026
 40
1.0
 40
1.0
 40
1.0
 40
1.0
 10
57.6941535036
 20
71.8778492102
 30
0.0
 10
57.6877215005
 20
71.9043014126
 30
0.0
 10
57.6600714687
 20
71.9575909417
 30
0.0
 10
57.6139183919
 20
71.9948406363
 30
0.0
 10
57.5874814867
 20
72.0103449734
 30
0.0
  0
SPLINE
  5
2D7
100
AcDbEntity
  8
0
100
AcDbSpline
 62
7
  6
BYLAYER
 70
0
 71
3
 72
9
 73
5
 74
0
 42
0.0000001
 43
0.0000001
 44
0.0000000001
 40
0.0
 40
0.0
 40
0.0
 40
0.0
 40
0.238728775
 40
1.0
 40
1.0
 40
1.0
 40
1.0
 10
57.5874814867
 20
72.0103449734
 30
0.0
 10
57.5754446532
 20
72.0174041629
 30
0.0
 10
57.5229690064
 20
72.0434104734
 30
0.0
 10
57.4642203471
 20
72.0559502038
 30
0.0
 10
57.4197855073
 20
72.0583138016
 30
0.0
  0
SPLINE
  5
2D8
100
AcDbEntity
  8
0
100
AcDbSpline
 62
7
  6
BYLAYER
 70
0
 71
3
 72
10
 73
6
 74
0
 42
0.0000001
 43
0.0000001
 44
0.0000000001
 40
0.0
 40
0.0
 40
0.0
 40
0.0
 40
0.2066703477
 40
0.4532404398
 40
1.0
 40
1.0
 40
1.0
 40
1.0
 10
13.4742338757
 20
72.8604821194
 30
0.0
 10
13.4742338757
 20
72.8373873941
 30
0.0
 10
13.4649085764
 20
72.7868548453
 30
0.0
 10
13.4240774985
 20
72.6825961679
 30
0.0
 10
13.3763007206
 20
72.6068713643
 30
0.0
 10
13.3400347022
 20
72.5577001261
 30
0.0
  0
SPLINE
  5
2D9
100
AcDbEntity
  8
0
100
AcDbSpline
 62
7
  6
BYLAYER
 70
0
 71
3
 72
9
 73
5
 74
0
 42
0.0000001
 43
0.0000001
 44
0.0000000001
 40
0.0
 40
0.0
 40
0.0
 40
0.0
 40
0.5057396168
 40
1.0
 40
1.0
 40
1.0
 40
1.0
 10
58.7295741814
 20
67.952998736
 30
0.0
 10
58.7393528672
 20
67.9640872889
 30
0.0
 10
58.7573454005
 20
67.9871844441
 30
0.0
 10
58.7738026764
 20
68.0113785656
 30
0.0
 10
58.7813338731
 20
68.0237094142
 30
0.0
  0
SPLINE
  5
2DA
100
AcDbEntity
  8
0
100
AcDbSpline
 62
7
  6
BYLAYER
 70
0
 71
3
 72
14
 73
10
 74
0
 42
0.0000001
 43
0.0000001
 44
0.0000000001
 40
0.0
 40
0.0
 40
0.0
 40
0.0
 40
0.1009121255
 40
0.2128743983
 40
0.3336352252
 40
0.460519953
 40
0.5916182238
 40
0.7257046227
 40
1.0
 40
1.0
 40
1.0
 40
1.0
 10
26.9142338762
 20
73.3773847322
 30
0.0
 10
26.930177308
 20
73.3064146246
 30
0.0
 10
26.9958731844
 20
73.1640447409
 30
0.0
 10
27.1474969945
 20
72.9761691817
 30
0.0
 10
27.3373753505
 20
72.798857252
 30
0.0
 10
27.5525644787
 20
72.6305520822
 30
0.0
 10
27.7847540122
 20
72.4692576474
 30
0.0
 10
28.1125460859
 20
72.2599370468
 30
0.0
 10
28.3671074417
 20
72.1118786547
 30
0.0
 10
28.5393935736
 20
72.0148780053
 30
0.0
  0
SPLINE
  5
2DB
100
AcDbEntity
  8
0
100
AcDbSpline
 62
7
  6
BYLAYER
 70
0
 71
3
 72
9
 73
5
 74
0
 42
0.0000001
 43
0.0000001
 44
0.0000000001
 40
0.0
 40
0.0
 40
0.0
 40
0.0
 40
0.4902112221
 40
1.0
 40
1.0
 40
1.0
 40
1.0
 10
28.5393935736
 20
72.0148780053
 30
0.0
 10
28.5677418695
 20
71.9999789823
 30
0.0
 10
28.6291560915
 20
71.9758972162
 30
0.0
 10
28.6947570218
 20
71.967412535
 30
0.0
 10
28.7280611033
 20
71.967412535
 30
0.0
  0
LINE
  5
2DC
100
AcDbEntity
  8
0
100
AcDbLine
 62
7
  6
BYLAYER
 10
28.7280611033
 20
71.967412535
 11
28.7385833998
 21
71.967512985
  0
SPLINE
  5
2DD
100
AcDbEntity
  8
0
100
AcDbSpline
 62
7
  6
BYLAYER
 70
0
 71
3
 72
19
 73
15
 74
0
 42
0.0000001
 43
0.0000001
 44
0.0000000001
 40
0.0
 40
0.0
 40
0.0
 40
0.0
 40
0.0517128511
 40
0.1053430644
 40
0.1622487636
 40
0.223216063
 40
0.3564715866
 40
0.4999915195
 40
0.6435117143
 40
0.7767725198
 40
0.8377441258
 40
0.8946534192
 40
0.9482865794
 40
1.0
 40
1.0
 40
1.0
 40
1.0
 10
79.4332338757
 20
64.9195106448
 30
0.0
 10
79.4332338757
 20
64.826684465
 30
0.0
 10
79.406222035
 20
64.6366413178
 30
0.0
 10
79.2884004194
 20
64.3669362262
 30
0.0
 10
79.0991682092
 20
64.1206713895
 30
0.0
 10
78.7535525269
 20
63.8270380888
 30
0.0
 10
78.1899111462
 20
63.5724381868
 30
0.0
 10
77.4332805713
 20
63.4705004753
 30
0.0
 10
76.6766366519
 20
63.5724147177
 30
0.0
 10
76.112972295
 20
63.8270058369
 30
0.0
 10
75.767326252
 20
64.1206406767
 30
0.0
 10
75.5780781995
 20
64.3669185784
 30
0.0
 10
75.4602476832
 20
64.6366339416
 30
0.0
 10
75.4332338757
 20
64.8266834427
 30
0.0
 10
75.4332338757
 20
64.9195106448
 30
0.0
  0
SPLINE
  5
2DE
100
AcDbEntity
  8
0
100
AcDbSpline
 62
7
  6
BYLAYER
 70
0
 71
3
 72
14
 73
10
 74
0
 42
0.0000001
 43
0.0000001
 44
0.0000000001
 40
0.0
 40
0.0
 40
0.0
 40
0.0
 40
0.2577466318
 40
0.3856543952
 40
0.5126128084
 40
0.6382281788
 40
0.76188442
 40
0.8827453982
 40
1.0
 40
1.0
 40
1.0
 40
1.0
 10
28.5393932472
 20
61.4121896264
 30
0.0
 10
28.3658224393
 20
61.2900095826
 30
0.0
 10
28.1096473646
 20
61.1019053846
 30
0.0
 10
27.782974389
 20
60.8343568583
 30
0.0
 10
27.5501089639
 20
60.6244630683
 30
0.0
 10
27.3339510139
 20
60.4020724918
 30
0.0
 10
27.1428788204
 20
60.1636651322
 30
0.0
 10
26.9910217563
 20
59.9058225637
 30
0.0
 10
26.9296192316
 20
59.7167094825
 30
0.0
 10
26.9142338762
 20
59.6213807938
 30
0.0
  0
SPLINE
  5
2DF
100
AcDbEntity
  8
0
100
AcDbSpline
 62
7
  6
BYLAYER
 70
0
 71
3
 72
11
 73
7
 74
0
 42
0.0000001
 43
0.0000001
 44
0.0000000001
 40
0.0
 40
0.0
 40
0.0
 40
0.0
 40
0.2121468048
 40
0.4496567079
 40
0.715408713
 40
1.0
 40
1.0
 40
1.0
 40
1.0
 10
82.4073230059
 20
72.0447497679
 30
0.0
 10
82.4003345045
 20
72.0873124848
 30
0.0
 10
82.3615490524
 20
72.174289075
 30
0.0
 10
82.251381999
 20
72.273787568
 30
0.0
 10
82.1033750258
 20
72.340264798
 30
0.0
 10
81.9915520334
 20
72.3583321419
 30
0.0
 10
81.9337380261
 20
72.3606805687
 30
0.0
  0
SPLINE
  5
2E0
100
AcDbEntity
  8
0
100
AcDbSpline
 62
7
  6
BYLAYER
 70
0
 71
3
 72
13
 73
9
 74
0
 42
0.0000001
 43
0.0000001
 44
0.0000000001
 40
0.0
 40
0.0
 40
0.0
 40
0.0
 40
0.2751234281
 40
0.5378680799
 40
0.6625150025
 40
0.7812535702
 40
0.8934898599
 40
1.0
 40
1.0
 40
1.0
 40
1.0
 10
27.9112085408
 20
74.3838893669
 30
0.0
 10
27.800453371
 20
74.3359540553
 30
0.0
 10
27.5867571752
 20
74.2355847359
 30
0.0
 10
27.3355823279
 20
74.0875238478
 30
0.0
 10
27.1599200989
 20
73.9512048482
 30
0.0
 10
27.0483911016
 20
73.8413655738
 30
0.0
 10
26.9615557734
 20
73.720383704
 30
0.0
 10
26.9248653888
 20
73.6301674817
 30
0.0
 10
26.9142338762
 20
73.5846722796
 30
0.0
  0
SPLINE
  5
2E1
100
AcDbEntity
  8
0
100
AcDbSpline
 62
7
  6
BYLAYER
 70
0
 71
3
 72
9
 73
5
 74
0
 42
0.0000001
 43
0.0000001
 44
0.0000000001
 40
0.0
 40
0.0
 40
0.0
 40
0.0
 40
0.2631564052
 40
1.0
 40
1.0
 40
1.0
 40
1.0
 10
67.7892175751
 20
72.6221958336
 30
0.0
 10
67.6849481334
 20
72.6221958336
 30
0.0
 10
67.2900086249
 20
72.5951724473
 30
0.0
 10
66.8962277814
 20
72.4593860765
 30
0.0
 10
66.6578461559
 20
72.2908248015
 30
0.0
  0
ELLIPSE
  5
2E2
100
AcDbEntity
  8
0
100
AcDbEllipse
 62
7
  6
BYLAYER
 10
20.5442974984
 20
64.9124395769
 30
0.0
 11
23.2519159813
 21
-0.0
 31
0.0
 40
0.4515756899
 41
1.3791491318
 42
1.5447538597
  0
ENDSEC
  0
SECTION
  2
OBJECTS
  0
DICTIONARY
  5
C
100
AcDbDictionary
280
0
281
1
  3
ACAD_GROUP
350
D
  3
ACAD_MLINESTYLE
350
17
  3
ACAD_LAYOUT
350
1A
  3
ACAD_PLOTSETTINGS
350
19
  3
ACAD_PLOTSTYLENAME
350
E
  0
DICTIONARY
  5
D
102
{ACAD_REACTORS
330
C
102
}
100
AcDbDictionary
280
0
281
1
  0
ACDBDICTIONARYWDFLT
  5
E
102
{ACAD_REACTORS
330
C
102
}
100
AcDbDictionary
281
1
  3
Normal
350
F
100
AcDbDictionaryWithDefault
340
F
  0
DICTIONARY
  5
17
102
{ACAD_REACTORS
330
C
102
}
100
AcDbDictionary
280
0
281
1
  3
Standard
350
18
  0
DICTIONARY
  5
19
102
{ACAD_REACTORS
330
C
102
}
100
AcDbDictionary
281
1
  0
DICTIONARY
  5
1A
102
{ACAD_REACTORS
330
C
102
}
100
AcDbDictionary
281
1
  3
Model
350
2E3
  3
Layout1
350
2E4
  0
ACDBPLACEHOLDER
  5
F
102
{ACAD_REACTORS
330
E
102
}
  0
MLINESTYLE
  5
18
102
{ACAD_REACTORS
330
17
102
}
100
AcDbMlineStyle
  2
STANDARD
 70
0
  3

 62
256
 51
90.0
 52
90.0
 71
2
 49
0.5
 62
256
  6
BYLAYER
 49
-0.5
 62
256
  6
BYLAYER
  0
LAYOUT
  5
2E3
102
{ACAD_REACTORS
330
1A
102
}
100
AcDbPlotSettings
  1

  2
none_device
  4

  6

 40
0.0
 41
0.0
 42
0.0
 43
0.0
 44
210.0
 45
297.0
 46
0.0
 47
0.0
 48
0.0
 49
0.0
140
0.0
141
0.0
142
1.0
143
1.0
 70
1024
 72
1
 73
0
 74
0
  7

 75
0
147
1.0
148
0.0
149
0.0
100
AcDbLayout
  1
Model
 70
0
 71
0
 10
0.0
 20
0.0
 11
210.0
 21
297.0
 12
0.0
 22
0.0
 32
0.0
 14
0.0
 24
0.0
 34
0.0
 15
0.0
 25
0.0
 35
0.0
146
0.0
 13
0.0
 23
0.0
 33
0.0
 16
1.0
 26
0.0
 36
0.0
 17
0.0
 27
1.0
 37
0.0
 76
0
330
210
345
0
346
0
  0
LAYOUT
  5
2E4
102
{ACAD_REACTORS
330
1A
102
}
100
AcDbPlotSettings
  1

  2
none_device
  4

  6

 40
0.0
 41
0.0
 42
0.0
 43
0.0
 44
210.0
 45
297.0
 46
0.0
 47
0.0
 48
0.0
 49
0.0
140
0.0
141
0.0
142
1.0
143
1.0
 70
0
 72
1
 73
0
 74
0
  7

 75
0
147
1.0
148
0.0
149
0.0
100
AcDbLayout
  1
Layout1
 70
0
 71
1
 10
0.0
 20
0.0
 11
210.0
 21
297.0
 12
0.0
 22
0.0
 32
0.0
 14
0.0
 24
0.0
 34
0.0
 15
0.0
 25
0.0
 35
0.0
146
0.0
 13
0.0
 23
0.0
 33
0.0
 16
1.0
 26
0.0
 36
0.0
 17
0.0
 27
1.0
 37
0.0
 76
0
330
211
345
0
346
0
  0
ENDSEC
  0
EOF
