999
DXF file: C:\Users\sesa63760\Dev\_Creo\CAD\MCADID0004898_3D-CAD\drw0001_1.dxf
999
Pro/ENGINEER 2019471 by Parametric Technology Corporation
  0
SECTION
  2
HEADER
  9
$ACADVER
  1
AC1024
  9
$DWGCODEPAGE
  3
ANSI_1252
  9
$EXTMAX
 10
443.5793051059
 20
627.347874364
 30
0.0
  9
$EXTMIN
 10
-0.0
 20
0.0
 30
0.0
  9
$LIMMIN
 10
-0.0
 20
0.0
  9
$LIMMAX
 10
443.5793051059
 20
627.347874364
  9
$VIEWCTR
 10
221.7896525529
 20
313.673937182
  9
$VIEWSIZE
 40
627.347874364
  9
$CLAYER
  8
0
  9
$LTSCALE
 40
40.893787366
  9
$CELTYPE
  6
BYLAYER
  9
$DIMSCALE
 40
1.0
  9
$DIMASZ
 40
5.2807060132
  9
$DIMEXO
 40
1.0
  9
$DIMDLI
 40
28.2538894528
  9
$DIMEXE
 40
1.0
  9
$DIMCEN
 40
6.6917106599
  9
$DIMLFAC
 40
1.0
  9
$DIMBLK
  1
_FILLED
  9
$DIMALT
 70
0
  9
$DIMALTF
 40
0.0393700787
  9
$DIMTXT
 40
7.3929884184
  9
$DIMTOL
 70
1
  9
$DIMLIM
 70
0
  9
$DIMTFAC
 40
1.0
  9
$DIMTP
 40
0.01
  9
$DIMTM
 40
0.01
  9
$DIMGAP
 40
0.625
  9
$DIMDSEP
 70
46
  9
$AUNITS
 70
0
  9
$PDMODE
 70
3
  9
$PDSIZE
 40
0.3125
  9
$HANDSEED
  5
675
  9
$TILEMODE
 70
1
  9
$MEASUREMENT
 70
1
  9
$INSUNITS
 70
4
  0
ENDSEC
  0
SECTION
  2
CLASSES
  0
CLASS
  1
ACDBDICTIONARYWDFLT
  2
AcDbDictionaryWithDefault
  3
AutoCAD 2000
 90
0
 91
1
280
0
281
0
  0
CLASS
  1
ACDBPLACEHOLDER
  2
AcDbPlaceHolder
  3
AutoCAD 2000
 90
0
 91
1
280
0
281
0
  0
CLASS
  1
LAYOUT
  2
AcDbLayout
  3
AutoCAD 2000
 90
0
 91
0
280
0
281
0
  0
ENDSEC
  0
SECTION
  2
TABLES
  0
TABLE
  2
VPORT
  5
8
100
AcDbSymbolTable
 70
2
  0
VPORT
  5
1F4
100
AcDbSymbolTableRecord
100
AcDbViewportTableRecord
  2
*ACTIVE
 70
0
 10
0.0
 20
0.0
 11
1.0
 21
1.0
 12
221.7896525529
 22
313.673937182
 13
0.0
 23
0.0
 14
1.0
 24
1.0
 15
0.0
 25
0.0
 16
0.0
 26
0.0
 36
1.0
 17
0.0
 27
0.0
 37
0.0
 40
627.347874364
 41
0.7070707071
 42
50.0
 43
0.0
 44
0.0
 50
0.0
 51
0.0
 71
0
 72
100
 73
1
 74
1
 75
0
 76
0
 77
0
 78
0
  0
ENDTAB
  0
TABLE
  2
LTYPE
  5
5
100
AcDbSymbolTable
 70
6
  0
LTYPE
  5
14
100
AcDbSymbolTableRecord
100
AcDbLinetypeTableRecord
  2
BYBLOCK
 70
0
  3

 72
65
 73
0
 40
0.0
  0
LTYPE
  5
15
100
AcDbSymbolTableRecord
100
AcDbLinetypeTableRecord
  2
BYLAYER
 70
0
  3

 72
65
 73
0
 40
0.0
  0
LTYPE
  5
16
100
AcDbSymbolTableRecord
100
AcDbLinetypeTableRecord
  2
CONTINUOUS
 70
64
  3
Solid line
 72
65
 73
0
 40
0.0
  0
LTYPE
  5
1F5
100
AcDbSymbolTableRecord
100
AcDbLinetypeTableRecord
  2
CENTER
 70
64
  3
____ _ ____ _ ____ _ ____ _ ____ _ ____ _ ____
 72
65
 73
4
 40
0.6
 49
0.375
 74
0
 49
-0.075
 74
0
 49
0.075
 74
0
 49
-0.075
 74
0
  0
LTYPE
  5
1F6
100
AcDbSymbolTableRecord
100
AcDbLinetypeTableRecord
  2
HIDDEN
 70
64
  3
- - - - - - - - - - - - - - - - - - - -
 72
65
 73
2
 40
0.2
 49
0.1
 74
0
 49
-0.1
 74
0
  0
LTYPE
  5
1F7
100
AcDbSymbolTableRecord
100
AcDbLinetypeTableRecord
  2
PHANTOM
 70
64
  3
_____ _ _ _____ _ _ _____ _ _ _____
 72
65
 73
6
 40
0.8
 49
0.45
 74
0
 49
-0.05
 74
0
 49
0.1
 74
0
 49
-0.05
 74
0
 49
0.1
 74
0
 49
-0.05
 74
0
  0
LTYPE
  5
1F8
100
AcDbSymbolTableRecord
100
AcDbLinetypeTableRecord
  2
DOT
 70
64
  3
. . . . . . . . . . . . . . . . . . . .
 72
65
 73
2
 40
0.2
 49
0.1
 74
0
 49
-0.1
 74
0
  0
LTYPE
  5
1F9
100
AcDbSymbolTableRecord
100
AcDbLinetypeTableRecord
  2
DASHED
 70
64
  3
- - - - - - - - - - - - - - - - - - - -
 72
65
 73
2
 40
0.2
 49
0.1
 74
0
 49
-0.1
 74
0
  0
ENDTAB
  0
TABLE
  2
LAYER
  5
2
100
AcDbSymbolTable
 70
36
  0
LAYER
  5
10
100
AcDbSymbolTableRecord
100
AcDbLayerTableRecord
  2
0
 70
0
 62
7
  6
CONTINUOUS
370
-3
390
F
  0
LAYER
  5
1FA
100
AcDbSymbolTableRecord
100
AcDbLayerTableRecord
  2
DEFAULT_1
 70
0
 62
7
  6
CENTER
370
-3
390
F
  0
LAYER
  5
1FB
100
AcDbSymbolTableRecord
100
AcDbLayerTableRecord
  2
DEFAULT_2
 70
0
 62
7
  6
HIDDEN
370
-3
390
F
  0
LAYER
  5
1FC
100
AcDbSymbolTableRecord
100
AcDbLayerTableRecord
  2
DEFAULT_3
 70
0
 62
7
  6
PHANTOM
370
-3
390
F
  0
LAYER
  5
1FD
100
AcDbSymbolTableRecord
100
AcDbLayerTableRecord
  2
00_COMPONENTS
 70
0
 62
7
  6
CONTINUOUS
370
-3
390
F
  0
LAYER
  5
1FE
100
AcDbSymbolTableRecord
100
AcDbLayerTableRecord
  2
01_1_DEFAULT_DATUMS
 70
0
 62
7
  6
CONTINUOUS
370
-3
390
F
  0
LAYER
  5
1FF
100
AcDbSymbolTableRecord
100
AcDbLayerTableRecord
  2
01_PLANES
 70
0
 62
7
  6
CONTINUOUS
370
-3
390
F
  0
LAYER
  5
200
100
AcDbSymbolTableRecord
100
AcDbLayerTableRecord
  2
02_COORD_SYS
 70
0
 62
7
  6
CONTINUOUS
370
-3
390
F
  0
LAYER
  5
201
100
AcDbSymbolTableRecord
100
AcDbLayerTableRecord
  2
03_AXES
 70
0
 62
7
  6
CONTINUOUS
370
-3
390
F
  0
LAYER
  5
202
100
AcDbSymbolTableRecord
100
AcDbLayerTableRecord
  2
04_POINTS
 70
0
 62
7
  6
CONTINUOUS
370
-3
390
F
  0
LAYER
  5
203
100
AcDbSymbolTableRecord
100
AcDbLayerTableRecord
  2
05_CURVES
 70
0
 62
7
  6
CONTINUOUS
370
-3
390
F
  0
LAYER
  5
204
100
AcDbSymbolTableRecord
100
AcDbLayerTableRecord
  2
06_SURFS
 70
0
 62
7
  6
CONTINUOUS
370
-3
390
F
  0
LAYER
  5
205
100
AcDbSymbolTableRecord
100
AcDbLayerTableRecord
  2
07_COSMETICS
 70
0
 62
7
  6
CONTINUOUS
370
-3
390
F
  0
LAYER
  5
206
100
AcDbSymbolTableRecord
100
AcDbLayerTableRecord
  2
10_NOTES
 70
0
 62
7
  6
CONTINUOUS
370
-3
390
F
  0
LAYER
  5
207
100
AcDbSymbolTableRecord
100
AcDbLayerTableRecord
  2
11_NOTES_PUB
 70
0
 62
7
  6
CONTINUOUS
370
-3
390
F
  0
LAYER
  5
208
100
AcDbSymbolTableRecord
100
AcDbLayerTableRecord
  2
13_REF_GTOL
 70
0
 62
7
  6
CONTINUOUS
370
-3
390
F
  0
LAYER
  5
209
100
AcDbSymbolTableRecord
100
AcDbLayerTableRecord
  2
16_MISC
 70
0
 62
7
  6
CONTINUOUS
370
-3
390
F
  0
LAYER
  5
20A
100
AcDbSymbolTableRecord
100
AcDbLayerTableRecord
  2
17_NO_PRINT
 70
0
 62
7
  6
CONTINUOUS
370
-3
390
F
  0
LAYER
  5
20B
100
AcDbSymbolTableRecord
100
AcDbLayerTableRecord
  2
18_DATUM_CAMS_JOINTS
 70
0
 62
7
  6
CONTINUOUS
370
-3
390
F
  0
LAYER
  5
20C
100
AcDbSymbolTableRecord
100
AcDbLayerTableRecord
  2
19_DATUM_FUNCTIONAL
 70
0
 62
7
  6
CONTINUOUS
370
-3
390
F
  0
LAYER
  5
20D
100
AcDbSymbolTableRecord
100
AcDbLayerTableRecord
  2
20_DATUM_KINEMATIC_SCHEME
 70
0
 62
7
  6
CONTINUOUS
370
-3
390
F
  0
ENDTAB
  0
TABLE
  2
STYLE
  5
3
100
AcDbSymbolTable
 70
1
  0
STYLE
  5
11
100
AcDbSymbolTableRecord
100
AcDbTextStyleTableRecord
  2
STANDARD
 70
0
 40
0.0
 41
1.0
 50
0.0
 71
0
 42
0.2
  3
ARIAL.TTF
  4

  0
STYLE
  5
20E
100
AcDbSymbolTableRecord
100
AcDbTextStyleTableRecord
  2
TEXTSTYLE_1
 70
0
 40
0.0
 41
0.8
 50
0.0
 71
0
 42
0.2
  3
gdt
  4

  0
ENDTAB
  0
TABLE
  2
VIEW
  5
6
100
AcDbSymbolTable
 70
0
  0
ENDTAB
  0
TABLE
  2
UCS
  5
7
100
AcDbSymbolTable
 70
0
  0
ENDTAB
  0
TABLE
  2
APPID
  5
9
100
AcDbSymbolTable
 70
1
  0
APPID
  5
20F
100
AcDbSymbolTableRecord
100
AcDbRegAppTableRecord
  2
ACAD
 70
0
  0
ENDTAB
  0
TABLE
  2
BLOCK_RECORD
  5
1
100
AcDbSymbolTable
 70
0
  0
BLOCK_RECORD
  5
210
100
AcDbSymbolTableRecord
100
AcDbBlockTableRecord
  2
*Model_Space
  0
BLOCK_RECORD
  5
211
100
AcDbSymbolTableRecord
100
AcDbBlockTableRecord
  2
*Paper_Space
  0
BLOCK_RECORD
  5
212
100
AcDbSymbolTableRecord
100
AcDbBlockTableRecord
  2
_FILLED
  0
ENDTAB
  0
TABLE
  2
DIMSTYLE
  5
A
100
AcDbSymbolTable
 70
1
100
AcDbDimStyleTable
 71
0
  0
DIMSTYLE
105
213
100
AcDbSymbolTableRecord
100
AcDbDimStyleTableRecord
  2
STANDARD
 70
0
  3

  4

 40
1.0
 41
5.2807060132
 42
1.0
 43
0.38
 44
1.0
 45
0.0
 46
0.0
 47
0.01
 48
0.01
140
7.3929884184
141
0.09
142
0.0
143
25.4
144
1.0
145
0.0
146
1.0
147
0.625
 71
1
 72
0
 73
0
 74
0
 75
0
 76
0
 77
1
 78
8
 79
2
170
0
171
1
172
0
173
0
174
0
175
0
176
0
177
0
178
0
270
2
179
2
271
2
272
2
273
2
274
2
275
0
280
0
281
0
282
0
283
1
284
8
285
0
286
0
287
3
288
0
340
11
278
46
341
212
342
212
343
212
344
212
  0
ENDTAB
  0
ENDSEC
  0
SECTION
  2
BLOCKS
  0
BLOCK
  5
20
100
AcDbEntity
  8
0
100
AcDbBlockBegin
  2
*Model_Space
 70
0
 10
0.0
 20
0.0
 30
0.0
  3
*Model_Space
  1

  0
ENDBLK
  5
21
100
AcDbEntity
  8
0
100
AcDbBlockEnd
  0
BLOCK
  5
1C
100
AcDbEntity
  8
0
100
AcDbBlockBegin
  2
*Paper_Space
 70
0
 10
0.0
 20
0.0
 30
0.0
  3
*Paper_Space
  1

  0
ENDBLK
  5
1D
100
AcDbEntity
  8
0
100
AcDbBlockEnd
  0
BLOCK
  5
214
100
AcDbEntity
  8
0
100
AcDbBlockBegin
  2
_FILLED
 70
64
 10
0.0
 20
0.0
  3
_FILLED
  1

  0
SOLID
  5
215
100
AcDbEntity
  8
0
  6
BYBLOCK
 62
0
100
AcDbTrace
 10
0.0
 20
0.0
 11
-1.0
 21
0.25
 12
-1.0
 22
-0.25
 13
-1.0
 23
-0.25
  0
ENDBLK
  5
216
100
AcDbEntity
  8
0
  6
BYBLOCK
 62
0
100
AcDbBlockEnd
  0
ENDSEC
  0
SECTION
  2
ENTITIES
  0
LINE
  5
217
100
AcDbEntity
  8
0
100
AcDbLine
 62
7
  6
BYLAYER
 10
56.8612513167
 20
511.6922100991
 11
51.9655883744
 21
508.7506498479
  0
LINE
  5
218
100
AcDbEntity
  8
0
100
AcDbLine
 62
7
  6
BYLAYER
 10
53.3573442981
 20
505.1531257526
 11
54.4104414949
 21
505.7611280734
  0
LINE
  5
219
100
AcDbEntity
  8
0
100
AcDbLine
 62
7
  6
BYLAYER
 10
53.9834310199
 20
505.4480404375
 11
54.4392603505
 21
505.7112120533
  0
LINE
  5
21A
100
AcDbEntity
  8
0
100
AcDbLine
 62
7
  6
BYLAYER
 10
54.9827758495
 20
505.3490563299
 11
55.0534898547
 21
505.3898828361
  0
LINE
  5
21B
100
AcDbEntity
  8
0
100
AcDbLine
 62
7
  6
BYLAYER
 10
75.5867387354
 20
513.6027344046
 11
72.043574176
 21
511.5746641487
  0
LINE
  5
21C
100
AcDbEntity
  8
0
100
AcDbLine
 62
7
  6
BYLAYER
 10
78.0812709759
 20
513.3521429798
 11
74.5197862143
 21
511.3259131031
  0
LINE
  5
21D
100
AcDbEntity
  8
0
100
AcDbLine
 62
7
  6
BYLAYER
 10
58.5490555817
 20
511.5366404935
 11
53.2280772069
 21
508.6342827468
  0
LINE
  5
21E
100
AcDbEntity
  8
0
100
AcDbLine
 62
7
  6
BYLAYER
 10
51.4603028937
 20
507.6137064077
 11
51.9655847175
 21
508.7506560884
  0
LINE
  5
21F
100
AcDbEntity
  8
0
100
AcDbLine
 62
7
  6
BYLAYER
 10
53.9836451868
 20
505.4476694806
 11
53.5694766269
 21
504.5330643135
  0
LINE
  5
220
100
AcDbEntity
  8
0
100
AcDbLine
 62
7
  6
BYLAYER
 10
74.3010810168
 20
511.0815139877
 11
66.3654686763
 21
507.0239343802
  0
LINE
  5
221
100
AcDbEntity
  8
0
100
AcDbLine
 62
7
  6
BYLAYER
 10
71.8033076086
 20
511.3934192079
 11
64.7785439611
 21
507.9401250647
  0
LINE
  5
222
100
AcDbEntity
  8
0
100
AcDbLine
 62
7
  6
BYLAYER
 10
82.6670435826
 20
482.548109578
 11
82.8791747342
 21
482.6705828245
  0
LINE
  5
223
100
AcDbEntity
  8
0
100
AcDbLine
 62
7
  6
BYLAYER
 10
83.6851362998
 20
477.9582145504
 11
83.6144259161
 21
477.917390135
  0
LINE
  5
224
100
AcDbEntity
  8
0
100
AcDbLine
 62
7
  6
BYLAYER
 10
84.0260206751
 20
477.8238994671
 11
84.0967310586
 21
477.8647238823
  0
LINE
  5
225
100
AcDbEntity
  8
0
100
AcDbLine
 62
7
  6
BYLAYER
 10
84.3511248308
 20
477.7178528921
 11
84.2804144474
 21
477.6770284769
  0
LINE
  5
226
100
AcDbEntity
  8
0
100
AcDbLine
 62
7
  6
BYLAYER
 10
84.8795242099
 20
476.7063244019
 11
84.9502345933
 21
476.7471488172
  0
LINE
  5
227
100
AcDbEntity
  8
0
100
AcDbLine
 62
7
  6
BYLAYER
 10
86.3144247042
 20
476.4666016203
 11
86.2437143205
 21
476.4257772049
  0
LINE
  5
228
100
AcDbEntity
  8
0
100
AcDbLine
 62
7
  6
BYLAYER
 10
86.6710529908
 20
476.2968238942
 11
86.7417633742
 21
476.3376483095
  0
LINE
  5
229
100
AcDbEntity
  8
0
100
AcDbLine
 62
7
  6
BYLAYER
 10
86.9969857906
 20
476.1902989121
 11
86.9262754072
 21
476.1494744969
  0
LINE
  5
22A
100
AcDbEntity
  8
0
100
AcDbLine
 62
7
  6
BYLAYER
 10
86.2436725304
 20
476.4258503215
 11
86.0686286514
 21
476.0198101698
  0
LINE
  5
22B
100
AcDbEntity
  8
0
100
AcDbLine
 62
7
  6
BYLAYER
 10
88.474562821
 20
473.6197506145
 11
88.2620498721
 21
473.199560317
  0
LINE
  5
22C
100
AcDbEntity
  8
0
100
AcDbLine
 62
7
  6
BYLAYER
 10
90.0419776333
 20
470.5644526581
 11
89.9579854206
 21
470.4940138823
  0
LINE
  5
22D
100
AcDbEntity
  8
0
100
AcDbLine
 62
7
  6
BYLAYER
 10
93.5141089939
 20
467.9878371954
 11
93.6838689326
 21
468.1298302509
  0
LINE
  5
22E
100
AcDbEntity
  8
0
100
AcDbLine
 62
7
  6
BYLAYER
 10
87.4400348168
 20
475.3304281044
 11
87.5107452003
 21
475.3712525196
  0
LINE
  5
22F
100
AcDbEntity
  8
0
100
AcDbLine
 62
7
  6
BYLAYER
 10
84.3287514367
 20
473.4948446494
 11
84.2580410533
 21
473.4540202342
  0
LINE
  5
230
100
AcDbEntity
  8
0
100
AcDbLine
 62
7
  6
BYLAYER
 10
84.1379849256
 20
473.0949347427
 11
84.2086953093
 21
473.1357591581
  0
LINE
  5
231
100
AcDbEntity
  8
0
100
AcDbLine
 62
7
  6
BYLAYER
 10
86.1078505546
 20
472.7183962896
 11
86.0371401712
 21
472.6775718744
  0
LINE
  5
232
100
AcDbEntity
  8
0
100
AcDbLine
 62
7
  6
BYLAYER
 10
85.8119032428
 20
472.1623156798
 11
85.8826136266
 21
472.2031400952
  0
LINE
  5
233
100
AcDbEntity
  8
0
100
AcDbLine
 62
7
  6
BYLAYER
 10
88.5448528344
 20
473.6612948142
 11
88.4741424506
 21
473.6204703988
  0
LINE
  5
234
100
AcDbEntity
  8
0
100
AcDbLine
 62
7
  6
BYLAYER
 10
89.5887092505
 20
473.3875987486
 11
89.6594196339
 21
473.4284231638
  0
LINE
  5
235
100
AcDbEntity
  8
0
100
AcDbLine
 62
7
  6
BYLAYER
 10
88.7531005127
 20
472.6319742264
 11
88.8238108964
 21
472.6727986418
  0
LINE
  5
236
100
AcDbEntity
  8
0
100
AcDbLine
 62
7
  6
BYLAYER
 10
88.4285822007
 20
472.2005887588
 11
88.3578718169
 21
472.1597643435
  0
LINE
  5
237
100
AcDbEntity
  8
0
100
AcDbLine
 62
7
  6
BYLAYER
 10
87.5107452004
 20
471.6548907374
 11
87.4400348169
 21
471.6140663222
  0
LINE
  5
238
100
AcDbEntity
  8
0
100
AcDbLine
 62
7
  6
BYLAYER
 10
88.8503872609
 20
472.1652263056
 11
88.9210976443
 21
472.2060507208
  0
LINE
  5
239
100
AcDbEntity
  8
0
100
AcDbLine
 62
7
  6
BYLAYER
 10
87.3215241804
 20
471.2580581918
 11
87.3922345641
 21
471.2988826072
  0
LINE
  5
23A
100
AcDbEntity
  8
0
100
AcDbLine
 62
7
  6
BYLAYER
 10
88.8719320093
 20
471.305985408
 11
88.942642393
 21
471.3468098242
  0
LINE
  5
23B
100
AcDbEntity
  8
0
100
AcDbLine
 62
7
  6
BYLAYER
 10
89.3450878534
 20
470.5888417446
 11
89.4157982372
 21
470.62966616
  0
LINE
  5
23C
100
AcDbEntity
  8
0
100
AcDbLine
 62
7
  6
BYLAYER
 10
90.8929952361
 20
471.2883137698
 11
90.9637056201
 21
471.3291381854
  0
LINE
  5
23D
100
AcDbEntity
  8
0
100
AcDbLine
 62
7
  6
BYLAYER
 10
91.9403738556
 20
471.7168486746
 11
91.8696634719
 21
471.6760242592
  0
LINE
  5
23E
100
AcDbEntity
  8
0
100
AcDbLine
 62
7
  6
BYLAYER
 10
92.7251275822
 20
471.5768277464
 11
92.7958379656
 21
471.6176521617
  0
LINE
  5
23F
100
AcDbEntity
  8
0
100
AcDbLine
 62
7
  6
BYLAYER
 10
90.9579051109
 20
470.3354610364
 11
90.8871947269
 21
470.2946366208
  0
LINE
  5
240
100
AcDbEntity
  8
0
100
AcDbLine
 62
7
  6
BYLAYER
 10
92.2130254613
 20
470.1176410505
 11
92.283735845
 21
470.1584654659
  0
LINE
  5
241
100
AcDbEntity
  8
0
100
AcDbLine
 62
7
  6
BYLAYER
 10
91.0297215309
 20
469.3578935731
 11
91.1004319144
 21
469.3987179883
  0
LINE
  5
242
100
AcDbEntity
  8
0
100
AcDbLine
 62
7
  6
BYLAYER
 10
90.9428047504
 20
469.1890836197
 11
91.0135151341
 21
469.2299080351
  0
LINE
  5
243
100
AcDbEntity
  8
0
100
AcDbLine
 62
7
  6
BYLAYER
 10
93.9119208506
 20
470.8716603524
 11
93.8412104669
 21
470.830835937
  0
LINE
  5
244
100
AcDbEntity
  8
0
100
AcDbLine
 62
7
  6
BYLAYER
 10
94.0749889996
 20
470.804200395
 11
94.145699383
 21
470.8450248103
  0
LINE
  5
245
100
AcDbEntity
  8
0
100
AcDbLine
 62
7
  6
BYLAYER
 10
91.7273226337
 20
468.516132539
 11
91.6566122499
 21
468.4753081236
  0
LINE
  5
246
100
AcDbEntity
  8
0
100
AcDbLine
 62
7
  6
BYLAYER
 10
91.8790818453
 20
468.4522582351
 11
91.9497922288
 21
468.4930826503
  0
LINE
  5
247
100
AcDbEntity
  8
0
100
AcDbLine
 62
7
  6
BYLAYER
 10
94.4404210958
 20
469.9263062269
 11
94.5111314793
 21
469.9671306421
  0
LINE
  5
248
100
AcDbEntity
  8
0
100
AcDbLine
 62
7
  6
BYLAYER
 10
92.9480328749
 20
468.6312028877
 11
93.0187432586
 21
468.6720273031
  0
LINE
  5
249
100
AcDbEntity
  8
0
100
AcDbLine
 62
7
  6
BYLAYER
 10
92.164135454
 20
468.0781384891
 11
92.2348458374
 21
468.1189629043
  0
LINE
  5
24A
100
AcDbEntity
  8
0
100
AcDbLine
 62
7
  6
BYLAYER
 10
95.6158587159
 20
469.5502916616
 11
95.5451483321
 21
469.5094672462
  0
LINE
  5
24B
100
AcDbEntity
  8
0
100
AcDbLine
 62
7
  6
BYLAYER
 10
93.5125525611
 20
467.9906013017
 11
93.5832629449
 21
468.0314257171
  0
LINE
  5
24C
100
AcDbEntity
  8
0
100
AcDbLine
 62
7
  6
BYLAYER
 10
96.588266886
 20
469.3464936864
 11
96.6589772694
 21
469.3873181016
  0
LINE
  5
24D
100
AcDbEntity
  8
0
100
AcDbLine
 62
7
  6
BYLAYER
 10
92.893342358
 20
467.1930734075
 11
92.9640527415
 21
467.2338978227
  0
LINE
  5
24E
100
AcDbEntity
  8
0
100
AcDbLine
 62
7
  6
BYLAYER
 10
95.8723182883
 20
468.2901330989
 11
95.943028672
 21
468.3309575143
  0
LINE
  5
24F
100
AcDbEntity
  8
0
100
AcDbLine
 62
7
  6
BYLAYER
 10
94.5111314793
 20
467.4114142881
 11
94.4404210958
 21
467.3705898729
  0
LINE
  5
250
100
AcDbEntity
  8
0
100
AcDbLine
 62
7
  6
BYLAYER
 10
98.8748470351
 20
469.3462780212
 11
98.8041366514
 21
469.3054536058
  0
LINE
  5
251
100
AcDbEntity
  8
0
100
AcDbLine
 62
7
  6
BYLAYER
 10
99.0501688314
 20
469.2723750798
 11
99.1208792148
 21
469.313199495
  0
LINE
  5
252
100
AcDbEntity
  8
0
100
AcDbLine
 62
7
  6
BYLAYER
 10
94.0985018942
 20
466.2883277278
 11
94.1691987379
 21
466.3291443262
  0
LINE
  5
253
100
AcDbEntity
  8
0
100
AcDbLine
 62
7
  6
BYLAYER
 10
99.4255446581
 20
468.5188700971
 11
99.4962550415
 21
468.5596945124
  0
LINE
  5
254
100
AcDbEntity
  8
0
100
AcDbLine
 62
7
  6
BYLAYER
 10
96.6222412978
 20
466.3874702926
 11
96.6929516813
 21
466.4282947079
  0
LINE
  5
255
100
AcDbEntity
  8
0
100
AcDbLine
 62
7
  6
BYLAYER
 10
97.9953047538
 20
467.0893318293
 11
98.0660151373
 21
467.1301562445
  0
LINE
  5
256
100
AcDbEntity
  8
0
100
AcDbLine
 62
7
  6
BYLAYER
 10
100.3961180796
 20
468.3850352491
 11
100.3254076959
 21
468.3442108337
  0
LINE
  5
257
100
AcDbEntity
  8
0
100
AcDbLine
 62
7
  6
BYLAYER
 10
97.8972181258
 20
466.7827390695
 11
97.9679285095
 21
466.8235634848
  0
LINE
  5
258
100
AcDbEntity
  8
0
100
AcDbLine
 62
7
  6
BYLAYER
 10
100.5964189264
 20
468.3184296856
 11
100.6671293105
 21
468.3592541005
  0
LINE
  5
259
100
AcDbEntity
  8
0
100
AcDbLine
 62
7
  6
BYLAYER
 10
97.5196629771
 20
466.4310197239
 11
97.5903733605
 21
466.4718441391
  0
LINE
  5
25A
100
AcDbEntity
  8
0
100
AcDbLine
 62
7
  6
BYLAYER
 10
97.6878777515
 20
466.3913134019
 11
97.7585881349
 21
466.4321378171
  0
LINE
  5
25B
100
AcDbEntity
  8
0
100
AcDbLine
 62
7
  6
BYLAYER
 10
97.9505579658
 20
465.9506930318
 11
98.0212683493
 21
465.991517447
  0
LINE
  5
25C
100
AcDbEntity
  8
0
100
AcDbLine
 62
7
  6
BYLAYER
 10
100.9635083096
 20
467.6797452337
 11
101.034218693
 21
467.720569649
  0
LINE
  5
25D
100
AcDbEntity
  8
0
100
AcDbLine
 62
7
  6
BYLAYER
 10
100.8654062023
 20
467.4321759625
 11
100.936116586
 21
467.4730003779
  0
LINE
  5
25E
100
AcDbEntity
  8
0
100
AcDbLine
 62
7
  6
BYLAYER
 10
97.7315651921
 20
465.5905110727
 11
97.8022755758
 21
465.6313354881
  0
LINE
  5
25F
100
AcDbEntity
  8
0
100
AcDbLine
 62
7
  6
BYLAYER
 10
100.4092497848
 20
467.110192264
 11
100.338539401
 21
467.0693678487
  0
LINE
  5
260
100
AcDbEntity
  8
0
100
AcDbLine
 62
7
  6
BYLAYER
 10
100.5881324835
 20
467.0372224504
 11
100.658842867
 21
467.0780468657
  0
LINE
  5
261
100
AcDbEntity
  8
0
100
AcDbLine
 62
7
  6
BYLAYER
 10
105.5066859389
 20
469.6068786798
 11
105.2945547873
 21
469.4844054334
  0
LINE
  5
262
100
AcDbEntity
  8
0
100
AcDbLine
 62
7
  6
BYLAYER
 10
100.963508311
 20
466.3248615345
 11
101.0342186945
 21
466.3656859497
  0
LINE
  5
263
100
AcDbEntity
  8
0
100
AcDbLine
 62
7
  6
BYLAYER
 10
99.4962550415
 20
464.7342531096
 11
99.4255446581
 21
464.6934286944
  0
LINE
  5
264
100
AcDbEntity
  8
0
100
AcDbLine
 62
7
  6
BYLAYER
 10
101.9022311983
 20
465.9844061995
 11
101.8315208146
 21
465.9435817842
  0
LINE
  5
265
100
AcDbEntity
  8
0
100
AcDbLine
 62
7
  6
BYLAYER
 10
99.3048732882
 20
464.3412946583
 11
99.3755836719
 21
464.3821190737
  0
LINE
  5
266
100
AcDbEntity
  8
0
100
AcDbLine
 62
7
  6
BYLAYER
 10
102.7923260799
 20
465.7646594734
 11
102.8630364633
 21
465.8054838887
  0
LINE
  5
267
100
AcDbEntity
  8
0
100
AcDbLine
 62
7
  6
BYLAYER
 10
102.3423722743
 20
465.1269197802
 11
102.4130826578
 21
465.1677441954
  0
LINE
  5
268
100
AcDbEntity
  8
0
100
AcDbLine
 62
7
  6
BYLAYER
 10
86.0686286514
 20
476.0198101698
 11
85.4778053289
 21
473.8013707403
  0
LINE
  5
269
100
AcDbEntity
  8
0
100
AcDbLine
 62
7
  6
BYLAYER
 10
83.6152827285
 20
477.9159961373
 11
83.515575842
 21
477.5961642925
  0
LINE
  5
26A
100
AcDbEntity
  8
0
100
AcDbLine
 62
7
  6
BYLAYER
 10
95.5451965087
 20
469.5093832892
 11
95.1298530776
 21
468.4154680015
  0
LINE
  5
26B
100
AcDbEntity
  8
0
100
AcDbLine
 62
7
  6
BYLAYER
 10
88.3582755464
 20
472.1590543463
 11
88.1294667986
 21
471.6475658718
  0
LINE
  5
26C
100
AcDbEntity
  8
0
100
AcDbLine
 62
7
  6
BYLAYER
 10
102.3423722741
 20
465.12691978
 11
102.4130584282
 21
465.2749476677
  0
LINE
  5
26D
100
AcDbEntity
  8
0
100
AcDbLine
 62
7
  6
BYLAYER
 10
101.8326643388
 20
465.9416009012
 11
101.5999070634
 21
465.4598886948
  0
LINE
  5
26E
100
AcDbEntity
  8
0
100
AcDbLine
 62
7
  6
BYLAYER
 10
103.4560700919
 20
462.8199979701
 11
103.375892353
 21
462.6636825377
  0
LINE
  5
26F
100
AcDbEntity
  8
0
100
AcDbLine
 62
7
  6
BYLAYER
 10
97.731653071
 20
465.5903592959
 11
97.9505579656
 21
465.9506930312
  0
LINE
  5
270
100
AcDbEntity
  8
0
100
AcDbLine
 62
7
  6
BYLAYER
 10
98.0212683493
 20
465.991517447
 11
97.8023648373
 21
465.6311818437
  0
LINE
  5
271
100
AcDbEntity
  8
0
100
AcDbLine
 62
7
  6
BYLAYER
 10
101.0342186943
 20
463.8405884347
 11
100.9635083109
 21
463.7997640195
  0
LINE
  5
272
100
AcDbEntity
  8
0
100
AcDbLine
 62
7
  6
BYLAYER
 10
101.7273584324
 20
464.119812957
 11
101.6566480487
 21
464.0789885416
  0
LINE
  5
273
100
AcDbEntity
  8
0
100
AcDbLine
 62
7
  6
BYLAYER
 10
100.8428939638
 20
463.4545977297
 11
100.9136043476
 21
463.4954221451
  0
LINE
  5
274
100
AcDbEntity
  8
0
100
AcDbLine
 62
7
  6
BYLAYER
 10
101.8982189782
 20
464.0495127578
 11
101.9689293624
 21
464.0903371727
  0
LINE
  5
275
100
AcDbEntity
  8
0
100
AcDbLine
 62
7
  6
BYLAYER
 10
102.2213902205
 20
463.6112853802
 11
102.292100604
 21
463.6521097954
  0
LINE
  5
276
100
AcDbEntity
  8
0
100
AcDbLine
 62
7
  6
BYLAYER
 10
103.1677019067
 20
464.1471290814
 11
103.2384122901
 21
464.1879534967
  0
LINE
  5
277
100
AcDbEntity
  8
0
100
AcDbLine
 62
7
  6
BYLAYER
 10
104.0502079894
 20
464.2356497148
 11
104.1209183729
 21
464.27647413
  0
LINE
  5
278
100
AcDbEntity
  8
0
100
AcDbLine
 62
7
  6
BYLAYER
 10
103.9673438971
 20
464.0424917061
 11
104.0380542808
 21
464.0833161215
  0
LINE
  5
279
100
AcDbEntity
  8
0
100
AcDbLine
 62
7
  6
BYLAYER
 10
107.4158839627
 20
465.8101759184
 11
107.6280151144
 21
465.9326491649
  0
LINE
  5
27A
100
AcDbEntity
  8
0
100
AcDbLine
 62
7
  6
BYLAYER
 10
102.9398247491
 20
462.7400943002
 11
103.0105351326
 21
462.7809187155
  0
LINE
  5
27B
100
AcDbEntity
  8
0
100
AcDbLine
 62
7
  6
BYLAYER
 10
104.1985353029
 20
462.5798424161
 11
104.2692456863
 21
462.6206668313
  0
LINE
  5
27C
100
AcDbEntity
  8
0
100
AcDbLine
 62
7
  6
BYLAYER
 10
103.9325731949
 20
461.9401655148
 11
104.0032835786
 21
461.9809899302
  0
LINE
  5
27D
100
AcDbEntity
  8
0
100
AcDbLine
 62
7
  6
BYLAYER
 10
107.6280151144
 20
458.5841274107
 11
107.4158839627
 21
458.4616541643
  0
LINE
  5
27E
100
AcDbEntity
  8
0
100
AcDbLine
 62
7
  6
BYLAYER
 10
165.4690424648
 20
486.3852597913
 11
145.1298603221
 21
474.642497601
  0
LINE
  5
27F
100
AcDbEntity
  8
0
100
AcDbLine
 62
7
  6
BYLAYER
 10
145.9783919916
 20
474.152608696
 11
156.4181204128
 21
480.1799527318
  0
LINE
  5
280
100
AcDbEntity
  8
0
100
AcDbLine
 62
7
  6
BYLAYER
 10
323.8716723977
 20
118.7127064994
 11
324.889925906
 21
118.6118855786
  0
LINE
  5
281
100
AcDbEntity
  8
0
100
AcDbLine
 62
7
  6
BYLAYER
 10
326.7430947024
 20
115.1962314165
 11
325.5118138035
 21
115.3303219356
  0
LINE
  5
282
100
AcDbEntity
  8
0
100
AcDbLine
 62
7
  6
BYLAYER
 10
51.4603028934
 20
275.5917121575
 11
51.4603028934
 21
507.6136285901
  0
LINE
  5
283
100
AcDbEntity
  8
0
100
AcDbLine
 62
7
  6
BYLAYER
 10
53.3573442981
 20
275.880698359
 11
53.3573442981
 21
505.1531257541
  0
LINE
  5
284
100
AcDbEntity
  8
0
100
AcDbLine
 62
7
  6
BYLAYER
 10
53.5694766269
 20
276.3718247781
 11
53.5694766269
 21
504.5330643135
  0
LINE
  5
285
100
AcDbEntity
  8
0
100
AcDbLine
 62
7
  6
BYLAYER
 10
86.0371401667
 20
472.6775718573
 11
86.6975696051
 21
475.3017119644
  0
LINE
  5
286
100
AcDbEntity
  8
0
100
AcDbLine
 62
7
  6
BYLAYER
 10
86.6975696053
 20
475.0615768388
 11
86.1078505505
 21
472.7183962699
  0
LINE
  5
287
100
AcDbEntity
  8
0
100
AcDbLine
 62
7
  6
BYLAYER
 10
154.8174162971
 20
469.0495110813
 11
156.418120414
 21
469.9736725176
  0
LINE
  5
288
100
AcDbEntity
  8
0
100
AcDbLine
 62
7
  6
BYLAYER
 10
80.5457144076
 20
481.3233245905
 11
80.5457144076
 21
473.9748028363
  0
LINE
  5
289
100
AcDbEntity
  8
0
100
AcDbLine
 62
7
  6
BYLAYER
 10
80.7578455588
 20
469.1982615797
 11
80.7578455588
 21
280.3412524968
  0
LINE
  5
28A
100
AcDbEntity
  8
0
100
AcDbLine
 62
7
  6
BYLAYER
 10
80.8285559425
 20
280.3820769122
 11
80.8285559425
 21
469.1574378445
  0
LINE
  5
28B
100
AcDbEntity
  8
0
100
AcDbLine
 62
7
  6
BYLAYER
 10
83.5155758423
 20
473.8798025099
 11
83.5155758423
 21
477.596164292
  0
LINE
  5
28C
100
AcDbEntity
  8
0
100
AcDbLine
 62
7
  6
BYLAYER
 10
84.2580410532
 20
473.4540202393
 11
84.2580410536
 21
476.7101425674
  0
LINE
  5
28D
100
AcDbEntity
  8
0
100
AcDbLine
 62
7
  6
BYLAYER
 10
84.3287514371
 20
476.3475355537
 11
84.3287514371
 21
473.4948446568
  0
LINE
  5
28E
100
AcDbEntity
  8
0
100
AcDbLine
 62
7
  6
BYLAYER
 10
86.6975696055
 20
472.0455896308
 11
86.6975696052
 21
475.3017119655
  0
LINE
  5
28F
100
AcDbEntity
  8
0
100
AcDbLine
 62
7
  6
BYLAYER
 10
87.4400348166
 20
471.6140663302
 11
87.4400348165
 21
475.330428098
  0
LINE
  5
290
100
AcDbEntity
  8
0
100
AcDbLine
 62
7
  6
BYLAYER
 10
87.5107451996
 20
475.3712525201
 11
87.5107451996
 21
471.6548907379
  0
LINE
  5
291
100
AcDbEntity
  8
0
100
AcDbLine
 62
7
  6
BYLAYER
 10
90.1447295146
 20
471.2294571229
 11
90.1447295146
 21
471.1136796325
  0
LINE
  5
292
100
AcDbEntity
  8
0
100
AcDbLine
 62
7
  6
BYLAYER
 10
93.726129788
 20
470.5090104771
 11
93.726129788
 21
470.3855782766
  0
LINE
  5
293
100
AcDbEntity
  8
0
100
AcDbLine
 62
7
  6
BYLAYER
 10
94.4404210955
 20
467.3705898727
 11
94.4404210955
 21
469.9263062267
  0
LINE
  5
294
100
AcDbEntity
  8
0
100
AcDbLine
 62
7
  6
BYLAYER
 10
94.51113148
 20
469.9671306417
 11
94.51113148
 21
467.4114142877
  0
LINE
  5
295
100
AcDbEntity
  8
0
100
AcDbLine
 62
7
  6
BYLAYER
 10
98.6830794467
 20
465.1220814866
 11
98.6830794468
 21
468.9475228894
  0
LINE
  5
296
100
AcDbEntity
  8
0
100
AcDbLine
 62
7
  6
BYLAYER
 10
99.4255446578
 20
464.6934286942
 11
99.4255446578
 21
468.5188700969
  0
LINE
  5
297
100
AcDbEntity
  8
0
100
AcDbLine
 62
7
  6
BYLAYER
 10
99.4962550415
 20
468.5596945124
 11
99.4962550415
 21
464.7342531088
  0
LINE
  5
298
100
AcDbEntity
  8
0
100
AcDbLine
 62
7
  6
BYLAYER
 10
100.2210430986
 20
466.7276796809
 11
100.2210430986
 21
464.2284168119
  0
LINE
  5
299
100
AcDbEntity
  8
0
100
AcDbLine
 62
7
  6
BYLAYER
 10
100.9635083107
 20
463.7997640188
 11
100.9635083108
 21
466.324861534
  0
LINE
  5
29A
100
AcDbEntity
  8
0
100
AcDbLine
 62
7
  6
BYLAYER
 10
101.0342186937
 20
466.3656859501
 11
101.0342186937
 21
463.8405884351
  0
LINE
  5
29B
100
AcDbEntity
  8
0
100
AcDbLine
 62
7
  6
BYLAYER
 10
93.6838689329
 20
468.1298302511
 11
93.6816843944
 21
467.983596008
  0
LINE
  5
29C
100
AcDbEntity
  8
0
100
AcDbLine
 62
7
  6
BYLAYER
 10
93.6838689326
 20
468.1298302509
 11
93.6791177699
 21
467.9851321331
  0
LINE
  5
29D
100
AcDbEntity
  8
0
100
AcDbLine
 62
7
  6
BYLAYER
 10
163.9135423799
 20
464.0134907728
 11
164.0448742711
 21
464.1971988505
  0
LINE
  5
29E
100
AcDbEntity
  8
0
100
AcDbLine
 62
7
  6
BYLAYER
 10
325.5117226533
 20
115.3303745607
 11
53.2280772063
 21
272.529854228
  0
LINE
  5
29F
100
AcDbEntity
  8
0
100
AcDbLine
 62
7
  6
BYLAYER
 10
107.4158839632
 20
458.4616541646
 11
107.4158839632
 21
465.8101759187
  0
LINE
  5
2A0
100
AcDbEntity
  8
0
100
AcDbLine
 62
7
  6
BYLAYER
 10
107.6280151137
 20
465.9327252374
 11
107.6280151137
 21
458.5841808756
  0
LINE
  5
2A1
100
AcDbEntity
  8
0
100
AcDbLine
 62
7
  6
BYLAYER
 10
191.4305450376
 20
208.7932715752
 11
191.4783615384
 21
208.7900157689
  0
LINE
  5
2A2
100
AcDbEntity
  8
0
100
AcDbLine
 62
7
  6
BYLAYER
 10
198.8024327556
 20
204.5363477321
 11
198.8519620673
 21
204.5329618261
  0
LINE
  5
2A3
100
AcDbEntity
  8
0
100
AcDbLine
 62
7
  6
BYLAYER
 10
306.8170125411
 20
184.7752503493
 11
306.3196836306
 21
184.824492663
  0
LINE
  5
2A4
100
AcDbEntity
  8
0
100
AcDbLine
 62
7
  6
BYLAYER
 10
308.4409951422
 20
186.0492251248
 11
308.9383240521
 21
185.9999828107
  0
LINE
  5
2A5
100
AcDbEntity
  8
0
100
AcDbLine
 62
7
  6
BYLAYER
 10
196.5354085296
 20
207.5752514183
 11
197.5377989842
 21
207.4486006879
  0
LINE
  5
2A6
100
AcDbEntity
  8
0
100
AcDbLine
 62
7
  6
BYLAYER
 10
189.1624538728
 20
211.8313256853
 11
190.1661259098
 21
211.7045418395
  0
LINE
  5
2A7
100
AcDbEntity
  8
0
100
AcDbLine
 62
7
  6
BYLAYER
 10
191.094191057
 20
206.1861782046
 11
191.3733183574
 21
206.1459568075
  0
LINE
  5
2A8
100
AcDbEntity
  8
0
100
AcDbLine
 62
7
  6
BYLAYER
 10
195.5523726195
 20
202.2423846822
 11
195.8291130345
 21
202.1885560988
  0
LINE
  5
2A9
100
AcDbEntity
  8
0
100
AcDbLine
 62
7
  6
BYLAYER
 10
195.4771986317
 20
202.2762123971
 11
195.5523726195
 21
202.2423846822
  0
LINE
  5
2AA
100
AcDbEntity
  8
0
100
AcDbLine
 62
7
  6
BYLAYER
 10
54.4268422654
 20
274.0282838244
 11
324.3174841627
 21
118.2103741453
  0
LINE
  5
2AB
100
AcDbEntity
  8
0
100
AcDbLine
 62
7
  6
BYLAYER
 10
54.9582336217
 20
273.9664404567
 11
167.3080776831
 21
209.1026951583
  0
LINE
  5
2AC
100
AcDbEntity
  8
0
100
AcDbLine
 62
7
  6
BYLAYER
 10
211.3610117937
 20
183.6692971714
 11
323.8716723977
 21
118.7127064994
  0
LINE
  5
2AD
100
AcDbEntity
  8
0
100
AcDbLine
 62
7
  6
BYLAYER
 10
189.6205387378
 20
205.6906483591
 11
189.9150779939
 21
205.5205998873
  0
LINE
  5
2AE
100
AcDbEntity
  8
0
100
AcDbLine
 62
7
  6
BYLAYER
 10
196.5852778227
 20
201.6696453408
 11
196.8795761459
 21
201.4997359686
  0
LINE
  5
2AF
100
AcDbEntity
  8
0
100
AcDbLine
 62
7
  6
BYLAYER
 10
198.4538252231
 20
200.5908634015
 11
198.7483644786
 21
200.4208149301
  0
LINE
  5
2B0
100
AcDbEntity
  8
0
100
AcDbLine
 62
7
  6
BYLAYER
 10
187.5512950603
 20
206.8869689578
 11
188.8640125521
 21
206.1290883066
  0
LINE
  5
2B1
100
AcDbEntity
  8
0
100
AcDbLine
 62
7
  6
BYLAYER
 10
184.1449997674
 20
209.0119877381
 11
183.3629347989
 21
209.4635029435
  0
LINE
  5
2B2
100
AcDbEntity
  8
0
100
AcDbLine
 62
7
  6
BYLAYER
 10
184.2157101511
 20
209.0528121535
 11
183.4336451825
 21
209.504327359
  0
LINE
  5
2B3
100
AcDbEntity
  8
0
100
AcDbLine
 62
7
  6
BYLAYER
 10
188.8640125521
 20
206.46710742
 11
187.8736619509
 21
207.0388736715
  0
LINE
  5
2B4
100
AcDbEntity
  8
0
100
AcDbLine
 62
7
  6
BYLAYER
 10
187.9443723354
 20
207.079698087
 11
188.9347229363
 21
206.5079318361
  0
LINE
  5
2B5
100
AcDbEntity
  8
0
100
AcDbLine
 62
7
  6
BYLAYER
 10
183.4985794625
 20
209.9795752828
 11
184.0010429533
 21
209.6894844138
  0
LINE
  5
2B6
100
AcDbEntity
  8
0
100
AcDbLine
 62
7
  6
BYLAYER
 10
186.2147253094
 20
208.4299438579
 11
185.585531635
 21
208.7932007772
  0
LINE
  5
2B7
100
AcDbEntity
  8
0
100
AcDbLine
 62
7
  6
BYLAYER
 10
190.9657820378
 20
205.7270435555
 11
192.0151609564
 21
205.1211980604
  0
LINE
  5
2B8
100
AcDbEntity
  8
0
100
AcDbLine
 62
7
  6
BYLAYER
 10
185.656242019
 20
208.8340251925
 11
186.2854356932
 21
208.4707682732
  0
LINE
  5
2B9
100
AcDbEntity
  8
0
100
AcDbLine
 62
7
  6
BYLAYER
 10
191.7213444972
 20
205.5179836437
 11
190.9712030056
 21
205.9510682381
  0
LINE
  5
2BA
100
AcDbEntity
  8
0
100
AcDbLine
 62
7
  6
BYLAYER
 10
183.5679678518
 20
210.2867146647
 11
182.8858896249
 21
210.6805038039
  0
LINE
  5
2BB
100
AcDbEntity
  8
0
100
AcDbLine
 62
7
  6
BYLAYER
 10
191.6963602287
 20
205.6140561425
 11
191.0419133889
 21
205.9918926538
  0
LINE
  5
2BC
100
AcDbEntity
  8
0
100
AcDbLine
 62
7
  6
BYLAYER
 10
185.6814225342
 20
209.1120251623
 11
186.416987645
 21
208.6873560549
  0
LINE
  5
2BD
100
AcDbEntity
  8
0
100
AcDbLine
 62
7
  6
BYLAYER
 10
187.8736619511
 20
207.8527624926
 11
188.8013702564
 21
207.3171619698
  0
LINE
  5
2BE
100
AcDbEntity
  8
0
100
AcDbLine
 62
7
  6
BYLAYER
 10
182.9566000087
 20
210.7213282185
 11
183.5520049939
 21
210.3775787666
  0
LINE
  5
2BF
100
AcDbEntity
  8
0
100
AcDbLine
 62
7
  6
BYLAYER
 10
195.2803906176
 20
203.8436592743
 11
195.753099018
 21
203.5707471263
  0
LINE
  5
2C0
100
AcDbEntity
  8
0
100
AcDbLine
 62
7
  6
BYLAYER
 10
182.9850331032
 20
210.9982849682
 11
183.6790374602
 21
210.5976104303
  0
LINE
  5
2C1
100
AcDbEntity
  8
0
100
AcDbLine
 62
7
  6
BYLAYER
 10
188.8013702563
 20
207.6557374941
 11
187.8736619512
 21
208.191338017
  0
LINE
  5
2C2
100
AcDbEntity
  8
0
100
AcDbLine
 62
7
  6
BYLAYER
 10
186.559378402
 20
208.9608337061
 11
185.7552681638
 21
209.425076466
  0
LINE
  5
2C3
100
AcDbEntity
  8
0
100
AcDbLine
 62
7
  6
BYLAYER
 10
187.9443723354
 20
208.2321624328
 11
188.8720806404
 21
207.6965619101
  0
LINE
  5
2C4
100
AcDbEntity
  8
0
100
AcDbLine
 62
7
  6
BYLAYER
 10
185.8259785474
 20
209.4659008822
 11
186.6300887862
 21
209.001658122
  0
LINE
  5
2C5
100
AcDbEntity
  8
0
100
AcDbLine
 62
7
  6
BYLAYER
 10
198.7483644791
 20
202.1479117708
 11
198.4538252231
 21
202.3179602425
  0
LINE
  5
2C6
100
AcDbEntity
  8
0
100
AcDbLine
 62
7
  6
BYLAYER
 10
196.8795761468
 20
203.226832809
 11
196.5852778229
 21
203.3967421817
  0
LINE
  5
2C7
100
AcDbEntity
  8
0
100
AcDbLine
 62
7
  6
BYLAYER
 10
195.7530990182
 20
203.8771899694
 11
195.2803906175
 21
204.1501021177
  0
LINE
  5
2C8
100
AcDbEntity
  8
0
100
AcDbLine
 62
7
  6
BYLAYER
 10
195.3511010008
 20
204.1909265333
 11
195.8238094014
 21
203.9180143851
  0
LINE
  5
2C9
100
AcDbEntity
  8
0
100
AcDbLine
 62
7
  6
BYLAYER
 10
196.6559882062
 20
203.4375665973
 11
196.9502865302
 21
203.2676572246
  0
LINE
  5
2CA
100
AcDbEntity
  8
0
100
AcDbLine
 62
7
  6
BYLAYER
 10
198.5245356069
 20
202.3587846578
 11
198.819074863
 21
202.188736186
  0
LINE
  5
2CB
100
AcDbEntity
  8
0
100
AcDbLine
 62
7
  6
BYLAYER
 10
183.7187912249
 20
210.9292314159
 11
183.1335676239
 21
211.2671027758
  0
LINE
  5
2CC
100
AcDbEntity
  8
0
100
AcDbLine
 62
7
  6
BYLAYER
 10
185.8446539014
 20
209.7476565221
 11
186.6581604827
 21
209.2779889037
  0
LINE
  5
2CD
100
AcDbEntity
  8
0
100
AcDbLine
 62
7
  6
BYLAYER
 10
183.2042780078
 20
211.3079271911
 11
183.705599085
 21
211.01849588
  0
LINE
  5
2CE
100
AcDbEntity
  8
0
100
AcDbLine
 62
7
  6
BYLAYER
 10
183.3428169851
 20
211.521315717
 11
183.832631551
 21
211.2385275431
  0
LINE
  5
2CF
100
AcDbEntity
  8
0
100
AcDbLine
 62
7
  6
BYLAYER
 10
186.0584809678
 20
209.954991984
 11
185.5748101657
 21
210.2342331345
  0
LINE
  5
2D0
100
AcDbEntity
  8
0
100
AcDbLine
 62
7
  6
BYLAYER
 10
187.8736619515
 20
208.9803274886
 11
188.8352211893
 21
208.4251835624
  0
LINE
  5
2D1
100
AcDbEntity
  8
0
100
AcDbLine
 62
7
  6
BYLAYER
 10
186.0232410135
 20
210.0569854717
 11
185.6455205495
 21
210.2750575498
  0
LINE
  5
2D2
100
AcDbEntity
  8
0
100
AcDbLine
 62
7
  6
BYLAYER
 10
188.8352211894
 20
208.7629244719
 11
187.55129506
 21
209.504182799
  0
LINE
  5
2D3
100
AcDbEntity
  8
0
100
AcDbLine
 62
7
  6
BYLAYER
 10
189.9150779939
 20
208.1401784724
 11
189.6205387382
 21
208.310226944
  0
LINE
  5
2D4
100
AcDbEntity
  8
0
100
AcDbLine
 62
7
  6
BYLAYER
 10
187.6220054435
 20
209.5450072153
 11
188.9059315733
 21
208.8037488881
  0
LINE
  5
2D5
100
AcDbEntity
  8
0
100
AcDbLine
 62
7
  6
BYLAYER
 10
189.6912491212
 20
208.3510513598
 11
189.9857883774
 21
208.181002888
  0
LINE
  5
2D6
100
AcDbEntity
  8
0
100
AcDbLine
 62
7
  6
BYLAYER
 10
185.3601398375
 20
210.9048431903
 11
186.1608770282
 21
210.4425478162
  0
LINE
  5
2D7
100
AcDbEntity
  8
0
100
AcDbLine
 62
7
  6
BYLAYER
 10
191.7741085837
 20
207.5945067851
 11
192.6009868866
 21
207.1171191743
  0
LINE
  5
2D8
100
AcDbEntity
  8
0
100
AcDbLine
 62
7
  6
BYLAYER
 10
194.9020070592
 20
205.7896283304
 11
195.7290058274
 21
205.3121711705
  0
LINE
  5
2D9
100
AcDbEntity
  8
0
100
AcDbLine
 62
7
  6
BYLAYER
 10
200.0639731539
 20
202.8126325952
 11
199.2360106571
 21
203.2906461517
  0
LINE
  5
2DA
100
AcDbEntity
  8
0
100
AcDbLine
 62
7
  6
BYLAYER
 10
188.378173363
 20
209.5630353881
 11
187.5505722648
 21
210.0408402954
  0
LINE
  5
2DB
100
AcDbEntity
  8
0
100
AcDbLine
 62
7
  6
BYLAYER
 10
182.7055520923
 20
212.8390244329
 11
183.5331531907
 21
212.3612195254
  0
LINE
  5
2DC
100
AcDbEntity
  8
0
100
AcDbLine
 62
7
  6
BYLAYER
 10
317.4273998552
 20
135.6605639755
 11
310.3563026037
 21
139.7429715207
  0
LINE
  5
2DD
100
AcDbEntity
  8
0
100
AcDbLine
 62
7
  6
BYLAYER
 10
310.4270129875
 20
139.783795936
 11
317.4273998552
 21
135.7422121264
  0
LINE
  5
2DE
100
AcDbEntity
  8
0
100
AcDbLine
 62
7
  6
BYLAYER
 10
189.5629560122
 20
210.2299799177
 11
191.4540305454
 21
209.1381922264
  0
LINE
  5
2DF
100
AcDbEntity
  8
0
100
AcDbLine
 62
7
  6
BYLAYER
 10
196.9357132803
 20
205.9734128207
 11
198.8260650184
 21
204.882042426
  0
LINE
  5
2E0
100
AcDbEntity
  8
0
100
AcDbLine
 62
7
  6
BYLAYER
 10
198.0972460011
 20
205.8069242812
 11
196.9529399112
 21
206.4675747643
  0
LINE
  5
2E1
100
AcDbEntity
  8
0
100
AcDbLine
 62
7
  6
BYLAYER
 10
190.7235250064
 20
210.0640477735
 11
189.5806645088
 21
210.7238636623
  0
LINE
  5
2E2
100
AcDbEntity
  8
0
100
AcDbLine
 62
7
  6
BYLAYER
 10
198.0785534183
 20
205.8993643557
 11
197.0236502957
 21
206.5083991793
  0
LINE
  5
2E3
100
AcDbEntity
  8
0
100
AcDbLine
 62
7
  6
BYLAYER
 10
190.7049534677
 20
210.1564179647
 11
189.6513748921
 21
210.764688078
  0
LINE
  5
2E4
100
AcDbEntity
  8
0
100
AcDbLine
 62
7
  6
BYLAYER
 10
310.3563026037
 20
141.3759763549
 11
317.4273998552
 21
137.2935688097
  0
LINE
  5
2E5
100
AcDbEntity
  8
0
100
AcDbLine
 62
7
  6
BYLAYER
 10
192.6009868866
 20
210.1609604318
 11
191.7741085837
 21
210.6383480427
  0
LINE
  5
2E6
100
AcDbEntity
  8
0
100
AcDbLine
 62
7
  6
BYLAYER
 10
186.5604625956
 20
213.6483798628
 11
185.7329819623
 21
214.1261152216
  0
LINE
  5
2E7
100
AcDbEntity
  8
0
100
AcDbLine
 62
7
  6
BYLAYER
 10
200.0639731537
 20
205.8555001358
 11
199.2360106572
 21
206.333513692
  0
LINE
  5
2E8
100
AcDbEntity
  8
0
100
AcDbLine
 62
7
  6
BYLAYER
 10
185.8036923457
 20
214.1669396371
 11
186.6311729783
 21
213.6892042789
  0
LINE
  5
2E9
100
AcDbEntity
  8
0
100
AcDbLine
 62
7
  6
BYLAYER
 10
191.8448189669
 20
210.67917246
 11
192.6716972697
 21
210.2017848492
  0
LINE
  5
2EA
100
AcDbEntity
  8
0
100
AcDbLine
 62
7
  6
BYLAYER
 10
199.3067210409
 20
206.3743381074
 11
200.1346835377
 21
205.8963245511
  0
LINE
  5
2EB
100
AcDbEntity
  8
0
100
AcDbLine
 62
7
  6
BYLAYER
 10
195.7290058274
 20
209.8074080806
 11
194.9020070592
 21
210.2848652406
  0
LINE
  5
2EC
100
AcDbEntity
  8
0
100
AcDbLine
 62
7
  6
BYLAYER
 10
183.5331531908
 20
216.8485275936
 11
182.7055520926
 21
217.3263325011
  0
LINE
  5
2ED
100
AcDbEntity
  8
0
100
AcDbLine
 62
7
  6
BYLAYER
 10
182.7762624762
 20
217.3671569165
 11
183.6038635742
 21
216.8893520092
  0
LINE
  5
2EE
100
AcDbEntity
  8
0
100
AcDbLine
 62
7
  6
BYLAYER
 10
194.9727174423
 20
210.325689658
 11
195.7997162105
 21
209.848232498
  0
LINE
  5
2EF
100
AcDbEntity
  8
0
100
AcDbLine
 62
7
  6
BYLAYER
 10
194.699659689
 20
204.1824998854
 11
194.9869355558
 21
204.0130818005
  0
LINE
  5
2F0
100
AcDbEntity
  8
0
100
AcDbLine
 62
7
  6
BYLAYER
 10
195.3226089153
 20
202.3848431898
 11
195.4771986317
 21
202.2762123971
  0
LINE
  5
2F1
100
AcDbEntity
  8
0
100
AcDbLine
 62
7
  6
BYLAYER
 10
85.4778053289
 20
473.8013707403
 11
84.8795242054
 21
476.7063244208
  0
LINE
  5
2F2
100
AcDbEntity
  8
0
100
AcDbLine
 62
7
  6
BYLAYER
 10
84.9502345884
 20
476.7471488383
 11
85.5224213656
 21
473.9688962448
  0
LINE
  5
2F3
100
AcDbEntity
  8
0
100
AcDbLine
 62
7
  6
BYLAYER
 10
84.2580410536
 20
476.7101425674
 11
84.9184704855
 21
473.3234215212
  0
LINE
  5
2F4
100
AcDbEntity
  8
0
100
AcDbLine
 62
7
  6
BYLAYER
 10
191.4358552648
 20
208.7811668468
 11
191.4783615382
 21
208.7900157693
  0
LINE
  5
2F5
100
AcDbEntity
  8
0
100
AcDbLine
 62
7
  6
BYLAYER
 10
198.8079237364
 20
204.5238219538
 11
198.8519620674
 21
204.5329618258
  0
LINE
  5
2F6
100
AcDbEntity
  8
0
100
AcDbLine
 62
7
  6
BYLAYER
 10
208.3204417417
 20
205.5923473717
 11
170.1365165837
 21
227.6373481158
  0
LINE
  5
2F7
100
AcDbEntity
  8
0
100
AcDbLine
 62
7
  6
BYLAYER
 10
170.3485459113
 20
227.7598801485
 11
208.5326690318
 21
205.7147651133
  0
LINE
  5
2F8
100
AcDbEntity
  8
0
100
AcDbLine
 62
7
  6
BYLAYER
 10
80.7578455591
 20
280.3412524978
 11
298.1233750685
 21
154.8480445587
  0
LINE
  5
2F9
100
AcDbEntity
  8
0
100
AcDbLine
 62
7
  6
BYLAYER
 10
298.1233750685
 20
154.9296927093
 11
80.8285559425
 21
280.382076913
  0
LINE
  5
2FA
100
AcDbEntity
  8
0
100
AcDbLine
 62
7
  6
BYLAYER
 10
306.3048531413
 20
150.2062858158
 11
317.2043318664
 21
143.9136111991
  0
LINE
  5
2FB
100
AcDbEntity
  8
0
100
AcDbLine
 62
7
  6
BYLAYER
 10
178.4389312823
 20
218.198817116
 11
178.8311682237
 21
217.8126330693
  0
LINE
  5
2FC
100
AcDbEntity
  8
0
100
AcDbLine
 62
7
  6
BYLAYER
 10
195.2020074357
 20
202.5071662944
 11
195.3226089153
 21
202.3848431898
  0
LWPOLYLINE
  5
2FD
100
AcDbEntity
  8
0
100
AcDbPolyline
 62
7
  6
BYLAYER
 90
4
 70
0
 10
178.8311682237
 20
217.8126330693
 10
179.2811760593
 20
217.3013846741
 10
179.7183949052
 20
216.5120744994
 10
179.7971096387
 20
215.5791958608
  0
LINE
  5
2FE
100
AcDbEntity
  8
0
100
AcDbLine
 62
7
  6
BYLAYER
 10
195.1080490137
 20
202.6441844225
 11
195.2020074357
 21
202.5071662944
  0
LINE
  5
2FF
100
AcDbEntity
  8
0
100
AcDbLine
 62
7
  6
BYLAYER
 10
156.418120414
 20
469.9736725176
 11
156.418120414
 21
480.1799527317
  0
LINE
  5
300
100
AcDbEntity
  8
0
100
AcDbLine
 62
7
  6
BYLAYER
 10
316.6973142275
 20
179.0709845586
 11
306.8170125411
 21
184.7752503493
  0
LINE
  5
301
100
AcDbEntity
  8
0
100
AcDbLine
 62
7
  6
BYLAYER
 10
308.9383240521
 20
185.9999828107
 11
318.8186257391
 21
180.2957170197
  0
LINE
  5
302
100
AcDbEntity
  8
0
100
AcDbLine
 62
7
  6
BYLAYER
 10
195.0172647418
 20
202.8681066162
 11
195.1080490137
 21
202.6441844225
  0
LINE
  5
303
100
AcDbEntity
  8
0
100
AcDbLine
 62
7
  6
BYLAYER
 10
164.0453430036
 20
464.1971991123
 11
164.0453430036
 21
463.7218856403
  0
LINE
  5
304
100
AcDbEntity
  8
0
100
AcDbLine
 62
7
  6
BYLAYER
 10
166.6453430036
 20
464.1971991123
 11
166.6453430036
 21
462.2208088993
  0
LINE
  5
305
100
AcDbEntity
  8
0
100
AcDbLine
 62
7
  6
BYLAYER
 10
167.3080776831
 20
226.0043014653
 11
167.3080776831
 21
208.8577507056
  0
LINE
  5
306
100
AcDbEntity
  8
0
100
AcDbLine
 62
7
  6
BYLAYER
 10
232.7153186367
 20
424.291665358
 11
232.846650528
 21
424.4753734357
  0
LINE
  5
307
100
AcDbEntity
  8
0
100
AcDbLine
 62
7
  6
BYLAYER
 10
53.6629915177
 20
276.0571628085
 11
53.3573442981
 21
275.8806983573
  0
LINE
  5
308
100
AcDbEntity
  8
0
100
AcDbLine
 62
7
  6
BYLAYER
 10
176.8524728244
 20
216.5883766713
 11
176.8524728243
 21
217.556251978
  0
LINE
  5
309
100
AcDbEntity
  8
0
100
AcDbLine
 62
7
  6
BYLAYER
 10
179.5810266641
 20
217.9605242313
 11
179.5810266642
 21
218.8368700823
  0
LINE
  5
30A
100
AcDbEntity
  8
0
100
AcDbLine
 62
7
  6
BYLAYER
 10
179.6517370482
 20
218.8776944967
 11
179.6517370482
 21
218.0013486463
  0
LINE
  5
30B
100
AcDbEntity
  8
0
100
AcDbLine
 62
7
  6
BYLAYER
 10
182.3235545547
 20
215.2426407129
 11
182.3235545547
 21
215.9544282881
  0
LINE
  5
30C
100
AcDbEntity
  8
0
100
AcDbLine
 62
7
  6
BYLAYER
 10
182.3637901831
 20
213.1769689424
 11
182.363790183
 21
213.8649699887
  0
LINE
  5
30D
100
AcDbEntity
  8
0
100
AcDbLine
 62
7
  6
BYLAYER
 10
182.3942649381
 20
215.9952527028
 11
182.3942649381
 21
215.2834651277
  0
LINE
  5
30E
100
AcDbEntity
  8
0
100
AcDbLine
 62
7
  6
BYLAYER
 10
182.4345005669
 20
213.9057944031
 11
182.4345005669
 21
213.2177933568
  0
LINE
  5
30F
100
AcDbEntity
  8
0
100
AcDbLine
 62
7
  6
BYLAYER
 10
182.7055520926
 20
212.8390244331
 11
182.7055520929
 21
217.3263325012
  0
LINE
  5
310
100
AcDbEntity
  8
0
100
AcDbLine
 62
7
  6
BYLAYER
 10
183.5331531907
 20
212.3612195254
 11
183.5331531907
 21
214.2895977067
  0
LINE
  5
311
100
AcDbEntity
  8
0
100
AcDbLine
 62
7
  6
BYLAYER
 10
183.5331531907
 20
214.9317821304
 11
183.5331531908
 21
216.8485275936
  0
LINE
  5
312
100
AcDbEntity
  8
0
100
AcDbLine
 62
7
  6
BYLAYER
 10
183.6038635742
 20
216.8893520092
 11
183.6038635742
 21
215.0298858358
  0
LINE
  5
313
100
AcDbEntity
  8
0
100
AcDbLine
 62
7
  6
BYLAYER
 10
183.6038635742
 20
214.3304221221
 11
183.6038635742
 21
212.4020439401
  0
LINE
  5
314
100
AcDbEntity
  8
0
100
AcDbLine
 62
7
  6
BYLAYER
 10
184.5145893119
 20
212.4493554791
 11
184.5145893118
 21
213.5187756234
  0
LINE
  5
315
100
AcDbEntity
  8
0
100
AcDbLine
 62
7
  6
BYLAYER
 10
185.3421904101
 20
212.275211363
 11
185.3421904104
 21
213.2451732092
  0
LINE
  5
316
100
AcDbEntity
  8
0
100
AcDbLine
 62
7
  6
BYLAYER
 10
185.4129007942
 20
213.2859976242
 11
185.4129007942
 21
212.3160357782
  0
LINE
  5
317
100
AcDbEntity
  8
0
100
AcDbLine
 62
7
  6
BYLAYER
 10
185.7329819623
 20
214.1261152216
 11
185.7329819623
 21
212.0575217029
  0
LINE
  5
318
100
AcDbEntity
  8
0
100
AcDbLine
 62
7
  6
BYLAYER
 10
186.560462595
 20
211.1442563679
 11
186.5604625953
 21
212.5657449799
  0
LINE
  5
319
100
AcDbEntity
  8
0
100
AcDbLine
 62
7
  6
BYLAYER
 10
186.5604625955
 20
213.2128498854
 11
186.5604625956
 21
213.6483798628
  0
LINE
  5
31A
100
AcDbEntity
  8
0
100
AcDbLine
 62
7
  6
BYLAYER
 10
186.6311729783
 20
213.6892042789
 11
186.6311729783
 21
213.2536743005
  0
LINE
  5
31B
100
AcDbEntity
  8
0
100
AcDbLine
 62
7
  6
BYLAYER
 10
186.6311729796
 20
212.6065693951
 11
186.6311729796
 21
211.1850807813
  0
LINE
  5
31C
100
AcDbEntity
  8
0
100
AcDbLine
 62
7
  6
BYLAYER
 10
187.5505722643
 20
211.8888172232
 11
187.5505722643
 21
210.0408402954
  0
LINE
  5
31D
100
AcDbEntity
  8
0
100
AcDbLine
 62
7
  6
BYLAYER
 10
187.55129506
 20
209.504182799
 11
187.5512950603
 21
206.8869689578
  0
LINE
  5
31E
100
AcDbEntity
  8
0
100
AcDbLine
 62
7
  6
BYLAYER
 10
187.8736619509
 20
207.0388736715
 11
187.8736619511
 21
207.8527624926
  0
LINE
  5
31F
100
AcDbEntity
  8
0
100
AcDbLine
 62
7
  6
BYLAYER
 10
187.8736619512
 20
208.191338017
 11
187.8736619515
 21
208.9803274886
  0
LINE
  5
320
100
AcDbEntity
  8
0
100
AcDbLine
 62
7
  6
BYLAYER
 10
187.9443723354
 20
208.939503753
 11
187.9443723354
 21
208.2321624328
  0
LINE
  5
321
100
AcDbEntity
  8
0
100
AcDbLine
 62
7
  6
BYLAYER
 10
187.9443723354
 20
207.8119387568
 11
187.9443723354
 21
207.079698087
  0
LINE
  5
322
100
AcDbEntity
  8
0
100
AcDbLine
 62
7
  6
BYLAYER
 10
188.3781733627
 20
209.563035388
 11
188.3781733625
 21
211.4900225444
  0
LINE
  5
323
100
AcDbEntity
  8
0
100
AcDbLine
 62
7
  6
BYLAYER
 10
188.4488837463
 20
211.5308469608
 11
188.4488837463
 21
209.6038598033
  0
LINE
  5
324
100
AcDbEntity
  8
0
100
AcDbLine
 62
7
  6
BYLAYER
 10
188.8013702564
 20
207.3171619698
 11
188.8013702563
 21
207.6557374941
  0
LINE
  5
325
100
AcDbEntity
  8
0
100
AcDbLine
 62
7
  6
BYLAYER
 10
188.8352211893
 20
208.4251835624
 11
188.8352211894
 21
208.7629244719
  0
LINE
  5
326
100
AcDbEntity
  8
0
100
AcDbLine
 62
7
  6
BYLAYER
 10
188.8640125521
 20
206.1290883066
 11
188.8640125521
 21
206.46710742
  0
LINE
  5
327
100
AcDbEntity
  8
0
100
AcDbLine
 62
7
  6
BYLAYER
 10
188.8720806404
 20
207.6965619101
 11
188.8720806404
 21
207.3579863858
  0
LINE
  5
328
100
AcDbEntity
  8
0
100
AcDbLine
 62
7
  6
BYLAYER
 10
188.9059315733
 20
208.8037488881
 11
188.9059315733
 21
208.4660079779
  0
LINE
  5
329
100
AcDbEntity
  8
0
100
AcDbLine
 62
7
  6
BYLAYER
 10
188.9347229363
 20
206.5079318361
 11
188.9347229363
 21
206.1699127223
  0
LINE
  5
32A
100
AcDbEntity
  8
0
100
AcDbLine
 62
7
  6
BYLAYER
 10
189.6205387382
 20
208.310226944
 11
189.6205387378
 21
205.6906483591
  0
LINE
  5
32B
100
AcDbEntity
  8
0
100
AcDbLine
 62
7
  6
BYLAYER
 10
189.9150779939
 20
205.5205998873
 11
189.9150779939
 21
208.1401784724
  0
LINE
  5
32C
100
AcDbEntity
  8
0
100
AcDbLine
 62
7
  6
BYLAYER
 10
189.9857883774
 20
208.181002888
 11
189.9857883774
 21
205.5614243028
  0
LINE
  5
32D
100
AcDbEntity
  8
0
100
AcDbLine
 62
7
  6
BYLAYER
 10
191.4076511542
 20
208.154945405
 11
191.4076511542
 21
208.7491913538
  0
LINE
  5
32E
100
AcDbEntity
  8
0
100
AcDbLine
 62
7
  6
BYLAYER
 10
191.4783615384
 20
208.7900157689
 11
191.4783615384
 21
208.1957698201
  0
LINE
  5
32F
100
AcDbEntity
  8
0
100
AcDbLine
 62
7
  6
BYLAYER
 10
191.7741085837
 20
210.6383480427
 11
191.7741085837
 21
207.5945067851
  0
LINE
  5
330
100
AcDbEntity
  8
0
100
AcDbLine
 62
7
  6
BYLAYER
 10
191.9892607764
 20
204.4943321889
 11
191.9892607764
 21
204.8255352794
  0
LINE
  5
331
100
AcDbEntity
  8
0
100
AcDbLine
 62
7
  6
BYLAYER
 10
192.0599711608
 20
204.8663596936
 11
192.0599711608
 21
204.535156604
  0
LINE
  5
332
100
AcDbEntity
  8
0
100
AcDbLine
 62
7
  6
BYLAYER
 10
54.4268422639
 20
274.0282838252
 11
54.732491165
 21
274.2047492472
  0
LINE
  5
333
100
AcDbEntity
  8
0
100
AcDbLine
 62
7
  6
BYLAYER
 10
80.7578455588
 20
280.3412524968
 11
80.8285559425
 21
280.3820769122
  0
LINE
  5
334
100
AcDbEntity
  8
0
100
AcDbLine
 62
7
  6
BYLAYER
 10
194.9869355557
 20
203.1015430123
 11
195.0172647418
 21
202.8681066162
  0
LINE
  5
335
100
AcDbEntity
  8
0
100
AcDbLine
 62
7
  6
BYLAYER
 10
192.6009868866
 20
207.1171191743
 11
192.6009868866
 21
210.1609604318
  0
LINE
  5
336
100
AcDbEntity
  8
0
100
AcDbLine
 62
7
  6
BYLAYER
 10
192.6716972697
 20
210.2017848492
 11
192.6716972697
 21
207.1579435908
  0
LINE
  5
337
100
AcDbEntity
  8
0
100
AcDbLine
 62
7
  6
BYLAYER
 10
193.938520365
 20
204.4716177456
 11
193.938520365
 21
204.8389874906
  0
LINE
  5
338
100
AcDbEntity
  8
0
100
AcDbLine
 62
7
  6
BYLAYER
 10
193.9714075702
 20
203.2456382047
 11
193.9714075702
 21
203.5810143722
  0
LINE
  5
339
100
AcDbEntity
  8
0
100
AcDbLine
 62
7
  6
BYLAYER
 10
194.0092307486
 20
204.8798119069
 11
194.0092307486
 21
204.5124421611
  0
LINE
  5
33A
100
AcDbEntity
  8
0
100
AcDbLine
 62
7
  6
BYLAYER
 10
194.0421179542
 20
203.6218387874
 11
194.0421179542
 21
203.2864626209
  0
LINE
  5
33B
100
AcDbEntity
  8
0
100
AcDbLine
 62
7
  6
BYLAYER
 10
194.9020070592
 20
210.2848652406
 11
194.9020070592
 21
208.6988183528
  0
LINE
  5
33C
100
AcDbEntity
  8
0
100
AcDbLine
 62
7
  6
BYLAYER
 10
194.9020070598
 20
208.0736916437
 11
194.9020070598
 21
206.6206267613
  0
LINE
  5
33D
100
AcDbEntity
  8
0
100
AcDbLine
 62
7
  6
BYLAYER
 10
194.9020070592
 20
206.0345878607
 11
194.9020070592
 21
205.7896283304
  0
LINE
  5
33E
100
AcDbEntity
  8
0
100
AcDbLine
 62
7
  6
BYLAYER
 10
194.9869355558
 20
204.0130818005
 11
194.9869355557
 21
203.1015430123
  0
LINE
  5
33F
100
AcDbEntity
  8
0
100
AcDbLine
 62
7
  6
BYLAYER
 10
195.2803906179
 20
202.9577153494
 11
195.2803906176
 21
203.8436592743
  0
LINE
  5
340
100
AcDbEntity
  8
0
100
AcDbLine
 62
7
  6
BYLAYER
 10
195.2803906175
 20
204.1501021177
 11
195.2803906173
 21
204.5067609689
  0
LINE
  5
341
100
AcDbEntity
  8
0
100
AcDbLine
 62
7
  6
BYLAYER
 10
195.3511010008
 20
204.5475853843
 11
195.3511010008
 21
204.1909265333
  0
LINE
  5
342
100
AcDbEntity
  8
0
100
AcDbLine
 62
7
  6
BYLAYER
 10
195.3511010008
 20
203.8028355391
 11
195.3511010008
 21
202.9985397731
  0
LINE
  5
343
100
AcDbEntity
  8
0
100
AcDbLine
 62
7
  6
BYLAYER
 10
195.7290058274
 20
205.3121711705
 11
195.7290058274
 21
209.8074080806
  0
LINE
  5
344
100
AcDbEntity
  8
0
100
AcDbLine
 62
7
  6
BYLAYER
 10
195.753099018
 20
203.5707471263
 11
195.7530990182
 21
203.8771899694
  0
LINE
  5
345
100
AcDbEntity
  8
0
100
AcDbLine
 62
7
  6
BYLAYER
 10
195.7997162105
 20
209.848232498
 11
195.7997162105
 21
205.3529955862
  0
LINE
  5
346
100
AcDbEntity
  8
0
100
AcDbLine
 62
7
  6
BYLAYER
 10
195.8238094014
 20
203.9180143851
 11
195.8238094014
 21
203.611571541
  0
LINE
  5
347
100
AcDbEntity
  8
0
100
AcDbLine
 62
7
  6
BYLAYER
 10
195.8291130345
 20
202.1885560988
 11
195.8291130346
 21
202.507657271
  0
LINE
  5
348
100
AcDbEntity
  8
0
100
AcDbLine
 62
7
  6
BYLAYER
 10
195.8998234189
 20
202.5484816869
 11
195.8998234189
 21
202.229380513
  0
LINE
  5
349
100
AcDbEntity
  8
0
100
AcDbLine
 62
7
  6
BYLAYER
 10
196.5852778229
 20
201.669645341
 11
196.5852778232
 21
203.3967421818
  0
LINE
  5
34A
100
AcDbEntity
  8
0
100
AcDbLine
 62
7
  6
BYLAYER
 10
196.8795761459
 20
201.4997359686
 11
196.8795761463
 21
202.4002856582
  0
LINE
  5
34B
100
AcDbEntity
  8
0
100
AcDbLine
 62
7
  6
BYLAYER
 10
196.8795761465
 20
202.8177688831
 11
196.8795761468
 21
203.226832809
  0
LINE
  5
34C
100
AcDbEntity
  8
0
100
AcDbLine
 62
7
  6
BYLAYER
 10
196.9502865302
 20
203.2676572246
 11
196.9502865302
 21
203.0075256235
  0
LINE
  5
34D
100
AcDbEntity
  8
0
100
AcDbLine
 62
7
  6
BYLAYER
 10
196.9502865302
 20
202.4411100747
 11
196.9502865302
 21
201.5405603836
  0
LINE
  5
34E
100
AcDbEntity
  8
0
100
AcDbLine
 62
7
  6
BYLAYER
 10
198.4538252231
 20
202.3179602425
 11
198.4538252231
 21
200.5908634015
  0
LINE
  5
34F
100
AcDbEntity
  8
0
100
AcDbLine
 62
7
  6
BYLAYER
 10
198.7483644786
 20
200.4208149301
 11
198.7483644791
 21
202.1479117708
  0
LINE
  5
350
100
AcDbEntity
  8
0
100
AcDbLine
 62
7
  6
BYLAYER
 10
198.7812516839
 20
203.8978914617
 11
198.7812516839
 21
204.4921374105
  0
LINE
  5
351
100
AcDbEntity
  8
0
100
AcDbLine
 62
7
  6
BYLAYER
 10
198.819074863
 20
202.188736186
 11
198.819074863
 21
200.461639345
  0
LINE
  5
352
100
AcDbEntity
  8
0
100
AcDbLine
 62
7
  6
BYLAYER
 10
198.8519620673
 20
204.5329618261
 11
198.8519620673
 21
203.9387158773
  0
LINE
  5
353
100
AcDbEntity
  8
0
100
AcDbLine
 62
7
  6
BYLAYER
 10
199.2360106572
 20
203.2906461515
 11
199.2360106575
 21
206.3335136921
  0
LINE
  5
354
100
AcDbEntity
  8
0
100
AcDbLine
 62
7
  6
BYLAYER
 10
200.0639731528
 20
202.8126325954
 11
200.0639731532
 21
204.1256212452
  0
LINE
  5
355
100
AcDbEntity
  8
0
100
AcDbLine
 62
7
  6
BYLAYER
 10
200.0639731535
 20
204.9535223335
 11
200.0639731537
 21
205.8555001358
  0
LINE
  5
356
100
AcDbEntity
  8
0
100
AcDbLine
 62
7
  6
BYLAYER
 10
200.1346835377
 20
205.8963245511
 11
200.1346835377
 21
205.0434503264
  0
LINE
  5
357
100
AcDbEntity
  8
0
100
AcDbLine
 62
7
  6
BYLAYER
 10
200.1346835377
 20
204.1664456618
 11
200.1346835377
 21
202.8534570094
  0
LINE
  5
358
100
AcDbEntity
  8
0
100
AcDbLine
 62
7
  6
BYLAYER
 10
200.691239372
 20
200.5730218073
 11
200.691239372
 21
200.9403915521
  0
LINE
  5
359
100
AcDbEntity
  8
0
100
AcDbLine
 62
7
  6
BYLAYER
 10
200.7248493729
 20
199.3466249703
 11
200.7248493728
 21
199.682001137
  0
LINE
  5
35A
100
AcDbEntity
  8
0
100
AcDbLine
 62
7
  6
BYLAYER
 10
200.7619497562
 20
200.9812159681
 11
200.7619497562
 21
200.6138462223
  0
LINE
  5
35B
100
AcDbEntity
  8
0
100
AcDbLine
 62
7
  6
BYLAYER
 10
200.795559757
 20
199.7228255521
 11
200.795559757
 21
199.3874493855
  0
LINE
  5
35C
100
AcDbEntity
  8
0
100
AcDbLine
 62
7
  6
BYLAYER
 10
186.1608770282
 20
210.4425478162
 11
186.0584809678
 21
209.954991984
  0
LINE
  5
35D
100
AcDbEntity
  8
0
100
AcDbLine
 62
7
  6
BYLAYER
 10
184.1564440333
 20
209.7349732352
 11
184.3649705976
 21
210.6251628697
  0
LINE
  5
35E
100
AcDbEntity
  8
0
100
AcDbLine
 62
7
  6
BYLAYER
 10
184.4356809814
 20
210.6659872852
 11
184.2271544162
 21
209.7757976466
  0
LINE
  5
35F
100
AcDbEntity
  8
0
100
AcDbLine
 62
7
  6
BYLAYER
 10
211.1488806423
 20
183.5468239254
 11
211.1488806423
 21
200.6933746851
  0
LINE
  5
360
100
AcDbEntity
  8
0
100
AcDbLine
 62
7
  6
BYLAYER
 10
211.3610117937
 20
200.8159655093
 11
211.3610117937
 21
183.6692971714
  0
LINE
  5
361
100
AcDbEntity
  8
0
100
AcDbLine
 62
7
  6
BYLAYER
 10
183.3629347989
 20
209.4635029435
 11
183.4985794625
 21
209.9795752828
  0
LINE
  5
362
100
AcDbEntity
  8
0
100
AcDbLine
 62
7
  6
BYLAYER
 10
183.5546835825
 20
209.9648288531
 11
183.4336451825
 21
209.504327359
  0
LINE
  5
363
100
AcDbEntity
  8
0
100
AcDbLine
 62
7
  6
BYLAYER
 10
185.4650656821
 20
210.2171914528
 11
185.2008838472
 21
209.2130760348
  0
LINE
  5
364
100
AcDbEntity
  8
0
100
AcDbLine
 62
7
  6
BYLAYER
 10
185.7552681638
 20
209.425076466
 11
185.8446539014
 21
209.7476565221
  0
LINE
  5
365
100
AcDbEntity
  8
0
100
AcDbLine
 62
7
  6
BYLAYER
 10
185.8998164784
 20
209.7323711764
 11
185.8259785474
 21
209.4659008822
  0
LINE
  5
366
100
AcDbEntity
  8
0
100
AcDbLine
 62
7
  6
BYLAYER
 10
185.585531635
 20
208.7932007772
 11
185.6814225342
 21
209.1120251623
  0
LINE
  5
367
100
AcDbEntity
  8
0
100
AcDbLine
 62
7
  6
BYLAYER
 10
185.7230153791
 20
209.0560376645
 11
185.656242019
 21
208.8340251925
  0
LINE
  5
368
100
AcDbEntity
  8
0
100
AcDbLine
 62
7
  6
BYLAYER
 10
183.6790374602
 20
210.5976104303
 11
183.5679678518
 21
210.2867146647
  0
LINE
  5
369
100
AcDbEntity
  8
0
100
AcDbLine
 62
7
  6
BYLAYER
 10
183.832631551
 20
211.2385275431
 11
183.7187912249
 21
210.9292314159
  0
LINE
  5
36A
100
AcDbEntity
  8
0
100
AcDbLine
 62
7
  6
BYLAYER
 10
334.3269272611
 20
377.4665788937
 11
323.88719884
 21
371.4392348578
  0
LINE
  5
36B
100
AcDbEntity
  8
0
100
AcDbLine
 62
7
  6
BYLAYER
 10
324.7357305094
 20
370.9493459528
 11
360.6311970708
 21
391.6734795284
  0
LINE
  5
36C
100
AcDbEntity
  8
0
100
AcDbLine
 62
7
  6
BYLAYER
 10
365.2980823965
 20
394.3678909439
 11
370.5357775105
 21
397.3918575773
  0
LINE
  5
36D
100
AcDbEntity
  8
0
100
AcDbLine
 62
7
  6
BYLAYER
 10
325.3014182896
 20
370.6227533492
 11
361.1968848505
 21
391.3468869244
  0
LINE
  5
36E
100
AcDbEntity
  8
0
100
AcDbLine
 62
7
  6
BYLAYER
 10
365.8637701771
 20
394.0412983406
 11
370.3892347316
 21
396.6540609232
  0
LINE
  5
36F
100
AcDbEntity
  8
0
100
AcDbLine
 62
7
  6
BYLAYER
 10
365.4395090518
 20
393.6330548663
 11
361.9039898658
 21
391.5918340969
  0
LINE
  5
370
100
AcDbEntity
  8
0
100
AcDbLine
 62
7
  6
BYLAYER
 10
362.4696776453
 20
391.265241493
 11
366.0051968325
 21
393.306462263
  0
LINE
  5
371
100
AcDbEntity
  8
0
100
AcDbLine
 62
7
  6
BYLAYER
 10
232.8471192604
 20
424.4753736975
 11
232.8471192604
 21
424.0000602254
  0
LINE
  5
372
100
AcDbEntity
  8
0
100
AcDbLine
 62
7
  6
BYLAYER
 10
235.4471192604
 20
424.4753736975
 11
235.4471192604
 21
422.4989834844
  0
LINE
  5
373
100
AcDbEntity
  8
0
100
AcDbLine
 62
7
  6
BYLAYER
 10
201.2353840822
 20
204.1135366449
 11
201.4630647341
 21
204.825883996
  0
LINE
  5
374
100
AcDbEntity
  8
0
100
AcDbLine
 62
7
  6
BYLAYER
 10
201.5337751172
 20
204.8667084126
 11
201.3060944662
 21
204.1543610601
  0
LINE
  5
375
100
AcDbEntity
  8
0
100
AcDbLine
 62
7
  6
BYLAYER
 10
190.9712030056
 20
205.9510682381
 11
191.094191057
 21
206.1861782046
  0
LINE
  5
376
100
AcDbEntity
  8
0
100
AcDbLine
 62
7
  6
BYLAYER
 10
340.2563437689
 20
361.9887184265
 11
336.7233677789
 21
359.9460293749
  0
LINE
  5
377
100
AcDbEntity
  8
0
100
AcDbLine
 62
7
  6
BYLAYER
 10
374.1369115572
 20
395.1435728571
 11
374.2783323336
 21
395.2252216839
  0
LINE
  5
378
100
AcDbEntity
  8
0
100
AcDbLine
 62
7
  6
BYLAYER
 10
334.1404425944
 20
365.519655735
 11
361.1968848505
 21
381.1406067103
  0
LINE
  5
379
100
AcDbEntity
  8
0
100
AcDbLine
 62
7
  6
BYLAYER
 10
366.2395090518
 20
384.051949772
 11
370.3892347342
 21
386.4477807106
  0
LINE
  5
37A
100
AcDbEntity
  8
0
100
AcDbLine
 62
7
  6
BYLAYER
 10
362.4696776459
 20
381.0589612792
 11
366.005196832
 21
383.1001820485
  0
LINE
  5
37B
100
AcDbEntity
  8
0
100
AcDbLine
 62
7
  6
BYLAYER
 10
374.136911567
 20
384.9372926391
 11
374.2783323339
 21
385.0189414696
  0
LINE
  5
37C
100
AcDbEntity
  8
0
100
AcDbLine
 62
7
  6
BYLAYER
 10
323.986535821
 20
350.1248289183
 11
323.9158218159
 21
350.0840024121
  0
LINE
  5
37D
100
AcDbEntity
  8
0
100
AcDbLine
 62
7
  6
BYLAYER
 10
336.2583915183
 20
359.8438117072
 11
328.3907746647
 21
355.7469757754
  0
LINE
  5
37E
100
AcDbEntity
  8
0
100
AcDbLine
 62
7
  6
BYLAYER
 10
332.4535115982
 20
350.7274591722
 11
327.2794969667
 21
348.3729451502
  0
LINE
  5
37F
100
AcDbEntity
  8
0
100
AcDbLine
 62
7
  6
BYLAYER
 10
185.2008838472
 20
209.2130760348
 11
185.0001317761
 21
208.9084148339
  0
LINE
  5
380
100
AcDbEntity
  8
0
100
AcDbLine
 62
7
  6
BYLAYER
 10
313.3258273034
 20
377.7522193427
 11
313.4571591947
 21
377.9359274204
  0
LINE
  5
381
100
AcDbEntity
  8
0
100
AcDbLine
 62
7
  6
BYLAYER
 10
330.1378121298
 20
354.7383460434
 11
325.5117226538
 21
351.4348030795
  0
LINE
  5
382
100
AcDbEntity
  8
0
100
AcDbLine
 62
7
  6
BYLAYER
 10
339.9353620889
 20
353.4751472147
 11
332.4535115988
 21
348.7100226042
  0
LINE
  5
383
100
AcDbEntity
  8
0
100
AcDbLine
 62
7
  6
BYLAYER
 10
325.3117440016
 20
347.6662076848
 11
325.3824555622
 21
347.7070327796
  0
LINE
  5
384
100
AcDbEntity
  8
0
100
AcDbLine
 62
7
  6
BYLAYER
 10
398.2493520178
 20
381.3858601047
 11
343.7918923942
 21
349.9450188081
  0
LINE
  5
385
100
AcDbEntity
  8
0
100
AcDbLine
 62
7
  6
BYLAYER
 10
398.7456917716
 20
381.0192296392
 11
343.7918923942
 21
349.2918281627
  0
LINE
  5
386
100
AcDbEntity
  8
0
100
AcDbLine
 62
7
  6
BYLAYER
 10
343.7918923943
 20
355.8650025679
 11
340.2563732082
 21
353.8267184378
  0
LINE
  5
387
100
AcDbEntity
  8
0
100
AcDbLine
 62
7
  6
BYLAYER
 10
197.5170819712
 20
202.3920880348
 11
197.6730853806
 21
202.6017873845
  0
LINE
  5
388
100
AcDbEntity
  8
0
100
AcDbLine
 62
7
  6
BYLAYER
 10
200.4463855412
 20
205.4398664373
 11
200.0639731535
 21
204.9535223335
  0
LINE
  5
389
100
AcDbEntity
  8
0
100
AcDbLine
 62
7
  6
BYLAYER
 10
186.5604625953
 20
212.5657449799
 11
186.7729126105
 21
212.752891826
  0
LINE
  5
38A
100
AcDbEntity
  8
0
100
AcDbLine
 62
7
  6
BYLAYER
 10
183.5331531907
 20
214.2895977067
 11
183.7155035525
 21
214.4426114535
  0
LINE
  5
38B
100
AcDbEntity
  8
0
100
AcDbLine
 62
7
  6
BYLAYER
 10
170.1365165832
 20
227.6373481155
 11
170.3486477349
 21
227.7598213619
  0
LINE
  5
38C
100
AcDbEntity
  8
0
100
AcDbLine
 62
7
  6
BYLAYER
 10
365.2980823965
 20
394.3678909439
 11
365.0637875309
 21
394.0412983403
  0
LINE
  5
38D
100
AcDbEntity
  8
0
100
AcDbLine
 62
7
  6
BYLAYER
 10
366.0051968325
 20
393.306462263
 11
366.2394916973
 21
393.6330548663
  0
LINE
  5
38E
100
AcDbEntity
  8
0
100
AcDbLine
 62
7
  6
BYLAYER
 10
186.6273466108
 20
213.2610516264
 11
186.5604625955
 21
213.2128498854
  0
LINE
  5
38F
100
AcDbEntity
  8
0
100
AcDbLine
 62
7
  6
BYLAYER
 10
183.6782087814
 20
215.0298858358
 11
183.5331531907
 21
214.9317821304
  0
LINE
  5
390
100
AcDbEntity
  8
0
100
AcDbLine
 62
7
  6
BYLAYER
 10
177.1393539426
 20
220.2142859348
 11
177.0686435588
 21
220.1734615195
  0
LINE
  5
391
100
AcDbEntity
  8
0
100
AcDbLine
 62
7
  6
BYLAYER
 10
176.8524728243
 20
217.556251978
 11
176.9231832078
 21
217.5970763933
  0
LINE
  5
392
100
AcDbEntity
  8
0
100
AcDbLine
 62
7
  6
BYLAYER
 10
179.5810266644
 20
218.8368700825
 11
179.6517370479
 21
218.8776944977
  0
LINE
  5
393
100
AcDbEntity
  8
0
100
AcDbLine
 62
7
  6
BYLAYER
 10
179.6517370478
 20
218.0013486458
 11
179.5810266644
 21
217.9605242305
  0
LINE
  5
394
100
AcDbEntity
  8
0
100
AcDbLine
 62
7
  6
BYLAYER
 10
180.3982267104
 20
216.853428165
 11
180.3275163267
 21
216.8126037496
  0
LINE
  5
395
100
AcDbEntity
  8
0
100
AcDbLine
 62
7
  6
BYLAYER
 10
182.7055520929
 20
217.3263325012
 11
182.7762624764
 21
217.3671569164
  0
LINE
  5
396
100
AcDbEntity
  8
0
100
AcDbLine
 62
7
  6
BYLAYER
 10
179.4455011664
 20
215.1245808565
 11
179.5162115501
 21
215.1654052718
  0
LINE
  5
397
100
AcDbEntity
  8
0
100
AcDbLine
 62
7
  6
BYLAYER
 10
183.533153191
 20
216.8485275937
 11
183.6038635745
 21
216.8893520089
  0
LINE
  5
398
100
AcDbEntity
  8
0
100
AcDbLine
 62
7
  6
BYLAYER
 10
182.323554555
 20
215.9544282882
 11
182.3942649385
 21
215.9952527035
  0
LINE
  5
399
100
AcDbEntity
  8
0
100
AcDbLine
 62
7
  6
BYLAYER
 10
182.3942649385
 20
215.2834651283
 11
182.323554555
 21
215.2426407131
  0
LINE
  5
39A
100
AcDbEntity
  8
0
100
AcDbLine
 62
7
  6
BYLAYER
 10
183.7496244575
 20
215.0694479441
 11
183.6789140738
 21
215.0286235287
  0
LINE
  5
39B
100
AcDbEntity
  8
0
100
AcDbLine
 62
7
  6
BYLAYER
 10
182.3637901833
 20
213.8649699888
 11
182.4345005667
 21
213.905794404
  0
LINE
  5
39C
100
AcDbEntity
  8
0
100
AcDbLine
 62
7
  6
BYLAYER
 10
183.533153191
 20
214.2895977067
 11
183.6038635744
 21
214.3304221219
  0
LINE
  5
39D
100
AcDbEntity
  8
0
100
AcDbLine
 62
7
  6
BYLAYER
 10
182.4345005669
 20
213.2177933593
 11
182.3637901834
 21
213.1769689441
  0
LINE
  5
39E
100
AcDbEntity
  8
0
100
AcDbLine
 62
7
  6
BYLAYER
 10
185.7329819626
 20
214.1261152217
 11
185.803692346
 21
214.1669396369
  0
LINE
  5
39F
100
AcDbEntity
  8
0
100
AcDbLine
 62
7
  6
BYLAYER
 10
183.533153191
 20
212.3612195256
 11
183.6038635744
 21
212.4020439408
  0
LINE
  5
3A0
100
AcDbEntity
  8
0
100
AcDbLine
 62
7
  6
BYLAYER
 10
185.3421904107
 20
213.245173209
 11
185.4129007942
 21
213.2859976242
  0
LINE
  5
3A1
100
AcDbEntity
  8
0
100
AcDbLine
 62
7
  6
BYLAYER
 10
186.5604625959
 20
213.6483798629
 11
186.6311729793
 21
213.6892042781
  0
LINE
  5
3A2
100
AcDbEntity
  8
0
100
AcDbLine
 62
7
  6
BYLAYER
 10
183.710117677
 20
211.8009867568
 11
183.7808280605
 21
211.841811172
  0
LINE
  5
3A3
100
AcDbEntity
  8
0
100
AcDbLine
 62
7
  6
BYLAYER
 10
183.1335676244
 20
211.2671027758
 11
183.2042780079
 21
211.307927191
  0
LINE
  5
3A4
100
AcDbEntity
  8
0
100
AcDbLine
 62
7
  6
BYLAYER
 10
186.7018429358
 20
213.2954748234
 11
186.6311325521
 21
213.254650408
  0
LINE
  5
3A5
100
AcDbEntity
  8
0
100
AcDbLine
 62
7
  6
BYLAYER
 10
185.4129007938
 20
212.3160357784
 11
185.3421904104
 21
212.2752113632
  0
LINE
  5
3A6
100
AcDbEntity
  8
0
100
AcDbLine
 62
7
  6
BYLAYER
 10
182.8858896251
 20
210.6805038041
 11
182.9566000086
 21
210.7213282193
  0
LINE
  5
3A7
100
AcDbEntity
  8
0
100
AcDbLine
 62
7
  6
BYLAYER
 10
187.4184211136
 20
213.2099414161
 11
187.489131497
 21
213.2507658313
  0
LINE
  5
3A8
100
AcDbEntity
  8
0
100
AcDbLine
 62
7
  6
BYLAYER
 10
186.5604625956
 20
212.5657449802
 11
186.631172979
 21
212.6065693954
  0
LINE
  5
3A9
100
AcDbEntity
  8
0
100
AcDbLine
 62
7
  6
BYLAYER
 10
184.3649705976
 20
210.6251628696
 11
184.4356809813
 21
210.665987285
  0
LINE
  5
3AA
100
AcDbEntity
  8
0
100
AcDbLine
 62
7
  6
BYLAYER
 10
183.3629347988
 20
209.4635029436
 11
183.4336451825
 21
209.504327359
  0
LINE
  5
3AB
100
AcDbEntity
  8
0
100
AcDbLine
 62
7
  6
BYLAYER
 10
186.6311729787
 20
211.185080783
 11
186.5604625952
 21
211.1442563678
  0
LINE
  5
3AC
100
AcDbEntity
  8
0
100
AcDbLine
 62
7
  6
BYLAYER
 10
184.2271544168
 20
209.7757976494
 11
184.1564440331
 21
209.734973234
  0
LINE
  5
3AD
100
AcDbEntity
  8
0
100
AcDbLine
 62
7
  6
BYLAYER
 10
184.1966765295
 20
209.7232859991
 11
184.1259661463
 21
209.682461584
  0
LINE
  5
3AE
100
AcDbEntity
  8
0
100
AcDbLine
 62
7
  6
BYLAYER
 10
186.3943400457
 20
210.8050524251
 11
186.4650504291
 21
210.8458768403
  0
LINE
  5
3AF
100
AcDbEntity
  8
0
100
AcDbLine
 62
7
  6
BYLAYER
 10
185.5504729117
 20
210.2926526125
 11
185.4797625285
 21
210.2518281974
  0
LINE
  5
3B0
100
AcDbEntity
  8
0
100
AcDbLine
 62
7
  6
BYLAYER
 10
185.5748101658
 20
210.2342331345
 11
185.6455205495
 21
210.2750575498
  0
LINE
  5
3B1
100
AcDbEntity
  8
0
100
AcDbLine
 62
7
  6
BYLAYER
 10
188.3781733628
 20
211.4900225456
 11
188.4488837463
 21
211.5308469608
  0
LINE
  5
3B2
100
AcDbEntity
  8
0
100
AcDbLine
 62
7
  6
BYLAYER
 10
184.2157101511
 20
209.0528121535
 11
184.1449997674
 21
209.0119877381
  0
LINE
  5
3B3
100
AcDbEntity
  8
0
100
AcDbLine
 62
7
  6
BYLAYER
 10
189.1623981619
 20
211.8314216312
 11
189.0916877782
 21
211.7905972158
  0
LINE
  5
3B4
100
AcDbEntity
  8
0
100
AcDbLine
 62
7
  6
BYLAYER
 10
185.7552681638
 20
209.4250764655
 11
185.8259785473
 21
209.4659008807
  0
LINE
  5
3B5
100
AcDbEntity
  8
0
100
AcDbLine
 62
7
  6
BYLAYER
 10
190.0954155254
 20
211.6637174248
 11
190.1661259088
 21
211.70454184
  0
LINE
  5
3B6
100
AcDbEntity
  8
0
100
AcDbLine
 62
7
  6
BYLAYER
 10
185.5855316354
 20
208.7932007781
 11
185.6562420189
 21
208.8340251933
  0
LINE
  5
3B7
100
AcDbEntity
  8
0
100
AcDbLine
 62
7
  6
BYLAYER
 10
186.658160483
 20
209.2779889039
 11
186.7288708664
 21
209.3188133191
  0
LINE
  5
3B8
100
AcDbEntity
  8
0
100
AcDbLine
 62
7
  6
BYLAYER
 10
189.5806645084
 20
210.7238636626
 11
189.6513748921
 21
210.764688078
  0
LINE
  5
3B9
100
AcDbEntity
  8
0
100
AcDbLine
 62
7
  6
BYLAYER
 10
186.6300887855
 20
209.0016581216
 11
186.5593784021
 21
208.9608337063
  0
LINE
  5
3BA
100
AcDbEntity
  8
0
100
AcDbLine
 62
7
  6
BYLAYER
 10
187.5512950603
 20
209.5041827999
 11
187.6220054437
 21
209.5450072151
  0
LINE
  5
3BB
100
AcDbEntity
  8
0
100
AcDbLine
 62
7
  6
BYLAYER
 10
186.416987645
 20
208.6873560552
 11
186.4876980284
 21
208.7281804705
  0
LINE
  5
3BC
100
AcDbEntity
  8
0
100
AcDbLine
 62
7
  6
BYLAYER
 10
191.9669361228
 20
211.8727213002
 11
191.8962257391
 21
211.8318968848
  0
LINE
  5
3BD
100
AcDbEntity
  8
0
100
AcDbLine
 62
7
  6
BYLAYER
 10
192.047566298
 20
211.8813721712
 11
192.1182766818
 21
211.9221965865
  0
LINE
  5
3BE
100
AcDbEntity
  8
0
100
AcDbLine
 62
7
  6
BYLAYER
 10
186.2854356931
 20
208.4707682733
 11
186.2147253097
 21
208.4299438581
  0
LINE
  5
3BF
100
AcDbEntity
  8
0
100
AcDbLine
 62
7
  6
BYLAYER
 10
185.8100801727
 20
208.1125754856
 11
185.8807905561
 21
208.1533999008
  0
LINE
  5
3C0
100
AcDbEntity
  8
0
100
AcDbLine
 62
7
  6
BYLAYER
 10
188.378173363
 20
209.5630353872
 11
188.4488837464
 21
209.6038598025
  0
LINE
  5
3C1
100
AcDbEntity
  8
0
100
AcDbLine
 62
7
  6
BYLAYER
 10
298.1233750685
 20
343.7050536407
 11
80.7578455591
 21
469.1982615799
  0
LINE
  5
3C2
100
AcDbEntity
  8
0
100
AcDbLine
 62
7
  6
BYLAYER
 10
82.6670435831
 20
470.3005733214
 11
105.2945547885
 21
457.2368691763
  0
LINE
  5
3C3
100
AcDbEntity
  8
0
100
AcDbLine
 62
7
  6
BYLAYER
 10
95.8723182883
 20
467.8002316495
 11
97.3663637981
 21
466.9376635861
  0
LINE
  5
3C4
100
AcDbEntity
  8
0
100
AcDbLine
 62
7
  6
BYLAYER
 10
97.2569827625
 20
467.4907147765
 11
95.8723182883
 21
468.2901330981
  0
LINE
  5
3C5
100
AcDbEntity
  8
0
100
AcDbLine
 62
7
  6
BYLAYER
 10
97.2469353955
 20
467.578163647
 11
95.943028672
 21
468.3309575143
  0
LINE
  5
3C6
100
AcDbEntity
  8
0
100
AcDbLine
 62
7
  6
BYLAYER
 10
86.9262754071
 20
476.1494744966
 11
86.6710529908
 21
476.2968238939
  0
LINE
  5
3C7
100
AcDbEntity
  8
0
100
AcDbLine
 62
7
  6
BYLAYER
 10
84.2804144356
 20
477.6770284837
 11
84.0260206813
 21
477.8238994636
  0
LINE
  5
3C8
100
AcDbEntity
  8
0
100
AcDbLine
 62
7
  6
BYLAYER
 10
84.0967310586
 20
477.8647238818
 11
84.3511248308
 21
477.7178528916
  0
LINE
  5
3C9
100
AcDbEntity
  8
0
100
AcDbLine
 62
7
  6
BYLAYER
 10
86.7417633742
 20
476.3376483095
 11
86.9969857906
 21
476.1902989121
  0
LINE
  5
3CA
100
AcDbEntity
  8
0
100
AcDbLine
 62
7
  6
BYLAYER
 10
298.1233750685
 20
154.8480445587
 11
298.1233750685
 21
343.7050536407
  0
LINE
  5
3CB
100
AcDbEntity
  8
0
100
AcDbLine
 62
7
  6
BYLAYER
 10
306.1136619159
 20
150.5374368936
 11
306.1136619159
 21
184.3691590663
  0
LINE
  5
3CC
100
AcDbEntity
  8
0
100
AcDbLine
 62
7
  6
BYLAYER
 10
310.3563026037
 20
139.7429715207
 11
310.3563026037
 21
141.3759763549
  0
LINE
  5
3CD
100
AcDbEntity
  8
0
100
AcDbLine
 62
7
  6
BYLAYER
 10
310.4270129872
 20
139.7837959359
 11
310.4270129872
 21
141.3351526196
  0
LINE
  5
3CE
100
AcDbEntity
  8
0
100
AcDbLine
 62
7
  6
BYLAYER
 10
313.4576279271
 20
377.9359276822
 11
313.4576279271
 21
377.4606142101
  0
LINE
  5
3CF
100
AcDbEntity
  8
0
100
AcDbLine
 62
7
  6
BYLAYER
 10
366.2394916975
 20
383.4267746522
 11
366.005196832
 21
383.1001820485
  0
LINE
  5
3D0
100
AcDbEntity
  8
0
100
AcDbLine
 62
7
  6
BYLAYER
 10
192.6396564575
 20
211.418934611
 11
192.7103668409
 21
211.4597590262
  0
LINE
  5
3D1
100
AcDbEntity
  8
0
100
AcDbLine
 62
7
  6
BYLAYER
 10
191.774108584
 20
210.6383480429
 11
191.8448189674
 21
210.6791724596
  0
LINE
  5
3D2
100
AcDbEntity
  8
0
100
AcDbLine
 62
7
  6
BYLAYER
 10
192.4790243652
 20
210.9123336451
 11
192.5497347489
 21
210.9531580605
  0
LINE
  5
3D3
100
AcDbEntity
  8
0
100
AcDbLine
 62
7
  6
BYLAYER
 10
188.8352211901
 20
208.7629244717
 11
188.9059315735
 21
208.8037488869
  0
LINE
  5
3D4
100
AcDbEntity
  8
0
100
AcDbLine
 62
7
  6
BYLAYER
 10
187.8736619515
 20
208.1913380171
 11
187.9443723349
 21
208.2321624323
  0
LINE
  5
3D5
100
AcDbEntity
  8
0
100
AcDbLine
 62
7
  6
BYLAYER
 10
188.8352211896
 20
208.425183562
 11
188.905931573
 21
208.4660079772
  0
LINE
  5
3D6
100
AcDbEntity
  8
0
100
AcDbLine
 62
7
  6
BYLAYER
 10
192.6009868867
 20
210.1609604321
 11
192.6716972701
 21
210.2017848473
  0
LINE
  5
3D7
100
AcDbEntity
  8
0
100
AcDbLine
 62
7
  6
BYLAYER
 10
189.6205387385
 20
208.3102269441
 11
189.691249122
 21
208.3510513594
  0
LINE
  5
3D8
100
AcDbEntity
  8
0
100
AcDbLine
 62
7
  6
BYLAYER
 10
188.8013702561
 20
207.6557374944
 11
188.8720806396
 21
207.6965619097
  0
LINE
  5
3D9
100
AcDbEntity
  8
0
100
AcDbLine
 62
7
  6
BYLAYER
 10
191.4540305457
 20
209.1381922266
 11
191.5247409292
 21
209.1790166418
  0
LINE
  5
3DA
100
AcDbEntity
  8
0
100
AcDbLine
 62
7
  6
BYLAYER
 10
187.8736619511
 20
207.0388736715
 11
187.9443723346
 21
207.0796980867
  0
LINE
  5
3DB
100
AcDbEntity
  8
0
100
AcDbLine
 62
7
  6
BYLAYER
 10
189.9150779947
 20
208.1401784723
 11
189.9857883781
 21
208.1810028875
  0
LINE
  5
3DC
100
AcDbEntity
  8
0
100
AcDbLine
 62
7
  6
BYLAYER
 10
188.8013702567
 20
207.3171619699
 11
188.8720806402
 21
207.3579863851
  0
LINE
  5
3DD
100
AcDbEntity
  8
0
100
AcDbLine
 62
7
  6
BYLAYER
 10
191.4076511545
 20
208.749191354
 11
191.4783615379
 21
208.7900157692
  0
LINE
  5
3DE
100
AcDbEntity
  8
0
100
AcDbLine
 62
7
  6
BYLAYER
 10
193.3993117202
 20
209.4383389902
 11
193.3286013364
 21
209.3975145748
  0
LINE
  5
3DF
100
AcDbEntity
  8
0
100
AcDbLine
 62
7
  6
BYLAYER
 10
194.9020070594
 20
210.2848652424
 11
194.9727174429
 21
210.3256896576
  0
LINE
  5
3E0
100
AcDbEntity
  8
0
100
AcDbLine
 62
7
  6
BYLAYER
 10
191.4783615379
 20
208.1957698204
 11
191.4076511545
 21
208.1549454052
  0
LINE
  5
3E1
100
AcDbEntity
  8
0
100
AcDbLine
 62
7
  6
BYLAYER
 10
188.8640125521
 20
206.4671074202
 11
188.9347229355
 21
206.5079318354
  0
LINE
  5
3E2
100
AcDbEntity
  8
0
100
AcDbLine
 62
7
  6
BYLAYER
 10
188.8640125524
 20
206.1290883065
 11
188.9347229358
 21
206.1699127217
  0
LINE
  5
3E3
100
AcDbEntity
  8
0
100
AcDbLine
 62
7
  6
BYLAYER
 10
195.7290058274
 20
209.8074080809
 11
195.7997162109
 21
209.8482324962
  0
LINE
  5
3E4
100
AcDbEntity
  8
0
100
AcDbLine
 62
7
  6
BYLAYER
 10
190.9527618231
 20
206.5432936357
 11
190.8820514394
 21
206.5024692203
  0
LINE
  5
3E5
100
AcDbEntity
  8
0
100
AcDbLine
 62
7
  6
BYLAYER
 10
192.6009868868
 20
207.1171191745
 11
192.6716972703
 21
207.1579435897
  0
LINE
  5
3E6
100
AcDbEntity
  8
0
100
AcDbLine
 62
7
  6
BYLAYER
 10
189.9150779942
 20
205.5205998874
 11
189.9857883776
 21
205.5614243027
  0
LINE
  5
3E7
100
AcDbEntity
  8
0
100
AcDbLine
 62
7
  6
BYLAYER
 10
190.9712030051
 20
205.9510682384
 11
191.0419133889
 21
205.9918926538
  0
LINE
  5
3E8
100
AcDbEntity
  8
0
100
AcDbLine
 62
7
  6
BYLAYER
 10
192.0151609567
 20
205.1211980605
 11
192.0858713401
 21
205.1620224757
  0
LINE
  5
3E9
100
AcDbEntity
  8
0
100
AcDbLine
 62
7
  6
BYLAYER
 10
196.5353597067
 20
207.575335497
 11
196.464649323
 21
207.5345110816
  0
LINE
  5
3EA
100
AcDbEntity
  8
0
100
AcDbLine
 62
7
  6
BYLAYER
 10
191.9892607767
 20
204.8255352796
 11
192.0599711602
 21
204.8663596948
  0
LINE
  5
3EB
100
AcDbEntity
  8
0
100
AcDbLine
 62
7
  6
BYLAYER
 10
193.0621187367
 20
205.3190513772
 11
192.991408353
 21
205.2782269618
  0
LINE
  5
3EC
100
AcDbEntity
  8
0
100
AcDbLine
 62
7
  6
BYLAYER
 10
192.0599711602
 20
204.5351566043
 11
191.9892607767
 21
204.4943321891
  0
LINE
  5
3ED
100
AcDbEntity
  8
0
100
AcDbLine
 62
7
  6
BYLAYER
 10
197.4670886012
 20
207.4077762725
 11
197.5377989846
 21
207.4486006877
  0
LINE
  5
3EE
100
AcDbEntity
  8
0
100
AcDbLine
 62
7
  6
BYLAYER
 10
193.9385203653
 20
204.8389874907
 11
194.0092307487
 21
204.879811906
  0
LINE
  5
3EF
100
AcDbEntity
  8
0
100
AcDbLine
 62
7
  6
BYLAYER
 10
196.952939912
 20
206.4675747639
 11
197.0236502957
 21
206.5083991793
  0
LINE
  5
3F0
100
AcDbEntity
  8
0
100
AcDbLine
 62
7
  6
BYLAYER
 10
194.0092307487
 20
204.5124421602
 11
193.9385203653
 21
204.471617745
  0
LINE
  5
3F1
100
AcDbEntity
  8
0
100
AcDbLine
 62
7
  6
BYLAYER
 10
195.7290058277
 20
205.3121711707
 11
195.7997162111
 21
205.3529955859
  0
LINE
  5
3F2
100
AcDbEntity
  8
0
100
AcDbLine
 62
7
  6
BYLAYER
 10
194.6933510204
 20
204.1825790766
 11
194.7640614038
 21
204.2234034919
  0
LINE
  5
3F3
100
AcDbEntity
  8
0
100
AcDbLine
 62
7
  6
BYLAYER
 10
195.280390618
 20
204.5067609693
 11
195.3511010014
 21
204.5475853845
  0
LINE
  5
3F4
100
AcDbEntity
  8
0
100
AcDbLine
 62
7
  6
BYLAYER
 10
193.9714075705
 20
203.5810143723
 11
194.0421179539
 21
203.6218387876
  0
LINE
  5
3F5
100
AcDbEntity
  8
0
100
AcDbLine
 62
7
  6
BYLAYER
 10
195.2803906177
 20
204.1501021187
 11
195.3511010012
 21
204.1909265339
  0
LINE
  5
3F6
100
AcDbEntity
  8
0
100
AcDbLine
 62
7
  6
BYLAYER
 10
199.2360106575
 20
206.3335136921
 11
199.306721041
 21
206.3743381073
  0
LINE
  5
3F7
100
AcDbEntity
  8
0
100
AcDbLine
 62
7
  6
BYLAYER
 10
194.042117954
 20
203.2864626202
 11
193.9714075705
 21
203.245638205
  0
LINE
  5
3F8
100
AcDbEntity
  8
0
100
AcDbLine
 62
7
  6
BYLAYER
 10
195.7530990178
 20
203.87718997
 11
195.8238094013
 21
203.9180143852
  0
LINE
  5
3F9
100
AcDbEntity
  8
0
100
AcDbLine
 62
7
  6
BYLAYER
 10
195.7530990183
 20
203.5707471272
 11
195.8238094018
 21
203.6115715409
  0
LINE
  5
3FA
100
AcDbEntity
  8
0
100
AcDbLine
 62
7
  6
BYLAYER
 10
200.0639731543
 20
205.8555001358
 11
200.1346835377
 21
205.896324551
  0
LINE
  5
3FB
100
AcDbEntity
  8
0
100
AcDbLine
 62
7
  6
BYLAYER
 10
195.3511010016
 20
202.9985397644
 11
195.2803906182
 21
202.9577153491
  0
LINE
  5
3FC
100
AcDbEntity
  8
0
100
AcDbLine
 62
7
  6
BYLAYER
 10
198.826065019
 20
204.8820424259
 11
198.8967754025
 21
204.9228668411
  0
LINE
  5
3FD
100
AcDbEntity
  8
0
100
AcDbLine
 62
7
  6
BYLAYER
 10
196.5852778232
 20
203.3967421818
 11
196.6559882066
 21
203.4375665971
  0
LINE
  5
3FE
100
AcDbEntity
  8
0
100
AcDbLine
 62
7
  6
BYLAYER
 10
198.7812516842
 20
204.4921374107
 11
198.8519620677
 21
204.5329618259
  0
LINE
  5
3FF
100
AcDbEntity
  8
0
100
AcDbLine
 62
7
  6
BYLAYER
 10
200.5169680001
 20
205.4809167117
 11
200.4462576164
 21
205.4400922963
  0
LINE
  5
400
100
AcDbEntity
  8
0
100
AcDbLine
 62
7
  6
BYLAYER
 10
196.8795761467
 20
203.2268328094
 11
196.9502865301
 21
203.2676572247
  0
LINE
  5
401
100
AcDbEntity
  8
0
100
AcDbLine
 62
7
  6
BYLAYER
 10
195.8291130349
 20
202.5076572712
 11
195.8998234184
 21
202.5484816864
  0
LINE
  5
402
100
AcDbEntity
  8
0
100
AcDbLine
 62
7
  6
BYLAYER
 10
197.1375791646
 20
203.0497654464
 11
197.0668687809
 21
203.008941031
  0
LINE
  5
403
100
AcDbEntity
  8
0
100
AcDbLine
 62
7
  6
BYLAYER
 10
198.8519620677
 20
203.9387158771
 11
198.7812516842
 21
203.8978914618
  0
LINE
  5
404
100
AcDbEntity
  8
0
100
AcDbLine
 62
7
  6
BYLAYER
 10
195.8291130348
 20
202.1885560987
 11
195.8998234183
 21
202.2293805139
  0
LINE
  5
405
100
AcDbEntity
  8
0
100
AcDbLine
 62
7
  6
BYLAYER
 10
196.8795761466
 20
202.4002856588
 11
196.95028653
 21
202.441110074
  0
LINE
  5
406
100
AcDbEntity
  8
0
100
AcDbLine
 62
7
  6
BYLAYER
 10
200.0639731535
 20
204.1256212462
 11
200.134683537
 21
204.1664456614
  0
LINE
  5
407
100
AcDbEntity
  8
0
100
AcDbLine
 62
7
  6
BYLAYER
 10
201.4630647344
 20
204.8258839962
 11
201.5337751179
 21
204.8667084114
  0
LINE
  5
408
100
AcDbEntity
  8
0
100
AcDbLine
 62
7
  6
BYLAYER
 10
197.6730853808
 20
202.6017873847
 11
197.7437957642
 21
202.6426118
  0
LINE
  5
409
100
AcDbEntity
  8
0
100
AcDbLine
 62
7
  6
BYLAYER
 10
197.5877923551
 20
202.4329124508
 11
197.5170819717
 21
202.3920880356
  0
LINE
  5
40A
100
AcDbEntity
  8
0
100
AcDbLine
 62
7
  6
BYLAYER
 10
198.5628089298
 20
202.9471304555
 11
198.4920985461
 21
202.9063060401
  0
LINE
  5
40B
100
AcDbEntity
  8
0
100
AcDbLine
 62
7
  6
BYLAYER
 10
198.5489933264
 20
202.9261178498
 11
198.6197037098
 21
202.966942265
  0
LINE
  5
40C
100
AcDbEntity
  8
0
100
AcDbLine
 62
7
  6
BYLAYER
 10
198.7582426874
 20
202.7626059361
 11
198.8289530708
 21
202.8034303513
  0
LINE
  5
40D
100
AcDbEntity
  8
0
100
AcDbLine
 62
7
  6
BYLAYER
 10
201.3060944661
 20
204.154361061
 11
201.2353840827
 21
204.1135366458
  0
LINE
  5
40E
100
AcDbEntity
  8
0
100
AcDbLine
 62
7
  6
BYLAYER
 10
198.70428637
 20
202.5846060178
 11
198.7749967537
 21
202.6254304332
  0
LINE
  5
40F
100
AcDbEntity
  8
0
100
AcDbLine
 62
7
  6
BYLAYER
 10
196.8795761461
 20
201.4997359687
 11
196.9502865296
 21
201.540560384
  0
LINE
  5
410
100
AcDbEntity
  8
0
100
AcDbLine
 62
7
  6
BYLAYER
 10
198.4538252234
 20
202.3179602427
 11
198.5245356068
 21
202.3587846579
  0
LINE
  5
411
100
AcDbEntity
  8
0
100
AcDbLine
 62
7
  6
BYLAYER
 10
198.7483644795
 20
202.1479117708
 11
198.819074863
 21
202.1887361861
  0
LINE
  5
412
100
AcDbEntity
  8
0
100
AcDbLine
 62
7
  6
BYLAYER
 10
200.0639731531
 20
202.8126325956
 11
200.1346835366
 21
202.8534570109
  0
LINE
  5
413
100
AcDbEntity
  8
0
100
AcDbLine
 62
7
  6
BYLAYER
 10
199.8130602089
 20
201.420854386
 11
199.7423498252
 21
201.3800299706
  0
LINE
  5
414
100
AcDbEntity
  8
0
100
AcDbLine
 62
7
  6
BYLAYER
 10
198.7483644789
 20
200.4208149302
 11
198.8190748623
 21
200.4616393454
  0
LINE
  5
415
100
AcDbEntity
  8
0
100
AcDbLine
 62
7
  6
BYLAYER
 10
208.5325728928
 20
205.7148206178
 11
208.3204417412
 21
205.5923473714
  0
LINE
  5
416
100
AcDbEntity
  8
0
100
AcDbLine
 62
7
  6
BYLAYER
 10
200.6912393723
 20
200.9403915523
 11
200.7619497557
 21
200.9812159675
  0
LINE
  5
417
100
AcDbEntity
  8
0
100
AcDbLine
 62
7
  6
BYLAYER
 10
200.7619497557
 20
200.6138462218
 11
200.6912393723
 21
200.5730218066
  0
LINE
  5
418
100
AcDbEntity
  8
0
100
AcDbLine
 62
7
  6
BYLAYER
 10
200.724849373
 20
199.6820011371
 11
200.7955597565
 21
199.7228255524
  0
LINE
  5
419
100
AcDbEntity
  8
0
100
AcDbLine
 62
7
  6
BYLAYER
 10
200.7955597566
 20
199.387449385
 11
200.7248493731
 21
199.3466249697
  0
LINE
  5
41A
100
AcDbEntity
  8
0
100
AcDbLine
 62
7
  6
BYLAYER
 10
195.2803906173
 20
204.5067609689
 11
194.699659689
 21
204.1824998854
  0
LINE
  5
41B
100
AcDbEntity
  8
0
100
AcDbLine
 62
7
  6
BYLAYER
 10
192.3284929003
 20
210.8625894965
 11
192.4785137899
 21
210.9132228166
  0
LINE
  5
41C
100
AcDbEntity
  8
0
100
AcDbLine
 62
7
  6
BYLAYER
 10
192.0475662977
 20
211.881372171
 11
191.8967529549
 21
211.8309782546
  0
LINE
  5
41D
100
AcDbEntity
  8
0
100
AcDbLine
 62
7
  6
BYLAYER
 10
105.2945547885
 20
469.4844054333
 11
82.6670435831
 21
482.5481095783
  0
LINE
  5
41E
100
AcDbEntity
  8
0
100
AcDbLine
 62
7
  6
BYLAYER
 10
82.8791088522
 20
482.6706208598
 11
105.5066396359
 21
469.6069054115
  0
LINE
  5
41F
100
AcDbEntity
  8
0
100
AcDbLine
 62
7
  6
BYLAYER
 10
323.9158218166
 20
350.0840024117
 11
54.9827758495
 21
505.3490563299
  0
LINE
  5
420
100
AcDbEntity
  8
0
100
AcDbLine
 62
7
  6
BYLAYER
 10
54.4104323955
 20
505.7611438342
 11
324.3379422784
 21
349.9219488953
  0
LINE
  5
421
100
AcDbEntity
  8
0
100
AcDbLine
 62
7
  6
BYLAYER
 10
53.2280772069
 20
508.6342827468
 11
325.5117226538
 21
351.4348030795
  0
LINE
  5
422
100
AcDbEntity
  8
0
100
AcDbLine
 62
7
  6
BYLAYER
 10
58.5490555822
 20
511.5366404932
 11
330.1378121297
 21
354.738346043
  0
LINE
  5
423
100
AcDbEntity
  8
0
100
AcDbLine
 62
7
  6
BYLAYER
 10
316.0576279271
 20
377.9359276822
 11
316.0576279271
 21
375.9595374691
  0
LINE
  5
424
100
AcDbEntity
  8
0
100
AcDbLine
 62
7
  6
BYLAYER
 10
317.4273998552
 20
137.2935688097
 11
317.4273998552
 21
135.6605639755
  0
LINE
  5
425
100
AcDbEntity
  8
0
100
AcDbLine
 62
7
  6
BYLAYER
 10
317.4274175183
 20
177.8064155842
 11
317.4274175183
 21
144.0424134437
  0
LINE
  5
426
100
AcDbEntity
  8
0
100
AcDbLine
 62
7
  6
BYLAYER
 10
319.5487290306
 20
179.0311480461
 11
319.5487290306
 21
145.2671459041
  0
LINE
  5
427
100
AcDbEntity
  8
0
100
AcDbLine
 62
7
  6
BYLAYER
 10
325.3117440016
 20
347.6662076848
 11
325.3117440016
 21
119.5441559984
  0
LINE
  5
428
100
AcDbEntity
  8
0
100
AcDbLine
 62
7
  6
BYLAYER
 10
325.3824555622
 20
348.1128088615
 11
325.3824555622
 21
118.8252532492
  0
LINE
  5
429
100
AcDbEntity
  8
0
100
AcDbLine
 62
7
  6
BYLAYER
 10
327.2794969667
 20
348.3729451502
 11
327.2794969667
 21
116.351028717
  0
LINE
  5
42A
100
AcDbEntity
  8
0
100
AcDbLine
 62
7
  6
BYLAYER
 10
332.4535115988
 20
350.727459173
 11
332.4535115988
 21
119.4167216804
  0
LINE
  5
42B
100
AcDbEntity
  8
0
100
AcDbLine
 62
7
  6
BYLAYER
 10
398.745691773
 20
381.01922964
 11
399.0087092337
 21
381.3858597718
  0
LINE
  5
42C
100
AcDbEntity
  8
0
100
AcDbLine
 62
7
  6
BYLAYER
 10
211.1488806418
 20
200.6933746848
 11
211.3610117934
 21
200.8158479312
  0
LINE
  5
42D
100
AcDbEntity
  8
0
100
AcDbLine
 62
7
  6
BYLAYER
 10
211.1488806418
 20
183.5468239251
 11
211.3610117934
 21
183.6692971715
  0
LINE
  5
42E
100
AcDbEntity
  8
0
100
AcDbLine
 62
7
  6
BYLAYER
 10
198.6482572713
 20
202.564730981
 11
198.7042470645
 21
202.5846726264
  0
LINE
  5
42F
100
AcDbEntity
  8
0
100
AcDbLine
 62
7
  6
BYLAYER
 10
198.5489933261
 20
202.9261178496
 11
198.4921556357
 21
202.9062092915
  0
LINE
  5
430
100
AcDbEntity
  8
0
100
AcDbLine
 62
7
  6
BYLAYER
 10
336.2583915183
 20
359.8438117072
 11
74.3010810168
 21
511.0815139877
  0
LINE
  5
431
100
AcDbEntity
  8
0
100
AcDbLine
 62
7
  6
BYLAYER
 10
74.5197862143
 20
511.3259131031
 11
336.7233677789
 21
359.9460293749
  0
LINE
  5
432
100
AcDbEntity
  8
0
100
AcDbLine
 62
7
  6
BYLAYER
 10
78.0812709758
 20
513.3521429797
 11
340.2563437685
 21
361.9887184262
  0
LINE
  5
433
100
AcDbEntity
  8
0
100
AcDbLine
 62
7
  6
BYLAYER
 10
156.418120414
 20
469.9736725176
 11
163.4597859008
 21
465.9082570252
  0
LINE
  5
434
100
AcDbEntity
  8
0
100
AcDbLine
 62
7
  6
BYLAYER
 10
166.6453430036
 20
464.0691163814
 11
232.2615621576
 21
426.1864316104
  0
LINE
  5
435
100
AcDbEntity
  8
0
100
AcDbLine
 62
7
  6
BYLAYER
 10
235.4471192604
 20
424.3472909665
 11
312.8720708243
 21
379.6469855951
  0
LINE
  5
436
100
AcDbEntity
  8
0
100
AcDbLine
 62
7
  6
BYLAYER
 10
316.0576279271
 20
377.8078449512
 11
325.4879029569
 21
372.3633962941
  0
LINE
  5
437
100
AcDbEntity
  8
0
100
AcDbLine
 62
7
  6
BYLAYER
 10
339.93536209
 20
133.3770908896
 11
339.9353620889
 21
353.4751472147
  0
LINE
  5
438
100
AcDbEntity
  8
0
100
AcDbLine
 62
7
  6
BYLAYER
 10
340.2563732082
 20
353.8267184378
 11
340.2563732082
 21
133.4089808186
  0
LINE
  5
439
100
AcDbEntity
  8
0
100
AcDbLine
 62
7
  6
BYLAYER
 10
343.7918923942
 20
355.865002568
 11
343.7918923942
 21
135.5154952572
  0
LINE
  5
43A
100
AcDbEntity
  8
0
100
AcDbLine
 62
7
  6
BYLAYER
 10
88.573620094
 20
472.6809583103
 11
88.7534232064
 21
472.6313866085
  0
LINE
  5
43B
100
AcDbEntity
  8
0
100
AcDbLine
 62
7
  6
BYLAYER
 10
86.6710529908
 20
476.2968238939
 11
86.2436725304
 21
476.4258503215
  0
LINE
  5
43C
100
AcDbEntity
  8
0
100
AcDbLine
 62
7
  6
BYLAYER
 10
86.3143800226
 20
476.4666796849
 11
86.7417633742
 21
476.3376483095
  0
LINE
  5
43D
100
AcDbEntity
  8
0
100
AcDbLine
 62
7
  6
BYLAYER
 10
156.4181204128
 20
480.1799527318
 11
334.3269272611
 21
377.4665788937
  0
LINE
  5
43E
100
AcDbEntity
  8
0
100
AcDbLine
 62
7
  6
BYLAYER
 10
345.0749126521
 20
382.6921081432
 11
165.4690424648
 21
486.3852597913
  0
LINE
  5
43F
100
AcDbEntity
  8
0
100
AcDbLine
 62
7
  6
BYLAYER
 10
361.1968848505
 20
381.1406067103
 11
361.3383067955
 21
381.0589585594
  0
LINE
  5
440
100
AcDbEntity
  8
0
100
AcDbLine
 62
7
  6
BYLAYER
 10
361.1968848505
 20
381.1406067103
 11
361.1968848505
 21
391.3468869244
  0
LINE
  5
441
100
AcDbEntity
  8
0
100
AcDbLine
 62
7
  6
BYLAYER
 10
361.3383067955
 20
391.2652387735
 11
361.3383067955
 21
381.0589585594
  0
LINE
  5
442
100
AcDbEntity
  8
0
100
AcDbLine
 62
7
  6
BYLAYER
 10
362.4696776459
 20
381.0589612792
 11
362.4696776459
 21
391.2652414933
  0
LINE
  5
443
100
AcDbEntity
  8
0
100
AcDbLine
 62
7
  6
BYLAYER
 10
365.0637701766
 20
393.4161232204
 11
365.0637701766
 21
394.0412983403
  0
LINE
  5
444
100
AcDbEntity
  8
0
100
AcDbLine
 62
7
  6
BYLAYER
 10
365.2980871068
 20
393.5514053556
 11
365.2980871068
 21
393.7147030172
  0
LINE
  5
445
100
AcDbEntity
  8
0
100
AcDbLine
 62
7
  6
BYLAYER
 10
366.005196832
 20
393.3064622627
 11
366.005196832
 21
383.1001820485
  0
LINE
  5
446
100
AcDbEntity
  8
0
100
AcDbLine
 62
7
  6
BYLAYER
 10
366.2395090518
 20
393.6330548663
 11
366.2395090518
 21
383.4267746524
  0
LINE
  5
447
100
AcDbEntity
  8
0
100
AcDbLine
 62
7
  6
BYLAYER
 10
306.3196836306
 20
184.824492663
 11
306.1136619159
 21
184.3691590651
  0
LINE
  5
448
100
AcDbEntity
  8
0
100
AcDbLine
 62
7
  6
BYLAYER
 10
93.4469912436
 20
468.579901235
 11
92.9480328749
 21
468.6312028877
  0
LINE
  5
449
100
AcDbEntity
  8
0
100
AcDbLine
 62
7
  6
BYLAYER
 10
100.5881324833
 20
463.4854369341
 11
100.842746234
 21
463.4548554328
  0
LINE
  5
44A
100
AcDbEntity
  8
0
100
AcDbLine
 62
7
  6
BYLAYER
 10
92.4614110427
 20
470.8359629104
 11
92.9430610103
 21
470.7773921751
  0
LINE
  5
44B
100
AcDbEntity
  8
0
100
AcDbLine
 62
7
  6
BYLAYER
 10
99.0501688311
 20
464.3733605768
 11
99.3045309647
 21
464.3418941839
  0
LINE
  5
44C
100
AcDbEntity
  8
0
100
AcDbLine
 62
7
  6
BYLAYER
 10
83.8851511593
 20
473.1286895399
 11
84.1375055866
 21
473.0957747401
  0
LINE
  5
44D
100
AcDbEntity
  8
0
100
AcDbLine
 62
7
  6
BYLAYER
 10
98.875195709
 20
469.3456684636
 11
99.1208792141
 21
469.3131994946
  0
LINE
  5
44E
100
AcDbEntity
  8
0
100
AcDbLine
 62
7
  6
BYLAYER
 10
99.0501688311
 20
469.2723750796
 11
98.8044274979
 21
469.3049449299
  0
LINE
  5
44F
100
AcDbEntity
  8
0
100
AcDbLine
 62
7
  6
BYLAYER
 10
87.0646589898
 20
471.2930413659
 11
87.3210914322
 21
471.2588183435
  0
LINE
  5
450
100
AcDbEntity
  8
0
100
AcDbLine
 62
7
  6
BYLAYER
 10
85.4778053296
 20
472.2091910277
 11
85.8122541686
 21
472.1617118165
  0
LINE
  5
451
100
AcDbEntity
  8
0
100
AcDbLine
 62
7
  6
BYLAYER
 10
96.5882668857
 20
469.3464936862
 11
95.5451965087
 21
469.5093832892
  0
LINE
  5
452
100
AcDbEntity
  8
0
100
AcDbLine
 62
7
  6
BYLAYER
 10
84.0260206813
 20
477.8238994636
 11
83.6152827285
 21
477.9159961373
  0
LINE
  5
453
100
AcDbEntity
  8
0
100
AcDbLine
 62
7
  6
BYLAYER
 10
361.1968848505
 20
391.3468869244
 11
361.3383067956
 21
391.2652387735
  0
LINE
  5
454
100
AcDbEntity
  8
0
100
AcDbLine
 62
7
  6
BYLAYER
 10
370.3892347343
 20
386.4477807107
 11
373.0055407173
 21
384.9372899189
  0
LINE
  5
455
100
AcDbEntity
  8
0
100
AcDbLine
 62
7
  6
BYLAYER
 10
361.7625679207
 20
391.6734822478
 11
361.9039898658
 21
391.5918340969
  0
LINE
  5
456
100
AcDbEntity
  8
0
100
AcDbLine
 62
7
  6
BYLAYER
 10
389.410327713
 20
376.2826775048
 11
374.2783323339
 21
385.0189414696
  0
LINE
  5
457
100
AcDbEntity
  8
0
100
AcDbLine
 62
7
  6
BYLAYER
 10
365.4395090518
 20
393.6330548663
 11
365.2980871068
 21
393.7147030172
  0
LINE
  5
458
100
AcDbEntity
  8
0
100
AcDbLine
 62
7
  6
BYLAYER
 10
366.0051921219
 20
393.9596501899
 11
365.8637701771
 21
394.0412983406
  0
LINE
  5
459
100
AcDbEntity
  8
0
100
AcDbLine
 62
7
  6
BYLAYER
 10
370.3892347342
 20
386.4477807106
 11
370.3892347316
 21
396.6540609232
  0
LINE
  5
45A
100
AcDbEntity
  8
0
100
AcDbLine
 62
7
  6
BYLAYER
 10
373.0055407173
 20
395.1435701331
 11
373.0055407173
 21
384.9372899189
  0
LINE
  5
45B
100
AcDbEntity
  8
0
100
AcDbLine
 62
7
  6
BYLAYER
 10
374.136911567
 20
384.9372926391
 11
374.136911567
 21
395.1435728532
  0
LINE
  5
45C
100
AcDbEntity
  8
0
100
AcDbLine
 62
7
  6
BYLAYER
 10
374.2783323339
 20
385.0189414696
 11
374.2783323339
 21
395.2252216837
  0
LINE
  5
45D
100
AcDbEntity
  8
0
100
AcDbLine
 62
7
  6
BYLAYER
 10
306.3196728422
 20
184.82451135
 11
308.4409843535
 21
186.0492438114
  0
LINE
  5
45E
100
AcDbEntity
  8
0
100
AcDbLine
 62
7
  6
BYLAYER
 10
306.8170125411
 20
184.7752503492
 11
308.9383240528
 21
185.9999828108
  0
LINE
  5
45F
100
AcDbEntity
  8
0
100
AcDbLine
 62
7
  6
BYLAYER
 10
370.3892347316
 20
396.6540609232
 11
373.0055406716
 21
395.1435701594
  0
LINE
  5
460
100
AcDbEntity
  8
0
100
AcDbLine
 62
7
  6
BYLAYER
 10
374.2783323336
 20
395.2252216839
 11
398.2493520178
 21
381.3858601047
  0
LINE
  5
461
100
AcDbEntity
  8
0
100
AcDbLine
 62
7
  6
BYLAYER
 10
398.7456864841
 20
381.7524929575
 11
371.6568948799
 21
397.3918602724
  0
LINE
  5
462
100
AcDbEntity
  8
0
100
AcDbLine
 62
7
  6
BYLAYER
 10
365.0637875309
 20
394.0412983403
 11
365.2980871068
 21
393.7147030172
  0
LINE
  5
463
100
AcDbEntity
  8
0
100
AcDbLine
 62
7
  6
BYLAYER
 10
366.2394916973
 20
393.6330548663
 11
366.0051921219
 21
393.9596501899
  0
LINE
  5
464
100
AcDbEntity
  8
0
100
AcDbLine
 62
7
  6
BYLAYER
 10
398.7456917716
 20
381.0192296392
 11
398.7456917716
 21
212.0032292934
  0
LINE
  5
465
100
AcDbEntity
  8
0
100
AcDbLine
 62
7
  6
BYLAYER
 10
399.0087287156
 20
212.369859426
 11
399.0087287156
 21
381.3858597718
  0
LINE
  5
466
100
AcDbEntity
  8
0
100
AcDbLine
 62
7
  6
BYLAYER
 10
327.2794969666
 20
116.3509199881
 11
326.7430947024
 21
115.1962314165
  0
LINE
  5
467
100
AcDbEntity
  8
0
100
AcDbLine
 62
7
  6
BYLAYER
 10
318.8186257391
 20
180.2957170203
 11
316.6973142275
 21
179.0709845586
  0
LINE
  5
468
100
AcDbEntity
  8
0
100
AcDbLine
 62
7
  6
BYLAYER
 10
317.4274175183
 20
177.8064155842
 11
319.5487290299
 21
179.0311480458
  0
LINE
  5
469
100
AcDbEntity
  8
0
100
AcDbLine
 62
7
  6
BYLAYER
 10
343.7918923942
 20
180.2758278169
 11
398.7456917716
 21
212.0032292934
  0
LINE
  5
46A
100
AcDbEntity
  8
0
100
AcDbLine
 62
7
  6
BYLAYER
 10
51.9655847175
 20
508.7506560884
 11
53.2280382463
 21
508.6343052405
  0
LINE
  5
46B
100
AcDbEntity
  8
0
100
AcDbLine
 62
7
  6
BYLAYER
 10
319.5487290299
 20
145.2671459053
 11
317.4274175183
 21
144.0424134437
  0
LINE
  5
46C
100
AcDbEntity
  8
0
100
AcDbLine
 62
7
  6
BYLAYER
 10
317.3620758808
 20
143.8979868125
 11
319.4833873921
 21
145.122719274
  0
LINE
  5
46D
100
AcDbEntity
  8
0
100
AcDbLine
 62
7
  6
BYLAYER
 10
310.4270129872
 20
139.7837959359
 11
310.3563026037
 21
139.7429715207
  0
LINE
  5
46E
100
AcDbEntity
  8
0
100
AcDbLine
 62
7
  6
BYLAYER
 10
399.0087092337
 20
381.3858597718
 11
398.7456864841
 21
381.7524929575
  0
LINE
  5
46F
100
AcDbEntity
  8
0
100
AcDbLine
 62
7
  6
BYLAYER
 10
399.0087092336
 20
212.369859426
 11
398.7456917711
 21
212.0032292931
  0
LINE
  5
470
100
AcDbEntity
  8
0
100
AcDbLine
 62
7
  6
BYLAYER
 10
332.4535115988
 20
126.6722896808
 11
338.9609712015
 21
131.0608856241
  0
LINE
  5
471
100
AcDbEntity
  8
0
100
AcDbLine
 62
7
  6
BYLAYER
 10
339.93536209
 20
133.3770908896
 11
332.4535115988
 21
128.4785807956
  0
LINE
  5
472
100
AcDbEntity
  8
0
100
AcDbLine
 62
7
  6
BYLAYER
 10
343.7918923947
 20
135.5154952575
 11
340.2563732082
 21
133.4089808186
  0
LINE
  5
473
100
AcDbEntity
  8
0
100
AcDbLine
 62
7
  6
BYLAYER
 10
332.4535115992
 20
119.4167216807
 11
327.2794969667
 21
116.351028717
  0
LINE
  5
474
100
AcDbEntity
  8
0
100
AcDbLine
 62
7
  6
BYLAYER
 10
339.2488026841
 20
131.1634831093
 11
342.7679453705
 21
133.2335004572
  0
LINE
  5
475
100
AcDbEntity
  8
0
100
AcDbLine
 62
7
  6
BYLAYER
 10
325.3824555622
 20
119.5849810932
 11
325.3117440016
 21
119.5441559984
  0
LINE
  5
476
100
AcDbEntity
  8
0
100
AcDbLine
 62
7
  6
BYLAYER
 10
324.8899479957
 20
118.6118473178
 11
325.3517369762
 21
118.8784597185
  0
LINE
  5
477
100
AcDbEntity
  8
0
100
AcDbLine
 62
7
  6
BYLAYER
 10
325.3824647634
 20
118.8252373122
 11
324.3174841622
 21
118.2103741456
  0
LINE
  5
478
100
AcDbEntity
  8
0
100
AcDbLine
 62
7
  6
BYLAYER
 10
326.7431038641
 20
115.1962151974
 11
331.7603832415
 21
117.9244690872
  0
ARC
  5
479
100
AcDbEntity
  8
0
100
AcDbCircle
 62
7
  6
BYLAYER
 10
156.0698896405
 20
189.9399043088
 40
36.8093289573
100
AcDbArc
 50
34.5304418013
 51
34.7057492696
  0
ARC
  5
47A
100
AcDbEntity
  8
0
100
AcDbCircle
 62
7
  6
BYLAYER
 10
157.3163965072
 20
190.7915415796
 40
35.3810738702
100
AcDbArc
 50
34.5280535218
 51
34.7147939897
  0
ARC
  5
47B
100
AcDbEntity
  8
0
100
AcDbCircle
 62
7
  6
BYLAYER
 10
10.0773900606
 20
471.3044499428
 40
80.8863193269
100
AcDbArc
 50
359.3136008257
 51
0.017487904
  0
ARC
  5
47C
100
AcDbEntity
  8
0
100
AcDbCircle
 62
7
  6
BYLAYER
 10
10.0066802993
 20
471.2636255227
 40
80.8863187048
100
AcDbArc
 50
359.3136008262
 51
0.0174879045
  0
ARC
  5
47D
100
AcDbEntity
  8
0
100
AcDbCircle
 62
7
  6
BYLAYER
 10
147.7119533382
 20
515.4900457784
 40
67.8963260975
100
AcDbArc
 50
228.7664851582
 51
228.8910952597
  0
ARC
  5
47E
100
AcDbEntity
  8
0
100
AcDbCircle
 62
7
  6
BYLAYER
 10
123.3800014828
 20
487.6877688811
 40
30.9503624908
100
AcDbArc
 50
228.9899456316
 51
229.400265102
  0
ARC
  5
47F
100
AcDbEntity
  8
0
100
AcDbCircle
 62
7
  6
BYLAYER
 10
92.9984087725
 20
483.5872605576
 40
12.0904460866
100
AcDbArc
 50
254.5392345015
 51
256.2802894803
  0
ARC
  5
480
100
AcDbEntity
  8
0
100
AcDbCircle
 62
7
  6
BYLAYER
 10
74.2664390974
 20
474.6063619526
 40
10.8961669681
100
AcDbArc
 50
11.330700668
 51
11.9557998623
  0
ARC
  5
481
100
AcDbEntity
  8
0
100
AcDbCircle
 62
7
  6
BYLAYER
 10
100.232348405
 20
460.5105518728
 40
4.7462516611
100
AcDbArc
 50
43.4605431435
 51
46.005683244
  0
ARC
  5
482
100
AcDbEntity
  8
0
100
AcDbCircle
 62
7
  6
BYLAYER
 10
72.2820363129
 20
507.4513973872
 40
4.4743040547
100
AcDbArc
 50
59.9903986238
 51
62.402135116
  0
ARC
  5
483
100
AcDbEntity
  8
0
100
AcDbCircle
 62
7
  6
BYLAYER
 10
90.8260734233
 20
469.1292608534
 40
3.2373916569
100
AcDbArc
 50
29.4759088731
 51
33.2341068035
  0
ARC
  5
484
100
AcDbEntity
  8
0
100
AcDbCircle
 62
7
  6
BYLAYER
 10
164.2291766279
 20
465.5953765582
 40
3.0506019529
100
AcDbArc
 50
295.6986088187
 51
299.9468815265
  0
ARC
  5
485
100
AcDbEntity
  8
0
100
AcDbCircle
 62
7
  6
BYLAYER
 10
162.7708784001
 20
463.1306076252
 40
2.6681241359
100
AcDbArc
 50
119.9543355729
 51
124.5972839981
  0
ARC
  5
486
100
AcDbEntity
  8
0
100
AcDbCircle
 62
7
  6
BYLAYER
 10
162.912847441
 20
463.3735208519
 40
2.1044794456
100
AcDbArc
 50
119.9272031073
 51
125.8380527162
  0
ARC
  5
487
100
AcDbEntity
  8
0
100
AcDbCircle
 62
7
  6
BYLAYER
 10
72.6280053298
 20
509.644922182
 40
1.9356122697
100
AcDbArc
 50
98.7196904967
 51
104.6003191823
  0
ARC
  5
488
100
AcDbEntity
  8
0
100
AcDbCircle
 62
7
  6
BYLAYER
 10
72.8720383399
 20
510.1299141793
 40
1.6654293254
100
AcDbArc
 50
119.8312861713
 51
129.903582098
  0
ARC
  5
489
100
AcDbEntity
  8
0
100
AcDbCircle
 62
7
  6
BYLAYER
 10
72.8572757815
 20
510.1528474264
 40
1.638191868
100
AcDbArc
 50
117.5629834841
 51
119.7823792591
  0
ARC
  5
48A
100
AcDbEntity
  8
0
100
AcDbCircle
 62
7
  6
BYLAYER
 10
177.1588562191
 20
192.4879780863
 40
23.2048569762
100
AcDbArc
 50
55.6612927977
 51
55.906792299
  0
ARC
  5
48B
100
AcDbEntity
  8
0
100
AcDbCircle
 62
7
  6
BYLAYER
 10
184.623685726
 20
188.3714884158
 40
23.0371555077
100
AcDbArc
 50
55.6553341663
 51
55.9042482144
  0
ARC
  5
48C
100
AcDbEntity
  8
0
100
AcDbCircle
 62
7
  6
BYLAYER
 10
181.665663742
 20
220.6594755021
 40
5.6240817144
100
AcDbArc
 50
220.4075951232
 51
222.7200255561
  0
ARC
  5
48D
100
AcDbEntity
  8
0
100
AcDbCircle
 62
7
  6
BYLAYER
 10
335.7925638458
 20
133.4086079357
 40
4.4638093671
100
AcDbArc
 50
358.0763640743
 51
0.0038194112
  0
ARC
  5
48E
100
AcDbEntity
  8
0
100
AcDbCircle
 62
7
  6
BYLAYER
 10
195.8162686141
 20
204.9032076919
 40
3.1031201453
100
AcDbArc
 50
22.6902512272
 51
34.0689660506
  0
ARC
  5
48F
100
AcDbEntity
  8
0
100
AcDbCircle
 62
7
  6
BYLAYER
 10
188.4462985075
 20
209.1606918699
 40
3.1008513841
100
AcDbArc
 50
22.674753978
 51
34.0636925851
  0
ARC
  5
490
100
AcDbEntity
  8
0
100
AcDbCircle
 62
7
  6
BYLAYER
 10
198.7195229352
 20
206.6796350958
 40
2.6461804218
100
AcDbArc
 50
188.7447729889
 51
204.5425159561
  0
ARC
  5
491
100
AcDbEntity
  8
0
100
AcDbCircle
 62
7
  6
BYLAYER
 10
184.2643467131
 20
209.5001884457
 40
2.5241888043
100
AcDbArc
 50
62.8287594073
 51
67.2145113971
  0
ARC
  5
492
100
AcDbEntity
  8
0
100
AcDbCircle
 62
7
  6
BYLAYER
 10
184.3734293399
 20
209.6265553023
 40
2.4304529378
100
AcDbArc
 50
64.4298889037
 51
68.4784472615
  0
ARC
  5
493
100
AcDbEntity
  8
0
100
AcDbCircle
 62
7
  6
BYLAYER
 10
184.3368888493
 20
209.6686247834
 40
2.3408033349
100
AcDbArc
 50
67.2548656709
 51
68.6274943026
  0
ARC
  5
494
100
AcDbEntity
  8
0
100
AcDbCircle
 62
7
  6
BYLAYER
 10
193.1199627623
 20
207.339038097
 40
2.3049383158
100
AcDbArc
 50
52.7794173674
 51
56.413158705
  0
ARC
  5
495
100
AcDbEntity
  8
0
100
AcDbCircle
 62
7
  6
BYLAYER
 10
184.4527178287
 20
209.8265069937
 40
2.2153549119
100
AcDbArc
 50
68.4889980849
 51
72.2865247652
  0
ARC
  5
496
100
AcDbEntity
  8
0
100
AcDbCircle
 62
7
  6
BYLAYER
 10
337.859755786
 20
132.6417357577
 40
1.9287355964
100
AcDbArc
 50
315.3965512372
 51
320.6853463433
  0
ARC
  5
497
100
AcDbEntity
  8
0
100
AcDbCircle
 62
7
  6
BYLAYER
 10
184.8645297863
 20
209.744670789
 40
1.9155329299
100
AcDbArc
 50
330.9585930866
 51
337.1768377766
  0
ARC
  5
498
100
AcDbEntity
  8
0
100
AcDbCircle
 62
7
  6
BYLAYER
 10
195.6718818826
 20
207.9776558767
 40
1.8255924201
100
AcDbArc
 50
187.4025995697
 51
189.9265378391
  0
ARC
  5
499
100
AcDbEntity
  8
0
100
AcDbCircle
 62
7
  6
BYLAYER
 10
338.4250820041
 20
132.5634692731
 40
1.62433825
100
AcDbArc
 50
300.471612856
 51
302.4140314804
  0
ARC
  5
49A
100
AcDbEntity
  8
0
100
AcDbCircle
 62
7
  6
BYLAYER
 10
200.9095202361
 20
200.7174622159
 40
1.0178110322
100
AcDbArc
 50
197.9932478836
 51
215.1551137577
  0
ARC
  5
49B
100
AcDbEntity
  8
0
100
AcDbCircle
 62
7
  6
BYLAYER
 10
194.1552599368
 20
204.6164468488
 40
1.0170462574
100
AcDbArc
 50
198.1057407438
 51
215.2998186362
  0
ARC
  5
49C
100
AcDbEntity
  8
0
100
AcDbCircle
 62
7
  6
BYLAYER
 10
192.0248104889
 20
205.7937527464
 40
0.9686158576
100
AcDbArc
 50
220.9270319606
 51
227.3781778236
  0
ARC
  5
49D
100
AcDbEntity
  8
0
100
AcDbCircle
 62
7
  6
BYLAYER
 10
191.9881058827
 20
205.755290976
 40
0.9154599311
100
AcDbArc
 50
227.4385153406
 51
240.0731024965
  0
ARC
  5
49E
100
AcDbEntity
  8
0
100
AcDbCircle
 62
7
  6
BYLAYER
 10
313.6414615514
 20
379.3341051281
 40
3.0506019529
100
AcDbArc
 50
295.6986088188
 51
299.9468815264
  0
ARC
  5
49F
100
AcDbEntity
  8
0
100
AcDbCircle
 62
7
  6
BYLAYER
 10
233.0309528846
 20
425.8735511435
 40
3.0506019529
100
AcDbArc
 50
295.6986088188
 51
299.9468815264
  0
ARC
  5
4A0
100
AcDbEntity
  8
0
100
AcDbCircle
 62
7
  6
BYLAYER
 10
312.1831633238
 20
376.869336195
 40
2.668124136
100
AcDbArc
 50
119.954335573
 51
124.597283998
  0
ARC
  5
4A1
100
AcDbEntity
  8
0
100
AcDbCircle
 62
7
  6
BYLAYER
 10
231.5726546569
 20
423.4087822104
 40
2.6681241358
100
AcDbArc
 50
119.9543355729
 51
124.5972839981
  0
ARC
  5
4A2
100
AcDbEntity
  8
0
100
AcDbCircle
 62
7
  6
BYLAYER
 10
312.3251323542
 20
377.112249432
 40
2.1044794315
100
AcDbArc
 50
119.9272031099
 51
125.8380526465
  0
ARC
  5
4A3
100
AcDbEntity
  8
0
100
AcDbCircle
 62
7
  6
BYLAYER
 10
231.7146236875
 20
423.6516954471
 40
2.1044794319
100
AcDbArc
 50
119.9272031097
 51
125.8380526491
  0
SPLINE
  5
4A4
100
AcDbEntity
  8
0
100
AcDbSpline
 62
7
  6
BYLAYER
 70
0
 71
3
 72
9
 73
5
 74
0
 42
0.0000001
 43
0.0000001
 44
0.0000000001
 40
0.0
 40
0.0
 40
0.0
 40
0.0
 40
0.5000005438
 40
1.0
 40
1.0
 40
1.0
 40
1.0
 10
371.6568948799
 20
397.3918602724
 30
0.0
 10
371.4905122306
 20
397.4879191666
 30
0.0
 10
371.0963356462
 20
397.5638869293
 30
0.0
 10
370.7021591049
 20
397.4879174622
 30
0.0
 10
370.5357775101
 20
397.3918575771
 30
0.0
  0
SPLINE
  5
4A5
100
AcDbEntity
  8
0
100
AcDbSpline
 62
7
  6
BYLAYER
 70
0
 71
3
 72
9
 73
5
 74
0
 42
0.0000001
 43
0.0000001
 44
0.0000000001
 40
0.0
 40
0.0
 40
0.0
 40
0.0
 40
0.5000005437
 40
1.0
 40
1.0
 40
1.0
 40
1.0
 10
361.7625679207
 20
391.6734822478
 30
0.0
 10
361.5946635742
 20
391.7704196745
 30
0.0
 10
361.1968819421
 20
391.8470822207
 30
0.0
 10
360.7991003532
 20
391.770417955
 30
0.0
 10
360.6311970708
 20
391.6734795284
 30
0.0
  0
SPLINE
  5
4A6
100
AcDbEntity
  8
0
100
AcDbSpline
 62
7
  6
BYLAYER
 70
0
 71
3
 72
9
 73
5
 74
0
 42
0.0000001
 43
0.0000001
 44
0.0000000001
 40
0.0
 40
0.0
 40
0.0
 40
0.0
 40
0.4999994564
 40
1.0
 40
1.0
 40
1.0
 40
1.0
 10
362.4696776459
 20
381.0589612792
 30
0.0
 10
362.301774363
 20
380.9620228523
 30
0.0
 10
361.9039927728
 20
380.8853585865
 30
0.0
 10
361.50621114
 20
380.962021134
 30
0.0
 10
361.338306793
 20
381.0589585608
 30
0.0
  0
SPLINE
  5
4A7
100
AcDbEntity
  8
0
100
AcDbSpline
 62
7
  6
BYLAYER
 70
0
 71
3
 72
9
 73
5
 74
0
 42
0.0000001
 43
0.0000001
 44
0.0000000001
 40
0.0
 40
0.0
 40
0.0
 40
0.0
 40
0.4999994566
 40
1.0
 40
1.0
 40
1.0
 40
1.0
 10
374.1369116064
 20
384.9372926618
 30
0.0
 10
373.969008311
 20
384.8403542277
 30
0.0
 10
373.5712266924
 20
384.7636899434
 30
0.0
 10
373.1734450319
 20
384.8403525107
 30
0.0
 10
373.0055406725
 20
384.9372899448
 30
0.0
  0
SPLINE
  5
4A8
100
AcDbEntity
  8
0
100
AcDbSpline
 62
7
  6
BYLAYER
 70
0
 71
3
 72
9
 73
5
 74
0
 42
0.0000001
 43
0.0000001
 44
0.0000000001
 40
0.0
 40
0.0
 40
0.0
 40
0.0
 40
0.5000005409
 40
1.0
 40
1.0
 40
1.0
 40
1.0
 10
373.0055406716
 20
395.1435701594
 30
0.0
 10
373.1734450228
 20
395.0466327301
 30
0.0
 10
373.5712266616
 20
394.9699701623
 30
0.0
 10
373.9690082684
 20
395.0466344267
 30
0.0
 10
374.1369115572
 20
395.1435728571
 30
0.0
  0
SPLINE
  5
4A9
100
AcDbEntity
  8
0
100
AcDbSpline
 62
7
  6
BYLAYER
 70
0
 71
3
 72
9
 73
5
 74
0
 42
0.0000001
 43
0.0000001
 44
0.0000000001
 40
0.0
 40
0.0
 40
0.0
 40
0.0
 40
0.5000005438
 40
1.0
 40
1.0
 40
1.0
 40
1.0
 10
361.3383067956
 20
391.2652387735
 30
0.0
 10
361.5062111421
 20
391.1683013469
 30
0.0
 10
361.9039927742
 20
391.0916388015
 30
0.0
 10
362.301774363
 20
391.1683030664
 30
0.0
 10
362.4696776453
 20
391.265241493
 30
0.0
  0
SPLINE
  5
4AA
100
AcDbEntity
  8
0
100
AcDbSpline
 62
7
  6
BYLAYER
 70
0
 71
3
 72
10
 73
6
 74
0
 42
0.0000001
 43
0.0000001
 44
0.0000000001
 40
0.0
 40
0.0
 40
0.0
 40
0.0
 40
0.4225571326
 40
0.7222470276
 40
1.0
 40
1.0
 40
1.0
 40
1.0
 10
313.4576027828
 20
377.9359274978
 30
0.0
 10
313.4575387022
 20
378.058274772
 30
0.0
 10
313.2043681104
 20
378.1993023696
 30
0.0
 10
312.9289162042
 20
378.202792901
 30
0.0
 10
312.7590749898
 20
378.159846172
 30
0.0
 10
312.6894285508
 20
378.1196360217
 30
0.0
  0
SPLINE
  5
4AB
100
AcDbEntity
  8
0
100
AcDbSpline
 62
7
  6
BYLAYER
 70
0
 71
3
 72
9
 73
5
 74
0
 42
0.0000001
 43
0.0000001
 44
0.0000000001
 40
0.0
 40
0.0
 40
0.0
 40
0.0
 40
0.4491683742
 40
1.0
 40
1.0
 40
1.0
 40
1.0
 10
315.4575227406
 20
377.9359275784
 30
0.0
 10
315.4576672073
 20
377.7451243559
 30
0.0
 10
315.2907937798
 20
377.3192435485
 30
0.0
 10
314.9426875148
 20
377.0527318331
 30
0.0
 10
314.7400467543
 20
376.9357378338
 30
0.0
  0
SPLINE
  5
4AC
100
AcDbEntity
  8
0
100
AcDbSpline
 62
7
  6
BYLAYER
 70
0
 71
3
 72
13
 73
9
 74
0
 42
0.0000001
 43
0.0000001
 44
0.0000000001
 40
0.0
 40
0.0
 40
0.0
 40
0.0
 40
0.087138266
 40
0.1868454572
 40
0.3045198199
 40
0.4386548173
 40
0.7300925801
 40
1.0
 40
1.0
 40
1.0
 40
1.0
 10
316.0575025065
 20
377.9359276073
 30
0.0
 10
316.0575057129
 20
378.1118293847
 30
0.0
 10
315.9513710078
 20
378.4924807713
 30
0.0
 10
315.5364568528
 20
378.9642569222
 30
0.0
 10
314.9240745329
 20
379.3376072584
 30
0.0
 10
313.8768776632
 20
379.6864923202
 30
0.0
 10
312.4507359671
 20
379.7587861203
 30
0.0
 10
311.3227970229
 20
379.4534852512
 30
0.0
 10
310.8509432654
 20
379.1810619835
 30
0.0
  0
SPLINE
  5
4AD
100
AcDbEntity
  8
0
100
AcDbSpline
 62
7
  6
BYLAYER
 70
0
 71
3
 72
10
 73
6
 74
0
 42
0.0000001
 43
0.0000001
 44
0.0000000001
 40
0.0
 40
0.0
 40
0.0
 40
0.0
 40
0.4225571326
 40
0.7222470276
 40
1.0
 40
1.0
 40
1.0
 40
1.0
 10
232.8470941161
 20
424.4753735131
 30
0.0
 10
232.8470300354
 20
424.5977207873
 30
0.0
 10
232.5938594436
 20
424.7387483849
 30
0.0
 10
232.3184075374
 20
424.7422389163
 30
0.0
 10
232.148566323
 20
424.6992921873
 30
0.0
 10
232.078919884
 20
424.659082037
 30
0.0
  0
SPLINE
  5
4AE
100
AcDbEntity
  8
0
100
AcDbSpline
 62
7
  6
BYLAYER
 70
0
 71
3
 72
9
 73
5
 74
0
 42
0.0000001
 43
0.0000001
 44
0.0000000001
 40
0.0
 40
0.0
 40
0.0
 40
0.0
 40
0.4491683742
 40
1.0
 40
1.0
 40
1.0
 40
1.0
 10
234.8470140737
 20
424.4753735937
 30
0.0
 10
234.8471585403
 20
424.2845703712
 30
0.0
 10
234.6802851127
 20
423.8586895639
 30
0.0
 10
234.3321788478
 20
423.5921778484
 30
0.0
 10
234.1295380872
 20
423.4751838491
 30
0.0
  0
SPLINE
  5
4AF
100
AcDbEntity
  8
0
100
AcDbSpline
 62
7
  6
BYLAYER
 70
0
 71
3
 72
13
 73
9
 74
0
 42
0.0000001
 43
0.0000001
 44
0.0000000001
 40
0.0
 40
0.0
 40
0.0
 40
0.0
 40
0.087138266
 40
0.1868454572
 40
0.3045198199
 40
0.4386548173
 40
0.7300925801
 40
1.0
 40
1.0
 40
1.0
 40
1.0
 10
235.4469938398
 20
424.4753736226
 30
0.0
 10
235.4469970461
 20
424.6512754
 30
0.0
 10
235.340862341
 20
425.0319267866
 30
0.0
 10
234.925948186
 20
425.5037029375
 30
0.0
 10
234.3135658661
 20
425.8770532737
 30
0.0
 10
233.2663689964
 20
426.2259383355
 30
0.0
 10
231.8402273004
 20
426.2982321356
 30
0.0
 10
230.7122883561
 20
425.9929312665
 30
0.0
 10
230.2404345987
 20
425.7205079988
 30
0.0
  0
SPLINE
  5
4B0
100
AcDbEntity
  8
0
100
AcDbSpline
 62
7
  6
BYLAYER
 70
0
 71
3
 72
10
 73
6
 74
0
 42
0.0000001
 43
0.0000001
 44
0.0000000001
 40
0.0
 40
0.0
 40
0.0
 40
0.0
 40
0.4225571326
 40
0.7222470276
 40
1.0
 40
1.0
 40
1.0
 40
1.0
 10
164.0453178593
 20
464.1971989279
 30
0.0
 10
164.0452537786
 20
464.3195462021
 30
0.0
 10
163.7920831868
 20
464.4605737997
 30
0.0
 10
163.5166312806
 20
464.4640643312
 30
0.0
 10
163.3467900662
 20
464.4211176021
 30
0.0
 10
163.2771436272
 20
464.3809074519
 30
0.0
  0
SPLINE
  5
4B1
100
AcDbEntity
  8
0
100
AcDbSpline
 62
7
  6
BYLAYER
 70
0
 71
3
 72
9
 73
5
 74
0
 42
0.0000001
 43
0.0000001
 44
0.0000000001
 40
0.0
 40
0.0
 40
0.0
 40
0.0
 40
0.4491683742
 40
1.0
 40
1.0
 40
1.0
 40
1.0
 10
166.0452378163
 20
464.1971990086
 30
0.0
 10
166.0453822829
 20
464.006395786
 30
0.0
 10
165.8785088552
 20
463.5805149788
 30
0.0
 10
165.5304025902
 20
463.3140032634
 30
0.0
 10
165.3277618296
 20
463.1970092641
 30
0.0
  0
SPLINE
  5
4B2
100
AcDbEntity
  8
0
100
AcDbSpline
 62
7
  6
BYLAYER
 70
0
 71
3
 72
13
 73
9
 74
0
 42
0.0000001
 43
0.0000001
 44
0.0000000001
 40
0.0
 40
0.0
 40
0.0
 40
0.0
 40
0.087138266
 40
0.1868454572
 40
0.3045198199
 40
0.4386548173
 40
0.7300925801
 40
1.0
 40
1.0
 40
1.0
 40
1.0
 10
166.645217583
 20
464.1971990374
 30
0.0
 10
166.6452207893
 20
464.3731008148
 30
0.0
 10
166.5390860842
 20
464.7537522014
 30
0.0
 10
166.1241719292
 20
465.2255283523
 30
0.0
 10
165.5117896093
 20
465.5988786885
 30
0.0
 10
164.4645927396
 20
465.9477637504
 30
0.0
 10
163.0384510436
 20
466.0200575505
 30
0.0
 10
161.9105120993
 20
465.7147566814
 30
0.0
 10
161.4386583419
 20
465.4423334136
 30
0.0
  0
SPLINE
  5
4B3
100
AcDbEntity
  8
0
100
AcDbSpline
 62
7
  6
BYLAYER
 70
0
 71
3
 72
9
 73
5
 74
0
 42
0.0000001
 43
0.0000001
 44
0.0000000001
 40
0.0
 40
0.0
 40
0.0
 40
0.0
 40
0.286350152
 40
1.0
 40
1.0
 40
1.0
 40
1.0
 10
312.6894285508
 20
378.1196360217
 30
0.0
 10
312.6728054673
 20
378.1100387373
 30
0.0
 10
312.6175112013
 20
378.0730417103
 30
0.0
 10
312.5713556759
 20
378.0152220319
 30
0.0
 10
312.5611712509
 20
377.9684812618
 30
0.0
  0
SPLINE
  5
4B4
100
AcDbEntity
  8
0
100
AcDbSpline
 62
7
  6
BYLAYER
 70
0
 71
3
 72
8
 73
4
 74
0
 42
0.0000001
 43
0.0000001
 44
0.0000000001
 40
0.0
 40
0.0
 40
0.0
 40
0.0
 40
1.0
 40
1.0
 40
1.0
 40
1.0
 10
314.7400467543
 20
376.9357378338
 30
0.0
 10
314.6737910317
 20
376.8974853029
 30
0.0
 10
314.6055485256
 20
376.8625421315
 30
0.0
 10
314.5360512992
 20
376.8305544397
 30
0.0
  0
SPLINE
  5
4B5
100
AcDbEntity
  8
0
100
AcDbSpline
 62
7
  6
BYLAYER
 70
0
 71
3
 72
9
 73
5
 74
0
 42
0.0000001
 43
0.0000001
 44
0.0000000001
 40
0.0
 40
0.0
 40
0.0
 40
0.0
 40
0.286350152
 40
1.0
 40
1.0
 40
1.0
 40
1.0
 10
232.078919884
 20
424.659082037
 30
0.0
 10
232.0622968005
 20
424.6494847526
 30
0.0
 10
232.0070025345
 20
424.6124877256
 30
0.0
 10
231.9608470091
 20
424.5546680472
 30
0.0
 10
231.9506625841
 20
424.5079272771
 30
0.0
  0
SPLINE
  5
4B6
100
AcDbEntity
  8
0
100
AcDbSpline
 62
7
  6
BYLAYER
 70
0
 71
3
 72
8
 73
4
 74
0
 42
0.0000001
 43
0.0000001
 44
0.0000000001
 40
0.0
 40
0.0
 40
0.0
 40
0.0
 40
1.0
 40
1.0
 40
1.0
 40
1.0
 10
234.1295380872
 20
423.4751838491
 30
0.0
 10
234.0632823647
 20
423.4369313182
 30
0.0
 10
233.9950398586
 20
423.4019881469
 30
0.0
 10
233.9255426323
 20
423.3700004551
 30
0.0
  0
SPLINE
  5
4B7
100
AcDbEntity
  8
0
100
AcDbSpline
 62
7
  6
BYLAYER
 70
0
 71
3
 72
9
 73
5
 74
0
 42
0.0000001
 43
0.0000001
 44
0.0000000001
 40
0.0
 40
0.0
 40
0.0
 40
0.0
 40
0.286350152
 40
1.0
 40
1.0
 40
1.0
 40
1.0
 10
163.2771436272
 20
464.3809074519
 30
0.0
 10
163.2605205437
 20
464.3713101674
 30
0.0
 10
163.2052262777
 20
464.3343131404
 30
0.0
 10
163.1590707523
 20
464.276493462
 30
0.0
 10
163.1488863273
 20
464.2297526919
 30
0.0
  0
SPLINE
  5
4B8
100
AcDbEntity
  8
0
100
AcDbSpline
 62
7
  6
BYLAYER
 70
0
 71
3
 72
8
 73
4
 74
0
 42
0.0000001
 43
0.0000001
 44
0.0000000001
 40
0.0
 40
0.0
 40
0.0
 40
0.0
 40
1.0
 40
1.0
 40
1.0
 40
1.0
 10
165.3277618296
 20
463.1970092641
 30
0.0
 10
165.2615061072
 20
463.1587567332
 30
0.0
 10
165.1932636013
 20
463.1238135619
 30
0.0
 10
165.1237663751
 20
463.0918258702
 30
0.0
  0
SPLINE
  5
4B9
100
AcDbEntity
  8
0
100
AcDbSpline
 62
7
  6
BYLAYER
 70
0
 71
3
 72
13
 73
9
 74
0
 42
0.0000001
 43
0.0000001
 44
0.0000000001
 40
0.0
 40
0.0
 40
0.0
 40
0.0
 40
0.269904048
 40
0.5613092474
 40
0.6954524627
 40
0.813137782
 40
0.9128550148
 40
1.0
 40
1.0
 40
1.0
 40
1.0
 10
311.2752090976
 20
378.9361175284
 30
0.0
 10
311.6542350546
 20
379.1549469605
 30
0.0
 10
312.5602341588
 20
379.4001770949
 30
0.0
 10
313.7057628
 20
379.342082008
 30
0.0
 10
314.5469616626
 20
379.0619006651
 30
0.0
 10
315.0389314143
 20
378.7620407238
 30
0.0
 10
315.3723606419
 20
378.3830440067
 30
0.0
 10
315.4574157483
 20
378.0772368153
 30
0.0
 10
315.4575227406
 20
377.9359275784
 30
0.0
  0
SPLINE
  5
4BA
100
AcDbEntity
  8
0
100
AcDbSpline
 62
7
  6
BYLAYER
 70
0
 71
3
 72
9
 73
5
 74
0
 42
0.0000001
 43
0.0000001
 44
0.0000000001
 40
0.0
 40
0.0
 40
0.0
 40
0.0
 40
0.5508527107
 40
1.0
 40
1.0
 40
1.0
 40
1.0
 10
315.1643125888
 20
376.6907933809
 30
0.0
 10
315.4165891709
 20
376.8364444641
 30
0.0
 10
315.8500471852
 20
377.1682376236
 30
0.0
 10
316.057498177
 20
377.6984082821
 30
0.0
 10
316.0575025065
 20
377.9359276073
 30
0.0
  0
SPLINE
  5
4BB
100
AcDbEntity
  8
0
100
AcDbSpline
 62
7
  6
BYLAYER
 70
0
 71
3
 72
13
 73
9
 74
0
 42
0.0000001
 43
0.0000001
 44
0.0000000001
 40
0.0
 40
0.0
 40
0.0
 40
0.0
 40
0.269904048
 40
0.5613092474
 40
0.6954524627
 40
0.813137782
 40
0.9128550148
 40
1.0
 40
1.0
 40
1.0
 40
1.0
 10
230.6647004308
 20
425.4755635438
 30
0.0
 10
231.0437263879
 20
425.6943929759
 30
0.0
 10
231.949725492
 20
425.9396231104
 30
0.0
 10
233.0952541332
 20
425.8815280234
 30
0.0
 10
233.9364529958
 20
425.6013466804
 30
0.0
 10
234.4284227475
 20
425.3014867392
 30
0.0
 10
234.761851975
 20
424.922490022
 30
0.0
 10
234.8469070814
 20
424.6166828306
 30
0.0
 10
234.8470140737
 20
424.4753735937
 30
0.0
  0
SPLINE
  5
4BC
100
AcDbEntity
  8
0
100
AcDbSpline
 62
7
  6
BYLAYER
 70
0
 71
3
 72
9
 73
5
 74
0
 42
0.0000001
 43
0.0000001
 44
0.0000000001
 40
0.0
 40
0.0
 40
0.0
 40
0.0
 40
0.5508527107
 40
1.0
 40
1.0
 40
1.0
 40
1.0
 10
234.5538039221
 20
423.2302393962
 30
0.0
 10
234.8060805041
 20
423.3758904794
 30
0.0
 10
235.2395385185
 20
423.7076836389
 30
0.0
 10
235.4469895103
 20
424.2378542974
 30
0.0
 10
235.4469938398
 20
424.4753736226
 30
0.0
  0
SPLINE
  5
4BD
100
AcDbEntity
  8
0
100
AcDbSpline
 62
7
  6
BYLAYER
 70
0
 71
3
 72
13
 73
9
 74
0
 42
0.0000001
 43
0.0000001
 44
0.0000000001
 40
0.0
 40
0.0
 40
0.0
 40
0.0
 40
0.2699040481
 40
0.5613092475
 40
0.6954524627
 40
0.8131377821
 40
0.9128550148
 40
1.0
 40
1.0
 40
1.0
 40
1.0
 10
161.8629241775
 20
465.1973889606
 30
0.0
 10
162.2419501344
 20
465.4162183926
 30
0.0
 10
163.1479492384
 20
465.6614485257
 30
0.0
 10
164.2934778786
 20
465.6033534381
 30
0.0
 10
165.1346767401
 20
465.3231720947
 30
0.0
 10
165.6266464911
 20
465.0233121535
 30
0.0
 10
165.960075718
 20
464.6443154365
 30
0.0
 10
166.0451308241
 20
464.3385082453
 30
0.0
 10
166.0452378163
 20
464.1971990086
 30
0.0
  0
SPLINE
  5
4BE
100
AcDbEntity
  8
0
100
AcDbSpline
 62
7
  6
BYLAYER
 70
0
 71
3
 72
9
 73
5
 74
0
 42
0.0000001
 43
0.0000001
 44
0.0000000001
 40
0.0
 40
0.0
 40
0.0
 40
0.0
 40
0.5508527107
 40
1.0
 40
1.0
 40
1.0
 40
1.0
 10
165.7520276653
 20
462.952064811
 30
0.0
 10
166.0043042473
 20
463.0977158942
 30
0.0
 10
166.4377622617
 20
463.4295090537
 30
0.0
 10
166.6452132535
 20
463.9596797122
 30
0.0
 10
166.645217583
 20
464.1971990374
 30
0.0
  0
SPLINE
  5
4BF
100
AcDbEntity
  8
0
100
AcDbSpline
 62
7
  6
BYLAYER
 70
0
 71
3
 72
9
 73
5
 74
0
 42
0.0000001
 43
0.0000001
 44
0.0000000001
 40
0.0
 40
0.0
 40
0.0
 40
0.0
 40
0.2675461811
 40
1.0
 40
1.0
 40
1.0
 40
1.0
 10
313.0337039293
 20
377.6765717151
 30
0.0
 10
313.0607379366
 20
377.6774681591
 30
0.0
 10
313.1613313776
 20
377.6861397319
 30
0.0
 10
313.2616972152
 20
377.71519404
 30
0.0
 10
313.3258273034
 20
377.7522193427
 30
0.0
  0
SPLINE
  5
4C0
100
AcDbEntity
  8
0
100
AcDbSpline
 62
7
  6
BYLAYER
 70
0
 71
3
 72
9
 73
5
 74
0
 42
0.0000001
 43
0.0000001
 44
0.0000000001
 40
0.0
 40
0.0
 40
0.0
 40
0.0
 40
0.2675461811
 40
1.0
 40
1.0
 40
1.0
 40
1.0
 10
232.4231952626
 20
424.2160177304
 30
0.0
 10
232.4502292699
 20
424.2169141744
 30
0.0
 10
232.5508227109
 20
424.2255857473
 30
0.0
 10
232.6511885485
 20
424.2546400553
 30
0.0
 10
232.7153186367
 20
424.291665358
 30
0.0
  0
SPLINE
  5
4C1
100
AcDbEntity
  8
0
100
AcDbSpline
 62
7
  6
BYLAYER
 70
0
 71
3
 72
9
 73
5
 74
0
 42
0.0000001
 43
0.0000001
 44
0.0000000001
 40
0.0
 40
0.0
 40
0.0
 40
0.0
 40
0.2675461811
 40
1.0
 40
1.0
 40
1.0
 40
1.0
 10
163.6214190058
 20
463.9378431452
 30
0.0
 10
163.6484530131
 20
463.9387395893
 30
0.0
 10
163.7490464541
 20
463.9474111621
 30
0.0
 10
163.8494122917
 20
463.9764654701
 30
0.0
 10
163.9135423799
 20
464.0134907728
 30
0.0
  0
SPLINE
  5
4C2
100
AcDbEntity
  8
0
100
AcDbSpline
 62
7
  6
BYLAYER
 70
0
 71
3
 72
9
 73
5
 74
0
 42
0.0000001
 43
0.0000001
 44
0.0000000001
 40
0.0
 40
0.0
 40
0.0
 40
0.0
 40
0.5000011283
 40
1.0
 40
1.0
 40
1.0
 40
1.0
 10
53.5694766269
 20
276.3718247781
 30
0.0
 10
53.5694766269
 20
275.8958549513
 30
0.0
 10
53.8947547585
 20
274.9560304364
 30
0.0
 10
54.5460311893
 20
274.2044202581
 30
0.0
 10
54.9582336217
 20
273.9664404567
 30
0.0
  0
SPLINE
  5
4C3
100
AcDbEntity
  8
0
100
AcDbSpline
 62
7
  6
BYLAYER
 70
0
 71
3
 72
9
 73
5
 74
0
 42
0.0000001
 43
0.0000001
 44
0.0000000001
 40
0.0
 40
0.0
 40
0.0
 40
0.0
 40
0.2135422499
 40
1.0
 40
1.0
 40
1.0
 40
1.0
 10
98.8041345221
 20
469.3054523765
 30
0.0
 10
98.7801226804
 20
469.2915887145
 30
0.0
 10
98.6861511721
 20
469.1937556585
 30
0.0
 10
98.6862442244
 20
469.0495888814
 30
0.0
 10
98.6830794462
 20
468.9475228974
 30
0.0
  0
SPLINE
  5
4C4
100
AcDbEntity
  8
0
100
AcDbSpline
 62
7
  6
BYLAYER
 70
0
 71
3
 72
9
 73
5
 74
0
 42
0.0000001
 43
0.0000001
 44
0.0000000001
 40
0.0
 40
0.0
 40
0.0
 40
0.0
 40
0.2187624203
 40
1.0
 40
1.0
 40
1.0
 40
1.0
 10
100.3385367702
 20
467.0693663297
 30
0.0
 10
100.3149990731
 20
467.0557763003
 30
0.0
 10
100.2245504665
 20
466.9626636701
 30
0.0
 10
100.2239254083
 20
466.8246986013
 30
0.0
 10
100.2210430989
 20
466.7276796811
 30
0.0
  0
SPLINE
  5
4C5
100
AcDbEntity
  8
0
100
AcDbSpline
 62
7
  6
BYLAYER
 70
0
 71
3
 72
9
 73
5
 74
0
 42
0.0000001
 43
0.0000001
 44
0.0000000001
 40
0.0
 40
0.0
 40
0.0
 40
0.0
 40
0.4502624224
 40
1.0
 40
1.0
 40
1.0
 40
1.0
 10
100.3254069118
 20
468.344210381
 30
0.0
 10
100.2905764302
 20
468.3241008952
 30
0.0
 10
100.227379069
 20
468.2500089614
 30
0.0
 10
100.2235237521
 20
468.1574395779
 30
0.0
 10
100.2210430996
 20
468.1083980252
 30
0.0
  0
SPLINE
  5
4C6
100
AcDbEntity
  8
0
100
AcDbSpline
 62
7
  6
BYLAYER
 70
0
 71
3
 72
9
 73
5
 74
0
 42
0.0000001
 43
0.0000001
 44
0.0000000001
 40
0.0
 40
0.0
 40
0.0
 40
0.0
 40
0.4522946919
 40
1.0
 40
1.0
 40
1.0
 40
1.0
 10
101.6566494592
 20
464.078989356
 30
0.0
 10
101.6273817693
 20
464.0620921518
 30
0.0
 10
101.5733414063
 20
464.0015626133
 30
0.0
 10
101.5686969879
 20
463.9238962918
 30
0.0
 10
101.5667612953
 20
463.8830179119
 30
0.0
  0
SPLINE
  5
4C7
100
AcDbEntity
  8
0
100
AcDbSpline
 62
7
  6
BYLAYER
 70
0
 71
3
 72
9
 73
5
 74
0
 42
0.0000001
 43
0.0000001
 44
0.0000000001
 40
0.0
 40
0.0
 40
0.0
 40
0.0
 40
0.2107021001
 40
1.0
 40
1.0
 40
1.0
 40
1.0
 10
102.4131942
 20
465.2747125026
 30
0.0
 10
102.4386784902
 20
465.2894256383
 30
0.0
 10
102.5799341868
 20
465.3232257744
 30
0.0
 10
102.717380448
 20
465.2543824088
 30
0.0
 10
102.8138708294
 20
465.2010817556
 30
0.0
  0
SPLINE
  5
4C8
100
AcDbEntity
  8
0
100
AcDbSpline
 62
7
  6
BYLAYER
 70
0
 71
3
 72
11
 73
7
 74
0
 42
0.0000001
 43
0.0000001
 44
0.0000000001
 40
0.0
 40
0.0
 40
0.0
 40
0.0
 40
0.2246496033
 40
0.483350473
 40
0.7486344618
 40
1.0
 40
1.0
 40
1.0
 40
1.0
 10
88.9550970756
 20
471.5082970074
 30
0.0
 10
89.0351089274
 20
471.5544910643
 30
0.0
 10
89.2570282822
 20
471.5205569899
 30
0.0
 10
89.5346848492
 20
471.4119494034
 30
0.0
 10
89.8395259448
 20
471.309281394
 30
0.0
 10
90.0433993127
 20
471.2499240064
 30
0.0
 10
90.1447295146
 20
471.2294571226
 30
0.0
  0
SPLINE
  5
4C9
100
AcDbEntity
  8
0
100
AcDbSpline
 62
7
  6
BYLAYER
 70
0
 71
3
 72
9
 73
5
 74
0
 42
0.0000001
 43
0.0000001
 44
0.0000000001
 40
0.0
 40
0.0
 40
0.0
 40
0.0
 40
0.7328046408
 40
1.0
 40
1.0
 40
1.0
 40
1.0
 10
89.0062587434
 20
472.8862839027
 30
0.0
 10
89.0645005678
 20
472.9199096655
 30
0.0
 10
89.1611491917
 20
472.9440413184
 30
0.0
 10
89.2513818804
 20
472.9253217691
 30
0.0
 10
89.2750365534
 20
472.9188600849
 30
0.0
  0
SPLINE
  5
4CA
100
AcDbEntity
  8
0
100
AcDbSpline
 62
7
  6
BYLAYER
 70
0
 71
3
 72
9
 73
5
 74
0
 42
0.0000001
 43
0.0000001
 44
0.0000000001
 40
0.0
 40
0.0
 40
0.0
 40
0.0
 40
0.2374752135
 40
1.0
 40
1.0
 40
1.0
 40
1.0
 10
89.2750365534
 20
472.9188600849
 30
0.0
 10
89.3010581824
 20
472.9117518256
 30
0.0
 10
89.408441249
 20
472.8738899138
 30
0.0
 10
89.5088667385
 20
472.8197083198
 30
0.0
 10
89.5845660292
 20
472.7776139713
 30
0.0
  0
SPLINE
  5
4CB
100
AcDbEntity
  8
0
100
AcDbSpline
 62
7
  6
BYLAYER
 70
0
 71
3
 72
9
 73
5
 74
0
 42
0.0000001
 43
0.0000001
 44
0.0000000001
 40
0.0
 40
0.0
 40
0.0
 40
0.0
 40
0.2179050124
 40
1.0
 40
1.0
 40
1.0
 40
1.0
 10
91.6566120387
 20
468.4753080016
 30
0.0
 10
91.6410633362
 20
468.4663309726
 30
0.0
 10
91.5769156665
 20
468.4105159299
 30
0.0
 10
91.5674834632
 20
468.3181026652
 30
0.0
 10
91.5650256901
 20
468.2537095456
 30
0.0
  0
SPLINE
  5
4CC
100
AcDbEntity
  8
0
100
AcDbSpline
 62
7
  6
BYLAYER
 70
0
 71
3
 72
9
 73
5
 74
0
 42
0.0000001
 43
0.0000001
 44
0.0000000001
 40
0.0
 40
0.0
 40
0.0
 40
0.0
 40
0.2114704707
 40
1.0
 40
1.0
 40
1.0
 40
1.0
 10
91.8696628577
 20
471.6760239046
 30
0.0
 10
91.7977981707
 20
471.6345329393
 30
0.0
 10
91.5037564727
 20
471.3537057841
 30
0.0
 10
91.4757973174
 20
470.9149966675
 30
0.0
 10
91.4705602492
 20
470.6056178469
 30
0.0
  0
SPLINE
  5
4CD
100
AcDbEntity
  8
0
100
AcDbSpline
 62
7
  6
BYLAYER
 70
0
 71
3
 72
9
 73
5
 74
0
 42
0.0000001
 43
0.0000001
 44
0.0000000001
 40
0.0
 40
0.0
 40
0.0
 40
0.0
 40
0.2107044118
 40
1.0
 40
1.0
 40
1.0
 40
1.0
 10
93.8412111349
 20
470.8308363227
 30
0.0
 10
93.8197848781
 20
470.8184660842
 30
0.0
 10
93.7328970095
 20
470.7327908213
 30
0.0
 10
93.7280027058
 20
470.601670226
 30
0.0
 10
93.7261297882
 20
470.5090104773
 30
0.0
  0
SPLINE
  5
4CE
100
AcDbEntity
  8
0
100
AcDbSpline
 62
7
  6
BYLAYER
 70
0
 71
3
 72
9
 73
5
 74
0
 42
0.0000001
 43
0.0000001
 44
0.0000000001
 40
0.0
 40
0.0
 40
0.0
 40
0.0
 40
0.44737992
 40
1.0
 40
1.0
 40
1.0
 40
1.0
 10
96.1027345183
 20
468.8064631307
 30
0.0
 10
96.1648418634
 20
468.8423206147
 30
0.0
 10
96.3384260326
 20
468.8636381156
 30
0.0
 10
96.4854469985
 20
468.7905346801
 30
0.0
 10
96.5634075594
 20
468.7484690874
 30
0.0
  0
SPLINE
  5
4CF
100
AcDbEntity
  8
0
100
AcDbSpline
 62
7
  6
BYLAYER
 70
0
 71
3
 72
9
 73
5
 74
0
 42
0.0000001
 43
0.0000001
 44
0.0000000001
 40
0.0
 40
0.0
 40
0.0
 40
0.0
 40
0.4491719369
 40
1.0
 40
1.0
 40
1.0
 40
1.0
 10
81.1671775799
 20
482.6964619615
 30
0.0
 10
80.9648428722
 20
482.5796445643
 30
0.0
 10
80.6152044297
 20
482.1422445553
 30
0.0
 10
80.5457317299
 20
481.6098364735
 30
0.0
 10
80.5457144076
 20
481.3233245905
 30
0.0
  0
SPLINE
  5
4D0
100
AcDbEntity
  8
0
100
AcDbSpline
 62
7
  6
BYLAYER
 70
0
 71
3
 72
13
 73
9
 74
0
 42
0.0000001
 43
0.0000001
 44
0.0000000001
 40
0.0
 40
0.0
 40
0.0
 40
0.0
 40
0.0879859336
 40
0.185485002
 40
0.2991043603
 40
0.4246692925
 40
0.7018300014
 40
1.0
 40
1.0
 40
1.0
 40
1.0
 10
177.0686438978
 20
220.1734617151
 30
0.0
 10
177.0076752674
 20
220.1382617322
 30
0.0
 10
176.8936721656
 20
220.0354048775
 30
0.0
 10
176.7938271379
 20
219.8119509446
 30
0.0
 10
176.764697052
 20
219.5415736355
 30
0.0
 10
176.7923346282
 20
219.1279110955
 30
0.0
 10
176.970281478
 20
218.5859192665
 30
0.0
 10
177.2256925042
 20
218.1979749202
 30
0.0
 10
177.3745340152
 20
218.011522709
 30
0.0
  0
SPLINE
  5
4D1
100
AcDbEntity
  8
0
100
AcDbSpline
 62
7
  6
BYLAYER
 70
0
 71
3
 72
14
 73
10
 74
0
 42
0.0000001
 43
0.0000001
 44
0.0000000001
 40
0.0
 40
0.0
 40
0.0
 40
0.0
 40
0.2654628843
 40
0.3961370754
 40
0.5267926388
 40
0.65893005
 40
0.726345856
 40
0.7961447215
 40
1.0
 40
1.0
 40
1.0
 40
1.0
 10
177.3745340152
 20
218.011522709
 30
0.0
 10
177.5083668912
 20
217.8438716585
 30
0.0
 10
177.7299144831
 20
217.6113225876
 30
0.0
 10
178.0370043046
 20
217.3169608245
 30
0.0
 10
178.2637500469
 20
217.0933487564
 30
0.0
 10
178.4430695527
 20
216.89729939
 30
0.0
 10
178.5791375695
 20
216.7233613353
 30
0.0
 10
178.7302061561
 20
216.5124259521
 30
0.0
 10
178.8162277289
 20
216.1724146008
 30
0.0
 10
178.6735639628
 20
216.0900480127
 30
0.0
  0
SPLINE
  5
4D2
100
AcDbEntity
  8
0
100
AcDbSpline
 62
7
  6
BYLAYER
 70
0
 71
3
 72
12
 73
8
 74
0
 42
0.0000001
 43
0.0000001
 44
0.0000000001
 40
0.0
 40
0.0
 40
0.0
 40
0.0
 40
0.091113151
 40
0.2006661705
 40
0.4505223106
 40
0.7207923093
 40
1.0
 40
1.0
 40
1.0
 40
1.0
 10
177.8443689216
 20
219.193331528
 30
0.0
 10
177.9021821803
 20
219.2266858459
 30
0.0
 10
178.0656241487
 20
219.2123226608
 30
0.0
 10
178.3636975033
 20
219.0827682812
 30
0.0
 10
178.7440668339
 20
218.8084221447
 30
0.0
 10
179.1676040102
 20
218.4056957088
 30
0.0
 10
179.4418517923
 20
218.1104052296
 30
0.0
 10
179.5810266644
 20
217.9605242314
 30
0.0
  0
SPLINE
  5
4D3
100
AcDbEntity
  8
0
100
AcDbSpline
 62
7
  6
BYLAYER
 70
0
 71
3
 72
11
 73
7
 74
0
 42
0.0000001
 43
0.0000001
 44
0.0000000001
 40
0.0
 40
0.0
 40
0.0
 40
0.0
 40
0.237579613
 40
0.5000000646
 40
0.7624204385
 40
1.0
 40
1.0
 40
1.0
 40
1.0
 10
51.4603028967
 20
275.5916681827
 30
0.0
 10
51.4603261398
 20
275.3015325486
 30
0.0
 10
51.5723385841
 20
274.6913051306
 30
0.0
 10
51.9464928963
 20
273.8311906082
 30
0.0
 10
52.504293119
 20
273.0771034916
 30
0.0
 10
52.9767575122
 20
272.6749823389
 30
0.0
 10
53.2280098981
 20
272.5298930947
 30
0.0
  0
SPLINE
  5
4D4
100
AcDbEntity
  8
0
100
AcDbSpline
 62
7
  6
BYLAYER
 70
0
 71
3
 72
9
 73
5
 74
0
 42
0.0000001
 43
0.0000001
 44
0.0000000001
 40
0.0
 40
0.0
 40
0.0
 40
0.0
 40
0.2718237917
 40
1.0
 40
1.0
 40
1.0
 40
1.0
 10
325.3824555622
 20
118.8252532492
 30
0.0
 10
325.3824555622
 20
118.7841758356
 30
0.0
 10
325.3757610704
 20
118.633407948
 30
0.0
 10
325.3408075014
 20
118.4818678095
 30
0.0
 10
325.2926737454
 20
118.3829131313
 30
0.0
  0
SPLINE
  5
4D5
100
AcDbEntity
  8
0
100
AcDbSpline
 62
7
  6
BYLAYER
 70
0
 71
3
 72
9
 73
5
 74
0
 42
0.0000001
 43
0.0000001
 44
0.0000000001
 40
0.0
 40
0.0
 40
0.0
 40
0.0
 40
0.2649086932
 40
1.0
 40
1.0
 40
1.0
 40
1.0
 10
325.2926737454
 20
118.3829131313
 30
0.0
 10
325.2797332621
 20
118.3563097353
 30
0.0
 10
325.2248902022
 20
118.2590386673
 30
0.0
 10
325.141603212
 20
118.1768599158
 30
0.0
 10
325.0705098188
 20
118.1358143825
 30
0.0
  0
SPLINE
  5
4D6
100
AcDbEntity
  8
0
100
AcDbSpline
 62
7
  6
BYLAYER
 70
0
 71
3
 72
9
 73
5
 74
0
 42
0.0000001
 43
0.0000001
 44
0.0000000001
 40
0.0
 40
0.0
 40
0.0
 40
0.0
 40
0.4999988717
 40
1.0
 40
1.0
 40
1.0
 40
1.0
 10
324.3379422784
 20
349.9219488953
 30
0.0
 10
324.6479683793
 20
349.7429592918
 30
0.0
 10
325.1378070515
 20
349.1776575011
 30
0.0
 10
325.3824555622
 20
348.4707957582
 30
0.0
 10
325.3824555622
 20
348.1128088615
 30
0.0
  0
SPLINE
  5
4D7
100
AcDbEntity
  8
0
100
AcDbSpline
 62
7
  6
BYLAYER
 70
0
 71
3
 72
9
 73
5
 74
0
 42
0.0000001
 43
0.0000001
 44
0.0000000001
 40
0.0
 40
0.0
 40
0.0
 40
0.0
 40
0.4213101268
 40
1.0
 40
1.0
 40
1.0
 40
1.0
 10
181.0359940328
 20
215.931123024
 30
0.0
 10
181.2207032567
 20
216.0377640371
 30
0.0
 10
181.808347423
 20
215.8179216103
 30
0.0
 10
182.1227518912
 20
215.4559502556
 30
0.0
 10
182.3235545547
 20
215.2426407129
 30
0.0
  0
SPLINE
  5
4D8
100
AcDbEntity
  8
0
100
AcDbSpline
 62
7
  6
BYLAYER
 70
0
 71
3
 72
10
 73
6
 74
0
 42
0.0000001
 43
0.0000001
 44
0.0000000001
 40
0.0
 40
0.0
 40
0.0
 40
0.0
 40
0.1965830417
 40
0.5542969579
 40
1.0
 40
1.0
 40
1.0
 40
1.0
 10
180.3275163322
 20
216.8126037528
 30
0.0
 10
180.2324109946
 20
216.7576949896
 30
0.0
 10
180.0098118874
 20
216.5196626207
 30
0.0
 10
179.9098534301
 20
215.9439189075
 30
0.0
 10
179.9787031473
 20
215.4963423667
 30
0.0
 10
180.0486006033
 20
215.2573698408
 30
0.0
  0
SPLINE
  5
4D9
100
AcDbEntity
  8
0
100
AcDbSpline
 62
7
  6
BYLAYER
 70
0
 71
3
 72
10
 73
6
 74
0
 42
0.0000001
 43
0.0000001
 44
0.0000000001
 40
0.0
 40
0.0
 40
0.0
 40
0.0
 40
0.5520361236
 40
0.7909433835
 40
1.0
 40
1.0
 40
1.0
 40
1.0
 10
180.0486006033
 20
215.2573698408
 30
0.0
 10
180.2162348453
 20
214.684244858
 30
0.0
 10
180.749802585
 20
213.9359099829
 30
0.0
 10
181.6656684751
 20
213.3402700157
 30
0.0
 10
182.1418898131
 20
213.2205350701
 30
0.0
 10
182.3637901831
 20
213.1769689424
 30
0.0
  0
SPLINE
  5
4DA
100
AcDbEntity
  8
0
100
AcDbSpline
 62
7
  6
BYLAYER
 70
0
 71
3
 72
9
 73
5
 74
0
 42
0.0000001
 43
0.0000001
 44
0.0000000001
 40
0.0
 40
0.0
 40
0.0
 40
0.0
 40
0.5509390081
 40
1.0
 40
1.0
 40
1.0
 40
1.0
 10
332.4535115988
 20
119.4167216804
 30
0.0
 10
332.4534926691
 20
119.103616517
 30
0.0
 10
332.3712010995
 20
118.5231592556
 30
0.0
 10
331.9847386958
 20
118.0461024267
 30
0.0
 10
331.7603736626
 20
117.9244850687
 30
0.0
  0
SPLINE
  5
4DB
100
AcDbEntity
  8
0
100
AcDbSpline
 62
7
  6
BYLAYER
 70
0
 71
3
 72
11
 73
7
 74
0
 42
0.0000001
 43
0.0000001
 44
0.0000000001
 40
0.0
 40
0.0
 40
0.0
 40
0.0
 40
0.2375778134
 40
0.4999989071
 40
0.7624206023
 40
1.0
 40
1.0
 40
1.0
 40
1.0
 10
330.1378121297
 20
354.738346043
 30
0.0
 10
330.4669556805
 20
354.5482926925
 30
0.0
 10
331.0858913813
 20
354.0215271507
 30
0.0
 10
331.8166157688
 20
353.0336824172
 30
0.0
 10
332.3067583558
 20
351.906934043
 30
0.0
 10
332.4534886217
 20
351.1075350591
 30
0.0
 10
332.4535115988
 20
350.7274591729
 30
0.0
  0
SPLINE
  5
4DC
100
AcDbEntity
  8
0
100
AcDbSpline
 62
7
  6
BYLAYER
 70
0
 71
3
 72
13
 73
9
 74
0
 42
0.0000001
 43
0.0000001
 44
0.0000000001
 40
0.0
 40
0.0
 40
0.0
 40
0.0
 40
0.0885756326
 40
0.1847788931
 40
0.3012232028
 40
0.4417496614
 40
0.7353296658
 40
1.0
 40
1.0
 40
1.0
 40
1.0
 10
183.7150753643
 20
214.4433530885
 30
0.0
 10
183.7519034597
 20
214.4646168551
 30
0.0
 10
183.836708073
 20
214.4984314847
 30
0.0
 10
183.9856515492
 20
214.4869883528
 30
0.0
 10
184.1392572529
 20
214.4083616355
 30
0.0
 10
184.3373911829
 20
214.2296658454
 30
0.0
 10
184.4903169645
 20
213.9152521004
 30
0.0
 10
184.5106279109
 20
213.645784442
 30
0.0
 10
184.5145893117
 20
213.518775622
 30
0.0
  0
SPLINE
  5
4DD
100
AcDbEntity
  8
0
100
AcDbSpline
 62
7
  6
BYLAYER
 70
0
 71
3
 72
8
 73
4
 74
0
 42
0.0000001
 43
0.0000001
 44
0.0000000001
 40
0.0
 40
0.0
 40
0.0
 40
0.0
 40
1.0
 40
1.0
 40
1.0
 40
1.0
 10
186.7719688336
 20
212.7545263826
 30
0.0
 10
186.8317214453
 20
212.7890321723
 30
0.0
 10
186.906773101
 20
212.8045300914
 30
0.0
 10
186.9750543001
 20
212.7945952043
 30
0.0
  0
SPLINE
  5
4DE
100
AcDbEntity
  8
0
100
AcDbSpline
 62
7
  6
BYLAYER
 70
0
 71
3
 72
9
 73
5
 74
0
 42
0.0000001
 43
0.0000001
 44
0.0000000001
 40
0.0
 40
0.0
 40
0.0
 40
0.0
 40
0.4762835394
 40
1.0
 40
1.0
 40
1.0
 40
1.0
 10
186.9750543001
 20
212.7945952043
 30
0.0
 10
187.1537724275
 20
212.7685917883
 30
0.0
 10
187.4830447464
 20
212.4736390609
 30
0.0
 10
187.5438137024
 20
212.0872880357
 30
0.0
 10
187.5505722646
 20
211.8888172234
 30
0.0
  0
SPLINE
  5
4DF
100
AcDbEntity
  8
0
100
AcDbSpline
 62
7
  6
BYLAYER
 70
0
 71
3
 72
11
 73
7
 74
0
 42
0.0000001
 43
0.0000001
 44
0.0000000001
 40
0.0
 40
0.0
 40
0.0
 40
0.0
 40
0.2372216095
 40
0.5000010918
 40
0.7627799799
 40
1.0
 40
1.0
 40
1.0
 40
1.0
 10
339.9353620895
 20
353.4751472148
 30
0.0
 10
339.9353256521
 20
354.0778781409
 30
0.0
 10
339.7092213546
 20
355.3490850236
 30
0.0
 10
338.9211943109
 20
357.1354104067
 30
0.0
 10
337.7681999354
 20
358.7110160425
 30
0.0
 10
336.7803530487
 20
359.5424218206
 30
0.0
 10
336.2583915187
 20
359.8438117076
 30
0.0
  0
SPLINE
  5
4E0
100
AcDbEntity
  8
0
100
AcDbSpline
 62
7
  6
BYLAYER
 70
0
 71
3
 72
9
 73
5
 74
0
 42
0.0000001
 43
0.0000001
 44
0.0000000001
 40
0.0
 40
0.0
 40
0.0
 40
0.0
 40
0.4337794538
 40
1.0
 40
1.0
 40
1.0
 40
1.0
 10
191.8962233723
 20
211.8318955183
 30
0.0
 10
191.8257029927
 20
211.7911799511
 30
0.0
 10
191.6940822565
 20
211.6294582794
 30
0.0
 10
191.7169199632
 20
211.4291031275
 30
0.0
 10
191.7371255362
 20
211.3247488638
 30
0.0
  0
SPLINE
  5
4E1
100
AcDbEntity
  8
0
100
AcDbSpline
 62
7
  6
BYLAYER
 70
0
 71
3
 72
9
 73
5
 74
0
 42
0.0000001
 43
0.0000001
 44
0.0000000001
 40
0.0
 40
0.0
 40
0.0
 40
0.0
 40
0.2823910281
 40
1.0
 40
1.0
 40
1.0
 40
1.0
 10
74.3010810169
 20
511.081513988
 30
0.0
 10
74.1345194102
 20
511.1776627747
 30
0.0
 10
73.52889492
 20
511.4827026317
 30
0.0
 10
72.8176011979
 20
511.6325102662
 30
0.0
 10
72.3345655011
 20
511.5581623462
 30
0.0
  0
SPLINE
  5
4E2
100
AcDbEntity
  8
0
100
AcDbSpline
 62
7
  6
BYLAYER
 70
0
 71
3
 72
8
 73
4
 74
0
 42
0.0000001
 43
0.0000001
 44
0.0000000001
 40
0.0
 40
0.0
 40
0.0
 40
0.0
 40
1.0
 40
1.0
 40
1.0
 40
1.0
 10
72.1400863525
 20
511.5180292079
 30
0.0
 10
72.0242745588
 20
511.4877875991
 30
0.0
 10
71.9107804636
 20
511.4461187684
 30
0.0
 10
71.8033288025
 20
511.3933829458
 30
0.0
  0
SPLINE
  5
4E3
100
AcDbEntity
  8
0
100
AcDbSpline
 62
7
  6
BYLAYER
 70
0
 71
3
 72
11
 73
7
 74
0
 42
0.0000001
 43
0.0000001
 44
0.0000000001
 40
0.0
 40
0.0
 40
0.0
 40
0.0
 40
0.180581702
 40
0.4164478736
 40
0.7014668146
 40
1.0
 40
1.0
 40
1.0
 40
1.0
 10
200.4035690613
 20
204.6397663991
 30
0.0
 10
200.4589526656
 20
204.6717418298
 30
0.0
 10
200.6173740881
 20
204.7018773788
 30
0.0
 10
200.8426993712
 20
204.568639472
 30
0.0
 10
201.0425800653
 20
204.3601141866
 30
0.0
 10
201.1703986697
 20
204.1969284546
 30
0.0
 10
201.2353840825
 20
204.1135366451
 30
0.0
  0
SPLINE
  5
4E4
100
AcDbEntity
  8
0
100
AcDbSpline
 62
7
  6
BYLAYER
 70
0
 71
3
 72
9
 73
5
 74
0
 42
0.0000001
 43
0.0000001
 44
0.0000000001
 40
0.0
 40
0.0
 40
0.0
 40
0.0
 40
0.7229492825
 40
1.0
 40
1.0
 40
1.0
 40
1.0
 10
199.9680111446
 20
201.0219312566
 30
0.0
 10
200.0068826016
 20
201.0443735851
 30
0.0
 10
200.0734884014
 20
201.05442136
 30
0.0
 10
200.1343325948
 20
201.0430416486
 30
0.0
 10
200.151012493
 20
201.0388402426
 30
0.0
  0
SPLINE
  5
4E5
100
AcDbEntity
  8
0
100
AcDbSpline
 62
7
  6
BYLAYER
 70
0
 71
3
 72
9
 73
5
 74
0
 42
0.0000001
 43
0.0000001
 44
0.0000000001
 40
0.0
 40
0.0
 40
0.0
 40
0.0
 40
0.2151420105
 40
1.0
 40
1.0
 40
1.0
 40
1.0
 10
200.151012493
 20
201.0388402426
 30
0.0
 10
200.2012390496
 20
201.026188957
 30
0.0
 10
200.4231245568
 20
200.9219736689
 30
0.0
 10
200.5767331305
 20
200.7233284063
 30
0.0
 10
200.691239372
 20
200.5730218073
 30
0.0
  0
SPLINE
  5
4E6
100
AcDbEntity
  8
0
100
AcDbSpline
 62
7
  6
BYLAYER
 70
0
 71
3
 72
12
 73
8
 74
0
 42
0.0000001
 43
0.0000001
 44
0.0000000001
 40
0.0
 40
0.0
 40
0.0
 40
0.0
 40
0.1990375809
 40
0.3295923831
 40
0.4765891998
 40
0.7716405208
 40
1.0
 40
1.0
 40
1.0
 40
1.0
 10
199.7423472539
 20
201.380028486
 30
0.0
 10
199.5899138181
 20
201.2920195895
 30
0.0
 10
199.4998880075
 20
200.9491009313
 30
0.0
 10
199.5360113411
 20
200.5396374155
 30
0.0
 10
199.6949061341
 20
200.050919033
 30
0.0
 10
200.0810930151
 20
199.5634316565
 30
0.0
 10
200.5261683008
 20
199.3827916424
 30
0.0
 10
200.7248493732
 20
199.3466249705
 30
0.0
  0
SPLINE
  5
4E7
100
AcDbEntity
  8
0
100
AcDbSpline
 62
7
  6
BYLAYER
 70
0
 71
3
 72
9
 73
5
 74
0
 42
0.0000001
 43
0.0000001
 44
0.0000000001
 40
0.0
 40
0.0
 40
0.0
 40
0.0
 40
0.4285531234
 40
1.0
 40
1.0
 40
1.0
 40
1.0
 10
198.4920994708
 20
202.9063065739
 30
0.0
 10
198.467914977
 20
202.8923440259
 30
0.0
 10
198.4248367512
 20
202.8344137123
 30
0.0
 10
198.4308400009
 20
202.7656108103
 30
0.0
 10
198.4376827858
 20
202.7290079388
 30
0.0
  0
SPLINE
  5
4E8
100
AcDbEntity
  8
0
100
AcDbSpline
 62
7
  6
BYLAYER
 70
0
 71
3
 72
9
 73
5
 74
0
 42
0.0000001
 43
0.0000001
 44
0.0000000001
 40
0.0
 40
0.0
 40
0.0
 40
0.0
 40
0.4118909461
 40
1.0
 40
1.0
 40
1.0
 40
1.0
 10
197.012455363
 20
202.7390482201
 30
0.0
 10
197.0686494776
 20
202.7714918234
 30
0.0
 10
197.2542546483
 20
202.7626684309
 30
0.0
 10
197.3546010748
 20
202.6269630477
 30
0.0
 10
197.4098333844
 20
202.5525787498
 30
0.0
  0
SPLINE
  5
4E9
100
AcDbEntity
  8
0
100
AcDbSpline
 62
7
  6
BYLAYER
 70
0
 71
3
 72
8
 73
4
 74
0
 42
0.0000001
 43
0.0000001
 44
0.0000000001
 40
0.0
 40
0.0
 40
0.0
 40
0.0
 40
1.0
 40
1.0
 40
1.0
 40
1.0
 10
197.4098333844
 20
202.5525787498
 30
0.0
 10
197.448191308
 20
202.5009200878
 30
0.0
 10
197.4829135797
 20
202.446608386
 30
0.0
 10
197.5170819714
 20
202.392088035
 30
0.0
  0
SPLINE
  5
4EA
100
AcDbEntity
  8
0
100
AcDbSpline
 62
7
  6
BYLAYER
 70
0
 71
3
 72
8
 73
4
 74
0
 42
0.0000001
 43
0.0000001
 44
0.0000000001
 40
0.0
 40
0.0
 40
0.0
 40
0.0
 40
1.0
 40
1.0
 40
1.0
 40
1.0
 10
197.0668462997
 20
203.0089280504
 30
0.0
 10
197.0489820096
 20
202.9986122595
 30
0.0
 10
197.0320610244
 20
202.9865536507
 30
0.0
 10
197.0161961339
 20
202.9733682933
 30
0.0
  0
SPLINE
  5
4EB
100
AcDbEntity
  8
0
100
AcDbSpline
 62
7
  6
BYLAYER
 70
0
 71
3
 72
8
 73
4
 74
0
 42
0.0000001
 43
0.0000001
 44
0.0000000001
 40
0.0
 40
0.0
 40
0.0
 40
0.0
 40
1.0
 40
1.0
 40
1.0
 40
1.0
 10
197.0161961339
 20
202.9733682933
 30
0.0
 10
196.9630697591
 20
202.929214806
 30
0.0
 10
196.9216221417
 20
202.8722842531
 30
0.0
 10
196.8801452349
 20
202.8170428887
 30
0.0
  0
SPLINE
  5
4EC
100
AcDbEntity
  8
0
100
AcDbSpline
 62
7
  6
BYLAYER
 70
0
 71
3
 72
9
 73
5
 74
0
 42
0.0000001
 43
0.0000001
 44
0.0000000001
 40
0.0
 40
0.0
 40
0.0
 40
0.0
 40
0.5505982627
 40
1.0
 40
1.0
 40
1.0
 40
1.0
 10
343.7918923942
 20
135.5154952572
 30
0.0
 10
343.7918636787
 20
135.0405271193
 30
0.0
 10
343.6768963438
 20
134.1581663745
 30
0.0
 10
343.102075187
 20
133.4300886472
 30
0.0
 10
342.7679451259
 20
133.2335011362
 30
0.0
  0
SPLINE
  5
4ED
100
AcDbEntity
  8
0
100
AcDbSpline
 62
7
  6
BYLAYER
 70
0
 71
3
 72
11
 73
7
 74
0
 42
0.0000001
 43
0.0000001
 44
0.0000000001
 40
0.0
 40
0.0
 40
0.0
 40
0.0
 40
0.2372546179
 40
0.4999990758
 40
0.7627440378
 40
1.0
 40
1.0
 40
1.0
 40
1.0
 10
340.2563437685
 20
361.9887184262
 30
0.0
 10
340.7583008332
 20
361.698879774
 30
0.0
 10
341.7082042949
 20
360.8994790311
 30
0.0
 10
342.8164653815
 20
359.3843318272
 30
0.0
 10
343.5744994873
 20
357.6669761907
 30
0.0
 10
343.7918576132
 20
356.4446327476
 30
0.0
 10
343.7918923942
 20
355.865002568
 30
0.0
  0
SPLINE
  5
4EE
100
AcDbEntity
  8
0
100
AcDbSpline
 62
7
  6
BYLAYER
 70
0
 71
3
 72
9
 73
5
 74
0
 42
0.0000001
 43
0.0000001
 44
0.0000000001
 40
0.0
 40
0.0
 40
0.0
 40
0.0
 40
0.7226492719
 40
1.0
 40
1.0
 40
1.0
 40
1.0
 10
193.2146568233
 20
204.920019793
 30
0.0
 10
193.2541581342
 20
204.942825766
 30
0.0
 10
193.3219969173
 20
204.9527624317
 30
0.0
 10
193.3837821978
 20
204.9408796412
 30
0.0
 10
193.4007365708
 20
204.9365204678
 30
0.0
  0
SPLINE
  5
4EF
100
AcDbEntity
  8
0
100
AcDbSpline
 62
7
  6
BYLAYER
 70
0
 71
3
 72
9
 73
5
 74
0
 42
0.0000001
 43
0.0000001
 44
0.0000000001
 40
0.0
 40
0.0
 40
0.0
 40
0.0
 40
0.2152034045
 40
1.0
 40
1.0
 40
1.0
 40
1.0
 10
193.4007365708
 20
204.9365204678
 30
0.0
 10
193.4507377568
 20
204.9236645608
 30
0.0
 10
193.6716177169
 20
204.8195503728
 30
0.0
 10
193.8245694754
 20
204.62149105
 30
0.0
 10
193.938520365
 20
204.4716177456
 30
0.0
  0
SPLINE
  5
4F0
100
AcDbEntity
  8
0
100
AcDbSpline
 62
7
  6
BYLAYER
 70
0
 71
3
 72
12
 73
8
 74
0
 42
0.0000001
 43
0.0000001
 44
0.0000000001
 40
0.0
 40
0.0
 40
0.0
 40
0.0
 40
0.1990940425
 40
0.3296107769
 40
0.4765591037
 40
0.7717298102
 40
1.0
 40
1.0
 40
1.0
 40
1.0
 10
192.9914056643
 20
205.2782254094
 30
0.0
 10
192.8390583129
 20
205.1902661211
 30
0.0
 10
192.7493061879
 20
204.8475722773
 30
0.0
 10
192.7849174359
 20
204.4385116161
 30
0.0
 10
192.942855068
 20
203.949841942
 30
0.0
 10
193.3282735878
 20
203.4627337719
 30
0.0
 10
193.7728226779
 20
203.2809266742
 30
0.0
 10
193.9714075705
 20
203.2456382047
 30
0.0
  0
SPLINE
  5
4F1
100
AcDbEntity
  8
0
100
AcDbSpline
 62
7
  6
BYLAYER
 70
0
 71
3
 72
12
 73
8
 74
0
 42
0.0000001
 43
0.0000001
 44
0.0000000001
 40
0.0
 40
0.0
 40
0.0
 40
0.0
 40
0.1838011487
 40
0.3035412368
 40
0.4378972073
 40
0.7287858261
 40
1.0
 40
1.0
 40
1.0
 40
1.0
 10
189.7583738792
 20
211.1138010816
 30
0.0
 10
189.8429743327
 20
211.1626438049
 30
0.0
 10
190.0301407228
 20
211.1350764855
 30
0.0
 10
190.2284353261
 20
211.0201805775
 30
0.0
 10
190.449259258
 20
210.8281473003
 30
0.0
 10
190.6510806344
 20
210.5046139027
 30
0.0
 10
190.7045229524
 20
210.2069360044
 30
0.0
 10
190.723525006
 20
210.0640477736
 30
0.0
  0
SPLINE
  5
4F2
100
AcDbEntity
  8
0
100
AcDbSpline
 62
7
  6
BYLAYER
 70
0
 71
3
 72
11
 73
7
 74
0
 42
0.0000001
 43
0.0000001
 44
0.0000000001
 40
0.0
 40
0.0
 40
0.0
 40
0.0
 40
0.1915674691
 40
0.3596028467
 40
0.5527148249
 40
1.0
 40
1.0
 40
1.0
 40
1.0
 10
189.0916880323
 20
211.7905973625
 30
0.0
 10
188.9747885912
 20
211.7231059166
 30
0.0
 10
188.8038531903
 20
211.5117101477
 30
0.0
 10
188.7054547686
 20
211.1312282083
 30
0.0
 10
188.6922889122
 20
210.5583515356
 30
0.0
 10
188.8133976628
 20
210.1097545088
 30
0.0
 10
188.9456873874
 20
209.8236932272
 30
0.0
  0
SPLINE
  5
4F3
100
AcDbEntity
  8
0
100
AcDbSpline
 62
7
  6
BYLAYER
 70
0
 71
3
 72
9
 73
5
 74
0
 42
0.0000001
 43
0.0000001
 44
0.0000000001
 40
0.0
 40
0.0
 40
0.0
 40
0.0
 40
0.2616955549
 40
1.0
 40
1.0
 40
1.0
 40
1.0
 10
188.9456873874
 20
209.8236932272
 30
0.0
 10
189.0011900636
 20
209.7036750871
 30
0.0
 10
189.244507328
 20
209.2598346098
 30
0.0
 10
189.5986461692
 20
208.8792499197
 30
0.0
 10
189.896195261
 20
208.6542316974
 30
0.0
  0
SPLINE
  5
4F4
100
AcDbEntity
  8
0
100
AcDbSpline
 62
7
  6
BYLAYER
 70
0
 71
3
 72
11
 73
7
 74
0
 42
0.0000001
 43
0.0000001
 44
0.0000000001
 40
0.0
 40
0.0
 40
0.0
 40
0.0
 40
0.2850977598
 40
0.5444764501
 40
0.7827007946
 40
1.0
 40
1.0
 40
1.0
 40
1.0
 10
189.896195261
 20
208.6542316974
 30
0.0
 10
190.0205264865
 20
208.5602075779
 30
0.0
 10
190.2699014163
 20
208.3953963566
 30
0.0
 10
190.6545646312
 20
208.2072201726
 30
0.0
 10
191.0395091822
 20
208.1037731688
 30
0.0
 10
191.290141269
 20
208.137410291
 30
0.0
 10
191.4076511542
 20
208.154945405
 30
0.0
  0
SPLINE
  5
4F5
100
AcDbEntity
  8
0
100
AcDbSpline
 62
7
  6
BYLAYER
 70
0
 71
3
 72
13
 73
9
 74
0
 42
0.0000001
 43
0.0000001
 44
0.0000000001
 40
0.0
 40
0.0
 40
0.0
 40
0.0
 40
0.1658182898
 40
0.317830096
 40
0.456991363
 40
0.5822332169
 40
0.8021618989
 40
1.0
 40
1.0
 40
1.0
 40
1.0
 10
183.1370611373
 20
209.0888269769
 30
0.0
 10
183.2351726702
 20
208.9469151565
 30
0.0
 10
183.4220257157
 20
208.6727355941
 30
0.0
 10
183.7726637865
 20
208.3444842438
 30
0.0
 10
184.1509736993
 20
208.1272588528
 30
0.0
 10
184.6215610037
 20
207.9461679061
 30
0.0
 10
185.2038736641
 20
207.8820852799
 30
0.0
 10
185.618276265
 20
208.0378676071
 30
0.0
 10
185.8100801724
 20
208.1125754854
 30
0.0
  0
SPLINE
  5
4F6
100
AcDbEntity
  8
0
100
AcDbSpline
 62
7
  6
BYLAYER
 70
0
 71
3
 72
11
 73
7
 74
0
 42
0.0000001
 43
0.0000001
 44
0.0000000001
 40
0.0
 40
0.0
 40
0.0
 40
0.0
 40
0.2183179755
 40
0.4549869979
 40
0.7192152015
 40
1.0
 40
1.0
 40
1.0
 40
1.0
 10
182.8858896251
 20
210.6805038041
 30
0.0
 10
182.8656336362
 20
210.5624220801
 30
0.0
 10
182.8262164546
 20
210.3150827241
 30
0.0
 10
182.8392333687
 20
209.918107912
 30
0.0
 10
182.9356783631
 20
209.4965211942
 30
0.0
 10
183.0667607342
 20
209.2259418645
 30
0.0
 10
183.1370611373
 20
209.0888269769
 30
0.0
  0
SPLINE
  5
4F7
100
AcDbEntity
  8
0
100
AcDbSpline
 62
7
  6
BYLAYER
 70
0
 71
3
 72
8
 73
4
 74
0
 42
0.0000001
 43
0.0000001
 44
0.0000000001
 40
0.0
 40
0.0
 40
0.0
 40
0.0
 40
1.0
 40
1.0
 40
1.0
 40
1.0
 10
183.1335676239
 20
211.2671027758
 30
0.0
 10
183.0761194487
 20
211.1823660056
 30
0.0
 10
183.0267185949
 20
211.0917886197
 30
0.0
 10
182.9850331032
 20
210.9982849682
 30
0.0
  0
SPLINE
  5
4F8
100
AcDbEntity
  8
0
100
AcDbSpline
 62
7
  6
BYLAYER
 70
0
 71
3
 72
9
 73
5
 74
0
 42
0.0000001
 43
0.0000001
 44
0.0000000001
 40
0.0
 40
0.0
 40
0.0
 40
0.0
 40
0.5035379282
 40
1.0
 40
1.0
 40
1.0
 40
1.0
 10
183.710117677
 20
211.8009867568
 30
0.0
 10
183.6435526983
 20
211.7609087262
 30
0.0
 10
183.510603692
 20
211.6811170776
 30
0.0
 10
183.3979477891
 20
211.5745065081
 30
0.0
 10
183.3428169854
 20
211.5213157172
 30
0.0
  0
SPLINE
  5
4F9
100
AcDbEntity
  8
0
100
AcDbSpline
 62
7
  6
BYLAYER
 70
0
 71
3
 72
9
 73
5
 74
0
 42
0.0000001
 43
0.0000001
 44
0.0000000001
 40
0.0
 40
0.0
 40
0.0
 40
0.0
 40
0.425936976
 40
1.0
 40
1.0
 40
1.0
 40
1.0
 10
185.4797625277
 20
210.2518281972
 30
0.0
 10
185.4756294109
 20
210.2482396268
 30
0.0
 10
185.4658516626
 20
210.2386268588
 30
0.0
 10
185.4672720077
 20
210.224026671
 30
0.0
 10
185.4695674639
 20
210.2170157335
 30
0.0
  0
SPLINE
  5
4FA
100
AcDbEntity
  8
0
100
AcDbSpline
 62
7
  6
BYLAYER
 70
0
 71
3
 72
9
 73
5
 74
0
 42
0.0000001
 43
0.0000001
 44
0.0000000001
 40
0.0
 40
0.0
 40
0.0
 40
0.0
 40
0.5515293032
 40
1.0
 40
1.0
 40
1.0
 40
1.0
 10
184.0010429533
 20
209.6894844138
 30
0.0
 10
184.0225267584
 20
209.6785417872
 30
0.0
 10
184.064579928
 20
209.6564005952
 30
0.0
 10
184.1084952941
 20
209.6735666455
 30
0.0
 10
184.1259661451
 20
209.6824615835
 30
0.0
  0
SPLINE
  5
4FB
100
AcDbEntity
  8
0
100
AcDbSpline
 62
7
  6
BYLAYER
 70
0
 71
3
 72
9
 73
5
 74
0
 42
0.0000001
 43
0.0000001
 44
0.0000000001
 40
0.0
 40
0.0
 40
0.0
 40
0.0
 40
0.4113687343
 40
1.0
 40
1.0
 40
1.0
 40
1.0
 10
193.9914456762
 20
208.5807714169
 30
0.0
 10
194.1213267151
 20
208.6557488703
 30
0.0
 10
194.5463654625
 20
208.5174080414
 30
0.0
 10
194.7709028919
 20
208.2435781657
 30
0.0
 10
194.9020070599
 20
208.0736916438
 30
0.0
  0
SPLINE
  5
4FC
100
AcDbEntity
  8
0
100
AcDbSpline
 62
7
  6
BYLAYER
 70
0
 71
3
 72
10
 73
6
 74
0
 42
0.0000001
 43
0.0000001
 44
0.0000000001
 40
0.0
 40
0.0
 40
0.0
 40
0.0
 40
0.2030805701
 40
0.5612894811
 40
1.0
 40
1.0
 40
1.0
 40
1.0
 10
193.3286031845
 20
209.3975156418
 30
0.0
 10
193.2335488457
 20
209.3426367979
 30
0.0
 10
193.0162521148
 20
209.1090382154
 30
0.0
 10
192.9079915381
 20
208.557530111
 30
0.0
 10
192.9508274933
 20
208.126517595
 30
0.0
 10
193.0004244287
 20
207.8946530369
 30
0.0
  0
SPLINE
  5
4FD
100
AcDbEntity
  8
0
100
AcDbSpline
 62
7
  6
BYLAYER
 70
0
 71
3
 72
8
 73
4
 74
0
 42
0.0000001
 43
0.0000001
 44
0.0000000001
 40
0.0
 40
0.0
 40
0.0
 40
0.0
 40
1.0
 40
1.0
 40
1.0
 40
1.0
 10
193.0004244287
 20
207.8946530369
 30
0.0
 10
193.0357770972
 20
207.7293801059
 30
0.0
 10
193.0863956171
 20
207.5667815768
 30
0.0
 10
193.1498736608
 20
207.410143488
 30
0.0
  0
SPLINE
  5
4FE
100
AcDbEntity
  8
0
100
AcDbSpline
 62
7
  6
BYLAYER
 70
0
 71
3
 72
13
 73
9
 74
0
 42
0.0000001
 43
0.0000001
 44
0.0000000001
 40
0.0
 40
0.0
 40
0.0
 40
0.0
 40
0.2933090909
 40
0.5717678813
 40
0.6974673304
 40
0.8103635804
 40
0.9089425973
 40
1.0
 40
1.0
 40
1.0
 40
1.0
 10
193.1498736608
 20
207.410143488
 30
0.0
 10
193.2382343224
 20
207.1921051808
 30
0.0
 10
193.4581563824
 20
206.784538559
 30
0.0
 10
193.8439905809
 20
206.3677648162
 30
0.0
 10
194.1879394263
 20
206.135125565
 30
0.0
 10
194.4339839195
 20
206.0153790137
 30
0.0
 10
194.6804532432
 20
205.9898666327
 30
0.0
 10
194.8306531992
 20
206.018999237
 30
0.0
 10
194.9020070594
 20
206.0345878609
 30
0.0
  0
SPLINE
  5
4FF
100
AcDbEntity
  8
0
100
AcDbSpline
 62
7
  6
BYLAYER
 70
0
 71
3
 72
12
 73
8
 74
0
 42
0.0000001
 43
0.0000001
 44
0.0000000001
 40
0.0
 40
0.0
 40
0.0
 40
0.0
 40
0.1837921954
 40
0.3035606674
 40
0.437942348
 40
0.7287687049
 40
1.0
 40
1.0
 40
1.0
 40
1.0
 10
197.1309720442
 20
206.8579009384
 30
0.0
 10
197.2156221755
 20
206.9067724437
 30
0.0
 10
197.4029771196
 20
206.8787449373
 30
0.0
 10
197.6011965172
 20
206.7634677661
 30
0.0
 10
197.8218911068
 20
206.5710327028
 30
0.0
 10
198.0243016567
 20
206.2477317941
 30
0.0
 10
198.078139604
 20
205.9499003438
 30
0.0
 10
198.0972460013
 20
205.8069242812
 30
0.0
  0
SPLINE
  5
500
100
AcDbEntity
  8
0
100
AcDbSpline
 62
7
  6
BYLAYER
 70
0
 71
3
 72
9
 73
5
 74
0
 42
0.0000001
 43
0.0000001
 44
0.0000000001
 40
0.0
 40
0.0
 40
0.0
 40
0.0
 40
0.4336856553
 40
1.0
 40
1.0
 40
1.0
 40
1.0
 10
196.4646495766
 20
207.5345112281
 30
0.0
 10
196.2940837025
 20
207.4360356719
 30
0.0
 10
196.0449676403
 20
206.9933941456
 30
0.0
 10
196.0651315009
 20
206.5315414443
 30
0.0
 10
196.1041033437
 20
206.2773277689
 30
0.0
  0
SPLINE
  5
501
100
AcDbEntity
  8
0
100
AcDbSpline
 62
7
  6
BYLAYER
 70
0
 71
3
 72
13
 73
9
 74
0
 42
0.0000001
 43
0.0000001
 44
0.0000000001
 40
0.0
 40
0.0
 40
0.0
 40
0.0
 40
0.2996004194
 40
0.5697725388
 40
0.6897691291
 40
0.8012391271
 40
0.9043664201
 40
1.0
 40
1.0
 40
1.0
 40
1.0
 10
196.3124161821
 20
205.5804954759
 30
0.0
 10
196.4438341413
 20
205.2922151645
 30
0.0
 10
196.7851061878
 20
204.780836967
 30
0.0
 10
197.3547106819
 20
204.3126157497
 30
0.0
 10
197.8158455364
 20
204.0489309445
 30
0.0
 10
198.1432296996
 20
203.9113318942
 30
0.0
 10
198.4712984628
 20
203.8533542285
 30
0.0
 10
198.6812066419
 20
203.8831121947
 30
0.0
 10
198.7812516839
 20
203.8978914617
 30
0.0
  0
SPLINE
  5
502
100
AcDbEntity
  8
0
100
AcDbSpline
 62
7
  6
BYLAYER
 70
0
 71
3
 72
13
 73
9
 74
0
 42
0.0000001
 43
0.0000001
 44
0.0000000001
 40
0.0
 40
0.0
 40
0.0
 40
0.0
 40
0.1983423622
 40
0.3316164849
 40
0.4787502432
 40
0.7716792789
 40
0.8961740105
 40
1.0
 40
1.0
 40
1.0
 40
1.0
 10
190.8820607571
 20
206.5024745996
 30
0.0
 10
190.7310100952
 20
206.4152735948
 30
0.0
 10
190.6436725357
 20
206.0690202404
 30
0.0
 10
190.6927707175
 20
205.6622607833
 30
0.0
 10
190.8426880283
 20
205.1746154892
 30
0.0
 10
191.1590144512
 20
204.7579151961
 30
0.0
 10
191.5624583945
 20
204.5339422163
 30
0.0
 10
191.76200825
 20
204.4827220493
 30
0.0
 10
191.8533085981
 20
204.4827597159
 30
0.0
  0
SPLINE
  5
503
100
AcDbEntity
  8
0
100
AcDbSpline
 62
7
  6
BYLAYER
 70
0
 71
3
 72
8
 73
4
 74
0
 42
0.0000001
 43
0.0000001
 44
0.0000000001
 40
0.0
 40
0.0
 40
0.0
 40
0.0
 40
1.0
 40
1.0
 40
1.0
 40
1.0
 10
191.8533085981
 20
204.4827597159
 30
0.0
 10
191.8691634544
 20
204.482766257
 30
0.0
 10
191.8850253451
 20
204.4834492242
 30
0.0
 10
191.9008366239
 20
204.4846239471
 30
0.0
  0
SPLINE
  5
504
100
AcDbEntity
  8
0
100
AcDbSpline
 62
7
  6
BYLAYER
 70
0
 71
3
 72
8
 73
4
 74
0
 42
0.0000001
 43
0.0000001
 44
0.0000000001
 40
0.0
 40
0.0
 40
0.0
 40
0.0
 40
1.0
 40
1.0
 40
1.0
 40
1.0
 10
191.9008366239
 20
204.4846239471
 30
0.0
 10
191.9304069555
 20
204.4868209197
 30
0.0
 10
191.9598363041
 20
204.4906672738
 30
0.0
 10
191.9892607767
 20
204.4943321891
 30
0.0
  0
SPLINE
  5
505
100
AcDbEntity
  8
0
100
AcDbSpline
 62
7
  6
BYLAYER
 70
0
 71
3
 72
9
 73
5
 74
0
 42
0.0000001
 43
0.0000001
 44
0.0000000001
 40
0.0
 40
0.0
 40
0.0
 40
0.0
 40
0.4530008645
 40
1.0
 40
1.0
 40
1.0
 40
1.0
 10
184.6068581291
 20
210.9970916785
 30
0.0
 10
184.7094143927
 20
211.0563027735
 30
0.0
 10
184.9942055449
 20
211.0871985002
 30
0.0
 10
185.2313265977
 20
210.9669285887
 30
0.0
 10
185.3601398375
 20
210.9048431903
 30
0.0
  0
SPLINE
  5
506
100
AcDbEntity
  8
0
100
AcDbSpline
 62
7
  6
BYLAYER
 70
0
 71
3
 72
9
 73
5
 74
0
 42
0.0000001
 43
0.0000001
 44
0.0000000001
 40
0.0
 40
0.0
 40
0.0
 40
0.0
 40
0.4493238582
 40
1.0
 40
1.0
 40
1.0
 40
1.0
 10
75.5867388616
 20
513.6027343003
 30
0.0
 10
75.9240422608
 20
513.7957813245
 30
0.0
 10
76.8446074476
 20
513.9327392173
 30
0.0
 10
77.6687632611
 20
513.5902657805
 30
0.0
 10
78.0812709758
 20
513.3521429797
 30
0.0
  0
SPLINE
  5
507
100
AcDbEntity
  8
0
100
AcDbSpline
 62
7
  6
BYLAYER
 70
0
 71
3
 72
10
 73
6
 74
0
 42
0.0000001
 43
0.0000001
 44
0.0000000001
 40
0.0
 40
0.0
 40
0.0
 40
0.0
 40
0.2410087364
 40
0.5048480312
 40
1.0
 40
1.0
 40
1.0
 40
1.0
 10
191.3733183574
 20
206.1459568074
 30
0.0
 10
191.42332431
 20
206.1130955181
 30
0.0
 10
191.5258581441
 20
206.0385623599
 30
0.0
 10
191.6699789419
 20
205.8307231209
 30
0.0
 10
191.7106776302
 20
205.6404548742
 30
0.0
 10
191.7213444967
 20
205.5179836439
 30
0.0
  0
SPLINE
  5
508
100
AcDbEntity
  8
0
100
AcDbSpline
 62
7
  6
BYLAYER
 70
0
 71
3
 72
8
 73
4
 74
0
 42
0.0000001
 43
0.0000001
 44
0.0000000001
 40
0.0
 40
0.0
 40
0.0
 40
0.0
 40
1.0
 40
1.0
 40
1.0
 40
1.0
 10
339.2488024599
 20
131.1634837871
 30
0.0
 10
339.1399860503
 20
131.0994609702
 30
0.0
 10
339.0228750254
 20
131.048041751
 30
0.0
 10
338.9023801625
 20
131.0103466573
 30
0.0
  0
SPLINE
  5
509
100
AcDbEntity
  8
0
100
AcDbSpline
 62
7
  6
BYLAYER
 70
0
 71
3
 72
8
 73
4
 74
0
 42
0.0000001
 43
0.0000001
 44
0.0000000001
 40
0.0
 40
0.0
 40
0.0
 40
0.0
 40
1.0
 40
1.0
 40
1.0
 40
1.0
 10
338.9609485948
 20
131.0609250372
 30
0.0
 10
339.0587252882
 20
131.1269597135
 30
0.0
 10
339.150094443
 20
131.2034203951
 30
0.0
 10
339.2329842476
 20
131.2873855101
 30
0.0
  0
SPLINE
  5
50A
100
AcDbEntity
  8
0
100
AcDbSpline
 62
7
  6
BYLAYER
 70
0
 71
3
 72
9
 73
5
 74
0
 42
0.0000001
 43
0.0000001
 44
0.0000000001
 40
0.0
 40
0.0
 40
0.0
 40
0.0
 40
0.2229749869
 40
1.0
 40
1.0
 40
1.0
 40
1.0
 10
339.3519764597
 20
131.4197298404
 30
0.0
 10
339.4493473977
 20
131.5385282021
 30
0.0
 10
339.8240036275
 20
132.1232859209
 30
0.0
 10
339.9353297275
 20
132.8418108824
 30
0.0
 10
339.9353620895
 20
133.377090889
 30
0.0
  0
SPLINE
  5
50B
100
AcDbEntity
  8
0
100
AcDbSpline
 62
7
  6
BYLAYER
 70
0
 71
3
 72
9
 73
5
 74
0
 42
0.0000001
 43
0.0000001
 44
0.0000000001
 40
0.0
 40
0.0
 40
0.0
 40
0.0
 40
0.4492126168
 40
1.0
 40
1.0
 40
1.0
 40
1.0
 10
56.8612556003
 20
511.6922021061
 30
0.0
 10
57.086421033
 20
511.8277754248
 30
0.0
 10
57.7104514826
 20
511.9232169147
 30
0.0
 10
58.2699585741
 20
511.697751083
 30
0.0
 10
58.5490555822
 20
511.5366404932
 30
0.0
  0
SPLINE
  5
50C
100
AcDbEntity
  8
0
100
AcDbSpline
 62
7
  6
BYLAYER
 70
0
 71
3
 72
9
 73
5
 74
0
 42
0.0000001
 43
0.0000001
 44
0.0000000001
 40
0.0
 40
0.0
 40
0.0
 40
0.0
 40
0.7351579794
 40
1.0
 40
1.0
 40
1.0
 40
1.0
 10
53.6658092482
 20
505.8348716344
 30
0.0
 10
53.7359271861
 20
505.8753539918
 30
0.0
 10
53.8471377555
 20
505.906034018
 30
0.0
 10
53.9572583984
 20
505.9050432149
 30
0.0
 10
53.9863556501
 20
505.9030154211
 30
0.0
  0
SPLINE
  5
50D
100
AcDbEntity
  8
0
100
AcDbSpline
 62
7
  6
BYLAYER
 70
0
 71
3
 72
9
 73
5
 74
0
 42
0.0000001
 43
0.0000001
 44
0.0000000001
 40
0.0
 40
0.0
 40
0.0
 40
0.0
 40
0.2295921185
 40
1.0
 40
1.0
 40
1.0
 40
1.0
 10
53.9863556501
 20
505.9030154211
 30
0.0
 10
54.0206668142
 20
505.9006242686
 30
0.0
 10
54.1693352674
 20
505.8790135554
 30
0.0
 10
54.3104820374
 20
505.8188488949
 30
0.0
 10
54.4104323955
 20
505.7611438342
 30
0.0
  0
SPLINE
  5
50E
100
AcDbEntity
  8
0
100
AcDbSpline
 62
7
  6
BYLAYER
 70
0
 71
3
 72
9
 73
5
 74
0
 42
0.0000001
 43
0.0000001
 44
0.0000000001
 40
0.0
 40
0.0
 40
0.0
 40
0.0
 40
0.4491719368
 40
1.0
 40
1.0
 40
1.0
 40
1.0
 10
168.1366952452
 20
227.835151295
 30
0.0
 10
167.8669156348
 20
227.6793947654
 30
0.0
 10
167.4007310448
 20
227.0961947526
 30
0.0
 10
167.3081007791
 20
226.3863173096
 30
0.0
 10
167.3080776831
 20
226.0043014653
 30
0.0
  0
SPLINE
  5
50F
100
AcDbEntity
  8
0
100
AcDbSpline
 62
7
  6
BYLAYER
 70
0
 71
3
 72
9
 73
5
 74
0
 42
0.0000001
 43
0.0000001
 44
0.0000000001
 40
0.0
 40
0.0
 40
0.0
 40
0.0
 40
0.776104479
 40
1.0
 40
1.0
 40
1.0
 40
1.0
 10
198.4376827858
 20
202.7290079388
 30
0.0
 10
198.4537173708
 20
202.6797209838
 30
0.0
 10
198.493257809
 20
202.6183603302
 30
0.0
 10
198.5517169417
 20
202.5850526776
 30
0.0
 10
198.5654629225
 20
202.5791692618
 30
0.0
  0
SPLINE
  5
510
100
AcDbEntity
  8
0
100
AcDbSpline
 62
7
  6
BYLAYER
 70
0
 71
3
 72
8
 73
4
 74
0
 42
0.0000001
 43
0.0000001
 44
0.0000000001
 40
0.0
 40
0.0
 40
0.0
 40
0.0
 40
1.0
 40
1.0
 40
1.0
 40
1.0
 10
198.5654629225
 20
202.5791692618
 30
0.0
 10
198.5912176506
 20
202.5681459833
 30
0.0
 10
198.620247871
 20
202.5652715046
 30
0.0
 10
198.6482572716
 20
202.5647309812
 30
0.0
  0
SPLINE
  5
511
100
AcDbEntity
  8
0
100
AcDbSpline
 62
7
  6
BYLAYER
 70
0
 71
3
 72
9
 73
5
 74
0
 42
0.0000001
 43
0.0000001
 44
0.0000000001
 40
0.0
 40
0.0
 40
0.0
 40
0.0
 40
0.4963971481
 40
1.0
 40
1.0
 40
1.0
 40
1.0
 10
86.6975696055
 20
472.0455896299
 30
0.0
 10
86.7013534963
 20
471.9022810843
 30
0.0
 10
86.7393045268
 20
471.6061611174
 30
0.0
 10
86.9421531715
 20
471.3714312119
 30
0.0
 10
87.0646589901
 20
471.2930413661
 30
0.0
  0
SPLINE
  5
512
100
AcDbEntity
  8
0
100
AcDbSpline
 62
7
  6
BYLAYER
 70
0
 71
3
 72
9
 73
5
 74
0
 42
0.0000001
 43
0.0000001
 44
0.0000000001
 40
0.0
 40
0.0
 40
0.0
 40
0.0
 40
0.7592878973
 40
1.0
 40
1.0
 40
1.0
 40
1.0
 10
191.7371255362
 20
211.3247488638
 30
0.0
 10
191.771915675
 20
211.2178554652
 30
0.0
 10
191.8456124318
 20
211.0808340683
 30
0.0
 10
191.9589550732
 20
210.9845065206
 30
0.0
 10
191.9878601326
 20
210.9636613702
 30
0.0
  0
SPLINE
  5
513
100
AcDbEntity
  8
0
100
AcDbSpline
 62
7
  6
BYLAYER
 70
0
 71
3
 72
9
 73
5
 74
0
 42
0.0000001
 43
0.0000001
 44
0.0000000001
 40
0.0
 40
0.0
 40
0.0
 40
0.0
 40
0.5435314367
 40
1.0
 40
1.0
 40
1.0
 40
1.0
 10
191.9878601326
 20
210.9636613702
 30
0.0
 10
192.0409046756
 20
210.9254078083
 30
0.0
 10
192.1513836165
 20
210.8671706547
 30
0.0
 10
192.2735753097
 20
210.8634002793
 30
0.0
 10
192.3284929006
 20
210.8625894967
 30
0.0
  0
SPLINE
  5
514
100
AcDbEntity
  8
0
100
AcDbSpline
 62
7
  6
BYLAYER
 70
0
 71
3
 72
9
 73
5
 74
0
 42
0.0000001
 43
0.0000001
 44
0.0000000001
 40
0.0
 40
0.0
 40
0.0
 40
0.0
 40
0.493524161
 40
1.0
 40
1.0
 40
1.0
 40
1.0
 10
185.7329819625
 20
212.057521703
 30
0.0
 10
185.836983822
 20
211.9766009669
 30
0.0
 10
186.0497318057
 20
211.8143825268
 30
0.0
 10
186.230796013
 20
211.6155736693
 30
0.0
 10
186.3133448063
 20
211.5084587183
 30
0.0
  0
SPLINE
  5
515
100
AcDbEntity
  8
0
100
AcDbSpline
 62
7
  6
BYLAYER
 70
0
 71
3
 72
8
 73
4
 74
0
 42
0.0000001
 43
0.0000001
 44
0.0000000001
 40
0.0
 40
0.0
 40
0.0
 40
0.0
 40
1.0
 40
1.0
 40
1.0
 40
1.0
 10
186.3133448063
 20
211.5084587183
 30
0.0
 10
186.4028986037
 20
211.3922541047
 30
0.0
 10
186.4817374766
 20
211.2680535834
 30
0.0
 10
186.5604625952
 20
211.144256368
 30
0.0
  0
SPLINE
  5
516
100
AcDbEntity
  8
0
100
AcDbSpline
 62
7
  6
BYLAYER
 70
0
 71
3
 72
9
 73
5
 74
0
 42
0.0000001
 43
0.0000001
 44
0.0000000001
 40
0.0
 40
0.0
 40
0.0
 40
0.0
 40
0.4808959376
 40
1.0
 40
1.0
 40
1.0
 40
1.0
 10
184.5145893119
 20
212.4493554791
 30
0.0
 10
184.6507873386
 20
212.44340702
 30
0.0
 10
184.9366911329
 20
212.429077756
 30
0.0
 10
185.204678292
 20
212.327616521
 30
0.0
 10
185.3421904104
 20
212.2752113632
 30
0.0
  0
SPLINE
  5
517
100
AcDbEntity
  8
0
100
AcDbSpline
 62
7
  6
BYLAYER
 70
0
 71
3
 72
9
 73
5
 74
0
 42
0.0000001
 43
0.0000001
 44
0.0000000001
 40
0.0
 40
0.0
 40
0.0
 40
0.0
 40
0.4923621807
 40
1.0
 40
1.0
 40
1.0
 40
1.0
 10
83.5155758423
 20
473.8798025097
 30
0.0
 10
83.5195149029
 20
473.7376422315
 30
0.0
 10
83.5569868631
 20
473.4412508609
 30
0.0
 10
83.7615606162
 20
473.2075874474
 30
0.0
 10
83.8851511596
 20
473.12868954
 30
0.0
  0
SPLINE
  5
518
100
AcDbEntity
  8
0
100
AcDbSpline
 62
7
  6
BYLAYER
 70
0
 71
3
 72
10
 73
6
 74
0
 42
0.0000001
 43
0.0000001
 44
0.0000000001
 40
0.0
 40
0.0
 40
0.0
 40
0.0
 40
0.4952838509
 40
0.7604705925
 40
1.0
 40
1.0
 40
1.0
 40
1.0
 10
84.9184704857
 20
473.3234215214
 30
0.0
 10
84.9621447133
 20
473.1153143629
 30
0.0
 10
85.0084134024
 20
472.7881277966
 30
0.0
 10
85.2192028639
 20
472.4038265116
 30
0.0
 10
85.3902530529
 20
472.263136549
 30
0.0
 10
85.4778053299
 20
472.2091910279
 30
0.0
  0
SPLINE
  5
519
100
AcDbEntity
  8
0
100
AcDbSpline
 62
7
  6
BYLAYER
 70
0
 71
3
 72
11
 73
7
 74
0
 42
0.0000001
 43
0.0000001
 44
0.0000000001
 40
0.0
 40
0.0
 40
0.0
 40
0.0
 40
0.2975218154
 40
0.5685677959
 40
0.8078429295
 40
1.0
 40
1.0
 40
1.0
 40
1.0
 10
176.8524728244
 20
216.5883766713
 30
0.0
 10
177.0611604928
 20
216.3590890406
 30
0.0
 10
177.4535184815
 20
215.9146273601
 30
0.0
 10
178.1232700197
 20
215.3891622731
 30
0.0
 10
178.7702677588
 20
215.0609770916
 30
0.0
 10
179.2720955174
 20
215.0244621963
 30
0.0
 10
179.4455076801
 20
215.1245846172
 30
0.0
  0
SPLINE
  5
51A
100
AcDbEntity
  8
0
100
AcDbSpline
 62
7
  6
BYLAYER
 70
0
 71
3
 72
9
 73
5
 74
0
 42
0.0000001
 43
0.0000001
 44
0.0000000001
 40
0.0
 40
0.0
 40
0.0
 40
0.0
 40
0.4913575357
 40
1.0
 40
1.0
 40
1.0
 40
1.0
 10
98.6830794461
 20
465.1220814821
 30
0.0
 10
98.6869042368
 20
464.9809319882
 30
0.0
 10
98.7272817147
 20
464.68747417
 30
0.0
 10
98.9267681088
 20
464.4517026712
 30
0.0
 10
99.0501688314
 20
464.373360577
 30
0.0
  0
SPLINE
  5
51B
100
AcDbEntity
  8
0
100
AcDbSpline
 62
7
  6
BYLAYER
 70
0
 71
3
 72
9
 73
5
 74
0
 42
0.0000001
 43
0.0000001
 44
0.0000000001
 40
0.0
 40
0.0
 40
0.0
 40
0.0
 40
0.2940764251
 40
1.0
 40
1.0
 40
1.0
 40
1.0
 10
317.2043318664
 20
143.9136111991
 30
0.0
 10
317.2181054528
 20
143.9056591952
 30
0.0
 10
317.2661560778
 20
143.8822218496
 30
0.0
 10
317.3290434777
 20
143.8788429411
 30
0.0
 10
317.3621012574
 20
143.8979408767
 30
0.0
  0
SPLINE
  5
51C
100
AcDbEntity
  8
0
100
AcDbSpline
 62
7
  6
BYLAYER
 70
0
 71
3
 72
9
 73
5
 74
0
 42
0.0000001
 43
0.0000001
 44
0.0000000001
 40
0.0
 40
0.0
 40
0.0
 40
0.0
 40
0.2403760049
 40
1.0
 40
1.0
 40
1.0
 40
1.0
 10
306.1136619159
 20
150.5374368946
 30
0.0
 10
306.1136619159
 20
150.5061409831
 30
0.0
 10
306.1368556495
 20
150.3774793431
 30
0.0
 10
306.2192029661
 20
150.2557348488
 30
0.0
 10
306.3048531413
 20
150.2062858158
 30
0.0
  0
SPLINE
  5
51D
100
AcDbEntity
  8
0
100
AcDbSpline
 62
7
  6
BYLAYER
 70
0
 71
3
 72
9
 73
5
 74
0
 42
0.0000001
 43
0.0000001
 44
0.0000000001
 40
0.0
 40
0.0
 40
0.0
 40
0.0
 40
0.5508267758
 40
1.0
 40
1.0
 40
1.0
 40
1.0
 10
105.2945547885
 20
457.2368691763
 30
0.0
 10
105.5426842698
 20
457.0936347961
 30
0.0
 10
106.0384884357
 20
456.8876067809
 30
0.0
 10
106.5920908626
 20
456.9717021557
 30
0.0
 10
106.7944207909
 20
457.0885167935
 30
0.0
  0
SPLINE
  5
51E
100
AcDbEntity
  8
0
100
AcDbSpline
 62
7
  6
BYLAYER
 70
0
 71
3
 72
11
 73
7
 74
0
 42
0.0000001
 43
0.0000001
 44
0.0000000001
 40
0.0
 40
0.0
 40
0.0
 40
0.0
 40
0.237256205
 40
0.500001259
 40
0.7627456297
 40
1.0
 40
1.0
 40
1.0
 40
1.0
 10
80.5457144076
 20
473.9748028363
 30
0.0
 10
80.5457354325
 20
473.6270243723
 30
0.0
 10
80.676150258
 20
472.8936178045
 30
0.0
 10
81.1309712812
 20
471.8632042451
 30
0.0
 10
81.7959278356
 20
470.9541162605
 30
0.0
 10
82.3658697364
 20
470.4744764667
 30
0.0
 10
82.6670435831
 20
470.3005733214
 30
0.0
  0
SPLINE
  5
51F
100
AcDbEntity
  8
0
100
AcDbSpline
 62
7
  6
BYLAYER
 70
0
 71
3
 72
9
 73
5
 74
0
 42
0.0000001
 43
0.0000001
 44
0.0000000001
 40
0.0
 40
0.0
 40
0.0
 40
0.0
 40
0.4887523044
 40
1.0
 40
1.0
 40
1.0
 40
1.0
 10
100.2210430989
 20
464.228416812
 30
0.0
 10
100.224991708
 20
464.0888998923
 30
0.0
 10
100.2661195224
 20
463.7974441637
 30
0.0
 10
100.4648277339
 20
463.5636098184
 30
0.0
 10
100.5881324836
 20
463.4854369343
 30
0.0
  0
SPLINE
  5
520
100
AcDbEntity
  8
0
100
AcDbSpline
 62
7
  6
BYLAYER
 70
0
 71
3
 72
9
 73
5
 74
0
 42
0.0000001
 43
0.0000001
 44
0.0000000001
 40
0.0
 40
0.0
 40
0.0
 40
0.0
 40
0.7331771618
 40
1.0
 40
1.0
 40
1.0
 40
1.0
 10
100.2210430996
 20
468.1083980252
 30
0.0
 10
100.2230311259
 20
468.0489492953
 30
0.0
 10
100.2294903828
 20
467.9670080102
 30
0.0
 10
100.2546098019
 20
467.8896366841
 30
0.0
 10
100.2621131275
 20
467.8693316049
 30
0.0
  0
SPLINE
  5
521
100
AcDbEntity
  8
0
100
AcDbSpline
 62
7
  6
BYLAYER
 70
0
 71
3
 72
9
 73
5
 74
0
 42
0.0000001
 43
0.0000001
 44
0.0000000001
 40
0.0
 40
0.0
 40
0.0
 40
0.0
 40
0.2643968852
 40
1.0
 40
1.0
 40
1.0
 40
1.0
 10
100.2621131275
 20
467.8693316049
 30
0.0
 10
100.2784030965
 20
467.8252486036
 30
0.0
 10
100.3548118794
 20
467.6641902979
 30
0.0
 10
100.4854162023
 20
467.5302024454
 30
0.0
 10
100.5964189256
 20
467.4611021473
 30
0.0
  0
SPLINE
  5
522
100
AcDbEntity
  8
0
100
AcDbSpline
 62
7
  6
BYLAYER
 70
0
 71
3
 72
9
 73
5
 74
0
 42
0.0000001
 43
0.0000001
 44
0.0000000001
 40
0.0
 40
0.0
 40
0.0
 40
0.0
 40
0.2805669509
 40
1.0
 40
1.0
 40
1.0
 40
1.0
 10
100.5964189256
 20
467.4611021473
 30
0.0
 10
100.6132575995
 20
467.452117578
 30
0.0
 10
100.6734081955
 20
467.4212883407
 30
0.0
 10
100.7434869118
 20
467.4031783845
 30
0.0
 10
100.7921029078
 20
467.4087982639
 30
0.0
  0
SPLINE
  5
523
100
AcDbEntity
  8
0
100
AcDbSpline
 62
7
  6
BYLAYER
 70
0
 71
3
 72
8
 73
4
 74
0
 42
0.0000001
 43
0.0000001
 44
0.0000000001
 40
0.0
 40
0.0
 40
0.0
 40
0.0
 40
1.0
 40
1.0
 40
1.0
 40
1.0
 10
100.7921029078
 20
467.4087982639
 30
0.0
 10
100.8175806172
 20
467.4117434192
 30
0.0
 10
100.8431961427
 20
467.4193528171
 30
0.0
 10
100.8654073471
 20
467.4321766235
 30
0.0
  0
SPLINE
  5
524
100
AcDbEntity
  8
0
100
AcDbSpline
 62
7
  6
BYLAYER
 70
0
 71
3
 72
9
 73
5
 74
0
 42
0.0000001
 43
0.0000001
 44
0.0000000001
 40
0.0
 40
0.0
 40
0.0
 40
0.0
 40
0.4739641573
 40
1.0
 40
1.0
 40
1.0
 40
1.0
 10
102.8138708294
 20
465.2010817556
 30
0.0
 10
102.9193168557
 20
465.1376374117
 30
0.0
 10
103.132623069
 20
464.9796879098
 30
0.0
 10
103.2644548234
 20
464.749942105
 30
0.0
 10
103.3268015948
 20
464.6284213358
 30
0.0
  0
SPLINE
  5
525
100
AcDbEntity
  8
0
100
AcDbSpline
 62
7
  6
BYLAYER
 70
0
 71
3
 72
10
 73
6
 74
0
 42
0.0000001
 43
0.0000001
 44
0.0000000001
 40
0.0
 40
0.0
 40
0.0
 40
0.0
 40
0.381862421
 40
0.7731634059
 40
1.0
 40
1.0
 40
1.0
 40
1.0
 10
103.3268015948
 20
464.6284213358
 30
0.0
 10
103.364205979
 20
464.5512111805
 30
0.0
 10
103.4437160809
 20
464.3978091527
 30
0.0
 10
103.558314805
 20
464.1998594529
 30
0.0
 10
103.6703912365
 20
464.1140711243
 30
0.0
 10
103.7137784405
 20
464.0873347308
 30
0.0
  0
SPLINE
  5
526
100
AcDbEntity
  8
0
100
AcDbSpline
 62
7
  6
BYLAYER
 70
0
 71
3
 72
9
 73
5
 74
0
 42
0.0000001
 43
0.0000001
 44
0.0000000001
 40
0.0
 40
0.0
 40
0.0
 40
0.0
 40
0.2917885048
 40
1.0
 40
1.0
 40
1.0
 40
1.0
 10
103.7137784405
 20
464.0873347308
 30
0.0
 10
103.7361619072
 20
464.075140567
 30
0.0
 10
103.8105710691
 20
464.0343366734
 30
0.0
 10
103.9137692074
 20
464.0115588314
 30
0.0
 10
103.9673466895
 20
464.0424933183
 30
0.0
  0
SPLINE
  5
527
100
AcDbEntity
  8
0
100
AcDbSpline
 62
7
  6
BYLAYER
 70
0
 71
3
 72
10
 73
6
 74
0
 42
0.0000001
 43
0.0000001
 44
0.0000000001
 40
0.0
 40
0.0
 40
0.0
 40
0.0
 40
0.2305679819
 40
0.486583004
 40
1.0
 40
1.0
 40
1.0
 40
1.0
 10
101.5999070636
 20
465.459888695
 30
0.0
 10
101.6028848632
 20
465.361121836
 30
0.0
 10
101.6262550377
 20
465.1512637455
 30
0.0
 10
101.8001285691
 20
464.7545247408
 30
0.0
 10
102.0058949631
 20
464.4916642661
 30
0.0
 10
102.1557625297
 20
464.3305666495
 30
0.0
  0
SPLINE
  5
528
100
AcDbEntity
  8
0
100
AcDbSpline
 62
7
  6
BYLAYER
 70
0
 71
3
 72
9
 73
5
 74
0
 42
0.0000001
 43
0.0000001
 44
0.0000000001
 40
0.0
 40
0.0
 40
0.0
 40
0.0
 40
0.2615818492
 40
1.0
 40
1.0
 40
1.0
 40
1.0
 10
102.1557625297
 20
464.3305666495
 30
0.0
 10
102.2091405445
 20
464.2731888516
 30
0.0
 10
102.4201090869
 20
464.0602632653
 30
0.0
 10
102.6459106753
 20
463.8629134405
 30
0.0
 10
102.8138708294
 20
463.7189385015
 30
0.0
  0
SPLINE
  5
529
100
AcDbEntity
  8
0
100
AcDbSpline
 62
7
  6
BYLAYER
 70
0
 71
3
 72
11
 73
7
 74
0
 42
0.0000001
 43
0.0000001
 44
0.0000000001
 40
0.0
 40
0.0
 40
0.0
 40
0.0
 40
0.2464907517
 40
0.6246313031
 40
0.8208340489
 40
1.0
 40
1.0
 40
1.0
 40
1.0
 10
102.8138708294
 20
463.7189385015
 30
0.0
 10
102.8845364518
 20
463.657616129
 30
0.0
 10
103.0624027493
 20
463.501070421
 30
0.0
 10
103.2864611234
 20
463.2828193723
 30
0.0
 10
103.436665757
 20
463.0326568001
 30
0.0
 10
103.453345057
 20
462.8879513053
 30
0.0
 10
103.4560700922
 20
462.8199979702
 30
0.0
  0
SPLINE
  5
52A
100
AcDbEntity
  8
0
100
AcDbSpline
 62
7
  6
BYLAYER
 70
0
 71
3
 72
9
 73
5
 74
0
 42
0.0000001
 43
0.0000001
 44
0.0000000001
 40
0.0
 40
0.0
 40
0.0
 40
0.0
 40
0.2527104395
 40
1.0
 40
1.0
 40
1.0
 40
1.0
 10
101.5667612953
 20
463.8830179119
 30
0.0
 10
101.575872369
 20
463.698920869
 30
0.0
 10
101.7947569178
 20
462.9819045095
 30
0.0
 10
102.3853133552
 20
462.4600382828
 30
0.0
 10
102.851988463
 20
462.1784286436
 30
0.0
  0
SPLINE
  5
52B
100
AcDbEntity
  8
0
100
AcDbSpline
 62
7
  6
BYLAYER
 70
0
 71
3
 72
9
 73
5
 74
0
 42
0.0000001
 43
0.0000001
 44
0.0000000001
 40
0.0
 40
0.0
 40
0.0
 40
0.0
 40
0.558399062
 40
1.0
 40
1.0
 40
1.0
 40
1.0
 10
102.851988463
 20
462.1784286436
 30
0.0
 10
103.0366616607
 20
462.0757814647
 30
0.0
 10
103.362585773
 20
461.9024456871
 30
0.0
 10
103.7878692876
 20
461.856620941
 30
0.0
 10
103.9325735948
 20
461.9401657456
 30
0.0
  0
SPLINE
  5
52C
100
AcDbEntity
  8
0
100
AcDbSpline
 62
7
  6
BYLAYER
 70
0
 71
3
 72
10
 73
6
 74
0
 42
0.0000001
 43
0.0000001
 44
0.0000000001
 40
0.0
 40
0.0
 40
0.0
 40
0.0
 40
0.5404216186
 40
0.7862162079
 40
1.0
 40
1.0
 40
1.0
 40
1.0
 10
97.3663637984
 20
466.9376635863
 30
0.0
 10
97.4555129424
 20
466.8878957041
 30
0.0
 10
97.5886975023
 20
466.8170947522
 30
0.0
 10
97.7675576957
 20
466.7641082388
 30
0.0
 10
97.8622633273
 20
466.7625493998
 30
0.0
 10
97.8972379241
 20
466.7827505024
 30
0.0
  0
SPLINE
  5
52D
100
AcDbEntity
  8
0
100
AcDbSpline
 62
7
  6
BYLAYER
 70
0
 71
3
 72
9
 73
5
 74
0
 42
0.0000001
 43
0.0000001
 44
0.0000000001
 40
0.0
 40
0.0
 40
0.0
 40
0.0
 40
0.292770881
 40
1.0
 40
1.0
 40
1.0
 40
1.0
 10
96.6446146929
 20
465.7621764864
 30
0.0
 10
96.7401233467
 20
465.7086363261
 30
0.0
 10
97.0613089102
 20
465.535334793
 30
0.0
 10
97.5025076344
 20
465.4582652982
 30
0.0
 10
97.7315653807
 20
465.5905111816
 30
0.0
  0
SPLINE
  5
52E
100
AcDbEntity
  8
0
100
AcDbSpline
 62
7
  6
BYLAYER
 70
0
 71
3
 72
11
 73
7
 74
0
 42
0.0000001
 43
0.0000001
 44
0.0000000001
 40
0.0
 40
0.0
 40
0.0
 40
0.0
 40
0.2329530618
 40
0.4957135615
 40
0.7621517129
 40
1.0
 40
1.0
 40
1.0
 40
1.0
 10
95.1298530778
 20
468.4154680017
 30
0.0
 10
95.133541727
 20
468.1673455776
 30
0.0
 10
95.1860961094
 20
467.6367701177
 30
0.0
 10
95.4855679517
 20
466.8708317019
 30
0.0
 10
95.9850814667
 20
466.2078765098
 30
0.0
 10
96.427579556
 20
465.8929024308
 30
0.0
 10
96.6446146929
 20
465.7621764864
 30
0.0
  0
SPLINE
  5
52F
100
AcDbEntity
  8
0
100
AcDbSpline
 62
7
  6
BYLAYER
 70
0
 71
3
 72
9
 73
5
 74
0
 42
0.0000001
 43
0.0000001
 44
0.0000000001
 40
0.0
 40
0.0
 40
0.0
 40
0.0
 40
0.5012836458
 40
1.0
 40
1.0
 40
1.0
 40
1.0
 10
96.5634075594
 20
468.7484690874
 30
0.0
 10
96.7767061136
 20
468.6223378419
 30
0.0
 10
97.1361017088
 20
468.236792345
 30
0.0
 10
97.2398580095
 20
467.7366512532
 30
0.0
 10
97.2569827625
 20
467.4907147764
 30
0.0
  0
SPLINE
  5
530
100
AcDbEntity
  8
0
100
AcDbSpline
 62
7
  6
BYLAYER
 70
0
 71
3
 72
9
 73
5
 74
0
 42
0.0000001
 43
0.0000001
 44
0.0000000001
 40
0.0
 40
0.0
 40
0.0
 40
0.0
 40
0.516623635
 40
1.0
 40
1.0
 40
1.0
 40
1.0
 10
90.1447295153
 20
471.1136796321
 30
0.0
 10
90.1439935437
 20
471.0165991944
 30
0.0
 10
90.1387791216
 20
470.83110226
 30
0.0
 10
90.095378842
 20
470.6379331922
 30
0.0
 10
90.0419776336
 20
470.5644526579
 30
0.0
  0
SPLINE
  5
531
100
AcDbEntity
  8
0
100
AcDbSpline
 62
7
  6
BYLAYER
 70
0
 71
3
 72
9
 73
5
 74
0
 42
0.0000001
 43
0.0000001
 44
0.0000000001
 40
0.0
 40
0.0
 40
0.0
 40
0.0
 40
0.5465238398
 40
1.0
 40
1.0
 40
1.0
 40
1.0
 10
90.6700899435
 20
469.2114919248
 30
0.0
 10
90.7158677261
 20
469.1873556174
 30
0.0
 10
90.805586698
 20
469.1467534657
 30
0.0
 10
90.9056266137
 20
469.1676165851
 30
0.0
 10
90.9428129609
 20
469.1890883603
 30
0.0
  0
SPLINE
  5
532
100
AcDbEntity
  8
0
100
AcDbSpline
 62
7
  6
BYLAYER
 70
0
 71
3
 72
9
 73
5
 74
0
 42
0.0000001
 43
0.0000001
 44
0.0000000001
 40
0.0
 40
0.0
 40
0.0
 40
0.0
 40
0.5609368584
 40
1.0
 40
1.0
 40
1.0
 40
1.0
 10
92.9132298183
 20
466.5692148238
 30
0.0
 10
93.1173775615
 20
466.455411427
 30
0.0
 10
93.4697604487
 20
466.2547945993
 30
0.0
 10
93.9400392133
 20
466.1968529422
 30
0.0
 10
94.0984794913
 20
466.2883147945
 30
0.0
  0
SPLINE
  5
533
100
AcDbEntity
  8
0
100
AcDbSpline
 62
7
  6
BYLAYER
 70
0
 71
3
 72
11
 73
7
 74
0
 42
0.0000001
 43
0.0000001
 44
0.0000000001
 40
0.0
 40
0.0
 40
0.0
 40
0.0
 40
0.2536537968
 40
0.5200522521
 40
0.7730034139
 40
1.0
 40
1.0
 40
1.0
 40
1.0
 10
91.5650256901
 20
468.2537095456
 30
0.0
 10
91.5756564416
 20
468.0660292472
 30
0.0
 10
91.7187490575
 20
467.6911290206
 30
0.0
 10
92.0683684591
 20
467.2361070244
 30
0.0
 10
92.4705558474
 20
466.851646964
 30
0.0
 10
92.7691748737
 20
466.6560943022
 30
0.0
 10
92.9132298183
 20
466.5692148238
 30
0.0
  0
SPLINE
  5
534
100
AcDbEntity
  8
0
100
AcDbSpline
 62
7
  6
BYLAYER
 70
0
 71
3
 72
9
 73
5
 74
0
 42
0.0000001
 43
0.0000001
 44
0.0000000001
 40
0.0
 40
0.0
 40
0.0
 40
0.0
 40
0.5531026129
 40
1.0
 40
1.0
 40
1.0
 40
1.0
 10
93.6816843944
 20
467.983596008
 30
0.0
 10
93.6788402028
 20
467.8060448659
 30
0.0
 10
93.6856951506
 20
467.5080091582
 30
0.0
 10
93.617006291
 20
467.1277137929
 30
0.0
 10
93.4927358884
 20
467.0560031101
 30
0.0
  0
SPLINE
  5
535
100
AcDbEntity
  8
0
100
AcDbSpline
 62
7
  6
BYLAYER
 70
0
 71
3
 72
9
 73
5
 74
0
 42
0.0000001
 43
0.0000001
 44
0.0000000001
 40
0.0
 40
0.0
 40
0.0
 40
0.0
 40
0.5453169001
 40
1.0
 40
1.0
 40
1.0
 40
1.0
 10
92.7309280923
 20
468.0829310621
 30
0.0
 10
92.8613919023
 20
468.0119112583
 30
0.0
 10
93.1113312869
 20
467.8835866626
 30
0.0
 10
93.4052588609
 20
467.9286644293
 30
0.0
 10
93.5125230557
 20
467.9905842681
 30
0.0
  0
SPLINE
  5
536
100
AcDbEntity
  8
0
100
AcDbSpline
 62
7
  6
BYLAYER
 70
0
 71
3
 72
9
 73
5
 74
0
 42
0.0000001
 43
0.0000001
 44
0.0000000001
 40
0.0
 40
0.0
 40
0.0
 40
0.0
 40
0.4741916744
 40
1.0
 40
1.0
 40
1.0
 40
1.0
 10
91.4705602495
 20
470.6056178471
 30
0.0
 10
91.4773840827
 20
470.2996469408
 30
0.0
 10
91.5489607375
 20
469.6517540213
 30
0.0
 10
91.820097368
 20
469.0487830283
 30
0.0
 10
92.0112978735
 20
468.7684116599
 30
0.0
  0
SPLINE
  5
537
100
AcDbEntity
  8
0
100
AcDbSpline
 62
7
  6
BYLAYER
 70
0
 71
3
 72
9
 73
5
 74
0
 42
0.0000001
 43
0.0000001
 44
0.0000000001
 40
0.0
 40
0.0
 40
0.0
 40
0.0
 40
0.537490504
 40
1.0
 40
1.0
 40
1.0
 40
1.0
 10
92.0112978735
 20
468.7684116599
 30
0.0
 10
92.112273418
 20
468.6203437898
 30
0.0
 10
92.3266083801
 20
468.360023125
 30
0.0
 10
92.5988289298
 20
468.1625137091
 30
0.0
 10
92.7309280923
 20
468.0829310621
 30
0.0
  0
SPLINE
  5
538
100
AcDbEntity
  8
0
100
AcDbSpline
 62
7
  6
BYLAYER
 70
0
 71
3
 72
9
 73
5
 74
0
 42
0.0000001
 43
0.0000001
 44
0.0000000001
 40
0.0
 40
0.0
 40
0.0
 40
0.0
 40
0.5492861478
 40
1.0
 40
1.0
 40
1.0
 40
1.0
 10
93.6979558842
 20
469.2258892711
 30
0.0
 10
93.6949833429
 20
469.0946351469
 30
0.0
 10
93.6854648707
 20
468.8532187271
 30
0.0
 10
93.5408122814
 20
468.6328534223
 30
0.0
 10
93.4475178559
 20
468.5789891164
 30
0.0
  0
SPLINE
  5
539
100
AcDbEntity
  8
0
100
AcDbSpline
 62
7
  6
BYLAYER
 70
0
 71
3
 72
9
 73
5
 74
0
 42
0.0000001
 43
0.0000001
 44
0.0000000001
 40
0.0
 40
0.0
 40
0.0
 40
0.0
 40
0.2284474773
 40
1.0
 40
1.0
 40
1.0
 40
1.0
 10
92.9430610103
 20
470.7773921751
 30
0.0
 10
92.9790973006
 20
470.7553310037
 30
0.0
 10
93.1349569609
 20
470.6556118658
 30
0.0
 10
93.2662208198
 20
470.5186561833
 30
0.0
 10
93.3491127634
 20
470.4024953768
 30
0.0
  0
SPLINE
  5
53A
100
AcDbEntity
  8
0
100
AcDbSpline
 62
7
  6
BYLAYER
 70
0
 71
3
 72
9
 73
5
 74
0
 42
0.0000001
 43
0.0000001
 44
0.0000000001
 40
0.0
 40
0.0
 40
0.0
 40
0.0
 40
0.5375125917
 40
1.0
 40
1.0
 40
1.0
 40
1.0
 10
93.3491127634
 20
470.4024953768
 30
0.0
 10
93.4783873611
 20
470.2213361366
 30
0.0
 10
93.6544692796
 20
469.8333782418
 30
0.0
 10
93.6954522085
 20
469.4173637543
 30
0.0
 10
93.6979558841
 20
469.2258892711
 30
0.0
  0
SPLINE
  5
53B
100
AcDbEntity
  8
0
100
AcDbSpline
 62
7
  6
BYLAYER
 70
0
 71
3
 72
9
 73
5
 74
0
 42
0.0000001
 43
0.0000001
 44
0.0000000001
 40
0.0
 40
0.0
 40
0.0
 40
0.0
 40
0.5039647842
 40
1.0
 40
1.0
 40
1.0
 40
1.0
 10
88.2620498724
 20
473.1995603171
 30
0.0
 10
88.2663272549
 20
473.0949445748
 30
0.0
 10
88.3318411803
 20
472.8865884117
 30
0.0
 10
88.4862198051
 20
472.7355629726
 30
0.0
 10
88.5736200943
 20
472.6809583105
 30
0.0
  0
SPLINE
  5
53C
100
AcDbEntity
  8
0
100
AcDbSpline
 62
7
  6
BYLAYER
 70
0
 71
3
 72
9
 73
5
 74
0
 42
0.0000001
 43
0.0000001
 44
0.0000000001
 40
0.0
 40
0.0
 40
0.0
 40
0.0
 40
0.4978871965
 40
1.0
 40
1.0
 40
1.0
 40
1.0
 10
89.5845660295
 20
472.7776139714
 30
0.0
 10
89.7552846269
 20
472.6753666454
 30
0.0
 10
90.0978176482
 20
472.4082484616
 30
0.0
 10
90.1340419934
 20
471.98099623
 30
0.0
 10
90.1447295156
 20
471.780596255
 30
0.0
  0
SPLINE
  5
53D
100
AcDbEntity
  8
0
100
AcDbSpline
 62
7
  6
BYLAYER
 70
0
 71
3
 72
11
 73
7
 74
0
 42
0.0000001
 43
0.0000001
 44
0.0000000001
 40
0.0
 40
0.0
 40
0.0
 40
0.0
 40
0.2362064823
 40
0.5044410304
 40
0.7668114544
 40
1.0
 40
1.0
 40
1.0
 40
1.0
 10
88.1294667989
 20
471.6475658719
 30
0.0
 10
88.1340864779
 20
471.4998228818
 30
0.0
 10
88.188209979
 20
471.1834211531
 30
0.0
 10
88.4087511001
 20
470.7512703618
 30
0.0
 10
88.7150315426
 20
470.3779636054
 30
0.0
 10
88.9705110352
 20
470.1973477761
 30
0.0
 10
89.0948373026
 20
470.1209438865
 30
0.0
  0
SPLINE
  5
53E
100
AcDbEntity
  8
0
100
AcDbSpline
 62
7
  6
BYLAYER
 70
0
 71
3
 72
9
 73
5
 74
0
 42
0.0000001
 43
0.0000001
 44
0.0000000001
 40
0.0
 40
0.0
 40
0.0
 40
0.0
 40
0.5472912101
 40
1.0
 40
1.0
 40
1.0
 40
1.0
 10
89.0948373026
 20
470.1209438865
 30
0.0
 10
89.2775599868
 20
470.021221949
 30
0.0
 10
89.6468559749
 20
469.8603880467
 30
0.0
 10
90.0327977736
 20
469.9558324263
 30
0.0
 10
90.195276813
 20
470.0128373742
 30
0.0
  0
SPLINE
  5
53F
100
AcDbEntity
  8
0
100
AcDbSpline
 62
7
  6
BYLAYER
 70
0
 71
3
 72
9
 73
5
 74
0
 42
0.0000001
 43
0.0000001
 44
0.0000000001
 40
0.0
 40
0.0
 40
0.0
 40
0.0
 40
0.5087764801
 40
1.0
 40
1.0
 40
1.0
 40
1.0
 10
90.195276813
 20
470.0128373742
 30
0.0
 10
90.2534306702
 20
469.8646159966
 30
0.0
 10
90.3697648349
 20
469.5793511204
 30
0.0
 10
90.5422003054
 20
469.2967948936
 30
0.0
 10
90.6700899435
 20
469.2114919248
 30
0.0
  0
SPLINE
  5
540
100
AcDbEntity
  8
0
100
AcDbSpline
 62
7
  6
BYLAYER
 70
0
 71
3
 72
9
 73
5
 74
0
 42
0.0000001
 43
0.0000001
 44
0.0000000001
 40
0.0
 40
0.0
 40
0.0
 40
0.0
 40
0.2323438636
 40
1.0
 40
1.0
 40
1.0
 40
1.0
 10
189.7219901621
 20
211.0400077174
 30
0.0
 10
189.7115459368
 20
211.0205392891
 30
0.0
 10
189.6749236306
 20
210.9322065668
 30
0.0
 10
189.6622335634
 20
210.8368704711
 30
0.0
 10
189.6513748921
 20
210.764688078
 30
0.0
  0
SPLINE
  5
541
100
AcDbEntity
  8
0
100
AcDbSpline
 62
7
  6
BYLAYER
 70
0
 71
3
 72
11
 73
7
 74
0
 42
0.0000001
 43
0.0000001
 44
0.0000000001
 40
0.0
 40
0.0
 40
0.0
 40
0.0
 40
0.2372474214
 40
0.5000003344
 40
0.7627526908
 40
1.0
 40
1.0
 40
1.0
 40
1.0
 10
336.7234194261
 20
359.9459995579
 30
0.0
 10
337.2250037836
 20
359.656376113
 30
0.0
 10
338.1742997684
 20
358.8576262845
 30
0.0
 10
339.2817638236
 20
357.3435150461
 30
0.0
 10
340.0392689712
 20
355.6273558644
 30
0.0
 10
340.256338453
 20
354.4058679648
 30
0.0
 10
340.2563732082
 20
353.8266717206
 30
0.0
  0
SPLINE
  5
542
100
AcDbEntity
  8
0
100
AcDbSpline
 62
7
  6
BYLAYER
 70
0
 71
3
 72
9
 73
5
 74
0
 42
0.0000001
 43
0.0000001
 44
0.0000000001
 40
0.0
 40
0.0
 40
0.0
 40
0.0
 40
0.2326920952
 40
1.0
 40
1.0
 40
1.0
 40
1.0
 10
88.8953796558
 20
473.7198232752
 30
0.0
 10
88.9588111659
 20
473.7136036167
 30
0.0
 10
89.2291041483
 20
473.6602866817
 30
0.0
 10
89.4758573101
 20
473.5307771121
 30
0.0
 10
89.6594196339
 20
473.4284231638
 30
0.0
  0
SPLINE
  5
543
100
AcDbEntity
  8
0
100
AcDbSpline
 62
7
  6
BYLAYER
 70
0
 71
3
 72
11
 73
7
 74
0
 42
0.0000001
 43
0.0000001
 44
0.0000000001
 40
0.0
 40
0.0
 40
0.0
 40
0.0
 40
0.2201896419
 40
0.4592562114
 40
0.722098369
 40
1.0
 40
1.0
 40
1.0
 40
1.0
 10
186.658160483
 20
209.2779889039
 30
0.0
 10
186.6753527849
 20
209.3928021468
 30
0.0
 10
186.708804268
 20
209.6334772591
 30
0.0
 10
186.6864881978
 20
210.0157942554
 30
0.0
 10
186.5905696165
 20
210.4188799376
 30
0.0
 10
186.4616666783
 20
210.6749152733
 30
0.0
 10
186.3943400457
 20
210.8050524251
 30
0.0
  0
SPLINE
  5
544
100
AcDbEntity
  8
0
100
AcDbSpline
 62
7
  6
BYLAYER
 70
0
 71
3
 72
8
 73
4
 74
0
 42
0.0000001
 43
0.0000001
 44
0.0000000001
 40
0.0
 40
0.0
 40
0.0
 40
0.0
 40
1.0
 40
1.0
 40
1.0
 40
1.0
 10
186.416987645
 20
208.6873560549
 30
0.0
 10
186.4720841816
 20
208.7741152992
 30
0.0
 10
186.5194076405
 20
208.8661493196
 30
0.0
 10
186.559378402
 20
208.9608337061
 30
0.0
  0
SPLINE
  5
545
100
AcDbEntity
  8
0
100
AcDbSpline
 62
7
  6
BYLAYER
 70
0
 71
3
 72
9
 73
5
 74
0
 42
0.0000001
 43
0.0000001
 44
0.0000000001
 40
0.0
 40
0.0
 40
0.0
 40
0.0
 40
0.2298605341
 40
1.0
 40
1.0
 40
1.0
 40
1.0
 10
195.3511010013
 20
202.9985397729
 30
0.0
 10
195.3523857137
 20
202.973201084
 30
0.0
 10
195.3584849016
 20
202.8630049099
 30
0.0
 10
195.4115187089
 20
202.7559966327
 30
0.0
 10
195.4687822499
 20
202.6931730087
 30
0.0
  0
SPLINE
  5
546
100
AcDbEntity
  8
0
100
AcDbSpline
 62
7
  6
BYLAYER
 70
0
 71
3
 72
8
 73
4
 74
0
 42
0.0000001
 43
0.0000001
 44
0.0000000001
 40
0.0
 40
0.0
 40
0.0
 40
0.0
 40
1.0
 40
1.0
 40
1.0
 40
1.0
 10
195.4687822499
 20
202.6931730087
 30
0.0
 10
195.506745051
 20
202.6515241567
 30
0.0
 10
195.553140375
 20
202.6158126032
 30
0.0
 10
195.6041929213
 20
202.5919496893
 30
0.0
  0
SPLINE
  5
547
100
AcDbEntity
  8
0
100
AcDbSpline
 62
7
  6
BYLAYER
 70
0
 71
3
 72
9
 73
5
 74
0
 42
0.0000001
 43
0.0000001
 44
0.0000000001
 40
0.0
 40
0.0
 40
0.0
 40
0.0
 40
0.2736035022
 40
1.0
 40
1.0
 40
1.0
 40
1.0
 10
195.6041929213
 20
202.5919496893
 30
0.0
 10
195.6290548914
 20
202.5803287401
 30
0.0
 10
195.7245517428
 20
202.5469829444
 30
0.0
 10
195.8269867372
 20
202.5465880823
 30
0.0
 10
195.8998234191
 20
202.5484816864
 30
0.0
  0
SPLINE
  5
548
100
AcDbEntity
  8
0
100
AcDbSpline
 62
7
  6
BYLAYER
 70
0
 71
3
 72
9
 73
5
 74
0
 42
0.0000001
 43
0.0000001
 44
0.0000000001
 40
0.0
 40
0.0
 40
0.0
 40
0.0
 40
0.5027667319
 40
1.0
 40
1.0
 40
1.0
 40
1.0
 10
185.8100801724
 20
208.1125754854
 30
0.0
 10
185.8840148029
 20
208.1574164546
 30
0.0
 10
186.0320671625
 20
208.2469116424
 30
0.0
 10
186.1547364721
 20
208.3689955016
 30
0.0
 10
186.2147253097
 20
208.4299438581
 30
0.0
  0
SPLINE
  5
549
100
AcDbEntity
  8
0
100
AcDbSpline
 62
7
  6
BYLAYER
 70
0
 71
3
 72
9
 73
5
 74
0
 42
0.0000001
 43
0.0000001
 44
0.0000000001
 40
0.0
 40
0.0
 40
0.0
 40
0.0
 40
0.2761500782
 40
1.0
 40
1.0
 40
1.0
 40
1.0
 10
54.9827758495
 20
505.3490563299
 30
0.0
 10
54.9280437261
 20
505.3806552212
 30
0.0
 10
54.7247709331
 20
505.48456925
 30
0.0
 10
54.4937975284
 20
505.5455966829
 30
0.0
 10
54.3282000422
 20
505.5411172413
 30
0.0
  0
SPLINE
  5
54A
100
AcDbEntity
  8
0
100
AcDbSpline
 62
7
  6
BYLAYER
 70
0
 71
3
 72
8
 73
4
 74
0
 42
0.0000001
 43
0.0000001
 44
0.0000000001
 40
0.0
 40
0.0
 40
0.0
 40
0.0
 40
1.0
 40
1.0
 40
1.0
 40
1.0
 10
54.3282000422
 20
505.5411172413
 30
0.0
 10
54.2092428396
 20
505.5378994277
 30
0.0
 10
54.0867004097
 20
505.5071740303
 30
0.0
 10
53.9836451837
 20
505.4476694861
 30
0.0
  0
SPLINE
  5
54B
100
AcDbEntity
  8
0
100
AcDbSpline
 62
7
  6
BYLAYER
 70
0
 71
3
 72
9
 73
5
 74
0
 42
0.0000001
 43
0.0000001
 44
0.0000000001
 40
0.0
 40
0.0
 40
0.0
 40
0.0
 40
0.4500924986
 40
1.0
 40
1.0
 40
1.0
 40
1.0
 10
90.9428129609
 20
469.1890883603
 30
0.0
 10
90.9685143977
 20
469.2039286313
 30
0.0
 10
91.0202817939
 20
469.2522541601
 30
0.0
 10
91.027575397
 20
469.3216972993
 30
0.0
 10
91.0297215309
 20
469.3578935731
 30
0.0
  0
SPLINE
  5
54C
100
AcDbEntity
  8
0
100
AcDbSpline
 62
7
  6
BYLAYER
 70
0
 71
3
 72
9
 73
5
 74
0
 42
0.0000001
 43
0.0000001
 44
0.0000000001
 40
0.0
 40
0.0
 40
0.0
 40
0.0
 40
0.5292038
 40
1.0
 40
1.0
 40
1.0
 40
1.0
 10
186.3303572633
 20
210.8977381078
 30
0.0
 10
186.2038155258
 20
211.0801127418
 30
0.0
 10
185.9482882006
 20
211.4194399097
 30
0.0
 10
185.592772298
 20
211.6557744798
 30
0.0
 10
185.4170211407
 20
211.745822161
 30
0.0
  0
SPLINE
  5
54D
100
AcDbEntity
  8
0
100
AcDbSpline
 62
7
  6
BYLAYER
 70
0
 71
3
 72
8
 73
4
 74
0
 42
0.0000001
 43
0.0000001
 44
0.0000000001
 40
0.0
 40
0.0
 40
0.0
 40
0.0
 40
1.0
 40
1.0
 40
1.0
 40
1.0
 10
185.1899477156
 20
211.8484529472
 30
0.0
 10
185.0675179811
 20
211.896355501
 30
0.0
 10
184.9402744766
 20
211.9338863386
 30
0.0
 10
184.8109891236
 20
211.9577398931
 30
0.0
  0
SPLINE
  5
54E
100
AcDbEntity
  8
0
100
AcDbSpline
 62
7
  6
BYLAYER
 70
0
 71
3
 72
9
 73
5
 74
0
 42
0.0000001
 43
0.0000001
 44
0.0000000001
 40
0.0
 40
0.0
 40
0.0
 40
0.0
 40
0.5212525785
 40
1.0
 40
1.0
 40
1.0
 40
1.0
 10
184.8109891236
 20
211.9577398931
 30
0.0
 10
184.6185434937
 20
211.9932467174
 30
0.0
 10
184.2312416797
 20
212.0048472707
 30
0.0
 10
183.8776786427
 20
211.8660127443
 30
0.0
 10
183.710117677
 20
211.8009867568
 30
0.0
  0
SPLINE
  5
54F
100
AcDbEntity
  8
0
100
AcDbSpline
 62
7
  6
BYLAYER
 70
0
 71
3
 72
9
 73
5
 74
0
 42
0.0000001
 43
0.0000001
 44
0.0000000001
 40
0.0
 40
0.0
 40
0.0
 40
0.0
 40
0.30308627
 40
1.0
 40
1.0
 40
1.0
 40
1.0
 10
185.5748101657
 20
210.2342331345
 30
0.0
 10
185.5660777218
 20
210.2390649485
 30
0.0
 10
185.5388199853
 20
210.2566291471
 30
0.0
 10
185.500406752
 20
210.2618497466
 30
0.0
 10
185.4797625278
 20
210.251828197
 30
0.0
  0
SPLINE
  5
550
100
AcDbEntity
  8
0
100
AcDbSpline
 62
7
  6
BYLAYER
 70
0
 71
3
 72
9
 73
5
 74
0
 42
0.0000001
 43
0.0000001
 44
0.0000000001
 40
0.0
 40
0.0
 40
0.0
 40
0.0
 40
0.5723622862
 40
1.0
 40
1.0
 40
1.0
 40
1.0
 10
198.8289530708
 20
202.8034303514
 30
0.0
 10
198.8363435594
 20
202.7667037183
 30
0.0
 10
198.8429087778
 20
202.6973355986
 30
0.0
 10
198.7992452718
 20
202.6394332134
 30
0.0
 10
198.7750063126
 20
202.6254359526
 30
0.0
  0
SPLINE
  5
551
100
AcDbEntity
  8
0
100
AcDbSpline
 62
7
  6
BYLAYER
 70
0
 71
3
 72
9
 73
5
 74
0
 42
0.0000001
 43
0.0000001
 44
0.0000000001
 40
0.0
 40
0.0
 40
0.0
 40
0.0
 40
0.2801073402
 40
1.0
 40
1.0
 40
1.0
 40
1.0
 10
184.3649705977
 20
210.6251628697
 30
0.0
 10
184.3783480152
 20
210.6648437982
 30
0.0
 10
184.4229014327
 20
210.8058900103
 30
0.0
 10
184.5136550464
 20
210.9432806639
 30
0.0
 10
184.6068581291
 20
210.9970916785
 30
0.0
  0
SPLINE
  5
552
100
AcDbEntity
  8
0
100
AcDbSpline
 62
7
  6
BYLAYER
 70
0
 71
3
 72
9
 73
5
 74
0
 42
0.0000001
 43
0.0000001
 44
0.0000000001
 40
0.0
 40
0.0
 40
0.0
 40
0.0
 40
0.6663262557
 40
1.0
 40
1.0
 40
1.0
 40
1.0
 10
184.125966145
 20
209.6824615837
 30
0.0
 10
184.1374558485
 20
209.690140174
 30
0.0
 10
184.1539882139
 20
209.7083330179
 30
0.0
 10
184.1504137082
 20
209.7297952636
 30
0.0
 10
184.1487855152
 20
209.7365212546
 30
0.0
  0
SPLINE
  5
553
100
AcDbEntity
  8
0
100
AcDbSpline
 62
7
  6
BYLAYER
 70
0
 71
3
 72
9
 73
5
 74
0
 42
0.0000001
 43
0.0000001
 44
0.0000000001
 40
0.0
 40
0.0
 40
0.0
 40
0.0
 40
0.2144866995
 40
1.0
 40
1.0
 40
1.0
 40
1.0
 10
198.6197037093
 20
202.966942265
 30
0.0
 10
198.6321449215
 20
202.9668679559
 30
0.0
 10
198.6903333253
 20
202.9666662332
 30
0.0
 10
198.7459674525
 20
202.9327294111
 30
0.0
 10
198.7765287241
 20
202.8989343853
 30
0.0
  0
SPLINE
  5
554
100
AcDbEntity
  8
0
100
AcDbSpline
 62
7
  6
BYLAYER
 70
0
 71
3
 72
8
 73
4
 74
0
 42
0.0000001
 43
0.0000001
 44
0.0000000001
 40
0.0
 40
0.0
 40
0.0
 40
0.0
 40
1.0
 40
1.0
 40
1.0
 40
1.0
 10
198.7765287241
 20
202.8989343853
 30
0.0
 10
198.8008866158
 20
202.8719991325
 30
0.0
 10
198.8178296934
 20
202.838000356
 30
0.0
 10
198.8289530708
 20
202.8034303515
 30
0.0
  0
SPLINE
  5
555
100
AcDbEntity
  8
0
100
AcDbSpline
 62
7
  6
BYLAYER
 70
0
 71
3
 72
9
 73
5
 74
0
 42
0.0000001
 43
0.0000001
 44
0.0000000001
 40
0.0
 40
0.0
 40
0.0
 40
0.0
 40
0.21897513
 40
1.0
 40
1.0
 40
1.0
 40
1.0
 10
92.4643765612
 20
470.8270308863
 30
0.0
 10
92.4273229996
 20
470.791378426
 30
0.0
 10
92.2954021776
 20
470.590096965
 30
0.0
 10
92.2867357022
 20
470.3418437809
 30
0.0
 10
92.283735845
 20
470.1584654659
 30
0.0
  0
SPLINE
  5
556
100
AcDbEntity
  8
0
100
AcDbSpline
 62
7
  6
BYLAYER
 70
0
 71
3
 72
9
 73
5
 74
0
 42
0.0000001
 43
0.0000001
 44
0.0000000001
 40
0.0
 40
0.0
 40
0.0
 40
0.0
 40
0.4453324147
 40
1.0
 40
1.0
 40
1.0
 40
1.0
 10
94.0984794913
 20
466.2883147945
 30
0.0
 10
94.2484354294
 20
466.3748789436
 30
0.0
 10
94.4329005381
 20
466.7739312277
 30
0.0
 10
94.4375958324
 20
467.1549505291
 30
0.0
 10
94.4404210958
 20
467.3705898729
 30
0.0
  0
SPLINE
  5
557
100
AcDbEntity
  8
0
100
AcDbSpline
 62
7
  6
BYLAYER
 70
0
 71
3
 72
9
 73
5
 74
0
 42
0.0000001
 43
0.0000001
 44
0.0000000001
 40
0.0
 40
0.0
 40
0.0
 40
0.0
 40
0.2860287132
 40
1.0
 40
1.0
 40
1.0
 40
1.0
 10
107.6280151137
 20
458.5841808756
 30
0.0
 10
107.6280076809
 20
458.4612430519
 30
0.0
 10
107.6018393153
 20
458.0349293126
 30
0.0
 10
107.4381854756
 20
457.5955842431
 30
0.0
 10
107.2222120581
 20
457.3775804932
 30
0.0
  0
SPLINE
  5
558
100
AcDbEntity
  8
0
100
AcDbSpline
 62
7
  6
BYLAYER
 70
0
 71
3
 72
8
 73
4
 74
0
 42
0.0000001
 43
0.0000001
 44
0.0000000001
 40
0.0
 40
0.0
 40
0.0
 40
0.0
 40
1.0
 40
1.0
 40
1.0
 40
1.0
 10
107.2222120581
 20
457.3775804932
 30
0.0
 10
107.1582786028
 20
457.3130460094
 30
0.0
 10
107.0852775955
 20
457.2563163012
 30
0.0
 10
107.0066068303
 20
457.2108949738
 30
0.0
  0
SPLINE
  5
559
100
AcDbEntity
  8
0
100
AcDbSpline
 62
7
  6
BYLAYER
 70
0
 71
3
 72
9
 73
5
 74
0
 42
0.0000001
 43
0.0000001
 44
0.0000000001
 40
0.0
 40
0.0
 40
0.0
 40
0.0
 40
0.4376931451
 40
1.0
 40
1.0
 40
1.0
 40
1.0
 10
194.0621429667
 20
208.6215882734
 30
0.0
 10
193.9446782819
 20
208.5537693165
 30
0.0
 10
193.8255275674
 20
208.2160142022
 30
0.0
 10
193.839026722
 20
207.9152430085
 30
0.0
 10
193.8615051953
 20
207.7424454729
 30
0.0
  0
SPLINE
  5
55A
100
AcDbEntity
  8
0
100
AcDbSpline
 62
7
  6
BYLAYER
 70
0
 71
3
 72
9
 73
5
 74
0
 42
0.0000001
 43
0.0000001
 44
0.0000000001
 40
0.0
 40
0.0
 40
0.0
 40
0.0
 40
0.2396609464
 40
1.0
 40
1.0
 40
1.0
 40
1.0
 10
193.8736193339
 20
207.6629504746
 30
0.0
 10
193.8847541354
 20
207.5993866419
 30
0.0
 10
193.9455449022
 20
207.3373237954
 30
0.0
 10
194.0701046936
 20
207.0862739023
 30
0.0
 10
194.2031089385
 20
206.930631346
 30
0.0
  0
SPLINE
  5
55B
100
AcDbEntity
  8
0
100
AcDbSpline
 62
7
  6
BYLAYER
 70
0
 71
3
 72
9
 73
5
 74
0
 42
0.0000001
 43
0.0000001
 44
0.0000000001
 40
0.0
 40
0.0
 40
0.0
 40
0.0
 40
0.4403977706
 40
1.0
 40
1.0
 40
1.0
 40
1.0
 10
193.3993137825
 20
209.4383401809
 30
0.0
 10
193.5327747164
 20
209.5153926803
 30
0.0
 10
193.9172970191
 20
209.5363099004
 30
0.0
 10
194.2318878171
 20
209.3674299605
 30
0.0
 10
194.3950552003
 20
209.2591630706
 30
0.0
  0
SPLINE
  5
55C
100
AcDbEntity
  8
0
100
AcDbSpline
 62
7
  6
BYLAYER
 70
0
 71
3
 72
9
 73
5
 74
0
 42
0.0000001
 43
0.0000001
 44
0.0000000001
 40
0.0
 40
0.0
 40
0.0
 40
0.0
 40
0.2409472279
 40
1.0
 40
1.0
 40
1.0
 40
1.0
 10
194.5141858757
 20
209.1744896899
 30
0.0
 10
194.5483813452
 20
209.1485337003
 30
0.0
 10
194.6875858957
 20
209.0371227446
 30
0.0
 10
194.8128565265
 20
208.9095572497
 30
0.0
 10
194.9056217083
 20
208.8111420789
 30
0.0
  0
SPLINE
  5
55D
100
AcDbEntity
  8
0
100
AcDbSpline
 62
7
  6
BYLAYER
 70
0
 71
3
 72
9
 73
5
 74
0
 42
0.0000001
 43
0.0000001
 44
0.0000000001
 40
0.0
 40
0.0
 40
0.0
 40
0.0
 40
0.2233138051
 40
1.0
 40
1.0
 40
1.0
 40
1.0
 10
91.7832230537
 20
468.535014856
 30
0.0
 10
91.7960280316
 20
468.5368169577
 30
0.0
 10
91.8545026953
 20
468.5387548507
 30
0.0
 10
91.9099528684
 20
468.5139523261
 30
0.0
 10
91.9497922288
 20
468.4930826503
 30
0.0
  0
SPLINE
  5
55E
100
AcDbEntity
  8
0
100
AcDbSpline
 62
7
  6
BYLAYER
 70
0
 71
3
 72
9
 73
5
 74
0
 42
0.0000001
 43
0.0000001
 44
0.0000000001
 40
0.0
 40
0.0
 40
0.0
 40
0.0
 40
0.2324857595
 40
1.0
 40
1.0
 40
1.0
 40
1.0
 10
197.0943172628
 20
206.7835842812
 30
0.0
 10
197.0838900555
 20
206.7641025569
 30
0.0
 10
197.0473075425
 20
206.6758049851
 30
0.0
 10
197.0345588112
 20
206.5805276536
 30
0.0
 10
197.0236502956
 20
206.5083991793
 30
0.0
  0
SPLINE
  5
55F
100
AcDbEntity
  8
0
100
AcDbSpline
 62
7
  6
BYLAYER
 70
0
 71
3
 72
10
 73
6
 74
0
 42
0.0000001
 43
0.0000001
 44
0.0000000001
 40
0.0
 40
0.0
 40
0.0
 40
0.0
 40
0.2077500819
 40
0.5746548782
 40
1.0
 40
1.0
 40
1.0
 40
1.0
 10
93.4927358884
 20
467.0560031101
 30
0.0
 10
93.4545178392
 20
467.0339492474
 30
0.0
 10
93.329128569
 20
467.0076445957
 30
0.0
 10
93.1199929154
 20
467.0695815111
 30
0.0
 10
92.9721178857
 20
467.1488487876
 30
0.0
 10
92.893342358
 20
467.1930734075
 30
0.0
  0
SPLINE
  5
560
100
AcDbEntity
  8
0
100
AcDbSpline
 62
7
  6
BYLAYER
 70
0
 71
3
 72
8
 73
4
 74
0
 42
0.0000001
 43
0.0000001
 44
0.0000000001
 40
0.0
 40
0.0
 40
0.0
 40
0.0
 40
1.0
 40
1.0
 40
1.0
 40
1.0
 10
191.105561299
 20
206.169220377
 30
0.0
 10
191.0713733126
 20
206.1165401971
 30
0.0
 10
191.056217999
 20
206.0530432702
 30
0.0
 10
191.0419133889
 20
205.9918926538
 30
0.0
  0
SPLINE
  5
561
100
AcDbEntity
  8
0
100
AcDbSpline
 62
7
  6
BYLAYER
 70
0
 71
3
 72
8
 73
4
 74
0
 42
0.0000001
 43
0.0000001
 44
0.0000000001
 40
0.0
 40
0.0
 40
0.0
 40
0.0
 40
1.0
 40
1.0
 40
1.0
 40
1.0
 10
191.463347237
 20
206.4698798133
 30
0.0
 10
191.5097884993
 20
206.4412510148
 30
0.0
 10
191.5540345695
 20
206.4088279086
 30
0.0
 10
191.595760386
 20
206.3736802886
 30
0.0
  0
SPLINE
  5
562
100
AcDbEntity
  8
0
100
AcDbSpline
 62
7
  6
BYLAYER
 70
0
 71
3
 72
9
 73
5
 74
0
 42
0.0000001
 43
0.0000001
 44
0.0000000001
 40
0.0
 40
0.0
 40
0.0
 40
0.0
 40
0.241460134
 40
1.0
 40
1.0
 40
1.0
 40
1.0
 10
191.595760386
 20
206.3736802886
 30
0.0
 10
191.6327674573
 20
206.3425074899
 30
0.0
 10
191.7784099527
 20
206.2045110403
 30
0.0
 10
191.8896176368
 20
206.031053162
 30
0.0
 10
191.9493228397
 20
205.891264512
 30
0.0
  0
SPLINE
  5
563
100
AcDbEntity
  8
0
100
AcDbSpline
 62
7
  6
BYLAYER
 70
0
 71
3
 72
8
 73
4
 74
0
 42
0.0000001
 43
0.0000001
 44
0.0000000001
 40
0.0
 40
0.0
 40
0.0
 40
0.0
 40
1.0
 40
1.0
 40
1.0
 40
1.0
 10
191.9493228397
 20
205.891264512
 30
0.0
 10
191.9946485116
 20
205.7851428648
 30
0.0
 10
192.0281782289
 20
205.6733417591
 30
0.0
 10
192.0498972795
 20
205.5600081657
 30
0.0
  0
SPLINE
  5
564
100
AcDbEntity
  8
0
100
AcDbSpline
 62
7
  6
BYLAYER
 70
0
 71
3
 72
9
 73
5
 74
0
 42
0.0000001
 43
0.0000001
 44
0.0000000001
 40
0.0
 40
0.0
 40
0.0
 40
0.0
 40
0.2598554352
 40
1.0
 40
1.0
 40
1.0
 40
1.0
 10
192.0498972795
 20
205.5600081657
 30
0.0
 10
192.0564174273
 20
205.5259849576
 30
0.0
 10
192.0776618365
 20
205.3942473461
 30
0.0
 10
192.0826337276
 20
205.2606408704
 30
0.0
 10
192.0858713401
 20
205.1620224757
 30
0.0
  0
SPLINE
  5
565
100
AcDbEntity
  8
0
100
AcDbSpline
 62
7
  6
BYLAYER
 70
0
 71
3
 72
9
 73
5
 74
0
 42
0.0000001
 43
0.0000001
 44
0.0000000001
 40
0.0
 40
0.0
 40
0.0
 40
0.0
 40
0.5658164208
 40
1.0
 40
1.0
 40
1.0
 40
1.0
 10
192.7103668408
 20
211.4597590269
 30
0.0
 10
192.7303836714
 20
211.3554598506
 30
0.0
 10
192.7524813675
 20
211.1549314728
 30
0.0
 10
192.6203092647
 20
210.9939029134
 30
0.0
 10
192.5497316059
 20
210.9531562459
 30
0.0
  0
SPLINE
  5
566
100
AcDbEntity
  8
0
100
AcDbSpline
 62
7
  6
BYLAYER
 70
0
 71
3
 72
9
 73
5
 74
0
 42
0.0000001
 43
0.0000001
 44
0.0000000001
 40
0.0
 40
0.0
 40
0.0
 40
0.0
 40
0.455381174
 40
1.0
 40
1.0
 40
1.0
 40
1.0
 10
192.1182766819
 20
211.9221965864
 30
0.0
 10
192.1738856468
 20
211.9216107328
 30
0.0
 10
192.2980278253
 20
211.9180282013
 30
0.0
 10
192.4097927722
 20
211.857833482
 30
0.0
 10
192.4633655116
 20
211.8184186074
 30
0.0
  0
SPLINE
  5
567
100
AcDbEntity
  8
0
100
AcDbSpline
 62
7
  6
BYLAYER
 70
0
 71
3
 72
8
 73
4
 74
0
 42
0.0000001
 43
0.0000001
 44
0.0000000001
 40
0.0
 40
0.0
 40
0.0
 40
0.0
 40
1.0
 40
1.0
 40
1.0
 40
1.0
 10
192.4633655116
 20
211.8184186074
 30
0.0
 10
192.5802907749
 20
211.7323936132
 30
0.0
 10
192.6650528927
 20
211.59766647
 30
0.0
 10
192.7103668408
 20
211.4597590267
 30
0.0
  0
SPLINE
  5
568
100
AcDbEntity
  8
0
100
AcDbSpline
 62
7
  6
BYLAYER
 70
0
 71
3
 72
11
 73
7
 74
0
 42
0.0000001
 43
0.0000001
 44
0.0000000001
 40
0.0
 40
0.0
 40
0.0
 40
0.0
 40
0.237256205
 40
0.500001259
 40
0.7627456297
 40
1.0
 40
1.0
 40
1.0
 40
1.0
 10
211.1488806423
 20
200.6933746851
 30
0.0
 10
211.1488526095
 20
201.1570793037
 30
0.0
 10
210.9749661761
 20
202.1349547278
 30
0.0
 10
210.3685381453
 20
203.5088394739
 30
0.0
 10
209.4819294057
 20
204.7209567869
 30
0.0
 10
208.7220068708
 20
205.3604765116
 30
0.0
 10
208.3204417417
 20
205.5923473717
 30
0.0
  0
SPLINE
  5
569
100
AcDbEntity
  8
0
100
AcDbSpline
 62
7
  6
BYLAYER
 70
0
 71
3
 72
9
 73
5
 74
0
 42
0.0000001
 43
0.0000001
 44
0.0000000001
 40
0.0
 40
0.0
 40
0.0
 40
0.0
 40
0.5475511618
 40
1.0
 40
1.0
 40
1.0
 40
1.0
 10
184.2157101511
 20
209.0528121535
 30
0.0
 10
184.3501568436
 20
208.9869469515
 30
0.0
 10
184.5975265558
 20
208.8630768333
 30
0.0
 10
184.8900361525
 20
208.8707332612
 30
0.0
 10
185.0047889008
 20
208.9169505777
 30
0.0
  0
SPLINE
  5
56A
100
AcDbEntity
  8
0
100
AcDbSpline
 62
7
  6
BYLAYER
 70
0
 71
3
 72
8
 73
4
 74
0
 42
0.0000001
 43
0.0000001
 44
0.0000000001
 40
0.0
 40
0.0
 40
0.0
 40
0.0
 40
1.0
 40
1.0
 40
1.0
 40
1.0
 10
184.2271544162
 20
209.7757976466
 30
0.0
 10
184.2240471187
 20
209.7581973409
 30
0.0
 10
184.211665106
 20
209.7303024008
 30
0.0
 10
184.1940964367
 20
209.7335838513
 30
0.0
  0
SPLINE
  5
56B
100
AcDbEntity
  8
0
100
AcDbSpline
 62
7
  6
BYLAYER
 70
0
 71
3
 72
9
 73
5
 74
0
 42
0.0000001
 43
0.0000001
 44
0.0000000001
 40
0.0
 40
0.0
 40
0.0
 40
0.0
 40
0.4481122069
 40
1.0
 40
1.0
 40
1.0
 40
1.0
 10
185.0002158125
 20
208.9082692773
 30
0.0
 10
184.8850103647
 20
208.8417563032
 30
0.0
 10
184.5626596696
 20
208.8043024433
 30
0.0
 10
184.2921273148
 20
208.9399102073
 30
0.0
 10
184.1449997674
 20
209.0119877381
 30
0.0
  0
SPLINE
  5
56C
100
AcDbEntity
  8
0
100
AcDbSpline
 62
7
  6
BYLAYER
 70
0
 71
3
 72
8
 73
4
 74
0
 42
0.0000001
 43
0.0000001
 44
0.0000000001
 40
0.0
 40
0.0
 40
0.0
 40
0.0
 40
1.0
 40
1.0
 40
1.0
 40
1.0
 10
72.0992460742
 20
511.605108959
 30
0.0
 10
72.2125653499
 20
511.6642601199
 30
0.0
 10
72.3335627126
 20
511.710286301
 30
0.0
 10
72.4572454271
 20
511.7425772315
 30
0.0
  0
SPLINE
  5
56D
100
AcDbEntity
  8
0
100
AcDbSpline
 62
7
  6
BYLAYER
 70
0
 71
3
 72
9
 73
5
 74
0
 42
0.0000001
 43
0.0000001
 44
0.0000000001
 40
0.0
 40
0.0
 40
0.0
 40
0.0
 40
0.2239080584
 40
1.0
 40
1.0
 40
1.0
 40
1.0
 10
72.4572454271
 20
511.7425772315
 30
0.0
 10
72.598204159
 20
511.7793785632
 30
0.0
 10
73.24919248
 20
511.8662968494
 30
0.0
 10
73.9072591418
 20
511.6504438262
 30
0.0
 10
74.3548158796
 20
511.4166188995
 30
0.0
  0
SPLINE
  5
56E
100
AcDbEntity
  8
0
100
AcDbSpline
 62
7
  6
BYLAYER
 70
0
 71
3
 72
9
 73
5
 74
0
 42
0.0000001
 43
0.0000001
 44
0.0000000001
 40
0.0
 40
0.0
 40
0.0
 40
0.0
 40
0.2143171117
 40
1.0
 40
1.0
 40
1.0
 40
1.0
 10
185.5504729122
 20
210.2926526127
 30
0.0
 10
185.5569361383
 20
210.2957901266
 30
0.0
 10
185.5886768217
 20
210.3101790996
 30
0.0
 10
185.6224748555
 20
210.2878091356
 30
0.0
 10
185.6455205495
 20
210.2750575498
 30
0.0
  0
SPLINE
  5
56F
100
AcDbEntity
  8
0
100
AcDbSpline
 62
7
  6
BYLAYER
 70
0
 71
3
 72
12
 73
8
 74
0
 42
0.0000001
 43
0.0000001
 44
0.0000000001
 40
0.0
 40
0.0
 40
0.0
 40
0.0
 40
0.260012012
 40
0.5499726867
 40
0.6886467394
 40
0.8123833197
 40
1.0
 40
1.0
 40
1.0
 40
1.0
 10
192.0151609567
 20
205.1211980605
 30
0.0
 10
192.0093765679
 20
205.2973918244
 30
0.0
 10
191.9791276004
 20
205.6726874003
 30
0.0
 10
191.7672202282
 20
206.1075865113
 30
0.0
 10
191.4934625487
 20
206.3700063603
 30
0.0
 10
191.2384217577
 20
206.5298173572
 30
0.0
 10
190.9922256563
 20
206.5660724004
 30
0.0
 10
190.8820607571
 20
206.5024745996
 30
0.0
  0
SPLINE
  5
570
100
AcDbEntity
  8
0
100
AcDbSpline
 62
7
  6
BYLAYER
 70
0
 71
3
 72
11
 73
7
 74
0
 42
0.0000001
 43
0.0000001
 44
0.0000000001
 40
0.0
 40
0.0
 40
0.0
 40
0.0
 40
0.1917512249
 40
0.4272835623
 40
0.7151168163
 40
1.0
 40
1.0
 40
1.0
 40
1.0
 10
191.9892607767
 20
204.8255352796
 30
0.0
 10
191.8926397918
 20
204.8151325409
 30
0.0
 10
191.6707270296
 20
204.8040991548
 30
0.0
 10
191.334788002
 20
204.9740951225
 30
0.0
 10
191.0580242441
 20
205.2949920765
 30
0.0
 10
190.9898433893
 20
205.584684054
 30
0.0
 10
190.9657820381
 20
205.7270435556
 30
0.0
  0
SPLINE
  5
571
100
AcDbEntity
  8
0
100
AcDbSpline
 62
7
  6
BYLAYER
 70
0
 71
3
 72
9
 73
5
 74
0
 42
0.0000001
 43
0.0000001
 44
0.0000000001
 40
0.0
 40
0.0
 40
0.0
 40
0.0
 40
0.2272642395
 40
1.0
 40
1.0
 40
1.0
 40
1.0
 10
92.3075622081
 20
471.7925991327
 30
0.0
 10
92.3468544886
 20
471.7888077821
 30
0.0
 10
92.5187717401
 20
471.7594851772
 30
0.0
 10
92.6783065439
 20
471.6824716352
 30
0.0
 10
92.795837967
 20
471.6176521609
 30
0.0
  0
SPLINE
  5
572
100
AcDbEntity
  8
0
100
AcDbSpline
 62
7
  6
BYLAYER
 70
0
 71
3
 72
8
 73
4
 74
0
 42
0.0000001
 43
0.0000001
 44
0.0000000001
 40
0.0
 40
0.0
 40
0.0
 40
0.0
 40
1.0
 40
1.0
 40
1.0
 40
1.0
 10
325.3117440016
 20
347.6662076856
 30
0.0
 10
325.3117440016
 20
347.7880034446
 30
0.0
 10
325.299664356
 20
347.9100868198
 30
0.0
 10
325.2790983735
 20
348.0301336744
 30
0.0
  0
SPLINE
  5
573
100
AcDbEntity
  8
0
100
AcDbSpline
 62
7
  6
BYLAYER
 70
0
 71
3
 72
9
 73
5
 74
0
 42
0.0000001
 43
0.0000001
 44
0.0000000001
 40
0.0
 40
0.0
 40
0.0
 40
0.0
 40
0.2391841893
 40
1.0
 40
1.0
 40
1.0
 40
1.0
 10
325.2790983735
 20
348.0301336744
 30
0.0
 10
325.2645232411
 20
348.115211001
 30
0.0
 10
325.1853044859
 20
348.4676806188
 30
0.0
 10
325.0399857254
 20
348.8040501487
 30
0.0
 10
324.902708462
 20
349.0418313213
 30
0.0
  0
SPLINE
  5
574
100
AcDbEntity
  8
0
100
AcDbSpline
 62
7
  6
BYLAYER
 70
0
 71
3
 72
9
 73
5
 74
0
 42
0.0000001
 43
0.0000001
 44
0.0000000001
 40
0.0
 40
0.0
 40
0.0
 40
0.0
 40
0.2586057861
 40
1.0
 40
1.0
 40
1.0
 40
1.0
 10
324.902708462
 20
349.0418313213
 30
0.0
 10
324.8560481591
 20
349.1226527279
 30
0.0
 10
324.6629620442
 20
349.4274659915
 30
0.0
 10
324.4204437821
 20
349.7028048169
 30
0.0
 10
324.2146543656
 20
349.8737808415
 30
0.0
  0
SPLINE
  5
575
100
AcDbEntity
  8
0
100
AcDbSpline
 62
7
  6
BYLAYER
 70
0
 71
3
 72
8
 73
4
 74
0
 42
0.0000001
 43
0.0000001
 44
0.0000000001
 40
0.0
 40
0.0
 40
0.0
 40
0.0
 40
1.0
 40
1.0
 40
1.0
 40
1.0
 10
324.2146543656
 20
349.8737808415
 30
0.0
 10
324.1209779027
 20
349.9516100588
 30
0.0
 10
324.0212951587
 20
350.0231087268
 30
0.0
 10
323.9158218166
 20
350.0840024117
 30
0.0
  0
SPLINE
  5
576
100
AcDbEntity
  8
0
100
AcDbSpline
 62
7
  6
BYLAYER
 70
0
 71
3
 72
9
 73
5
 74
0
 42
0.0000001
 43
0.0000001
 44
0.0000000001
 40
0.0
 40
0.0
 40
0.0
 40
0.0
 40
0.4736811156
 40
1.0
 40
1.0
 40
1.0
 40
1.0
 10
198.8260650186
 20
204.8820424262
 30
0.0
 10
198.8218743717
 20
205.073105212
 30
0.0
 10
198.8091035397
 20
205.4785481864
 30
0.0
 10
198.6883623904
 20
205.869411694
 30
0.0
 10
198.6060931247
 20
206.0651729131
 30
0.0
  0
SPLINE
  5
577
100
AcDbEntity
  8
0
100
AcDbSpline
 62
7
  6
BYLAYER
 70
0
 71
3
 72
10
 73
6
 74
0
 42
0.0000001
 43
0.0000001
 44
0.0000000001
 40
0.0
 40
0.0
 40
0.0
 40
0.0
 40
0.5244323449
 40
0.7705302773
 40
1.0
 40
1.0
 40
1.0
 40
1.0
 10
198.6060931247
 20
206.0651729131
 30
0.0
 10
198.4851405354
 20
206.3529818067
 30
0.0
 10
198.244340486
 20
206.7553208527
 30
0.0
 10
197.8155813969
 20
207.1725437839
 30
0.0
 10
197.5801418606
 20
207.3311012892
 30
0.0
 10
197.4670886012
 20
207.4077762725
 30
0.0
  0
SPLINE
  5
578
100
AcDbEntity
  8
0
100
AcDbSpline
 62
7
  6
BYLAYER
 70
0
 71
3
 72
9
 73
5
 74
0
 42
0.0000001
 43
0.0000001
 44
0.0000000001
 40
0.0
 40
0.0
 40
0.0
 40
0.0
 40
0.2179718774
 40
1.0
 40
1.0
 40
1.0
 40
1.0
 10
93.9563897567
 20
470.8888776498
 30
0.0
 10
93.9703745851
 20
470.8919921713
 30
0.0
 10
94.0367267564
 20
470.8983634315
 30
0.0
 10
94.1002641035
 20
470.8690649912
 30
0.0
 10
94.1456993831
 20
470.8450248102
 30
0.0
  0
SPLINE
  5
579
100
AcDbEntity
  8
0
100
AcDbSpline
 62
7
  6
BYLAYER
 70
0
 71
3
 72
12
 73
8
 74
0
 42
0.0000001
 43
0.0000001
 44
0.0000000001
 40
0.0
 40
0.0
 40
0.0
 40
0.0
 40
0.1908806828
 40
0.421854214
 40
0.7089660853
 40
0.8612795918
 40
1.0
 40
1.0
 40
1.0
 40
1.0
 10
198.7812516842
 20
204.4921374107
 30
0.0
 10
198.6148894136
 20
204.4574158432
 30
0.0
 10
198.229893127
 20
204.4020302962
 30
0.0
 10
197.6354923414
 20
204.686405538
 30
0.0
 10
197.2045105308
 20
205.1175296453
 30
0.0
 10
196.9840706206
 20
205.5918472506
 30
0.0
 10
196.9504906234
 20
205.8507929373
 30
0.0
 10
196.9357132805
 20
205.9734128209
 30
0.0
  0
SPLINE
  5
57A
100
AcDbEntity
  8
0
100
AcDbSpline
 62
7
  6
BYLAYER
 70
0
 71
3
 72
9
 73
5
 74
0
 42
0.0000001
 43
0.0000001
 44
0.0000000001
 40
0.0
 40
0.0
 40
0.0
 40
0.0
 40
0.5510603699
 40
1.0
 40
1.0
 40
1.0
 40
1.0
 10
197.4670886009
 20
207.4077762723
 30
0.0
 10
197.2947888593
 20
207.492752667
 30
0.0
 10
196.9795132171
 20
207.6586593875
 30
0.0
 10
196.6001939615
 20
207.6127672612
 30
0.0
 10
196.4646495766
 20
207.5345112281
 30
0.0
  0
SPLINE
  5
57B
100
AcDbEntity
  8
0
100
AcDbSpline
 62
7
  6
BYLAYER
 70
0
 71
3
 72
9
 73
5
 74
0
 42
0.0000001
 43
0.0000001
 44
0.0000000001
 40
0.0
 40
0.0
 40
0.0
 40
0.0
 40
0.2851879134
 40
1.0
 40
1.0
 40
1.0
 40
1.0
 10
196.9529399119
 20
206.4675747638
 30
0.0
 10
196.9591223834
 20
206.5084540414
 30
0.0
 10
196.9777769946
 20
206.6488616116
 30
0.0
 10
197.0412274626
 20
206.8060882274
 30
0.0
 10
197.1309720442
 20
206.8579009384
 30
0.0
  0
SPLINE
  5
57C
100
AcDbEntity
  8
0
100
AcDbSpline
 62
7
  6
BYLAYER
 70
0
 71
3
 72
9
 73
5
 74
0
 42
0.0000001
 43
0.0000001
 44
0.0000000001
 40
0.0
 40
0.0
 40
0.0
 40
0.0
 40
0.5508267759
 40
1.0
 40
1.0
 40
1.0
 40
1.0
 10
170.1365165837
 20
227.6373481158
 30
0.0
 10
169.8056772751
 20
227.8283272901
 30
0.0
 10
169.1446050535
 20
228.1030313116
 30
0.0
 10
168.4064684832
 20
227.9909041456
 30
0.0
 10
168.1366952452
 20
227.835151295
 30
0.0
  0
SPLINE
  5
57D
100
AcDbEntity
  8
0
100
AcDbSpline
 62
7
  6
BYLAYER
 70
0
 71
3
 72
9
 73
5
 74
0
 42
0.0000001
 43
0.0000001
 44
0.0000000001
 40
0.0
 40
0.0
 40
0.0
 40
0.0
 40
0.474045161
 40
1.0
 40
1.0
 40
1.0
 40
1.0
 10
187.4891314975
 20
213.250765831
 30
0.0
 10
187.6252288893
 20
213.1605791585
 30
0.0
 10
187.9068110093
 20
212.9564248269
 30
0.0
 10
188.1103478952
 20
212.6704973015
 30
0.0
 10
188.1985266196
 20
212.5122627534
 30
0.0
  0
SPLINE
  5
57E
100
AcDbEntity
  8
0
100
AcDbSpline
 62
7
  6
BYLAYER
 70
0
 71
3
 72
9
 73
5
 74
0
 42
0.0000001
 43
0.0000001
 44
0.0000000001
 40
0.0
 40
0.0
 40
0.0
 40
0.0
 40
0.5248735961
 40
1.0
 40
1.0
 40
1.0
 40
1.0
 10
188.1985266196
 20
212.5122627534
 30
0.0
 10
188.285515387
 20
212.3561635541
 30
0.0
 10
188.4163034676
 20
212.0347443767
 30
0.0
 10
188.4419588269
 20
211.6924623939
 30
0.0
 10
188.4488837461
 20
211.5308469609
 30
0.0
  0
SPLINE
  5
57F
100
AcDbEntity
  8
0
100
AcDbSpline
 62
7
  6
BYLAYER
 70
0
 71
3
 72
9
 73
5
 74
0
 42
0.0000001
 43
0.0000001
 44
0.0000000001
 40
0.0
 40
0.0
 40
0.0
 40
0.0
 40
0.2211681558
 40
1.0
 40
1.0
 40
1.0
 40
1.0
 10
99.3048761507
 20
464.341296311
 30
0.0
 10
99.3293917102
 20
464.3554509758
 30
0.0
 10
99.4220111154
 20
464.4520320408
 30
0.0
 10
99.4229954558
 20
464.5937746713
 30
0.0
 10
99.4255446581
 20
464.6934286943
 30
0.0
  0
SPLINE
  5
580
100
AcDbEntity
  8
0
100
AcDbSpline
 62
7
  6
BYLAYER
 70
0
 71
3
 72
9
 73
5
 74
0
 42
0.0000001
 43
0.0000001
 44
0.0000000001
 40
0.0
 40
0.0
 40
0.0
 40
0.0
 40
0.2292214554
 40
1.0
 40
1.0
 40
1.0
 40
1.0
 10
96.1279741599
 20
468.8147482828
 30
0.0
 10
96.0976049904
 20
468.7884061548
 30
0.0
 10
95.9864944504
 20
468.6481193512
 30
0.0
 10
95.9589451239
 20
468.4651999412
 30
0.0
 10
95.943028672
 20
468.3309575143
 30
0.0
  0
SPLINE
  5
581
100
AcDbEntity
  8
0
100
AcDbSpline
 62
7
  6
BYLAYER
 70
0
 71
3
 72
11
 73
7
 74
0
 42
0.0000001
 43
0.0000001
 44
0.0000000001
 40
0.0
 40
0.0
 40
0.0
 40
0.0
 40
0.303213853
 40
0.5755573504
 40
0.8069517052
 40
1.0
 40
1.0
 40
1.0
 40
1.0
 10
194.9020070594
 20
208.6988183529
 30
0.0
 10
194.7752916059
 20
208.8340323608
 30
0.0
 10
194.5314829687
 20
209.0902074506
 30
0.0
 10
194.1147394662
 20
209.3613168732
 30
0.0
 10
193.7043728499
 20
209.5029835042
 30
0.0
 10
193.4307787347
 20
209.4565058588
 30
0.0
 10
193.3286031845
 20
209.3975156418
 30
0.0
  0
SPLINE
  5
582
100
AcDbEntity
  8
0
100
AcDbSpline
 62
7
  6
BYLAYER
 70
0
 71
3
 72
8
 73
4
 74
0
 42
0.0000001
 43
0.0000001
 44
0.0000000001
 40
0.0
 40
0.0
 40
0.0
 40
0.0
 40
1.0
 40
1.0
 40
1.0
 40
1.0
 10
186.4650504292
 20
210.8458768402
 30
0.0
 10
186.504498234
 20
210.7696272973
 30
0.0
 10
186.5441957287
 20
210.6934189248
 30
0.0
 10
186.5797116959
 20
210.6152605076
 30
0.0
  0
SPLINE
  5
583
100
AcDbEntity
  8
0
100
AcDbSpline
 62
7
  6
BYLAYER
 70
0
 71
3
 72
8
 73
4
 74
0
 42
0.0000001
 43
0.0000001
 44
0.0000000001
 40
0.0
 40
0.0
 40
0.0
 40
0.0
 40
1.0
 40
1.0
 40
1.0
 40
1.0
 10
186.5797116959
 20
210.6152605076
 30
0.0
 10
186.6258282601
 20
210.5137738258
 30
0.0
 10
186.6647577705
 20
210.4085102851
 30
0.0
 10
186.6936222289
 20
210.3008389003
 30
0.0
  0
SPLINE
  5
584
100
AcDbEntity
  8
0
100
AcDbSpline
 62
7
  6
BYLAYER
 70
0
 71
3
 72
9
 73
5
 74
0
 42
0.0000001
 43
0.0000001
 44
0.0000000001
 40
0.0
 40
0.0
 40
0.0
 40
0.0
 40
0.5298572806
 40
1.0
 40
1.0
 40
1.0
 40
1.0
 10
186.6936222289
 20
210.3008389003
 30
0.0
 10
186.7388670281
 20
210.132064897
 30
0.0
 10
186.7930393372
 20
209.8016180181
 30
0.0
 10
186.7518309543
 20
209.4721448602
 30
0.0
 10
186.7288708664
 20
209.3188133191
 30
0.0
  0
SPLINE
  5
585
100
AcDbEntity
  8
0
100
AcDbSpline
 62
7
  6
BYLAYER
 70
0
 71
3
 72
13
 73
9
 74
0
 42
0.0000001
 43
0.0000001
 44
0.0000000001
 40
0.0
 40
0.0
 40
0.0
 40
0.0
 40
0.0944613793
 40
0.2138632386
 40
0.3612712531
 40
0.5177817864
 40
0.7942185858
 40
1.0
 40
1.0
 40
1.0
 40
1.0
 10
194.9020070599
 20
206.6206267611
 30
0.0
 10
194.8234022978
 20
206.5895736535
 30
0.0
 10
194.6286338025
 20
206.5344330475
 30
0.0
 10
194.3199821677
 20
206.6878663254
 30
0.0
 10
194.0515953051
 20
206.9569843602
 30
0.0
 10
193.8128713631
 20
207.4329565417
 30
0.0
 10
193.7343361427
 20
207.9794096349
 30
0.0
 10
193.8319912586
 20
208.4887219055
 30
0.0
 10
193.9914456762
 20
208.5807714169
 30
0.0
  0
SPLINE
  5
586
100
AcDbEntity
  8
0
100
AcDbSpline
 62
7
  6
BYLAYER
 70
0
 71
3
 72
9
 73
5
 74
0
 42
0.0000001
 43
0.0000001
 44
0.0000000001
 40
0.0
 40
0.0
 40
0.0
 40
0.0
 40
0.4707293431
 40
1.0
 40
1.0
 40
1.0
 40
1.0
 10
183.7808280602
 20
211.8418111719
 30
0.0
 10
183.9820983971
 20
211.9199188764
 30
0.0
 10
184.4213269278
 20
212.0816056927
 30
0.0
 10
184.8954858542
 20
212.0105824037
 30
0.0
 10
185.1267553036
 20
211.9368318189
 30
0.0
  0
SPLINE
  5
587
100
AcDbEntity
  8
0
100
AcDbSpline
 62
7
  6
BYLAYER
 70
0
 71
3
 72
9
 73
5
 74
0
 42
0.0000001
 43
0.0000001
 44
0.0000000001
 40
0.0
 40
0.0
 40
0.0
 40
0.0
 40
0.2407377296
 40
1.0
 40
1.0
 40
1.0
 40
1.0
 10
185.4224498687
 20
211.8189643456
 30
0.0
 10
185.453758963
 20
211.8040067896
 30
0.0
 10
185.5825510227
 20
211.7393107924
 30
0.0
 10
185.7060817001
 20
211.6637703286
 30
0.0
 10
185.7946796742
 20
211.5995320648
 30
0.0
  0
SPLINE
  5
588
100
AcDbEntity
  8
0
100
AcDbSpline
 62
7
  6
BYLAYER
 70
0
 71
3
 72
9
 73
5
 74
0
 42
0.0000001
 43
0.0000001
 44
0.0000000001
 40
0.0
 40
0.0
 40
0.0
 40
0.0
 40
0.2355672351
 40
1.0
 40
1.0
 40
1.0
 40
1.0
 10
185.7946796742
 20
211.5995320648
 30
0.0
 10
185.8517259547
 20
211.5581704643
 30
0.0
 10
186.085595344
 20
211.3703642549
 30
0.0
 10
186.269145376
 20
211.1286111889
 30
0.0
 10
186.3995339158
 20
210.9407724999
 30
0.0
  0
SPLINE
  5
589
100
AcDbEntity
  8
0
100
AcDbSpline
 62
7
  6
BYLAYER
 70
0
 71
3
 72
9
 73
5
 74
0
 42
0.0000001
 43
0.0000001
 44
0.0000000001
 40
0.0
 40
0.0
 40
0.0
 40
0.0
 40
0.4469993539
 40
1.0
 40
1.0
 40
1.0
 40
1.0
 10
95.6158587146
 20
469.5502916608
 30
0.0
 10
95.7564867341
 20
469.6314828016
 30
0.0
 10
96.1560516803
 20
469.6488137007
 30
0.0
 10
96.4832826019
 20
469.4847263296
 30
0.0
 10
96.6589772694
 20
469.3873181016
 30
0.0
  0
SPLINE
  5
58A
100
AcDbEntity
  8
0
100
AcDbSpline
 62
7
  6
BYLAYER
 70
0
 71
3
 72
8
 73
4
 74
0
 42
0.0000001
 43
0.0000001
 44
0.0000000001
 40
0.0
 40
0.0
 40
0.0
 40
0.0
 40
1.0
 40
1.0
 40
1.0
 40
1.0
 10
83.6849963728
 20
477.9581336357
 30
0.0
 10
83.7323973028
 20
477.9855873997
 30
0.0
 10
83.7953702215
 20
477.9797948978
 30
0.0
 10
83.8489939747
 20
477.9686123036
 30
0.0
  0
SPLINE
  5
58B
100
AcDbEntity
  8
0
100
AcDbSpline
 62
7
  6
BYLAYER
 70
0
 71
3
 72
9
 73
5
 74
0
 42
0.0000001
 43
0.0000001
 44
0.0000000001
 40
0.0
 40
0.0
 40
0.0
 40
0.0
 40
0.2333886573
 40
1.0
 40
1.0
 40
1.0
 40
1.0
 10
83.8489939747
 20
477.9686123036
 30
0.0
 10
83.8695085187
 20
477.9643342401
 30
0.0
 10
83.9564146605
 20
477.9406826247
 30
0.0
 10
84.0363149481
 20
477.8977083022
 30
0.0
 10
84.0967310586
 20
477.8647238818
 30
0.0
  0
SPLINE
  5
58C
100
AcDbEntity
  8
0
100
AcDbSpline
 62
7
  6
BYLAYER
 70
0
 71
3
 72
9
 73
5
 74
0
 42
0.0000001
 43
0.0000001
 44
0.0000000001
 40
0.0
 40
0.0
 40
0.0
 40
0.0
 40
0.4736799629
 40
1.0
 40
1.0
 40
1.0
 40
1.0
 10
191.4540305457
 20
209.1381922266
 30
0.0
 10
191.4498524931
 20
209.3292847837
 30
0.0
 10
191.4371060177
 20
209.7347899849
 30
0.0
 10
191.3164019752
 20
210.1257318592
 30
0.0
 10
191.2341354996
 20
210.3215308563
 30
0.0
  0
SPLINE
  5
58D
100
AcDbEntity
  8
0
100
AcDbSpline
 62
7
  6
BYLAYER
 70
0
 71
3
 72
10
 73
6
 74
0
 42
0.0000001
 43
0.0000001
 44
0.0000000001
 40
0.0
 40
0.0
 40
0.0
 40
0.0
 40
0.5244353513
 40
0.7705302994
 40
1.0
 40
1.0
 40
1.0
 40
1.0
 10
191.2341354996
 20
210.3215308563
 30
0.0
 10
191.1132391755
 20
210.60927114
 30
0.0
 10
190.8725113315
 20
211.0115147434
 30
0.0
 10
190.4438218465
 20
211.4285706611
 30
0.0
 10
190.2084415962
 20
211.5870700704
 30
0.0
 10
190.0954155259
 20
211.6637174246
 30
0.0
  0
SPLINE
  5
58E
100
AcDbEntity
  8
0
100
AcDbSpline
 62
7
  6
BYLAYER
 70
0
 71
3
 72
9
 73
5
 74
0
 42
0.0000001
 43
0.0000001
 44
0.0000000001
 40
0.0
 40
0.0
 40
0.0
 40
0.0
 40
0.2142641356
 40
1.0
 40
1.0
 40
1.0
 40
1.0
 10
97.8972379241
 20
466.7827505024
 30
0.0
 10
97.9177257667
 20
466.7945841488
 30
0.0
 10
97.993553429
 20
466.8821257807
 30
0.0
 10
97.9938008699
 20
467.0025810863
 30
0.0
 10
97.9953047538
 20
467.0893318293
 30
0.0
  0
SPLINE
  5
58F
100
AcDbEntity
  8
0
100
AcDbSpline
 62
7
  6
BYLAYER
 70
0
 71
3
 72
12
 73
8
 74
0
 42
0.0000001
 43
0.0000001
 44
0.0000000001
 40
0.0
 40
0.0
 40
0.0
 40
0.0
 40
0.189586436
 40
0.4208366726
 40
0.7083643039
 40
0.8610022193
 40
1.0
 40
1.0
 40
1.0
 40
1.0
 10
191.4076511545
 20
208.749191354
 30
0.0
 10
191.2424858666
 20
208.714615785
 30
0.0
 10
190.858773628
 20
208.6584505697
 30
0.0
 10
190.2643759059
 20
208.9416438701
 30
0.0
 10
189.8323738319
 20
209.372793136
 30
0.0
 10
189.6113485412
 20
209.8477314115
 30
0.0
 10
189.5777313595
 20
210.1071474071
 30
0.0
 10
189.5629560125
 20
210.2299799179
 30
0.0
  0
SPLINE
  5
590
100
AcDbEntity
  8
0
100
AcDbSpline
 62
7
  6
BYLAYER
 70
0
 71
3
 72
9
 73
5
 74
0
 42
0.0000001
 43
0.0000001
 44
0.0000000001
 40
0.0
 40
0.0
 40
0.0
 40
0.0
 40
0.5510403709
 40
1.0
 40
1.0
 40
1.0
 40
1.0
 10
190.0954155256
 20
211.6637174244
 30
0.0
 10
189.9229030836
 20
211.7488000341
 30
0.0
 10
189.6072148779
 20
211.9148755678
 30
0.0
 10
189.227411125
 20
211.8689565718
 30
0.0
 10
189.0916880323
 20
211.7905973625
 30
0.0
  0
SPLINE
  5
591
100
AcDbEntity
  8
0
100
AcDbSpline
 62
7
  6
BYLAYER
 70
0
 71
3
 72
9
 73
5
 74
0
 42
0.0000001
 43
0.0000001
 44
0.0000000001
 40
0.0
 40
0.0
 40
0.0
 40
0.0
 40
0.2853224825
 40
1.0
 40
1.0
 40
1.0
 40
1.0
 10
189.5806645084
 20
210.7238636626
 30
0.0
 10
189.5868110649
 20
210.7647225437
 30
0.0
 10
189.6053318901
 20
210.9049935641
 30
0.0
 10
189.6687438353
 20
211.0620546045
 30
0.0
 10
189.7583738792
 20
211.1138010816
 30
0.0
  0
SPLINE
  5
592
100
AcDbEntity
  8
0
100
AcDbSpline
 62
7
  6
BYLAYER
 70
0
 71
3
 72
8
 73
4
 74
0
 42
0.0000001
 43
0.0000001
 44
0.0000000001
 40
0.0
 40
0.0
 40
0.0
 40
0.0
 40
1.0
 40
1.0
 40
1.0
 40
1.0
 10
176.9231832085
 20
217.5970763933
 30
0.0
 10
177.0729131186
 20
217.3998692337
 30
0.0
 10
177.2225288105
 20
217.2022339989
 30
0.0
 10
177.3831933008
 20
217.0138285019
 30
0.0
  0
SPLINE
  5
593
100
AcDbEntity
  8
0
100
AcDbSpline
 62
7
  6
BYLAYER
 70
0
 71
3
 72
11
 73
7
 74
0
 42
0.0000001
 43
0.0000001
 44
0.0000000001
 40
0.0
 40
0.0
 40
0.0
 40
0.0
 40
0.2840062403
 40
0.5514979386
 40
0.7949295525
 40
1.0
 40
1.0
 40
1.0
 40
1.0
 10
177.5337773054
 20
216.8440057269
 30
0.0
 10
177.624802496
 20
216.7456002096
 30
0.0
 10
177.8085838864
 20
216.5614488331
 30
0.0
 10
178.1082655907
 20
216.3290387845
 30
0.0
 10
178.394871572
 20
216.1653853577
 30
0.0
 10
178.6156569244
 20
216.0892142275
 30
0.0
 10
178.7086875264
 20
216.1159353634
 30
0.0
  0
SPLINE
  5
594
100
AcDbEntity
  8
0
100
AcDbSpline
 62
7
  6
BYLAYER
 70
0
 71
3
 72
9
 73
5
 74
0
 42
0.0000001
 43
0.0000001
 44
0.0000000001
 40
0.0
 40
0.0
 40
0.0
 40
0.0
 40
0.214045779
 40
1.0
 40
1.0
 40
1.0
 40
1.0
 10
100.8428947553
 20
463.4545981867
 30
0.0
 10
100.8661941903
 20
463.4680502151
 30
0.0
 10
100.958719076
 20
463.5607815992
 30
0.0
 10
100.9608269626
 20
463.7010119821
 30
0.0
 10
100.963508311
 20
463.7997640189
 30
0.0
  0
SPLINE
  5
595
100
AcDbEntity
  8
0
100
AcDbSpline
 62
7
  6
BYLAYER
 70
0
 71
3
 72
8
 73
4
 74
0
 42
0.0000001
 43
0.0000001
 44
0.0000000001
 40
0.0
 40
0.0
 40
0.0
 40
0.0
 40
1.0
 40
1.0
 40
1.0
 40
1.0
 10
325.0705098188
 20
118.1358143825
 30
0.0
 10
325.0126522429
 20
118.1024105042
 30
0.0
 10
324.9468863329
 20
118.0807542047
 30
0.0
 10
324.8807490526
 20
118.0713107769
 30
0.0
  0
SPLINE
  5
596
100
AcDbEntity
  8
0
100
AcDbSpline
 62
7
  6
BYLAYER
 70
0
 71
3
 72
9
 73
5
 74
0
 42
0.0000001
 43
0.0000001
 44
0.0000000001
 40
0.0
 40
0.0
 40
0.0
 40
0.0
 40
0.2234490972
 40
1.0
 40
1.0
 40
1.0
 40
1.0
 10
324.8807490526
 20
118.0713107769
 30
0.0
 10
324.8374954852
 20
118.0651348057
 30
0.0
 10
324.6405638459
 20
118.0595924928
 30
0.0
 10
324.448985127
 20
118.1344537457
 30
0.0
 10
324.3174841627
 20
118.2103741453
 30
0.0
  0
SPLINE
  5
597
100
AcDbEntity
  8
0
100
AcDbSpline
 62
7
  6
BYLAYER
 70
0
 71
3
 72
9
 73
5
 74
0
 42
0.0000001
 43
0.0000001
 44
0.0000000001
 40
0.0
 40
0.0
 40
0.0
 40
0.0
 40
0.4491719369
 40
1.0
 40
1.0
 40
1.0
 40
1.0
 10
106.7944207909
 20
457.0885167935
 30
0.0
 10
106.9967554986
 20
457.2053341907
 30
0.0
 10
107.3463939412
 20
457.6427341998
 30
0.0
 10
107.415866641
 20
458.1751422816
 30
0.0
 10
107.4158839632
 20
458.4616541646
 30
0.0
  0
SPLINE
  5
598
100
AcDbEntity
  8
0
100
AcDbSpline
 62
7
  6
BYLAYER
 70
0
 71
3
 72
8
 73
4
 74
0
 42
0.0000001
 43
0.0000001
 44
0.0000000001
 40
0.0
 40
0.0
 40
0.0
 40
0.0
 40
1.0
 40
1.0
 40
1.0
 40
1.0
 10
324.889925906
 20
118.6118855786
 30
0.0
 10
324.9937869922
 20
118.6718494299
 30
0.0
 10
325.082506355
 20
118.7629850778
 30
0.0
 10
325.1457086429
 20
118.8649078892
 30
0.0
  0
SPLINE
  5
599
100
AcDbEntity
  8
0
100
AcDbSpline
 62
7
  6
BYLAYER
 70
0
 71
3
 72
9
 73
5
 74
0
 42
0.0000001
 43
0.0000001
 44
0.0000000001
 40
0.0
 40
0.0
 40
0.0
 40
0.0
 40
0.2262533685
 40
1.0
 40
1.0
 40
1.0
 40
1.0
 10
325.1457086429
 20
118.8649078892
 30
0.0
 10
325.1737113611
 20
118.910066314
 30
0.0
 10
325.2787510135
 20
119.1213723572
 30
0.0
 10
325.3117440016
 20
119.3624402121
 30
0.0
 10
325.3117440016
 20
119.5441559984
 30
0.0
  0
SPLINE
  5
59A
100
AcDbEntity
  8
0
100
AcDbSpline
 62
7
  6
BYLAYER
 70
0
 71
3
 72
8
 73
4
 74
0
 42
0.0000001
 43
0.0000001
 44
0.0000000001
 40
0.0
 40
0.0
 40
0.0
 40
0.0
 40
1.0
 40
1.0
 40
1.0
 40
1.0
 10
81.3792538431
 20
482.8190302731
 30
0.0
 10
81.4579470409
 20
482.8644645521
 30
0.0
 10
81.5436030237
 20
482.8993284904
 30
0.0
 10
81.6314846281
 20
482.9224307995
 30
0.0
  0
SPLINE
  5
59B
100
AcDbEntity
  8
0
100
AcDbSpline
 62
7
  6
BYLAYER
 70
0
 71
3
 72
9
 73
5
 74
0
 42
0.0000001
 43
0.0000001
 44
0.0000000001
 40
0.0
 40
0.0
 40
0.0
 40
0.0
 40
0.2214969001
 40
1.0
 40
1.0
 40
1.0
 40
1.0
 10
81.6314846281
 20
482.9224307995
 30
0.0
 10
81.7237734441
 20
482.946691676
 30
0.0
 10
82.1561867489
 20
482.9996027372
 30
0.0
 10
82.5886394657
 20
482.8382962297
 30
0.0
 10
82.8791088522
 20
482.6706208598
 30
0.0
  0
SPLINE
  5
59C
100
AcDbEntity
  8
0
100
AcDbSpline
 62
7
  6
BYLAYER
 70
0
 71
3
 72
11
 73
7
 74
0
 42
0.0000001
 43
0.0000001
 44
0.0000000001
 40
0.0
 40
0.0
 40
0.0
 40
0.0
 40
0.2372528344
 40
0.4999989719
 40
0.7627456974
 40
1.0
 40
1.0
 40
1.0
 40
1.0
 10
208.5326690318
 20
205.7147651133
 30
0.0
 10
208.9342190026
 20
205.4829030059
 30
0.0
 10
209.6941479199
 20
204.8434391382
 30
0.0
 10
210.5807154165
 20
203.6313417003
 30
0.0
 10
211.1871476582
 20
202.2575038928
 30
0.0
 10
211.3609837621
 20
201.2796519076
 30
0.0
 10
211.3610117937
 20
200.8159655093
 30
0.0
  0
SPLINE
  5
59D
100
AcDbEntity
  8
0
100
AcDbSpline
 62
7
  6
BYLAYER
 70
0
 71
3
 72
8
 73
4
 74
0
 42
0.0000001
 43
0.0000001
 44
0.0000000001
 40
0.0
 40
0.0
 40
0.0
 40
0.0
 40
1.0
 40
1.0
 40
1.0
 40
1.0
 10
100.409247281
 20
467.1101908185
 30
0.0
 10
100.4477514587
 20
467.1324220402
 30
0.0
 10
100.498338744
 20
467.1352363333
 30
0.0
 10
100.5417396519
 20
467.1255843848
 30
0.0
  0
SPLINE
  5
59E
100
AcDbEntity
  8
0
100
AcDbSpline
 62
7
  6
BYLAYER
 70
0
 71
3
 72
8
 73
4
 74
0
 42
0.0000001
 43
0.0000001
 44
0.0000000001
 40
0.0
 40
0.0
 40
0.0
 40
0.0
 40
1.0
 40
1.0
 40
1.0
 40
1.0
 10
100.5417396519
 20
467.1255843848
 30
0.0
 10
100.5828630761
 20
467.116438927
 30
0.0
 10
100.6213706414
 20
467.09729804
 30
0.0
 10
100.658842867
 20
467.0780468656
 30
0.0
  0
SPLINE
  5
59F
100
AcDbEntity
  8
0
100
AcDbSpline
 62
7
  6
BYLAYER
 70
0
 71
3
 72
9
 73
5
 74
0
 42
0.0000001
 43
0.0000001
 44
0.0000000001
 40
0.0
 40
0.0
 40
0.0
 40
0.0
 40
0.3129594675
 40
1.0
 40
1.0
 40
1.0
 40
1.0
 10
193.9385203653
 20
204.8389874907
 30
0.0
 10
193.8590010528
 20
204.9171310176
 30
0.0
 10
193.6269540265
 20
205.1584459352
 30
0.0
 10
193.2033656688
 20
205.4006026676
 30
0.0
 10
192.9914056643
 20
205.2782254094
 30
0.0
  0
SPLINE
  5
5A0
100
AcDbEntity
  8
0
100
AcDbSpline
 62
7
  6
BYLAYER
 70
0
 71
3
 72
9
 73
5
 74
0
 42
0.0000001
 43
0.0000001
 44
0.0000000001
 40
0.0
 40
0.0
 40
0.0
 40
0.0
 40
0.2389206603
 40
1.0
 40
1.0
 40
1.0
 40
1.0
 10
193.9714075702
 20
203.5810143722
 30
0.0
 10
193.9424486778
 20
203.5846352761
 30
0.0
 10
193.8213442346
 20
203.5988067475
 30
0.0
 10
193.7006347616
 20
203.6309929805
 30
0.0
 10
193.617432422
 20
203.6724677085
 30
0.0
  0
SPLINE
  5
5A1
100
AcDbEntity
  8
0
100
AcDbSpline
 62
7
  6
BYLAYER
 70
0
 71
3
 72
11
 73
7
 74
0
 42
0.0000001
 43
0.0000001
 44
0.0000000001
 40
0.0
 40
0.0
 40
0.0
 40
0.0
 40
0.2622946962
 40
0.5572431963
 40
0.8121543689
 40
1.0
 40
1.0
 40
1.0
 40
1.0
 10
193.617432422
 20
203.6724677085
 30
0.0
 10
193.5013583826
 20
203.7303283315
 30
0.0
 10
193.2792182437
 20
203.9074761335
 30
0.0
 10
193.0868589895
 20
204.2753759442
 30
0.0
 10
193.04453982
 20
204.6376413246
 30
0.0
 10
193.1342173647
 20
204.8735782933
 30
0.0
 10
193.2146568233
 20
204.920019793
 30
0.0
  0
SPLINE
  5
5A2
100
AcDbEntity
  8
0
100
AcDbSpline
 62
7
  6
BYLAYER
 70
0
 71
3
 72
9
 73
5
 74
0
 42
0.0000001
 43
0.0000001
 44
0.0000000001
 40
0.0
 40
0.0
 40
0.0
 40
0.0
 40
0.4453895105
 40
1.0
 40
1.0
 40
1.0
 40
1.0
 10
195.8291130349
 20
202.5076572712
 30
0.0
 10
195.7597571074
 20
202.5058541595
 30
0.0
 10
195.6016615276
 20
202.5037318795
 30
0.0
 10
195.4561115032
 20
202.5886194075
 30
0.0
 10
195.3979402186
 20
202.6524930851
 30
0.0
  0
SPLINE
  5
5A3
100
AcDbEntity
  8
0
100
AcDbSpline
 62
7
  6
BYLAYER
 70
0
 71
3
 72
9
 73
5
 74
0
 42
0.0000001
 43
0.0000001
 44
0.0000000001
 40
0.0
 40
0.0
 40
0.0
 40
0.0
 40
0.2636171452
 40
1.0
 40
1.0
 40
1.0
 40
1.0
 10
195.3979402186
 20
202.6524930851
 30
0.0
 10
195.3783258668
 20
202.6740301853
 30
0.0
 10
195.3107974054
 20
202.7625580478
 30
0.0
 10
195.2845110052
 20
202.8764479753
 30
0.0
 10
195.2803906182
 20
202.9577153495
 30
0.0
  0
SPLINE
  5
5A4
100
AcDbEntity
  8
0
100
AcDbSpline
 62
7
  6
BYLAYER
 70
0
 71
3
 72
9
 73
5
 74
0
 42
0.0000001
 43
0.0000001
 44
0.0000000001
 40
0.0
 40
0.0
 40
0.0
 40
0.0
 40
0.2206601985
 40
1.0
 40
1.0
 40
1.0
 40
1.0
 10
317.3621012574
 20
143.8979408767
 30
0.0
 10
317.3724921859
 20
143.9039438594
 30
0.0
 10
317.4149803072
 20
143.9398204707
 30
0.0
 10
317.4274175183
 20
144.0000301259
 30
0.0
 10
317.4274175183
 20
144.0424134436
 30
0.0
  0
SPLINE
  5
5A5
100
AcDbEntity
  8
0
100
AcDbSpline
 62
7
  6
BYLAYER
 70
0
 71
3
 72
9
 73
5
 74
0
 42
0.0000001
 43
0.0000001
 44
0.0000000001
 40
0.0
 40
0.0
 40
0.0
 40
0.0
 40
0.2252858856
 40
1.0
 40
1.0
 40
1.0
 40
1.0
 10
100.4663090276
 20
468.409748774
 30
0.0
 10
100.4818553929
 20
468.4122766916
 30
0.0
 10
100.5525679258
 20
468.4160781384
 30
0.0
 10
100.6189858994
 20
468.3840704149
 30
0.0
 10
100.6671293105
 20
468.3592541005
 30
0.0
  0
SPLINE
  5
5A6
100
AcDbEntity
  8
0
100
AcDbSpline
 62
7
  6
BYLAYER
 70
0
 71
3
 72
9
 73
5
 74
0
 42
0.0000001
 43
0.0000001
 44
0.0000000001
 40
0.0
 40
0.0
 40
0.0
 40
0.0
 40
0.4491698546
 40
1.0
 40
1.0
 40
1.0
 40
1.0
 10
168.3487715725
 20
227.9577194937
 30
0.0
 10
168.6185380826
 20
228.1134684013
 30
0.0
 10
169.3566669061
 20
228.225604597
 30
0.0
 10
170.0177103791
 20
227.9508571429
 30
0.0
 10
170.3485459113
 20
227.7598801485
 30
0.0
  0
SPLINE
  5
5A7
100
AcDbEntity
  8
0
100
AcDbSpline
 62
7
  6
BYLAYER
 70
0
 71
3
 72
9
 73
5
 74
0
 42
0.0000001
 43
0.0000001
 44
0.0000000001
 40
0.0
 40
0.0
 40
0.0
 40
0.0
 40
0.4613674693
 40
1.0
 40
1.0
 40
1.0
 40
1.0
 10
177.3571335216
 20
220.2837518175
 30
0.0
 10
177.5359097354
 20
220.3040615066
 30
0.0
 10
177.9318886978
 20
220.2104945386
 30
0.0
 10
178.2756884948
 20
220.0280664083
 30
0.0
 10
178.4532689678
 20
219.9158626946
 30
0.0
  0
SPLINE
  5
5A8
100
AcDbEntity
  8
0
100
AcDbSpline
 62
7
  6
BYLAYER
 70
0
 71
3
 72
9
 73
5
 74
0
 42
0.0000001
 43
0.0000001
 44
0.0000000001
 40
0.0
 40
0.0
 40
0.0
 40
0.0
 40
0.235055619
 40
1.0
 40
1.0
 40
1.0
 40
1.0
 10
178.4532689678
 20
219.9158626946
 30
0.0
 10
178.558464895
 20
219.8493949491
 30
0.0
 10
178.9921009236
 20
219.5437855348
 30
0.0
 10
179.3650764412
 20
219.1637211977
 30
0.0
 10
179.6517370484
 20
218.8776944971
 30
0.0
  0
SPLINE
  5
5A9
100
AcDbEntity
  8
0
100
AcDbSpline
 62
7
  6
BYLAYER
 70
0
 71
3
 72
11
 73
7
 74
0
 42
0.0000001
 43
0.0000001
 44
0.0000000001
 40
0.0
 40
0.0
 40
0.0
 40
0.0
 40
0.303790218
 40
0.5923009144
 40
0.8206322836
 40
1.0
 40
1.0
 40
1.0
 40
1.0
 10
197.6730853809
 20
202.6017873846
 30
0.0
 10
197.629945983
 20
202.6707074349
 30
0.0
 10
197.5443383365
 20
202.8050847022
 30
0.0
 10
197.3966200205
 20
202.9670524326
 30
0.0
 10
197.2229732183
 20
203.0639141406
 30
0.0
 10
197.1084196216
 20
203.0329346968
 30
0.0
 10
197.0668462997
 20
203.0089280504
 30
0.0
  0
SPLINE
  5
5AA
100
AcDbEntity
  8
0
100
AcDbSpline
 62
7
  6
BYLAYER
 70
0
 71
3
 72
9
 73
5
 74
0
 42
0.0000001
 43
0.0000001
 44
0.0000000001
 40
0.0
 40
0.0
 40
0.0
 40
0.0
 40
0.2912128013
 40
1.0
 40
1.0
 40
1.0
 40
1.0
 10
196.8795761466
 20
202.4002856584
 30
0.0
 10
196.8823328177
 20
202.4360492779
 30
0.0
 10
196.8904845896
 20
202.5555064008
 30
0.0
 10
196.9368479954
 20
202.695396399
 30
0.0
 10
197.012455363
 20
202.7390482201
 30
0.0
  0
SPLINE
  5
5AB
100
AcDbEntity
  8
0
100
AcDbSpline
 62
7
  6
BYLAYER
 70
0
 71
3
 72
12
 73
8
 74
0
 42
0.0000001
 43
0.0000001
 44
0.0000000001
 40
0.0
 40
0.0
 40
0.0
 40
0.0
 40
0.090387243
 40
0.1992663693
 40
0.4467023764
 40
0.7189264899
 40
1.0
 40
1.0
 40
1.0
 40
1.0
 10
178.6735639628
 20
216.0900480127
 30
0.0
 10
178.6103559271
 20
216.0535550027
 30
0.0
 10
178.4297945496
 20
216.0800497764
 30
0.0
 10
178.1131137954
 20
216.2352717493
 30
0.0
 10
177.6957873003
 20
216.5408959485
 30
0.0
 10
177.2603638489
 20
217.0195357025
 30
0.0
 10
176.9897182498
 20
217.3754879581
 30
0.0
 10
176.8524728241
 20
217.5562519788
 30
0.0
  0
SPLINE
  5
5AC
100
AcDbEntity
  8
0
100
AcDbSpline
 62
7
  6
BYLAYER
 70
0
 71
3
 72
20
 73
16
 74
0
 42
0.0000001
 43
0.0000001
 44
0.0000000001
 40
0.0
 40
0.0
 40
0.0
 40
0.0
 40
0.0859118982
 40
0.1373278266
 40
0.1950866713
 40
0.3268878124
 40
0.4690313409
 40
0.6069402552
 40
0.7407010665
 40
0.8079584643
 40
0.8801477351
 40
0.9164800534
 40
0.9504529161
 40
0.9786623819
 40
1.0
 40
1.0
 40
1.0
 40
1.0
 10
179.4455076801
 20
215.1245846172
 30
0.0
 10
179.5656796196
 20
215.1939679022
 30
0.0
 10
179.7067906023
 20
215.3955770203
 30
0.0
 10
179.7589260973
 20
215.7064477118
 30
0.0
 10
179.7624935897
 20
216.0978297966
 30
0.0
 10
179.6190389711
 20
216.6247337055
 30
0.0
 10
179.2790202847
 20
217.2023825128
 30
0.0
 10
178.8389481918
 20
217.7085802959
 30
0.0
 10
178.4376887986
 20
218.0812618961
 30
0.0
 10
178.1339998016
 20
218.4016351632
 30
0.0
 10
177.9506341973
 20
218.6188394537
 30
0.0
 10
177.82544961
 20
218.8134420898
 30
0.0
 10
177.770571484
 20
218.9636924957
 30
0.0
 10
177.7630147774
 20
219.1040977643
 30
0.0
 10
177.8145166459
 20
219.1761087954
 30
0.0
 10
177.8443689216
 20
219.193331528
 30
0.0
  0
SPLINE
  5
5AD
100
AcDbEntity
  8
0
100
AcDbSpline
 62
7
  6
BYLAYER
 70
0
 71
3
 72
9
 73
5
 74
0
 42
0.0000001
 43
0.0000001
 44
0.0000000001
 40
0.0
 40
0.0
 40
0.0
 40
0.0
 40
0.2207971768
 40
1.0
 40
1.0
 40
1.0
 40
1.0
 10
84.1379891579
 20
473.0949371863
 30
0.0
 10
84.1628650334
 20
473.1093002547
 30
0.0
 10
84.2551366906
 20
473.2095772627
 30
0.0
 10
84.2553575843
 20
473.3526851414
 30
0.0
 10
84.2580410531
 20
473.4540202397
 30
0.0
  0
SPLINE
  5
5AE
100
AcDbEntity
  8
0
100
AcDbSpline
 62
7
  6
BYLAYER
 70
0
 71
3
 72
8
 73
4
 74
0
 42
0.0000001
 43
0.0000001
 44
0.0000000001
 40
0.0
 40
0.0
 40
0.0
 40
0.0
 40
1.0
 40
1.0
 40
1.0
 40
1.0
 10
198.7582426874
 20
202.7626059361
 30
0.0
 10
198.7476929738
 20
202.7953930684
 30
0.0
 10
198.7321343687
 20
202.8277080281
 30
0.0
 10
198.7096364173
 20
202.85378742
 30
0.0
  0
SPLINE
  5
5AF
100
AcDbEntity
  8
0
100
AcDbSpline
 62
7
  6
BYLAYER
 70
0
 71
3
 72
8
 73
4
 74
0
 42
0.0000001
 43
0.0000001
 44
0.0000000001
 40
0.0
 40
0.0
 40
0.0
 40
0.0
 40
1.0
 40
1.0
 40
1.0
 40
1.0
 10
198.7096364173
 20
202.85378742
 30
0.0
 10
198.6882490362
 20
202.8785794504
 30
0.0
 10
198.6613880041
 20
202.9002209919
 30
0.0
 10
198.6312165209
 20
202.9129389495
 30
0.0
  0
SPLINE
  5
5B0
100
AcDbEntity
  8
0
100
AcDbSpline
 62
7
  6
BYLAYER
 70
0
 71
3
 72
8
 73
4
 74
0
 42
0.0000001
 43
0.0000001
 44
0.0000000001
 40
0.0
 40
0.0
 40
0.0
 40
0.0
 40
1.0
 40
1.0
 40
1.0
 40
1.0
 10
198.6312165209
 20
202.9129389495
 30
0.0
 10
198.6056384755
 20
202.9237206699
 30
0.0
 10
198.5767503871
 20
202.9259520618
 30
0.0
 10
198.5489933264
 20
202.9261178498
 30
0.0
  0
SPLINE
  5
5B1
100
AcDbEntity
  8
0
100
AcDbSpline
 62
7
  6
BYLAYER
 70
0
 71
3
 72
9
 73
5
 74
0
 42
0.0000001
 43
0.0000001
 44
0.0000000001
 40
0.0
 40
0.0
 40
0.0
 40
0.0
 40
0.4999988717
 40
1.0
 40
1.0
 40
1.0
 40
1.0
 10
54.4268422654
 20
274.0282838244
 30
0.0
 10
54.1094003622
 20
274.2115548465
 30
0.0
 10
53.6078447833
 20
274.7903786155
 30
0.0
 10
53.3573442981
 20
275.5141484412
 30
0.0
 10
53.3573442981
 20
275.880698359
 30
0.0
  0
SPLINE
  5
5B2
100
AcDbEntity
  8
0
100
AcDbSpline
 62
7
  6
BYLAYER
 70
0
 71
3
 72
9
 73
5
 74
0
 42
0.0000001
 43
0.0000001
 44
0.0000000001
 40
0.0
 40
0.0
 40
0.0
 40
0.0
 40
0.2120416479
 40
1.0
 40
1.0
 40
1.0
 40
1.0
 10
100.8654073471
 20
467.4321766235
 30
0.0
 10
100.8822303543
 20
467.4418895136
 30
0.0
 10
100.9540657527
 20
467.5035856468
 30
0.0
 10
100.9610610626
 20
467.6076001493
 30
0.0
 10
100.9635083096
 20
467.6797452334
 30
0.0
  0
SPLINE
  5
5B3
100
AcDbEntity
  8
0
100
AcDbSpline
 62
7
  6
BYLAYER
 70
0
 71
3
 72
9
 73
5
 74
0
 42
0.0000001
 43
0.0000001
 44
0.0000000001
 40
0.0
 40
0.0
 40
0.0
 40
0.0
 40
0.3129508463
 40
1.0
 40
1.0
 40
1.0
 40
1.0
 10
200.6912393723
 20
200.9403915523
 30
0.0
 10
200.6115622756
 20
201.0186426169
 30
0.0
 10
200.3790365714
 20
201.2603261129
 30
0.0
 10
199.9546730957
 20
201.5026168339
 30
0.0
 10
199.7423472539
 20
201.380028486
 30
0.0
  0
SPLINE
  5
5B4
100
AcDbEntity
  8
0
100
AcDbSpline
 62
7
  6
BYLAYER
 70
0
 71
3
 72
9
 73
5
 74
0
 42
0.0000001
 43
0.0000001
 44
0.0000000001
 40
0.0
 40
0.0
 40
0.0
 40
0.0
 40
0.2390100766
 40
1.0
 40
1.0
 40
1.0
 40
1.0
 10
200.7248493728
 20
199.682001137
 30
0.0
 10
200.6959595823
 20
199.6856757596
 30
0.0
 10
200.5751923496
 20
199.7001202385
 30
0.0
 10
200.4548021721
 20
199.7320020656
 30
0.0
 10
200.371697868
 20
199.7731288403
 30
0.0
  0
SPLINE
  5
5B5
100
AcDbEntity
  8
0
100
AcDbSpline
 62
7
  6
BYLAYER
 70
0
 71
3
 72
11
 73
7
 74
0
 42
0.0000001
 43
0.0000001
 44
0.0000000001
 40
0.0
 40
0.0
 40
0.0
 40
0.0
 40
0.2623374779
 40
0.5572618317
 40
0.8121074696
 40
1.0
 40
1.0
 40
1.0
 40
1.0
 10
200.371697868
 20
199.7731288403
 30
0.0
 10
200.2553040756
 20
199.8307299637
 30
0.0
 10
200.0327314353
 20
200.0080529205
 30
0.0
 10
199.8402561851
 20
200.376459985
 30
0.0
 10
199.798092558
 20
200.7389853061
 30
0.0
 10
199.8874586942
 20
200.9754245214
 30
0.0
 10
199.9680111446
 20
201.0219312566
 30
0.0
  0
SPLINE
  5
5B6
100
AcDbEntity
  8
0
100
AcDbSpline
 62
7
  6
BYLAYER
 70
0
 71
3
 72
9
 73
5
 74
0
 42
0.0000001
 43
0.0000001
 44
0.0000000001
 40
0.0
 40
0.0
 40
0.0
 40
0.0
 40
0.2811672384
 40
1.0
 40
1.0
 40
1.0
 40
1.0
 10
53.3573442981
 20
505.1531257541
 30
0.0
 10
53.3573442981
 20
505.2076040255
 30
0.0
 10
53.3684095217
 20
505.400217195
 30
0.0
 10
53.4317303416
 20
505.5968180675
 30
0.0
 10
53.5181525726
 20
505.7060422023
 30
0.0
  0
SPLINE
  5
5B7
100
AcDbEntity
  8
0
100
AcDbSpline
 62
7
  6
BYLAYER
 70
0
 71
3
 72
8
 73
4
 74
0
 42
0.0000001
 43
0.0000001
 44
0.0000000001
 40
0.0
 40
0.0
 40
0.0
 40
0.0
 40
1.0
 40
1.0
 40
1.0
 40
1.0
 10
53.5181525726
 20
505.7060422023
 30
0.0
 10
53.5586829483
 20
505.7572662355
 30
0.0
 10
53.6092409735
 20
505.8022121298
 30
0.0
 10
53.6658092482
 20
505.8348716344
 30
0.0
  0
SPLINE
  5
5B8
100
AcDbEntity
  8
0
100
AcDbSpline
 62
7
  6
BYLAYER
 70
0
 71
3
 72
10
 73
6
 74
0
 42
0.0000001
 43
0.0000001
 44
0.0000000001
 40
0.0
 40
0.0
 40
0.0
 40
0.0
 40
0.199661181
 40
0.4709695941
 40
1.0
 40
1.0
 40
1.0
 40
1.0
 10
177.8835672488
 20
219.2093895164
 30
0.0
 10
177.8281993413
 20
219.1506850261
 30
0.0
 10
177.8438179904
 20
218.919712419
 30
0.0
 10
178.066449262
 20
218.5930628691
 30
0.0
 10
178.2882786554
 20
218.3505640109
 30
0.0
 10
178.4389451622
 20
218.1988521812
 30
0.0
  0
SPLINE
  5
5B9
100
AcDbEntity
  8
0
100
AcDbSpline
 62
7
  6
BYLAYER
 70
0
 71
3
 72
9
 73
5
 74
0
 42
0.0000001
 43
0.0000001
 44
0.0000000001
 40
0.0
 40
0.0
 40
0.0
 40
0.0
 40
0.2758295392
 40
1.0
 40
1.0
 40
1.0
 40
1.0
 10
179.7965412492
 20
215.5796801022
 30
0.0
 10
179.7859081718
 20
215.5341923055
 30
0.0
 10
179.7373680342
 20
215.3723006026
 30
0.0
 10
179.6224358661
 20
215.2267377259
 30
0.0
 10
179.5162244059
 20
215.1654126943
 30
0.0
  0
SPLINE
  5
5BA
100
AcDbEntity
  8
0
100
AcDbSpline
 62
7
  6
BYLAYER
 70
0
 71
3
 72
11
 73
7
 74
0
 42
0.0000001
 43
0.0000001
 44
0.0000000001
 40
0.0
 40
0.0
 40
0.0
 40
0.0
 40
0.3056361334
 40
0.5904531715
 40
0.8169191298
 40
1.0
 40
1.0
 40
1.0
 40
1.0
 10
201.4630647344
 20
204.8258839962
 30
0.0
 10
201.386342673
 20
204.9337102319
 30
0.0
 10
201.2397850927
 20
205.1435786885
 30
0.0
 10
200.9891056578
 20
205.3971248932
 30
0.0
 10
200.6999155297
 20
205.524660571
 30
0.0
 10
200.5149065963
 20
205.4797269931
 30
0.0
 10
200.4462557607
 20
205.440091225
 30
0.0
  0
SPLINE
  5
5BB
100
AcDbEntity
  8
0
100
AcDbSpline
 62
7
  6
BYLAYER
 70
0
 71
3
 72
9
 73
5
 74
0
 42
0.0000001
 43
0.0000001
 44
0.0000000001
 40
0.0
 40
0.0
 40
0.0
 40
0.0
 40
0.2677259194
 40
1.0
 40
1.0
 40
1.0
 40
1.0
 10
200.0639731535
 20
204.1256212453
 30
0.0
 10
200.085476993
 20
204.176557091
 30
0.0
 10
200.1654187131
 20
204.3636001187
 30
0.0
 10
200.2726044989
 20
204.5641547026
 30
0.0
 10
200.4035690613
 20
204.6397663991
 30
0.0
  0
SPLINE
  5
5BC
100
AcDbEntity
  8
0
100
AcDbSpline
 62
7
  6
BYLAYER
 70
0
 71
3
 72
9
 73
5
 74
0
 42
0.0000001
 43
0.0000001
 44
0.0000000001
 40
0.0
 40
0.0
 40
0.0
 40
0.0
 40
0.2404196743
 40
1.0
 40
1.0
 40
1.0
 40
1.0
 10
191.0541121028
 20
205.6680217704
 30
0.0
 10
191.0626921347
 20
205.6234992056
 30
0.0
 10
191.1044028489
 20
205.4395828868
 30
0.0
 10
191.1990228371
 20
205.2673523645
 30
0.0
 10
191.2929781239
 20
205.1592150649
 30
0.0
  0
SPLINE
  5
5BD
100
AcDbEntity
  8
0
100
AcDbSpline
 62
7
  6
BYLAYER
 70
0
 71
3
 72
9
 73
5
 74
0
 42
0.0000001
 43
0.0000001
 44
0.0000000001
 40
0.0
 40
0.0
 40
0.0
 40
0.0
 40
0.2846385397
 40
1.0
 40
1.0
 40
1.0
 40
1.0
 10
191.5313878212
 20
204.9618960568
 30
0.0
 10
191.5696969116
 20
204.9398809579
 30
0.0
 10
191.7092911578
 20
204.8710899881
 30
0.0
 10
191.8701466665
 20
204.8494052503
 30
0.0
 10
191.9808216494
 20
204.8584649031
 30
0.0
  0
SPLINE
  5
5BE
100
AcDbEntity
  8
0
100
AcDbSpline
 62
7
  6
BYLAYER
 70
0
 71
3
 72
8
 73
4
 74
0
 42
0.0000001
 43
0.0000001
 44
0.0000000001
 40
0.0
 40
0.0
 40
0.0
 40
0.0
 40
1.0
 40
1.0
 40
1.0
 40
1.0
 10
191.9808216494
 20
204.8584649031
 30
0.0
 10
192.0072473512
 20
204.860628063
 30
0.0
 10
192.0336094204
 20
204.8635214471
 30
0.0
 10
192.0599711603
 20
204.8663596948
 30
0.0
  0
SPLINE
  5
5BF
100
AcDbEntity
  8
0
100
AcDbSpline
 62
7
  6
BYLAYER
 70
0
 71
3
 72
9
 73
5
 74
0
 42
0.0000001
 43
0.0000001
 44
0.0000000001
 40
0.0
 40
0.0
 40
0.0
 40
0.0
 40
0.424062974
 40
1.0
 40
1.0
 40
1.0
 40
1.0
 10
181.0707768835
 20
215.9475776122
 30
0.0
 10
180.9449222857
 20
215.848041624
 30
0.0
 10
180.8571044221
 20
215.4197936787
 30
0.0
 10
180.9501149326
 20
215.0558816314
 30
0.0
 10
181.0391359887
 20
214.8569686525
 30
0.0
  0
SPLINE
  5
5C0
100
AcDbEntity
  8
0
100
AcDbSpline
 62
7
  6
BYLAYER
 70
0
 71
3
 72
8
 73
4
 74
0
 42
0.0000001
 43
0.0000001
 44
0.0000000001
 40
0.0
 40
0.0
 40
0.0
 40
0.0
 40
1.0
 40
1.0
 40
1.0
 40
1.0
 10
181.0391359887
 20
214.8569686525
 30
0.0
 10
181.0890598482
 20
214.745416352
 30
0.0
 10
181.1523793527
 20
214.639160954
 30
0.0
 10
181.2254301411
 20
214.5411819266
 30
0.0
  0
SPLINE
  5
5C1
100
AcDbEntity
  8
0
100
AcDbSpline
 62
7
  6
BYLAYER
 70
0
 71
3
 72
9
 73
5
 74
0
 42
0.0000001
 43
0.0000001
 44
0.0000000001
 40
0.0
 40
0.0
 40
0.0
 40
0.0
 40
0.5553768644
 40
1.0
 40
1.0
 40
1.0
 40
1.0
 10
181.2254301411
 20
214.5411819266
 30
0.0
 10
181.3802119123
 20
214.3335816013
 30
0.0
 10
181.7616178883
 20
214.0161330396
 30
0.0
 10
182.2292808258
 20
213.9351610997
 30
0.0
 10
182.4345005667
 20
213.9057944041
 30
0.0
  0
SPLINE
  5
5C2
100
AcDbEntity
  8
0
100
AcDbSpline
 62
7
  6
BYLAYER
 70
0
 71
3
 72
9
 73
5
 74
0
 42
0.0000001
 43
0.0000001
 44
0.0000000001
 40
0.0
 40
0.0
 40
0.0
 40
0.0
 40
0.4768360044
 40
1.0
 40
1.0
 40
1.0
 40
1.0
 10
197.6205548845
 20
207.392317156
 30
0.0
 10
197.7620233799
 20
207.2954704396
 30
0.0
 10
198.0525892711
 20
207.0799521183
 30
0.0
 10
198.2813688979
 20
206.7973331873
 30
0.0
 10
198.3867812584
 20
206.641545801
 30
0.0
  0
SPLINE
  5
5C3
100
AcDbEntity
  8
0
100
AcDbSpline
 62
7
  6
BYLAYER
 70
0
 71
3
 72
9
 73
5
 74
0
 42
0.0000001
 43
0.0000001
 44
0.0000000001
 40
0.0
 40
0.0
 40
0.0
 40
0.0
 40
0.5262189187
 40
1.0
 40
1.0
 40
1.0
 40
1.0
 10
198.6792188575
 20
206.1002333976
 30
0.0
 10
198.7606497176
 20
205.905347409
 30
0.0
 10
198.880040081
 20
205.5163206437
 30
0.0
 10
198.8926054087
 20
205.1129879758
 30
0.0
 10
198.896775402
 20
204.9228668422
 30
0.0
  0
SPLINE
  5
5C4
100
AcDbEntity
  8
0
100
AcDbSpline
 62
7
  6
BYLAYER
 70
0
 71
3
 72
9
 73
5
 74
0
 42
0.0000001
 43
0.0000001
 44
0.0000000001
 40
0.0
 40
0.0
 40
0.0
 40
0.0
 40
0.2226780588
 40
1.0
 40
1.0
 40
1.0
 40
1.0
 10
101.8029825246
 20
464.1415053645
 30
0.0
 10
101.8159703188
 20
464.1421659793
 30
0.0
 10
101.8748661246
 20
464.1390605017
 30
0.0
 10
101.9286779987
 20
464.1113287696
 30
0.0
 10
101.9689293624
 20
464.0903371727
 30
0.0
  0
SPLINE
  5
5C5
100
AcDbEntity
  8
0
100
AcDbSpline
 62
7
  6
BYLAYER
 70
0
 71
3
 72
10
 73
6
 74
0
 42
0.0000001
 43
0.0000001
 44
0.0000000001
 40
0.0
 40
0.0
 40
0.0
 40
0.0
 40
0.2367868332
 40
0.5050258576
 40
1.0
 40
1.0
 40
1.0
 40
1.0
 10
87.4400348163
 20
475.3304280984
 30
0.0
 10
87.4379555627
 20
475.4105999329
 30
0.0
 10
87.4280056435
 20
475.5829594562
 30
0.0
 10
87.2874935801
 20
475.9018687128
 30
0.0
 10
87.0694717647
 20
476.0622969057
 30
0.0
 10
86.9262754074
 20
476.1494744968
 30
0.0
  0
SPLINE
  5
5C6
100
AcDbEntity
  8
0
100
AcDbSpline
 62
7
  6
BYLAYER
 70
0
 71
3
 72
9
 73
5
 74
0
 42
0.0000001
 43
0.0000001
 44
0.0000000001
 40
0.0
 40
0.0
 40
0.0
 40
0.0
 40
0.2386286223
 40
1.0
 40
1.0
 40
1.0
 40
1.0
 10
197.0179323971
 20
205.9210126422
 30
0.0
 10
197.0227845966
 20
205.8838206231
 30
0.0
 10
197.0446823607
 20
205.7282516641
 30
0.0
 10
197.0894746691
 20
205.5753002052
 30
0.0
 10
197.1382246446
 20
205.4660089818
 30
0.0
  0
SPLINE
  5
5C7
100
AcDbEntity
  8
0
100
AcDbSpline
 62
7
  6
BYLAYER
 70
0
 71
3
 72
8
 73
4
 74
0
 42
0.0000001
 43
0.0000001
 44
0.0000000001
 40
0.0
 40
0.0
 40
0.0
 40
0.0
 40
1.0
 40
1.0
 40
1.0
 40
1.0
 10
197.1382246446
 20
205.4660089818
 30
0.0
 10
197.1864560681
 20
205.357880286
 30
0.0
 10
197.2474482109
 20
205.2547315748
 30
0.0
 10
197.3181289181
 20
205.1597456669
 30
0.0
  0
SPLINE
  5
5C8
100
AcDbEntity
  8
0
100
AcDbSpline
 62
7
  6
BYLAYER
 70
0
 71
3
 72
9
 73
5
 74
0
 42
0.0000001
 43
0.0000001
 44
0.0000000001
 40
0.0
 40
0.0
 40
0.0
 40
0.0
 40
0.2733372745
 40
1.0
 40
1.0
 40
1.0
 40
1.0
 10
197.3181289181
 20
205.1597456669
 30
0.0
 10
197.3678141524
 20
205.0929750123
 30
0.0
 10
197.56748814
 20
204.8625987161
 30
0.0
 10
197.8230166184
 20
204.6802143646
 30
0.0
 10
198.0252092619
 20
204.5903558383
 30
0.0
  0
SPLINE
  5
5C9
100
AcDbEntity
  8
0
100
AcDbSpline
 62
7
  6
BYLAYER
 70
0
 71
3
 72
9
 73
5
 74
0
 42
0.0000001
 43
0.0000001
 44
0.0000000001
 40
0.0
 40
0.0
 40
0.0
 40
0.0
 40
0.5296368854
 40
1.0
 40
1.0
 40
1.0
 40
1.0
 10
198.0252092619
 20
204.5903558383
 30
0.0
 10
198.1539827403
 20
204.5331262835
 30
0.0
 10
198.417905984
 20
204.4552206015
 30
0.0
 10
198.6853315643
 20
204.4986631282
 30
0.0
 10
198.8079237364
 20
204.5238219538
 30
0.0
  0
SPLINE
  5
5CA
100
AcDbEntity
  8
0
100
AcDbSpline
 62
7
  6
BYLAYER
 70
0
 71
3
 72
11
 73
7
 74
0
 42
0.0000001
 43
0.0000001
 44
0.0000000001
 40
0.0
 40
0.0
 40
0.0
 40
0.0
 40
0.2876707667
 40
0.5693200747
 40
0.8027094527
 40
1.0
 40
1.0
 40
1.0
 40
1.0
 10
192.6396564575
 20
211.418934611
 30
0.0
 10
192.6154769909
 20
211.492521852
 30
0.0
 10
192.5523111716
 20
211.635630225
 30
0.0
 10
192.3947815527
 20
211.7896358516
 30
0.0
 10
192.2186158259
 20
211.8779359938
 30
0.0
 10
192.1006855867
 20
211.8808125469
 30
0.0
 10
192.047566298
 20
211.8813721712
 30
0.0
  0
SPLINE
  5
5CB
100
AcDbEntity
  8
0
100
AcDbSpline
 62
7
  6
BYLAYER
 70
0
 71
3
 72
9
 73
5
 74
0
 42
0.0000001
 43
0.0000001
 44
0.0000000001
 40
0.0
 40
0.0
 40
0.0
 40
0.0
 40
0.2150509068
 40
1.0
 40
1.0
 40
1.0
 40
1.0
 10
180.6021054809
 20
216.9291826573
 30
0.0
 10
180.6859033214
 20
216.9459441293
 30
0.0
 10
181.0899768148
 20
216.9536140853
 30
0.0
 10
181.4633151966
 20
216.7486414376
 30
0.0
 10
181.7165415787
 20
216.5665034589
 30
0.0
  0
SPLINE
  5
5CC
100
AcDbEntity
  8
0
100
AcDbSpline
 62
7
  6
BYLAYER
 70
0
 71
3
 72
8
 73
4
 74
0
 42
0.0000001
 43
0.0000001
 44
0.0000000001
 40
0.0
 40
0.0
 40
0.0
 40
0.0
 40
1.0
 40
1.0
 40
1.0
 40
1.0
 10
181.7165415787
 20
216.5665034589
 30
0.0
 10
181.7867636774
 20
216.5159948547
 30
0.0
 10
181.855156374
 20
216.4629089181
 30
0.0
 10
181.9222590268
 20
216.4083241561
 30
0.0
  0
SPLINE
  5
5CD
100
AcDbEntity
  8
0
100
AcDbSpline
 62
7
  6
BYLAYER
 70
0
 71
3
 72
8
 73
4
 74
0
 42
0.0000001
 43
0.0000001
 44
0.0000000001
 40
0.0
 40
0.0
 40
0.0
 40
0.0
 40
1.0
 40
1.0
 40
1.0
 40
1.0
 10
181.9222590268
 20
216.4083241561
 30
0.0
 10
182.0844508171
 20
216.276388981
 30
0.0
 10
182.239430467
 20
216.135749514
 30
0.0
 10
182.3942649384
 20
215.9952527036
 30
0.0
  0
SPLINE
  5
5CE
100
AcDbEntity
  8
0
100
AcDbSpline
 62
7
  6
BYLAYER
 70
0
 71
3
 72
9
 73
5
 74
0
 42
0.0000001
 43
0.0000001
 44
0.0000000001
 40
0.0
 40
0.0
 40
0.0
 40
0.0
 40
0.2163424679
 40
1.0
 40
1.0
 40
1.0
 40
1.0
 10
103.3757340077
 20
462.6639568034
 30
0.0
 10
103.3472960889
 20
462.6475384864
 30
0.0
 10
103.1941516232
 20
462.6091066059
 30
0.0
 10
103.0447636527
 20
462.6840946576
 30
0.0
 10
102.9398247491
 20
462.7400943002
 30
0.0
  0
SPLINE
  5
5CF
100
AcDbEntity
  8
0
100
AcDbSpline
 62
7
  6
BYLAYER
 70
0
 71
3
 72
9
 73
5
 74
0
 42
0.0000001
 43
0.0000001
 44
0.0000000001
 40
0.0
 40
0.0
 40
0.0
 40
0.0
 40
0.4567854134
 40
1.0
 40
1.0
 40
1.0
 40
1.0
 10
183.7496654286
 20
215.0694715967
 30
0.0
 10
183.8346148518
 20
215.1185089104
 30
0.0
 10
184.0565479332
 20
215.1716640971
 30
0.0
 10
184.2678434254
 20
215.0989894573
 30
0.0
 10
184.3722917214
 20
215.0470577996
 30
0.0
  0
SPLINE
  5
5D0
100
AcDbEntity
  8
0
100
AcDbSpline
 62
7
  6
BYLAYER
 70
0
 71
3
 72
9
 73
5
 74
0
 42
0.0000001
 43
0.0000001
 44
0.0000000001
 40
0.0
 40
0.0
 40
0.0
 40
0.0
 40
0.2273854989
 40
1.0
 40
1.0
 40
1.0
 40
1.0
 10
184.3722917214
 20
215.0470577996
 30
0.0
 10
184.4419095265
 20
215.0124438503
 30
0.0
 10
184.734040986
 20
214.8331125591
 30
0.0
 10
184.9736258298
 20
214.571531685
 30
0.0
 10
185.1119403625
 20
214.3464608146
 30
0.0
  0
SPLINE
  5
5D1
100
AcDbEntity
  8
0
100
AcDbSpline
 62
7
  6
BYLAYER
 70
0
 71
3
 72
8
 73
4
 74
0
 42
0.0000001
 43
0.0000001
 44
0.0000000001
 40
0.0
 40
0.0
 40
0.0
 40
0.0
 40
1.0
 40
1.0
 40
1.0
 40
1.0
 10
185.1119403625
 20
214.3464608146
 30
0.0
 10
185.1823789449
 20
214.2318403714
 30
0.0
 10
185.2426162469
 20
214.1101333837
 30
0.0
 10
185.2896580467
 20
213.9840916884
 30
0.0
  0
SPLINE
  5
5D2
100
AcDbEntity
  8
0
100
AcDbSpline
 62
7
  6
BYLAYER
 70
0
 71
3
 72
9
 73
5
 74
0
 42
0.0000001
 43
0.0000001
 44
0.0000000001
 40
0.0
 40
0.0
 40
0.0
 40
0.0
 40
0.266531925
 40
1.0
 40
1.0
 40
1.0
 40
1.0
 10
185.2896580467
 20
213.9840916884
 30
0.0
 10
185.3117494428
 20
213.9249009891
 30
0.0
 10
185.384607664
 20
213.698624752
 30
0.0
 10
185.404388356
 20
213.4596507543
 30
0.0
 10
185.4129007942
 20
213.2859976242
 30
0.0
  0
SPLINE
  5
5D3
100
AcDbEntity
  8
0
100
AcDbSpline
 62
7
  6
BYLAYER
 70
0
 71
3
 72
10
 73
6
 74
0
 42
0.0000001
 43
0.0000001
 44
0.0000000001
 40
0.0
 40
0.0
 40
0.0
 40
0.0
 40
0.5513903711
 40
0.7823795017
 40
1.0
 40
1.0
 40
1.0
 40
1.0
 10
187.4184211139
 20
213.2099414159
 30
0.0
 10
187.2825056029
 20
213.2792337184
 30
0.0
 10
187.0764022107
 20
213.3782399417
 30
0.0
 10
186.7941528491
 20
213.3433105535
 30
0.0
 10
186.6832087427
 20
213.2847189635
 30
0.0
 10
186.6310649675
 20
213.2546113866
 30
0.0
  0
SPLINE
  5
5D4
100
AcDbEntity
  8
0
100
AcDbSpline
 62
7
  6
BYLAYER
 70
0
 71
3
 72
11
 73
7
 74
0
 42
0.0000001
 43
0.0000001
 44
0.0000000001
 40
0.0
 40
0.0
 40
0.0
 40
0.0
 40
0.2350863528
 40
0.4947228304
 40
0.7604703036
 40
1.0
 40
1.0
 40
1.0
 40
1.0
 10
188.3781733627
 20
211.4900225446
 30
0.0
 10
188.3712809169
 20
211.6508801063
 30
0.0
 10
188.3459172499
 20
211.9921298896
 30
0.0
 10
188.1468491116
 20
212.4809904836
 30
0.0
 10
187.8379788984
 20
212.9133358547
 30
0.0
 10
187.5551697302
 20
213.1193232012
 30
0.0
 10
187.4184211139
 20
213.2099414159
 30
0.0
  0
SPLINE
  5
5D5
100
AcDbEntity
  8
0
100
AcDbSpline
 62
7
  6
BYLAYER
 70
0
 71
3
 72
9
 73
5
 74
0
 42
0.0000001
 43
0.0000001
 44
0.0000000001
 40
0.0
 40
0.0
 40
0.0
 40
0.0
 40
0.4999988715
 40
1.0
 40
1.0
 40
1.0
 40
1.0
 10
318.8186257391
 20
180.2957170197
 30
0.0
 10
319.0353305718
 20
180.1706052566
 30
0.0
 10
319.3777224143
 20
179.7754655271
 30
0.0
 10
319.5487290306
 20
179.2813769474
 30
0.0
 10
319.5487290306
 20
179.0311480461
 30
0.0
  0
SPLINE
  5
5D6
100
AcDbEntity
  8
0
100
AcDbSpline
 62
7
  6
BYLAYER
 70
0
 71
3
 72
9
 73
5
 74
0
 42
0.0000001
 43
0.0000001
 44
0.0000000001
 40
0.0
 40
0.0
 40
0.0
 40
0.0
 40
0.2210980044
 40
1.0
 40
1.0
 40
1.0
 40
1.0
 10
102.0209648743
 20
466.0296556246
 30
0.0
 10
102.0846232048
 20
466.04356324
 30
0.0
 10
102.3843414122
 20
466.055550807
 30
0.0
 10
102.6621474481
 20
465.9165558384
 30
0.0
 10
102.8630364634
 20
465.8054838887
 30
0.0
  0
SPLINE
  5
5D7
100
AcDbEntity
  8
0
100
AcDbSpline
 62
7
  6
BYLAYER
 70
0
 71
3
 72
9
 73
5
 74
0
 42
0.0000001
 43
0.0000001
 44
0.0000000001
 40
0.0
 40
0.0
 40
0.0
 40
0.0
 40
0.4554674285
 40
1.0
 40
1.0
 40
1.0
 40
1.0
 10
186.8707051284
 20
213.3740351762
 30
0.0
 10
186.9640238562
 20
213.4033611042
 30
0.0
 10
187.1912032193
 20
213.4032495935
 30
0.0
 10
187.3849440496
 20
213.3038825659
 30
0.0
 10
187.4891314976
 20
213.250765831
 30
0.0
  0
SPLINE
  5
5D8
100
AcDbEntity
  8
0
100
AcDbSpline
 62
7
  6
BYLAYER
 70
0
 71
3
 72
11
 73
7
 74
0
 42
0.0000001
 43
0.0000001
 44
0.0000000001
 40
0.0
 40
0.0
 40
0.0
 40
0.0
 40
0.2401070074
 40
0.5027674875
 40
0.7650202382
 40
1.0
 40
1.0
 40
1.0
 40
1.0
 10
84.8795242061
 20
476.7063244209
 30
0.0
 10
84.860633021
 20
476.8001977722
 30
0.0
 10
84.8170792503
 20
476.9946726251
 30
0.0
 10
84.7450720149
 20
477.2973536176
 30
0.0
 10
84.532501416
 20
477.5296518648
 30
0.0
 10
84.3610677317
 20
477.6293135314
 30
0.0
 10
84.2804144358
 20
477.6770284832
 30
0.0
  0
SPLINE
  5
5D9
100
AcDbEntity
  8
0
100
AcDbSpline
 62
7
  6
BYLAYER
 70
0
 71
3
 72
9
 73
5
 74
0
 42
0.0000001
 43
0.0000001
 44
0.0000000001
 40
0.0
 40
0.0
 40
0.0
 40
0.0
 40
0.4768203309
 40
1.0
 40
1.0
 40
1.0
 40
1.0
 10
190.2483449003
 20
211.6486323901
 30
0.0
 10
190.3899013137
 20
211.5517494517
 30
0.0
 10
190.6806993844
 20
211.3361942868
 30
0.0
 10
190.9096292695
 20
211.0534136405
 30
0.0
 10
191.0150916596
 20
210.897522618
 30
0.0
  0
SPLINE
  5
5DA
100
AcDbEntity
  8
0
100
AcDbSpline
 62
7
  6
BYLAYER
 70
0
 71
3
 72
9
 73
5
 74
0
 42
0.0000001
 43
0.0000001
 44
0.0000000001
 40
0.0
 40
0.0
 40
0.0
 40
0.0
 40
0.5262109093
 40
1.0
 40
1.0
 40
1.0
 40
1.0
 10
191.3074790111
 20
210.3560685603
 30
0.0
 10
191.3888310944
 20
210.1612242235
 30
0.0
 10
191.5080625902
 20
209.7722859465
 30
0.0
 10
191.52058533
 20
209.3690822437
 30
0.0
 10
191.5247409292
 20
209.179016641
 30
0.0
  0
SPLINE
  5
5DB
100
AcDbEntity
  8
0
100
AcDbSpline
 62
7
  6
BYLAYER
 70
0
 71
3
 72
9
 73
5
 74
0
 42
0.0000001
 43
0.0000001
 44
0.0000000001
 40
0.0
 40
0.0
 40
0.0
 40
0.0
 40
0.4778110445
 40
1.0
 40
1.0
 40
1.0
 40
1.0
 10
185.3421904108
 20
213.2451732093
 30
0.0
 10
185.3364000848
 20
213.3632954442
 30
0.0
 10
185.3227847451
 20
213.611229949
 30
0.0
 10
185.2549528461
 20
213.8520055915
 30
0.0
 10
185.2078241525
 20
213.9723549548
 30
0.0
  0
SPLINE
  5
5DC
100
AcDbEntity
  8
0
100
AcDbSpline
 62
7
  6
BYLAYER
 70
0
 71
3
 72
11
 73
7
 74
0
 42
0.0000001
 43
0.0000001
 44
0.0000000001
 40
0.0
 40
0.0
 40
0.0
 40
0.0
 40
0.3009420659
 40
0.5824499618
 40
0.8160248599
 40
1.0
 40
1.0
 40
1.0
 40
1.0
 10
185.2078241525
 20
213.9723549548
 30
0.0
 10
185.1332146998
 20
214.162880077
 30
0.0
 10
184.9335397304
 20
214.5144459038
 30
0.0
 10
184.5256969982
 20
214.8951005461
 30
0.0
 10
184.0952719539
 20
215.1324465465
 30
0.0
 10
183.7872614673
 20
215.0911731858
 30
0.0
 10
183.6789316841
 20
215.0286336956
 30
0.0
  0
SPLINE
  5
5DD
100
AcDbEntity
  8
0
100
AcDbSpline
 62
7
  6
BYLAYER
 70
0
 71
3
 72
9
 73
5
 74
0
 42
0.0000001
 43
0.0000001
 44
0.0000000001
 40
0.0
 40
0.0
 40
0.0
 40
0.0
 40
0.4494949907
 40
1.0
 40
1.0
 40
1.0
 40
1.0
 10
103.9673466895
 20
464.0424933183
 30
0.0
 10
103.9956632636
 20
464.0588426998
 30
0.0
 10
104.0458431835
 20
464.1205875483
 30
0.0
 10
104.048141574
 20
464.1956577421
 30
0.0
 10
104.0502079894
 20
464.2356497148
 30
0.0
  0
SPLINE
  5
5DE
100
AcDbEntity
  8
0
100
AcDbSpline
 62
7
  6
BYLAYER
 70
0
 71
3
 72
11
 73
7
 74
0
 42
0.0000001
 43
0.0000001
 44
0.0000000001
 40
0.0
 40
0.0
 40
0.0
 40
0.0
 40
0.2375795495
 40
0.4999999073
 40
0.7624203571
 40
1.0
 40
1.0
 40
1.0
 40
1.0
 10
325.5117900445
 20
351.4347641649
 30
0.0
 10
325.7630423362
 20
351.2896749608
 30
0.0
 10
326.2355065673
 20
350.8875539688
 30
0.0
 10
326.7933066685
 20
350.1334671636
 30
0.0
 10
327.1674610139
 20
349.2733529488
 30
0.0
 10
327.2794735886
 20
348.6631257247
 30
0.0
 10
327.2794969635
 20
348.3729901412
 30
0.0
  0
SPLINE
  5
5DF
100
AcDbEntity
  8
0
100
AcDbSpline
 62
7
  6
BYLAYER
 70
0
 71
3
 72
8
 73
4
 74
0
 42
0.0000001
 43
0.0000001
 44
0.0000000001
 40
0.0
 40
0.0
 40
0.0
 40
0.0
 40
1.0
 40
1.0
 40
1.0
 40
1.0
 10
182.3235545547
 20
215.9544282881
 30
0.0
 10
182.1797882574
 20
216.0848818366
 30
0.0
 10
182.0358939311
 20
216.2154001432
 30
0.0
 10
181.886239898
 20
216.3390550944
 30
0.0
  0
SPLINE
  5
5E0
100
AcDbEntity
  8
0
100
AcDbSpline
 62
7
  6
BYLAYER
 70
0
 71
3
 72
10
 73
6
 74
0
 42
0.0000001
 43
0.0000001
 44
0.0000000001
 40
0.0
 40
0.0
 40
0.0
 40
0.0
 40
0.5653913725
 40
0.7977331179
 40
1.0
 40
1.0
 40
1.0
 40
1.0
 10
181.886239898
 20
216.3390550944
 30
0.0
 10
181.6370620685
 20
216.5449437813
 30
0.0
 10
181.2518228725
 20
216.8170134678
 30
0.0
 10
180.6811017681
 20
216.9313379445
 30
0.0
 10
180.4276598704
 20
216.870421305
 30
0.0
 10
180.3275163322
 20
216.8126037528
 30
0.0
  0
SPLINE
  5
5E1
100
AcDbEntity
  8
0
100
AcDbSpline
 62
7
  6
BYLAYER
 70
0
 71
3
 72
12
 73
8
 74
0
 42
0.0000001
 43
0.0000001
 44
0.0000000001
 40
0.0
 40
0.0
 40
0.0
 40
0.0
 40
0.2191668377
 40
0.4950579226
 40
0.6491503308
 40
0.7916714368
 40
1.0
 40
1.0
 40
1.0
 40
1.0
 10
182.363790183
 20
213.8649699887
 30
0.0
 10
182.1518458464
 20
213.8952989658
 30
0.0
 10
181.665270273
 20
213.9827224763
 30
0.0
 10
181.15987652
 20
214.4238675355
 30
0.0
 10
180.9031401096
 20
214.9325869496
 30
0.0
 10
180.7988314147
 20
215.397395185
 30
0.0
 10
180.8597440778
 20
215.8293659306
 30
0.0
 10
181.0359940328
 20
215.931123024
 30
0.0
  0
SPLINE
  5
5E2
100
AcDbEntity
  8
0
100
AcDbSpline
 62
7
  6
BYLAYER
 70
0
 71
3
 72
9
 73
5
 74
0
 42
0.0000001
 43
0.0000001
 44
0.0000000001
 40
0.0
 40
0.0
 40
0.0
 40
0.0
 40
0.2386581636
 40
1.0
 40
1.0
 40
1.0
 40
1.0
 10
189.6451527897
 20
210.1776045127
 30
0.0
 10
189.6499852427
 20
210.1405073799
 30
0.0
 10
189.6717923407
 20
209.9853548074
 30
0.0
 10
189.7163075099
 20
209.8327831218
 30
0.0
 10
189.7648107055
 20
209.7237407744
 30
0.0
  0
SPLINE
  5
5E3
100
AcDbEntity
  8
0
100
AcDbSpline
 62
7
  6
BYLAYER
 70
0
 71
3
 72
8
 73
4
 74
0
 42
0.0000001
 43
0.0000001
 44
0.0000000001
 40
0.0
 40
0.0
 40
0.0
 40
0.0
 40
1.0
 40
1.0
 40
1.0
 40
1.0
 10
189.7648107055
 20
209.7237407744
 30
0.0
 10
189.8130414388
 20
209.6153109622
 30
0.0
 10
189.8741148762
 20
209.5118710791
 30
0.0
 10
189.9449625354
 20
209.4166668932
 30
0.0
  0
SPLINE
  5
5E4
100
AcDbEntity
  8
0
100
AcDbSpline
 62
7
  6
BYLAYER
 70
0
 71
3
 72
9
 73
5
 74
0
 42
0.0000001
 43
0.0000001
 44
0.0000000001
 40
0.0
 40
0.0
 40
0.0
 40
0.0
 40
0.2732809482
 40
1.0
 40
1.0
 40
1.0
 40
1.0
 10
189.9449625354
 20
209.4166668932
 30
0.0
 10
189.9946285108
 20
209.3499263854
 30
0.0
 10
190.1943382531
 20
209.1196869392
 30
0.0
 10
190.449587033
 20
208.9370508034
 30
0.0
 10
190.6517379518
 20
208.8471775104
 30
0.0
  0
SPLINE
  5
5E5
100
AcDbEntity
  8
0
100
AcDbSpline
 62
7
  6
BYLAYER
 70
0
 71
3
 72
9
 73
5
 74
0
 42
0.0000001
 43
0.0000001
 44
0.0000000001
 40
0.0
 40
0.0
 40
0.0
 40
0.0
 40
0.5321596989
 40
1.0
 40
1.0
 40
1.0
 40
1.0
 10
190.6517379518
 20
208.8471775104
 30
0.0
 10
190.7813505433
 20
208.7895536792
 30
0.0
 10
191.0459882347
 20
208.7116874631
 30
0.0
 10
191.3137186205
 20
208.756009267
 30
0.0
 10
191.4358552648
 20
208.7811668468
 30
0.0
  0
SPLINE
  5
5E6
100
AcDbEntity
  8
0
100
AcDbSpline
 62
7
  6
BYLAYER
 70
0
 71
3
 72
12
 73
8
 74
0
 42
0.0000001
 43
0.0000001
 44
0.0000000001
 40
0.0
 40
0.0
 40
0.0
 40
0.0
 40
0.2945203655
 40
0.5662117154
 40
0.6907963067
 40
0.8062573157
 40
1.0
 40
1.0
 40
1.0
 40
1.0
 10
179.5810266642
 20
218.8368700823
 30
0.0
 10
179.3740264231
 20
219.0434125736
 30
0.0
 10
178.9788269456
 20
219.4438731426
 30
0.0
 10
178.4322898311
 20
219.864032756
 30
0.0
 10
177.9793277401
 20
220.1014542645
 30
0.0
 10
177.5813923492
 20
220.2501144883
 30
0.0
 10
177.2352332019
 20
220.2696413511
 30
0.0
 10
177.0686438978
 20
220.1734617151
 30
0.0
  0
SPLINE
  5
5E7
100
AcDbEntity
  8
0
100
AcDbSpline
 62
7
  6
BYLAYER
 70
0
 71
3
 72
9
 73
5
 74
0
 42
0.0000001
 43
0.0000001
 44
0.0000000001
 40
0.0
 40
0.0
 40
0.0
 40
0.0
 40
0.4967000666
 40
1.0
 40
1.0
 40
1.0
 40
1.0
 10
99.4255446581
 20
468.5188700971
 30
0.0
 10
99.4215777632
 20
468.6631671864
 30
0.0
 10
99.382236158
 20
468.9620852923
 30
0.0
 10
99.1735484015
 20
469.1938111094
 30
0.0
 10
99.0501688314
 20
469.2723750798
 30
0.0
  0
SPLINE
  5
5E8
100
AcDbEntity
  8
0
100
AcDbSpline
 62
7
  6
BYLAYER
 70
0
 71
3
 72
9
 73
5
 74
0
 42
0.0000001
 43
0.0000001
 44
0.0000000001
 40
0.0
 40
0.0
 40
0.0
 40
0.0
 40
0.4341837523
 40
1.0
 40
1.0
 40
1.0
 40
1.0
 10
192.4790264567
 20
210.9123348526
 30
0.0
 10
192.549602626
 20
210.9530825246
 30
0.0
 10
192.6817710567
 20
211.1141105837
 30
0.0
 10
192.6596730804
 20
211.3146365163
 30
0.0
 10
192.6396564575
 20
211.418934611
 30
0.0
  0
SPLINE
  5
5E9
100
AcDbEntity
  8
0
100
AcDbSpline
 62
7
  6
BYLAYER
 70
0
 71
3
 72
9
 73
5
 74
0
 42
0.0000001
 43
0.0000001
 44
0.0000000001
 40
0.0
 40
0.0
 40
0.0
 40
0.0
 40
0.5000011283
 40
1.0
 40
1.0
 40
1.0
 40
1.0
 10
317.4274175183
 20
177.8064155838
 30
0.0
 10
317.4274175183
 20
178.0566444851
 30
0.0
 10
317.2564109018
 20
178.5507330647
 30
0.0
 10
316.9140190603
 20
178.9458727955
 30
0.0
 10
316.6973142275
 20
179.0709845586
 30
0.0
  0
SPLINE
  5
5EA
100
AcDbEntity
  8
0
100
AcDbSpline
 62
7
  6
BYLAYER
 70
0
 71
3
 72
9
 73
5
 74
0
 42
0.0000001
 43
0.0000001
 44
0.0000000001
 40
0.0
 40
0.0
 40
0.0
 40
0.0
 40
0.2198312215
 40
1.0
 40
1.0
 40
1.0
 40
1.0
 10
87.3215287819
 20
471.2580608486
 30
0.0
 10
87.3460654434
 20
471.2722281774
 30
0.0
 10
87.4370776827
 20
471.3719764873
 30
0.0
 10
87.4372744265
 20
471.5135518561
 30
0.0
 10
87.4400348164
 20
471.6140663307
 30
0.0
  0
SPLINE
  5
5EB
100
AcDbEntity
  8
0
100
AcDbSpline
 62
7
  6
BYLAYER
 70
0
 71
3
 72
9
 73
5
 74
0
 42
0.0000001
 43
0.0000001
 44
0.0000000001
 40
0.0
 40
0.0
 40
0.0
 40
0.0
 40
0.4282453068
 40
1.0
 40
1.0
 40
1.0
 40
1.0
 10
200.5169585446
 20
205.4809112525
 30
0.0
 10
200.6019584364
 20
205.529988359
 30
0.0
 10
200.8524682855
 20
205.5684957416
 30
0.0
 10
201.0530075765
 20
205.4251645566
 30
0.0
 10
201.150217797
 20
205.3372887831
 30
0.0
  0
SPLINE
  5
5EC
100
AcDbEntity
  8
0
100
AcDbSpline
 62
7
  6
BYLAYER
 70
0
 71
3
 72
9
 73
5
 74
0
 42
0.0000001
 43
0.0000001
 44
0.0000000001
 40
0.0
 40
0.0
 40
0.0
 40
0.0
 40
0.2422483291
 40
1.0
 40
1.0
 40
1.0
 40
1.0
 10
201.150217797
 20
205.3372887831
 30
0.0
 10
201.1866407456
 20
205.3043632865
 30
0.0
 10
201.3291247065
 20
205.1595508435
 30
0.0
 10
201.4447357073
 20
204.9918456183
 30
0.0
 10
201.5337751171
 20
204.8667084125
 30
0.0
  0
SPLINE
  5
5ED
100
AcDbEntity
  8
0
100
AcDbSpline
 62
7
  6
BYLAYER
 70
0
 71
3
 72
11
 73
7
 74
0
 42
0.0000001
 43
0.0000001
 44
0.0000000001
 40
0.0
 40
0.0
 40
0.0
 40
0.0
 40
0.237256205
 40
0.5000012589
 40
0.7627456297
 40
1.0
 40
1.0
 40
1.0
 40
1.0
 10
107.4158839632
 20
465.8101759187
 30
0.0
 10
107.4158629383
 20
466.1579543827
 30
0.0
 10
107.2854481129
 20
466.8913609503
 30
0.0
 10
106.8306270899
 20
467.9217745095
 30
0.0
 10
106.1656705357
 20
468.8308624941
 30
0.0
 10
105.5957286351
 20
469.3105022879
 30
0.0
 10
105.2945547885
 20
469.4844054333
 30
0.0
  0
SPLINE
  5
5EE
100
AcDbEntity
  8
0
100
AcDbSpline
 62
7
  6
BYLAYER
 70
0
 71
3
 72
9
 73
5
 74
0
 42
0.0000001
 43
0.0000001
 44
0.0000000001
 40
0.0
 40
0.0
 40
0.0
 40
0.0
 40
0.5508267758
 40
1.0
 40
1.0
 40
1.0
 40
1.0
 10
82.6670435831
 20
482.5481095783
 30
0.0
 10
82.4189141016
 20
482.6913439587
 30
0.0
 10
81.9231099356
 20
482.8973719741
 30
0.0
 10
81.3695075083
 20
482.8132765994
 30
0.0
 10
81.1671775799
 20
482.6964619615
 30
0.0
  0
SPLINE
  5
5EF
100
AcDbEntity
  8
0
100
AcDbSpline
 62
7
  6
BYLAYER
 70
0
 71
3
 72
8
 73
4
 74
0
 42
0.0000001
 43
0.0000001
 44
0.0000000001
 40
0.0
 40
0.0
 40
0.0
 40
0.0
 40
1.0
 40
1.0
 40
1.0
 40
1.0
 10
100.5881324836
 20
467.0372224504
 30
0.0
 10
100.5728093549
 20
467.0450946335
 30
0.0
 10
100.5575307117
 20
467.0530811111
 30
0.0
 10
100.5418775042
 20
467.0602746244
 30
0.0
  0
SPLINE
  5
5F0
100
AcDbEntity
  8
0
100
AcDbSpline
 62
7
  6
BYLAYER
 70
0
 71
3
 72
9
 73
5
 74
0
 42
0.0000001
 43
0.0000001
 44
0.0000000001
 40
0.0
 40
0.0
 40
0.0
 40
0.0
 40
0.2891714924
 40
1.0
 40
1.0
 40
1.0
 40
1.0
 10
100.5418775042
 20
467.0602746244
 30
0.0
 10
100.5236994489
 20
467.0686284447
 30
0.0
 10
100.4600204781
 20
467.0938753853
 30
0.0
 10
100.381124988
 20
467.0939556144
 30
0.0
 10
100.3385367702
 20
467.0693663297
 30
0.0
  0
SPLINE
  5
5F1
100
AcDbEntity
  8
0
100
AcDbSpline
 62
7
  6
BYLAYER
 70
0
 71
3
 72
9
 73
5
 74
0
 42
0.0000001
 43
0.0000001
 44
0.0000000001
 40
0.0
 40
0.0
 40
0.0
 40
0.0
 40
0.286774638
 40
1.0
 40
1.0
 40
1.0
 40
1.0
 10
98.0660151373
 20
467.1301562445
 30
0.0
 10
98.0654702431
 20
467.0987243137
 30
0.0
 10
98.0626950946
 20
466.9933298605
 30
0.0
 10
98.0339719933
 20
466.8595746599
 30
0.0
 10
97.9653460449
 20
466.8221134446
 30
0.0
  0
SPLINE
  5
5F2
100
AcDbEntity
  8
0
100
AcDbSpline
 62
7
  6
BYLAYER
 70
0
 71
3
 72
8
 73
4
 74
0
 42
0.0000001
 43
0.0000001
 44
0.0000000001
 40
0.0
 40
0.0
 40
0.0
 40
0.0
 40
1.0
 40
1.0
 40
1.0
 40
1.0
 10
96.6589772694
 20
469.3873181016
 30
0.0
 10
96.7556482768
 20
469.3306143949
 30
0.0
 10
96.8498760199
 20
469.2693111159
 30
0.0
 10
96.939754363
 20
469.2023598093
 30
0.0
  0
SPLINE
  5
5F3
100
AcDbEntity
  8
0
100
AcDbSpline
 62
7
  6
BYLAYER
 70
0
 71
3
 72
9
 73
5
 74
0
 42
0.0000001
 43
0.0000001
 44
0.0000000001
 40
0.0
 40
0.0
 40
0.0
 40
0.0
 40
0.2386404492
 40
1.0
 40
1.0
 40
1.0
 40
1.0
 10
96.939754363
 20
469.2023598093
 30
0.0
 10
97.0069200434
 20
469.1523274
 30
0.0
 10
97.2780455083
 20
468.9288466348
 30
0.0
 10
97.5030616638
 20
468.6519303431
 30
0.0
 10
97.6464904551
 20
468.4264835926
 30
0.0
  0
SPLINE
  5
5F4
100
AcDbEntity
  8
0
100
AcDbSpline
 62
7
  6
BYLAYER
 70
0
 71
3
 72
9
 73
5
 74
0
 42
0.0000001
 43
0.0000001
 44
0.0000000001
 40
0.0
 40
0.0
 40
0.0
 40
0.0
 40
0.2719906421
 40
1.0
 40
1.0
 40
1.0
 40
1.0
 10
97.6464904551
 20
468.4264835926
 30
0.0
 10
97.7132424117
 20
468.3215603649
 30
0.0
 10
97.9341472625
 20
467.9211206679
 30
0.0
 10
98.0551506674
 20
467.4628329435
 30
0.0
 10
98.0660151373
 20
467.1301562445
 30
0.0
  0
SPLINE
  5
5F5
100
AcDbEntity
  8
0
100
AcDbSpline
 62
7
  6
BYLAYER
 70
0
 71
3
 72
8
 73
4
 74
0
 42
0.0000001
 43
0.0000001
 44
0.0000000001
 40
0.0
 40
0.0
 40
0.0
 40
0.0
 40
1.0
 40
1.0
 40
1.0
 40
1.0
 10
102.4393325818
 20
465.2736957663
 30
0.0
 10
102.4194279773
 20
465.2432380464
 30
0.0
 10
102.415407046
 20
465.2040548441
 30
0.0
 10
102.4130826578
 20
465.1677441954
 30
0.0
  0
SPLINE
  5
5F6
100
AcDbEntity
  8
0
100
AcDbSpline
 62
7
  6
BYLAYER
 70
0
 71
3
 72
9
 73
5
 74
0
 42
0.0000001
 43
0.0000001
 44
0.0000000001
 40
0.0
 40
0.0
 40
0.0
 40
0.0
 40
0.2160033552
 40
1.0
 40
1.0
 40
1.0
 40
1.0
 10
199.9343985246
 20
200.9356777771
 30
0.0
 10
199.919334492
 20
200.8999551279
 30
0.0
 10
199.8760204071
 20
200.7242302292
 30
0.0
 10
199.8981942417
 20
200.5369441166
 30
0.0
 10
199.941487363
 20
200.4030553871
 30
0.0
  0
SPLINE
  5
5F7
100
AcDbEntity
  8
0
100
AcDbSpline
 62
7
  6
BYLAYER
 70
0
 71
3
 72
9
 73
5
 74
0
 42
0.0000001
 43
0.0000001
 44
0.0000000001
 40
0.0
 40
0.0
 40
0.0
 40
0.0
 40
0.5590509469
 40
1.0
 40
1.0
 40
1.0
 40
1.0
 10
200.0773617713
 20
200.1314147888
 30
0.0
 10
200.168466321
 20
200.0021599882
 30
0.0
 10
200.3874645174
 20
199.7963284286
 30
0.0
 10
200.6718279181
 20
199.7385635625
 30
0.0
 10
200.7955597569
 20
199.7228255523
 30
0.0
  0
SPLINE
  5
5F8
100
AcDbEntity
  8
0
100
AcDbSpline
 62
7
  6
BYLAYER
 70
0
 71
3
 72
8
 73
4
 74
0
 42
0.0000001
 43
0.0000001
 44
0.0000000001
 40
0.0
 40
0.0
 40
0.0
 40
0.0
 40
1.0
 40
1.0
 40
1.0
 40
1.0
 10
97.7585881349
 20
466.4321378171
 30
0.0
 10
97.8095351516
 20
466.4006612183
 30
0.0
 10
97.8580107432
 20
466.3630913378
 30
0.0
 10
97.8971098505
 20
466.3177301806
 30
0.0
  0
SPLINE
  5
5F9
100
AcDbEntity
  8
0
100
AcDbSpline
 62
7
  6
BYLAYER
 70
0
 71
3
 72
9
 73
5
 74
0
 42
0.0000001
 43
0.0000001
 44
0.0000000001
 40
0.0
 40
0.0
 40
0.0
 40
0.0
 40
0.2645473644
 40
1.0
 40
1.0
 40
1.0
 40
1.0
 10
97.8971098505
 20
466.3177301806
 30
0.0
 10
97.9174513335
 20
466.2941308384
 30
0.0
 10
97.987284527
 20
466.1987276867
 30
0.0
 10
98.0191066533
 20
466.07810582
 30
0.0
 10
98.0212683493
 20
465.991517447
 30
0.0
  0
SPLINE
  5
5FA
100
AcDbEntity
  8
0
100
AcDbSpline
 62
7
  6
BYLAYER
 70
0
 71
3
 72
8
 73
4
 74
0
 42
0.0000001
 43
0.0000001
 44
0.0000000001
 40
0.0
 40
0.0
 40
0.0
 40
0.0
 40
1.0
 40
1.0
 40
1.0
 40
1.0
 10
97.5903733605
 20
466.4718441391
 30
0.0
 10
97.624683315
 20
466.4809305029
 30
0.0
 10
97.6635483571
 20
466.4757819859
 30
0.0
 10
97.6964348077
 20
466.462432216
 30
0.0
  0
SPLINE
  5
5FB
100
AcDbEntity
  8
0
100
AcDbSpline
 62
7
  6
BYLAYER
 70
0
 71
3
 72
8
 73
4
 74
0
 42
0.0000001
 43
0.0000001
 44
0.0000000001
 40
0.0
 40
0.0
 40
0.0
 40
0.0
 40
1.0
 40
1.0
 40
1.0
 40
1.0
 10
97.6964348077
 20
466.462432216
 30
0.0
 10
97.7177901155
 20
466.4537633435
 30
0.0
 10
97.7382560926
 20
466.4429916908
 30
0.0
 10
97.7585881349
 20
466.4321378171
 30
0.0
  0
SPLINE
  5
5FC
100
AcDbEntity
  8
0
100
AcDbSpline
 62
7
  6
BYLAYER
 70
0
 71
3
 72
9
 73
5
 74
0
 42
0.0000001
 43
0.0000001
 44
0.0000000001
 40
0.0
 40
0.0
 40
0.0
 40
0.0
 40
0.2698122292
 40
1.0
 40
1.0
 40
1.0
 40
1.0
 10
96.6929516813
 20
466.4282947079
 30
0.0
 10
96.722050231
 20
466.4127504337
 30
0.0
 10
96.8293712099
 20
466.3551010096
 30
0.0
 10
96.9483112255
 20
466.3123930615
 30
0.0
 10
97.0373423288
 20
466.3057227676
 30
0.0
  0
SPLINE
  5
5FD
100
AcDbEntity
  8
0
100
AcDbSpline
 62
7
  6
BYLAYER
 70
0
 71
3
 72
9
 73
5
 74
0
 42
0.0000001
 43
0.0000001
 44
0.0000000001
 40
0.0
 40
0.0
 40
0.0
 40
0.0
 40
0.2227559403
 40
1.0
 40
1.0
 40
1.0
 40
1.0
 10
95.9467284275
 20
467.7555626706
 30
0.0
 10
95.9501444349
 20
467.6979290976
 30
0.0
 10
95.9766192362
 20
467.4400445388
 30
0.0
 10
96.0610922723
 20
467.1875447829
 30
0.0
 10
96.1567018665
 20
467.0102300438
 30
0.0
  0
SPLINE
  5
5FE
100
AcDbEntity
  8
0
100
AcDbSpline
 62
7
  6
BYLAYER
 70
0
 71
3
 72
9
 73
5
 74
0
 42
0.0000001
 43
0.0000001
 44
0.0000000001
 40
0.0
 40
0.0
 40
0.0
 40
0.0
 40
0.5315837095
 40
1.0
 40
1.0
 40
1.0
 40
1.0
 10
96.1567018665
 20
467.0102300438
 30
0.0
 10
96.2238905446
 20
466.885623899
 30
0.0
 10
96.3748847701
 20
466.6612485824
 30
0.0
 10
96.5872406785
 20
466.4945237233
 30
0.0
 10
96.6929516813
 20
466.4282947079
 30
0.0
  0
SPLINE
  5
5FF
100
AcDbEntity
  8
0
100
AcDbSpline
 62
7
  6
BYLAYER
 70
0
 71
3
 72
10
 73
6
 74
0
 42
0.0000001
 43
0.0000001
 44
0.0000000001
 40
0.0
 40
0.0
 40
0.0
 40
0.0
 40
0.2466057578
 40
0.5158533624
 40
1.0
 40
1.0
 40
1.0
 40
1.0
 10
94.145699383
 20
470.8450248103
 30
0.0
 10
94.2157930852
 20
470.802210862
 30
0.0
 10
94.357931753
 20
470.6964845243
 30
0.0
 10
94.4988499507
 20
470.3825778057
 30
0.0
 10
94.5095632655
 20
470.1283738863
 30
0.0
 10
94.5111314793
 20
469.9671306421
 30
0.0
  0
SPLINE
  5
600
100
AcDbEntity
  8
0
100
AcDbSpline
 62
7
  6
BYLAYER
 70
0
 71
3
 72
8
 73
4
 74
0
 42
0.0000001
 43
0.0000001
 44
0.0000000001
 40
0.0
 40
0.0
 40
0.0
 40
0.0
 40
1.0
 40
1.0
 40
1.0
 40
1.0
 10
92.795837967
 20
471.6176521608
 30
0.0
 10
92.9348976316
 20
471.5327117528
 30
0.0
 10
93.070060171
 20
471.4383244392
 30
0.0
 10
93.1883092686
 20
471.3262101486
 30
0.0
  0
SPLINE
  5
601
100
AcDbEntity
  8
0
100
AcDbSpline
 62
7
  6
BYLAYER
 70
0
 71
3
 72
8
 73
4
 74
0
 42
0.0000001
 43
0.0000001
 44
0.0000000001
 40
0.0
 40
0.0
 40
0.0
 40
0.0
 40
1.0
 40
1.0
 40
1.0
 40
1.0
 10
93.1883092686
 20
471.3262101486
 30
0.0
 10
93.2523353635
 20
471.2655057513
 30
0.0
 10
93.3122588749
 20
471.2002536405
 30
0.0
 10
93.3679923749
 20
471.1318566986
 30
0.0
  0
SPLINE
  5
602
100
AcDbEntity
  8
0
100
AcDbSpline
 62
7
  6
BYLAYER
 70
0
 71
3
 72
8
 73
4
 74
0
 42
0.0000001
 43
0.0000001
 44
0.0000000001
 40
0.0
 40
0.0
 40
0.0
 40
0.0
 40
1.0
 40
1.0
 40
1.0
 40
1.0
 10
93.3679923749
 20
471.1318566986
 30
0.0
 10
93.4274245178
 20
471.0589207295
 30
0.0
 10
93.4823678779
 20
470.9822323878
 30
0.0
 10
93.5339515188
 20
470.9035497139
 30
0.0
  0
SPLINE
  5
603
100
AcDbEntity
  8
0
100
AcDbSpline
 62
7
  6
BYLAYER
 70
0
 71
3
 72
8
 73
4
 74
0
 42
0.0000001
 43
0.0000001
 44
0.0000000001
 40
0.0
 40
0.0
 40
0.0
 40
0.0
 40
1.0
 40
1.0
 40
1.0
 40
1.0
 10
93.6444257418
 20
470.7222438882
 30
0.0
 10
93.6816875775
 20
470.6563550364
 30
0.0
 10
93.7167028628
 20
470.5891836885
 30
0.0
 10
93.7504216578
 20
470.5214132815
 30
0.0
  0
SPLINE
  5
604
100
AcDbEntity
  8
0
100
AcDbSpline
 62
7
  6
BYLAYER
 70
0
 71
3
 72
9
 73
5
 74
0
 42
0.0000001
 43
0.0000001
 44
0.0000000001
 40
0.0
 40
0.0
 40
0.0
 40
0.0
 40
0.4943911108
 40
1.0
 40
1.0
 40
1.0
 40
1.0
 10
100.963508311
 20
466.3248615342
 30
0.0
 10
100.9593847314
 20
466.4619164193
 30
0.0
 10
100.9059744794
 20
466.7452243076
 30
0.0
 10
100.7060479447
 20
466.9613286839
 30
0.0
 10
100.5881324836
 20
467.0372224504
 30
0.0
  0
SPLINE
  5
605
100
AcDbEntity
  8
0
100
AcDbSpline
 62
7
  6
BYLAYER
 70
0
 71
3
 72
9
 73
5
 74
0
 42
0.0000001
 43
0.0000001
 44
0.0000000001
 40
0.0
 40
0.0
 40
0.0
 40
0.0
 40
0.5463601084
 40
1.0
 40
1.0
 40
1.0
 40
1.0
 10
92.9640527415
 20
467.2338978227
 30
0.0
 10
93.0522182662
 20
467.1844016538
 30
0.0
 10
93.2132214099
 20
467.0967684968
 30
0.0
 10
93.404374363
 20
467.0535211518
 30
0.0
 10
93.4868605327
 20
467.069131379
 30
0.0
  0
SPLINE
  5
606
100
AcDbEntity
  8
0
100
AcDbSpline
 62
7
  6
BYLAYER
 70
0
 71
3
 72
8
 73
4
 74
0
 42
0.0000001
 43
0.0000001
 44
0.0000000001
 40
0.0
 40
0.0
 40
0.0
 40
0.0
 40
1.0
 40
1.0
 40
1.0
 40
1.0
 10
92.2348458374
 20
468.1189629043
 30
0.0
 10
92.2957091589
 20
467.9968095715
 30
0.0
 10
92.3540410814
 20
467.8730800143
 30
0.0
 10
92.4233069251
 20
467.7554873975
 30
0.0
  0
SPLINE
  5
607
100
AcDbEntity
  8
0
100
AcDbSpline
 62
7
  6
BYLAYER
 70
0
 71
3
 72
8
 73
4
 74
0
 42
0.0000001
 43
0.0000001
 44
0.0000000001
 40
0.0
 40
0.0
 40
0.0
 40
0.0
 40
1.0
 40
1.0
 40
1.0
 40
1.0
 10
92.4233069251
 20
467.7554873975
 30
0.0
 10
92.4907273794
 20
467.641027698
 30
0.0
 10
92.5740284984
 20
467.5337519171
 30
0.0
 10
92.6721551746
 20
467.4442103295
 30
0.0
  0
SPLINE
  5
608
100
AcDbEntity
  8
0
100
AcDbSpline
 62
7
  6
BYLAYER
 70
0
 71
3
 72
9
 73
5
 74
0
 42
0.0000001
 43
0.0000001
 44
0.0000000001
 40
0.0
 40
0.0
 40
0.0
 40
0.0
 40
0.2605693766
 40
1.0
 40
1.0
 40
1.0
 40
1.0
 10
92.6721551746
 20
467.4442103295
 30
0.0
 10
92.6952646115
 20
467.4231227339
 30
0.0
 10
92.7867484021
 20
467.3451809787
 30
0.0
 10
92.8880615135
 20
467.2797987413
 30
0.0
 10
92.9640527415
 20
467.2338978227
 30
0.0
  0
SPLINE
  5
609
100
AcDbEntity
  8
0
100
AcDbSpline
 62
7
  6
BYLAYER
 70
0
 71
3
 72
8
 73
4
 74
0
 42
0.0000001
 43
0.0000001
 44
0.0000000001
 40
0.0
 40
0.0
 40
0.0
 40
0.0
 40
1.0
 40
1.0
 40
1.0
 40
1.0
 10
91.9497922288
 20
468.4930826503
 30
0.0
 10
91.9899340694
 20
468.4658464675
 30
0.0
 10
92.0282891044
 20
468.4352744624
 30
0.0
 10
92.0619240039
 20
468.4003191972
 30
0.0
  0
SPLINE
  5
60A
100
AcDbEntity
  8
0
100
AcDbSpline
 62
7
  6
BYLAYER
 70
0
 71
3
 72
8
 73
4
 74
0
 42
0.0000001
 43
0.0000001
 44
0.0000000001
 40
0.0
 40
0.0
 40
0.0
 40
0.0
 40
1.0
 40
1.0
 40
1.0
 40
1.0
 10
92.0619240039
 20
468.4003191972
 30
0.0
 10
92.0986683698
 20
468.3621324008
 30
0.0
 10
92.1294264078
 20
468.3180546053
 30
0.0
 10
92.1563024839
 20
468.2723812391
 30
0.0
  0
SPLINE
  5
60B
100
AcDbEntity
  8
0
100
AcDbSpline
 62
7
  6
BYLAYER
 70
0
 71
3
 72
8
 73
4
 74
0
 42
0.0000001
 43
0.0000001
 44
0.0000000001
 40
0.0
 40
0.0
 40
0.0
 40
0.0
 40
1.0
 40
1.0
 40
1.0
 40
1.0
 10
92.1563024839
 20
468.2723812391
 30
0.0
 10
92.1854391968
 20
468.2228661331
 30
0.0
 10
92.2106067759
 20
468.1710509227
 30
0.0
 10
92.2348458374
 20
468.1189629043
 30
0.0
  0
SPLINE
  5
60C
100
AcDbEntity
  8
0
100
AcDbSpline
 62
7
  6
BYLAYER
 70
0
 71
3
 72
9
 73
5
 74
0
 42
0.0000001
 43
0.0000001
 44
0.0000000001
 40
0.0
 40
0.0
 40
0.0
 40
0.0
 40
0.7286896165
 40
1.0
 40
1.0
 40
1.0
 40
1.0
 10
100.9635083096
 20
467.6797452334
 30
0.0
 10
100.9619000001
 20
467.7390602878
 30
0.0
 10
100.9543784751
 20
467.8211631319
 30
0.0
 10
100.9297846985
 20
467.8989737564
 30
0.0
 10
100.9222644308
 20
467.9197471043
 30
0.0
  0
SPLINE
  5
60D
100
AcDbEntity
  8
0
100
AcDbSpline
 62
7
  6
BYLAYER
 70
0
 71
3
 72
9
 73
5
 74
0
 42
0.0000001
 43
0.0000001
 44
0.0000000001
 40
0.0
 40
0.0
 40
0.0
 40
0.0
 40
0.2678062236
 40
1.0
 40
1.0
 40
1.0
 40
1.0
 10
100.9222644308
 20
467.9197471043
 30
0.0
 10
100.9064463993
 20
467.9634414893
 30
0.0
 10
100.8322595595
 20
468.1210277713
 30
0.0
 10
100.7039696954
 20
468.2507953736
 30
0.0
 10
100.5964189264
 20
468.3184296856
 30
0.0
  0
SPLINE
  5
60E
100
AcDbEntity
  8
0
100
AcDbSpline
 62
7
  6
BYLAYER
 70
0
 71
3
 72
9
 73
5
 74
0
 42
0.0000001
 43
0.0000001
 44
0.0000000001
 40
0.0
 40
0.0
 40
0.0
 40
0.0
 40
0.5453776692
 40
1.0
 40
1.0
 40
1.0
 40
1.0
 10
100.5964189264
 20
468.3184296856
 30
0.0
 10
100.550707045
 20
468.341992628
 30
0.0
 10
100.4630284896
 20
468.3856872609
 30
0.0
 10
100.3625329816
 20
468.3656452318
 30
0.0
 10
100.3254069118
 20
468.344210381
 30
0.0
  0
SPLINE
  5
60F
100
AcDbEntity
  8
0
100
AcDbSpline
 62
7
  6
BYLAYER
 70
0
 71
3
 72
8
 73
4
 74
0
 42
0.0000001
 43
0.0000001
 44
0.0000000001
 40
0.0
 40
0.0
 40
0.0
 40
0.0
 40
1.0
 40
1.0
 40
1.0
 40
1.0
 10
199.813055727
 20
201.4208517983
 30
0.0
 10
199.8693935548
 20
201.4533795117
 30
0.0
 10
199.9386952516
 20
201.4665672257
 30
0.0
 10
200.0036432101
 20
201.4628570138
 30
0.0
  0
SPLINE
  5
610
100
AcDbEntity
  8
0
100
AcDbSpline
 62
7
  6
BYLAYER
 70
0
 71
3
 72
8
 73
4
 74
0
 42
0.0000001
 43
0.0000001
 44
0.0000000001
 40
0.0
 40
0.0
 40
0.0
 40
0.0
 40
1.0
 40
1.0
 40
1.0
 40
1.0
 10
200.0036432101
 20
201.4628570138
 30
0.0
 10
200.0590144153
 20
201.4596938828
 30
0.0
 10
200.1140445537
 20
201.4463437335
 30
0.0
 10
200.1662592305
 20
201.4276460519
 30
0.0
  0
SPLINE
  5
611
100
AcDbEntity
  8
0
100
AcDbSpline
 62
7
  6
BYLAYER
 70
0
 71
3
 72
9
 73
5
 74
0
 42
0.0000001
 43
0.0000001
 44
0.0000000001
 40
0.0
 40
0.0
 40
0.0
 40
0.0
 40
0.2234839007
 40
1.0
 40
1.0
 40
1.0
 40
1.0
 10
200.1662592305
 20
201.4276460519
 30
0.0
 10
200.2187717595
 20
201.4088417116
 30
0.0
 10
200.4450141928
 20
201.2988299584
 30
0.0
 10
200.6236768046
 20
201.1170141589
 30
0.0
 10
200.7619497559
 20
200.9812159673
 30
0.0
  0
SPLINE
  5
612
100
AcDbEntity
  8
0
100
AcDbSpline
 62
7
  6
BYLAYER
 70
0
 71
3
 72
9
 73
5
 74
0
 42
0.0000001
 43
0.0000001
 44
0.0000000001
 40
0.0
 40
0.0
 40
0.0
 40
0.0
 40
0.2357453781
 40
1.0
 40
1.0
 40
1.0
 40
1.0
 10
90.9579051111
 20
470.3354610354
 30
0.0
 10
90.9586896843
 20
470.2840859621
 30
0.0
 10
90.9661755228
 20
470.0659628615
 30
0.0
 10
91.0136635096
 20
469.8516830205
 30
0.0
 10
91.0499959115
 20
469.6891232659
 30
0.0
  0
SPLINE
  5
613
100
AcDbEntity
  8
0
100
AcDbSpline
 62
7
  6
BYLAYER
 70
0
 71
3
 72
8
 73
4
 74
0
 42
0.0000001
 43
0.0000001
 44
0.0000000001
 40
0.0
 40
0.0
 40
0.0
 40
0.0
 40
1.0
 40
1.0
 40
1.0
 40
1.0
 10
91.0499959115
 20
469.6891232659
 30
0.0
 10
91.0714264124
 20
469.5932381388
 30
0.0
 10
91.0942205967
 20
469.4967722768
 30
0.0
 10
91.1004319144
 20
469.3987179883
 30
0.0
  0
SPLINE
  5
614
100
AcDbEntity
  8
0
100
AcDbSpline
 62
7
  6
BYLAYER
 70
0
 71
3
 72
8
 73
4
 74
0
 42
0.0000001
 43
0.0000001
 44
0.0000000001
 40
0.0
 40
0.0
 40
0.0
 40
0.0
 40
1.0
 40
1.0
 40
1.0
 40
1.0
 10
89.6594196339
 20
473.4284231638
 30
0.0
 10
89.7519679626
 20
473.3744105359
 30
0.0
 10
89.8435297694
 20
473.3185476596
 30
0.0
 10
89.9326609776
 20
473.2590650164
 30
0.0
  0
SPLINE
  5
615
100
AcDbEntity
  8
0
100
AcDbSpline
 62
7
  6
BYLAYER
 70
0
 71
3
 72
9
 73
5
 74
0
 42
0.0000001
 43
0.0000001
 44
0.0000000001
 40
0.0
 40
0.0
 40
0.0
 40
0.0
 40
0.239403459
 40
1.0
 40
1.0
 40
1.0
 40
1.0
 10
89.9326609776
 20
473.2590650164
 30
0.0
 10
89.9851054053
 20
473.2240656796
 30
0.0
 10
90.2009864072
 20
473.073564327
 30
0.0
 10
90.4009371327
 20
472.8968925431
 30
0.0
 10
90.5294350397
 20
472.7432232192
 30
0.0
  0
SPLINE
  5
616
100
AcDbEntity
  8
0
100
AcDbSpline
 62
7
  6
BYLAYER
 70
0
 71
3
 72
9
 73
5
 74
0
 42
0.0000001
 43
0.0000001
 44
0.0000000001
 40
0.0
 40
0.0
 40
0.0
 40
0.0
 40
0.5312124269
 40
1.0
 40
1.0
 40
1.0
 40
1.0
 10
90.5294350397
 20
472.7432232192
 30
0.0
 10
90.7001712152
 20
472.5390415849
 30
0.0
 10
90.9283331578
 20
472.0687752445
 30
0.0
 10
90.9624198897
 20
471.5640168908
 30
0.0
 10
90.9637056199
 20
471.3291381865
 30
0.0
  0
SPLINE
  5
617
100
AcDbEntity
  8
0
100
AcDbSpline
 62
7
  6
BYLAYER
 70
0
 71
3
 72
8
 73
4
 74
0
 42
0.0000001
 43
0.0000001
 44
0.0000000001
 40
0.0
 40
0.0
 40
0.0
 40
0.0
 40
1.0
 40
1.0
 40
1.0
 40
1.0
 10
88.9210976443
 20
472.2060507208
 30
0.0
 10
89.0702629373
 20
472.1592874636
 30
0.0
 10
89.2181123141
 20
472.1084238718
 30
0.0
 10
89.3667826261
 20
472.0601100519
 30
0.0
  0
SPLINE
  5
618
100
AcDbEntity
  8
0
100
AcDbSpline
 62
7
  6
BYLAYER
 70
0
 71
3
 72
9
 73
5
 74
0
 42
0.0000001
 43
0.0000001
 44
0.0000000001
 40
0.0
 40
0.0
 40
0.0
 40
0.0
 40
0.2645558596
 40
1.0
 40
1.0
 40
1.0
 40
1.0
 10
89.3667826261
 20
472.0601100519
 30
0.0
 10
89.4026370277
 20
472.0484583437
 30
0.0
 10
89.5382375647
 20
472.0046646508
 30
0.0
 10
89.6743696277
 20
471.9623539356
 30
0.0
 10
89.7753564304
 20
471.9343287303
 30
0.0
  0
SPLINE
  5
619
100
AcDbEntity
  8
0
100
AcDbSpline
 62
7
  6
BYLAYER
 70
0
 71
3
 72
8
 73
4
 74
0
 42
0.0000001
 43
0.0000001
 44
0.0000000001
 40
0.0
 40
0.0
 40
0.0
 40
0.0
 40
1.0
 40
1.0
 40
1.0
 40
1.0
 10
103.2384122899
 20
464.1879534968
 30
0.0
 10
103.337269157
 20
464.1025613246
 30
0.0
 10
103.4350961224
 20
464.0158228937
 30
0.0
 10
103.5290331777
 20
463.9250466144
 30
0.0
  0
SPLINE
  5
61A
100
AcDbEntity
  8
0
100
AcDbSpline
 62
7
  6
BYLAYER
 70
0
 71
3
 72
8
 73
4
 74
0
 42
0.0000001
 43
0.0000001
 44
0.0000000001
 40
0.0
 40
0.0
 40
0.0
 40
0.0
 40
1.0
 40
1.0
 40
1.0
 40
1.0
 10
103.6774067998
 20
463.7752842489
 30
0.0
 10
103.768385505
 20
463.6791942209
 30
0.0
 10
103.8555351036
 20
463.5789497797
 30
0.0
 10
103.934187591
 20
463.472534534
 30
0.0
  0
SPLINE
  5
61B
100
AcDbEntity
  8
0
100
AcDbSpline
 62
7
  6
BYLAYER
 70
0
 71
3
 72
9
 73
5
 74
0
 42
0.0000001
 43
0.0000001
 44
0.0000000001
 40
0.0
 40
0.0
 40
0.0
 40
0.0
 40
0.2572971166
 40
1.0
 40
1.0
 40
1.0
 40
1.0
 10
103.934187591
 20
463.472534534
 30
0.0
 10
103.977046262
 20
463.4145476077
 30
0.0
 10
104.1336175266
 20
463.1833258745
 30
0.0
 10
104.2465983949
 20
462.9121078178
 30
0.0
 10
104.2643306647
 20
462.7047249491
 30
0.0
  0
SPLINE
  5
61C
100
AcDbEntity
  8
0
100
AcDbSpline
 62
7
  6
BYLAYER
 70
0
 71
3
 72
8
 73
4
 74
0
 42
0.0000001
 43
0.0000001
 44
0.0000000001
 40
0.0
 40
0.0
 40
0.0
 40
0.0
 40
1.0
 40
1.0
 40
1.0
 40
1.0
 10
104.2643306647
 20
462.7047249491
 30
0.0
 10
104.2667218278
 20
462.6767597611
 30
0.0
 10
104.2682365469
 20
462.648715914
 30
0.0
 10
104.2692456863
 20
462.6206668313
 30
0.0
  0
SPLINE
  5
61D
100
AcDbEntity
  8
0
100
AcDbSpline
 62
7
  6
BYLAYER
 70
0
 71
3
 72
9
 73
5
 74
0
 42
0.0000001
 43
0.0000001
 44
0.0000000001
 40
0.0
 40
0.0
 40
0.0
 40
0.0
 40
0.231395423
 40
1.0
 40
1.0
 40
1.0
 40
1.0
 10
102.4130826578
 20
465.1677441954
 30
0.0
 10
102.4145752759
 20
465.1310599943
 30
0.0
 10
102.4354072764
 20
464.9715668817
 30
0.0
 10
102.5419344464
 20
464.8397210086
 30
0.0
 10
102.6232052147
 20
464.7487969524
 30
0.0
  0
SPLINE
  5
61E
100
AcDbEntity
  8
0
100
AcDbSpline
 62
7
  6
BYLAYER
 70
0
 71
3
 72
8
 73
4
 74
0
 42
0.0000001
 43
0.0000001
 44
0.0000000001
 40
0.0
 40
0.0
 40
0.0
 40
0.0
 40
1.0
 40
1.0
 40
1.0
 40
1.0
 10
102.6232052147
 20
464.7487969524
 30
0.0
 10
102.7261379301
 20
464.6336379575
 30
0.0
 10
102.8432752656
 20
464.5317528011
 30
0.0
 10
102.9594840218
 20
464.4300067301
 30
0.0
  0
SPLINE
  5
61F
100
AcDbEntity
  8
0
100
AcDbSpline
 62
7
  6
BYLAYER
 70
0
 71
3
 72
9
 73
5
 74
0
 42
0.0000001
 43
0.0000001
 44
0.0000000001
 40
0.0
 40
0.0
 40
0.0
 40
0.0
 40
0.5505050974
 40
1.0
 40
1.0
 40
1.0
 40
1.0
 10
104.1209183729
 20
464.2764741308
 30
0.0
 10
104.1188519513
 20
464.2364820381
 30
0.0
 10
104.1165535458
 20
464.1614116
 30
0.0
 10
104.0663732391
 20
464.0996666992
 30
0.0
 10
104.0380565119
 20
464.0833174096
 30
0.0
  0
SPLINE
  5
620
100
AcDbEntity
  8
0
100
AcDbSpline
 62
7
  6
BYLAYER
 70
0
 71
3
 72
8
 73
4
 74
0
 42
0.0000001
 43
0.0000001
 44
0.0000000001
 40
0.0
 40
0.0
 40
0.0
 40
0.0
 40
1.0
 40
1.0
 40
1.0
 40
1.0
 10
102.8630364633
 20
465.8054838887
 30
0.0
 10
102.950084399
 20
465.753246039
 30
0.0
 10
103.0361405136
 20
465.6992300088
 30
0.0
 10
103.120070346
 20
465.6421167944
 30
0.0
  0
SPLINE
  5
621
100
AcDbEntity
  8
0
100
AcDbSpline
 62
7
  6
BYLAYER
 70
0
 71
3
 72
8
 73
4
 74
0
 42
0.0000001
 43
0.0000001
 44
0.0000000001
 40
0.0
 40
0.0
 40
0.0
 40
0.0
 40
1.0
 40
1.0
 40
1.0
 40
1.0
 10
103.120070346
 20
465.6421167944
 30
0.0
 10
103.2398765986
 20
465.5605901192
 30
0.0
 10
103.3551868895
 20
465.4715011872
 30
0.0
 10
103.4616615621
 20
465.3731991982
 30
0.0
  0
SPLINE
  5
622
100
AcDbEntity
  8
0
100
AcDbSpline
 62
7
  6
BYLAYER
 70
0
 71
3
 72
9
 73
5
 74
0
 42
0.0000001
 43
0.0000001
 44
0.0000000001
 40
0.0
 40
0.0
 40
0.0
 40
0.0
 40
0.2335603852
 40
1.0
 40
1.0
 40
1.0
 40
1.0
 10
103.4616615621
 20
465.3731991982
 30
0.0
 10
103.5025572882
 20
465.3354425081
 30
0.0
 10
103.6720846284
 20
465.1680513241
 30
0.0
 10
103.8245576501
 20
464.9817539997
 30
0.0
 10
103.9209257336
 20
464.8265944528
 30
0.0
  0
SPLINE
  5
623
100
AcDbEntity
  8
0
100
AcDbSpline
 62
7
  6
BYLAYER
 70
0
 71
3
 72
9
 73
5
 74
0
 42
0.0000001
 43
0.0000001
 44
0.0000000001
 40
0.0
 40
0.0
 40
0.0
 40
0.0
 40
0.2596331037
 40
1.0
 40
1.0
 40
1.0
 40
1.0
 10
103.9209257336
 20
464.8265944528
 30
0.0
 10
103.9477839822
 20
464.7833507405
 30
0.0
 10
104.0444069227
 20
464.6136545921
 30
0.0
 10
104.1150395264
 20
464.421517001
 30
0.0
 10
104.1209183728
 20
464.2764741309
 30
0.0
  0
SPLINE
  5
624
100
AcDbEntity
  8
0
100
AcDbSpline
 62
7
  6
BYLAYER
 70
0
 71
3
 72
9
 73
5
 74
0
 42
0.0000001
 43
0.0000001
 44
0.0000000001
 40
0.0
 40
0.0
 40
0.0
 40
0.0
 40
0.4959488091
 40
1.0
 40
1.0
 40
1.0
 40
1.0
 10
103.1677019067
 20
464.1471290814
 30
0.0
 10
103.0052964012
 20
464.2866655475
 30
0.0
 10
102.6874996341
 20
464.5500424899
 30
0.0
 10
102.3512193314
 20
464.9094849092
 30
0.0
 10
102.3423722743
 20
465.1269197802
 30
0.0
  0
SPLINE
  5
625
100
AcDbEntity
  8
0
100
AcDbSpline
 62
7
  6
BYLAYER
 70
0
 71
3
 72
9
 73
5
 74
0
 42
0.0000001
 43
0.0000001
 44
0.0000000001
 40
0.0
 40
0.0
 40
0.0
 40
0.0
 40
0.4518565665
 40
1.0
 40
1.0
 40
1.0
 40
1.0
 10
103.9325735948
 20
461.9401657456
 30
0.0
 10
104.026224141
 20
461.9942347416
 30
0.0
 10
104.1833507518
 20
462.2039549847
 30
0.0
 10
104.1944641746
 20
462.4487239945
 30
0.0
 10
104.1985353029
 20
462.5798424165
 30
0.0
  0
SPLINE
  5
626
100
AcDbEntity
  8
0
100
AcDbSpline
 62
7
  6
BYLAYER
 70
0
 71
3
 72
9
 73
5
 74
0
 42
0.0000001
 43
0.0000001
 44
0.0000000001
 40
0.0
 40
0.0
 40
0.0
 40
0.0
 40
0.281854259
 40
1.0
 40
1.0
 40
1.0
 40
1.0
 10
103.0105351326
 20
462.7809187155
 30
0.0
 10
103.0418354755
 20
462.7642155867
 30
0.0
 10
103.1514026962
 20
462.7050289223
 30
0.0
 10
103.2819444666
 20
462.665281063
 30
0.0
 10
103.3712287601
 20
462.6794156458
 30
0.0
  0
SPLINE
  5
627
100
AcDbEntity
  8
0
100
AcDbSpline
 62
7
  6
BYLAYER
 70
0
 71
3
 72
8
 73
4
 74
0
 42
0.0000001
 43
0.0000001
 44
0.0000000001
 40
0.0
 40
0.0
 40
0.0
 40
0.0
 40
1.0
 40
1.0
 40
1.0
 40
1.0
 10
102.2921006036
 20
463.6521097961
 30
0.0
 10
102.3415187405
 20
463.5313067041
 30
0.0
 10
102.3958244945
 20
463.4116043903
 30
0.0
 10
102.4639590388
 20
463.3002795361
 30
0.0
  0
SPLINE
  5
628
100
AcDbEntity
  8
0
100
AcDbSpline
 62
7
  6
BYLAYER
 70
0
 71
3
 72
8
 73
4
 74
0
 42
0.0000001
 43
0.0000001
 44
0.0000000001
 40
0.0
 40
0.0
 40
0.0
 40
0.0
 40
1.0
 40
1.0
 40
1.0
 40
1.0
 10
102.4639590388
 20
463.3002795361
 30
0.0
 10
102.5340517638
 20
463.1857552154
 30
0.0
 10
102.6193375604
 20
463.0782812033
 30
0.0
 10
102.7196309192
 20
462.9890060537
 30
0.0
  0
SPLINE
  5
629
100
AcDbEntity
  8
0
100
AcDbSpline
 62
7
  6
BYLAYER
 70
0
 71
3
 72
9
 73
5
 74
0
 42
0.0000001
 43
0.0000001
 44
0.0000000001
 40
0.0
 40
0.0
 40
0.0
 40
0.0
 40
0.2656522223
 40
1.0
 40
1.0
 40
1.0
 40
1.0
 10
102.7196309192
 20
462.9890060537
 30
0.0
 10
102.7433118124
 20
462.9679267389
 30
0.0
 10
102.8350238291
 20
462.891425738
 30
0.0
 10
102.9352750662
 20
462.8258244974
 30
0.0
 10
103.0105351326
 20
462.7809187155
 30
0.0
  0
SPLINE
  5
62A
100
AcDbEntity
  8
0
100
AcDbSpline
 62
7
  6
BYLAYER
 70
0
 71
3
 72
8
 73
4
 74
0
 42
0.0000001
 43
0.0000001
 44
0.0000000001
 40
0.0
 40
0.0
 40
0.0
 40
0.0
 40
1.0
 40
1.0
 40
1.0
 40
1.0
 10
101.9689293624
 20
464.0903371726
 30
0.0
 10
102.0157569549
 20
464.0619736585
 30
0.0
 10
102.0615446868
 20
464.0302452757
 30
0.0
 10
102.0997542805
 20
463.991036357
 30
0.0
  0
SPLINE
  5
62B
100
AcDbEntity
  8
0
100
AcDbSpline
 62
7
  6
BYLAYER
 70
0
 71
3
 72
8
 73
4
 74
0
 42
0.0000001
 43
0.0000001
 44
0.0000000001
 40
0.0
 40
0.0
 40
0.0
 40
0.0
 40
1.0
 40
1.0
 40
1.0
 40
1.0
 10
102.0997542805
 20
463.991036357
 30
0.0
 10
102.1443782113
 20
463.9452453421
 30
0.0
 10
102.1798083053
 20
463.8903549703
 30
0.0
 10
102.2095595901
 20
463.8337601534
 30
0.0
  0
SPLINE
  5
62C
100
AcDbEntity
  8
0
100
AcDbSpline
 62
7
  6
BYLAYER
 70
0
 71
3
 72
8
 73
4
 74
0
 42
0.0000001
 43
0.0000001
 44
0.0000000001
 40
0.0
 40
0.0
 40
0.0
 40
0.0
 40
1.0
 40
1.0
 40
1.0
 40
1.0
 10
102.2095595901
 20
463.8337601534
 30
0.0
 10
102.2405065827
 20
463.7748907839
 30
0.0
 10
102.2663502627
 20
463.7134305835
 30
0.0
 10
102.2921006036
 20
463.6521097961
 30
0.0
  0
SPLINE
  5
62D
100
AcDbEntity
  8
0
100
AcDbSpline
 62
7
  6
BYLAYER
 70
0
 71
3
 72
11
 73
7
 74
0
 42
0.0000001
 43
0.0000001
 44
0.0000000001
 40
0.0
 40
0.0
 40
0.0
 40
0.0
 40
0.2557094025
 40
0.5241935402
 40
0.7638549764
 40
1.0
 40
1.0
 40
1.0
 40
1.0
 10
104.0502079894
 20
464.2356497148
 30
0.0
 10
104.0431648768
 20
464.4094173568
 30
0.0
 10
103.8972428018
 20
464.7534284706
 30
0.0
 10
103.5789423321
 20
465.162865765
 30
0.0
 10
103.2039167721
 20
465.5079881221
 30
0.0
 10
102.9300368767
 20
465.6820186175
 30
0.0
 10
102.7923260799
 20
465.7646594734
 30
0.0
  0
SPLINE
  5
62E
100
AcDbEntity
  8
0
100
AcDbSpline
 62
7
  6
BYLAYER
 70
0
 71
3
 72
9
 73
5
 74
0
 42
0.0000001
 43
0.0000001
 44
0.0000000001
 40
0.0
 40
0.0
 40
0.0
 40
0.0
 40
0.3051784589
 40
1.0
 40
1.0
 40
1.0
 40
1.0
 10
101.034218693
 20
467.720569649
 30
0.0
 10
101.0332813588
 20
467.6929369436
 30
0.0
 10
101.0308455483
 20
467.6043990679
 30
0.0
 10
100.9906341254
 20
467.5044769299
 30
0.0
 10
100.9361185915
 20
467.4730015358
 30
0.0
  0
SPLINE
  5
62F
100
AcDbEntity
  8
0
100
AcDbSpline
 62
7
  6
BYLAYER
 70
0
 71
3
 72
9
 73
5
 74
0
 42
0.0000001
 43
0.0000001
 44
0.0000000001
 40
0.0
 40
0.0
 40
0.0
 40
0.0
 40
0.2354024468
 40
1.0
 40
1.0
 40
1.0
 40
1.0
 10
100.6671293105
 20
468.3592541004
 30
0.0
 10
100.6850827102
 20
468.3479639363
 30
0.0
 10
100.7604372722
 20
468.2985824004
 30
0.0
 10
100.826435098
 20
468.2348741863
 30
0.0
 10
100.8691346704
 20
468.1808190102
 30
0.0
  0
SPLINE
  5
630
100
AcDbEntity
  8
0
100
AcDbSpline
 62
7
  6
BYLAYER
 70
0
 71
3
 72
8
 73
4
 74
0
 42
0.0000001
 43
0.0000001
 44
0.0000000001
 40
0.0
 40
0.0
 40
0.0
 40
0.0
 40
1.0
 40
1.0
 40
1.0
 40
1.0
 10
100.8691346704
 20
468.1808190102
 30
0.0
 10
100.9233706056
 20
468.1121594694
 30
0.0
 10
100.9676425883
 20
468.0338593144
 30
0.0
 10
100.9962994333
 20
467.9511885551
 30
0.0
  0
SPLINE
  5
631
100
AcDbEntity
  8
0
100
AcDbSpline
 62
7
  6
BYLAYER
 70
0
 71
3
 72
9
 73
5
 74
0
 42
0.0000001
 43
0.0000001
 44
0.0000000001
 40
0.0
 40
0.0
 40
0.0
 40
0.0
 40
0.2702926228
 40
1.0
 40
1.0
 40
1.0
 40
1.0
 10
100.9962994333
 20
467.9511885551
 30
0.0
 10
101.0032160291
 20
467.9312351993
 30
0.0
 10
101.025833517
 20
467.8562841425
 30
0.0
 10
101.0326733843
 20
467.7775612105
 30
0.0
 10
101.034218693
 20
467.720569649
 30
0.0
  0
SPLINE
  5
632
100
AcDbEntity
  8
0
100
AcDbSpline
 62
7
  6
BYLAYER
 70
0
 71
3
 72
9
 73
5
 74
0
 42
0.0000001
 43
0.0000001
 44
0.0000000001
 40
0.0
 40
0.0
 40
0.0
 40
0.0
 40
0.2879325281
 40
1.0
 40
1.0
 40
1.0
 40
1.0
 10
102.7923260799
 20
465.7646594734
 30
0.0
 10
102.7088718208
 20
465.8108015049
 30
0.0
 10
102.4265352645
 20
465.9636973391
 30
0.0
 10
102.0357565504
 20
466.0614967167
 30
0.0
 10
101.8315207155
 20
465.943581727
 30
0.0
  0
SPLINE
  5
633
100
AcDbEntity
  8
0
100
AcDbSpline
 62
7
  6
BYLAYER
 70
0
 71
3
 72
9
 73
5
 74
0
 42
0.0000001
 43
0.0000001
 44
0.0000000001
 40
0.0
 40
0.0
 40
0.0
 40
0.0
 40
0.235669668
 40
1.0
 40
1.0
 40
1.0
 40
1.0
 10
100.658842867
 20
467.0780468657
 30
0.0
 10
100.6767493283
 20
467.0665217545
 30
0.0
 10
100.7523569123
 20
467.0171146046
 30
0.0
 10
100.8184780789
 20
466.9527411367
 30
0.0
 10
100.8600153573
 20
466.8975642856
 30
0.0
  0
SPLINE
  5
634
100
AcDbEntity
  8
0
100
AcDbSpline
 62
7
  6
BYLAYER
 70
0
 71
3
 72
9
 73
5
 74
0
 42
0.0000001
 43
0.0000001
 44
0.0000000001
 40
0.0
 40
0.0
 40
0.0
 40
0.0
 40
0.5345306796
 40
1.0
 40
1.0
 40
1.0
 40
1.0
 10
100.8600153573
 20
466.8975642856
 30
0.0
 10
100.9208104053
 20
466.8168060018
 30
0.0
 10
101.0109049226
 20
466.6442083354
 30
0.0
 10
101.0315715146
 20
466.4536699254
 30
0.0
 10
101.0342186945
 20
466.3656859498
 30
0.0
  0
SPLINE
  5
635
100
AcDbEntity
  8
0
100
AcDbSpline
 62
7
  6
BYLAYER
 70
0
 71
3
 72
8
 73
4
 74
0
 42
0.0000001
 43
0.0000001
 44
0.0000000001
 40
0.0
 40
0.0
 40
0.0
 40
0.0
 40
1.0
 40
1.0
 40
1.0
 40
1.0
 10
198.7042857332
 20
202.5846056502
 30
0.0
 10
198.7318929978
 20
202.6005443909
 30
0.0
 10
198.7515679243
 20
202.6312929716
 30
0.0
 10
198.7606837005
 20
202.6618397739
 30
0.0
  0
SPLINE
  5
636
100
AcDbEntity
  8
0
100
AcDbSpline
 62
7
  6
BYLAYER
 70
0
 71
3
 72
8
 73
4
 74
0
 42
0.0000001
 43
0.0000001
 44
0.0000000001
 40
0.0
 40
0.0
 40
0.0
 40
0.0
 40
1.0
 40
1.0
 40
1.0
 40
1.0
 10
198.7606837005
 20
202.6618397739
 30
0.0
 10
198.7702915004
 20
202.6940353388
 30
0.0
 10
198.7648708511
 20
202.7296676352
 30
0.0
 10
198.7582426874
 20
202.7626059361
 30
0.0
  0
SPLINE
  5
637
100
AcDbEntity
  8
0
100
AcDbSpline
 62
7
  6
BYLAYER
 70
0
 71
3
 72
9
 73
5
 74
0
 42
0.0000001
 43
0.0000001
 44
0.0000000001
 40
0.0
 40
0.0
 40
0.0
 40
0.0
 40
0.4702865023
 40
1.0
 40
1.0
 40
1.0
 40
1.0
 10
102.9398247491
 20
462.7400943002
 30
0.0
 10
102.7850977053
 20
462.8324160218
 30
0.0
 10
102.469575076
 20
463.0686388752
 30
0.0
 10
102.2982300423
 20
463.4234497263
 30
0.0
 10
102.2213902205
 20
463.6112853802
 30
0.0
  0
SPLINE
  5
638
100
AcDbEntity
  8
0
100
AcDbSpline
 62
7
  6
BYLAYER
 70
0
 71
3
 72
9
 73
5
 74
0
 42
0.0000001
 43
0.0000001
 44
0.0000000001
 40
0.0
 40
0.0
 40
0.0
 40
0.0
 40
0.292976093
 40
1.0
 40
1.0
 40
1.0
 40
1.0
 10
99.4962550415
 20
464.7342531088
 30
0.0
 10
99.4953103196
 20
464.6973218165
 30
0.0
 10
99.4928104341
 20
464.5753620782
 30
0.0
 10
99.4527876532
 20
464.4266865785
 30
0.0
 10
99.3755757452
 20
464.3821144976
 30
0.0
  0
SPLINE
  5
639
100
AcDbEntity
  8
0
100
AcDbSpline
 62
7
  6
BYLAYER
 70
0
 71
3
 72
9
 73
5
 74
0
 42
0.0000001
 43
0.0000001
 44
0.0000000001
 40
0.0
 40
0.0
 40
0.0
 40
0.0
 40
0.5032999333
 40
1.0
 40
1.0
 40
1.0
 40
1.0
 10
99.1208792141
 20
469.3131994954
 30
0.0
 10
99.2442587844
 20
469.234635525
 30
0.0
 10
99.4529465413
 20
469.002909708
 30
0.0
 10
99.4922881466
 20
468.7039916018
 30
0.0
 10
99.4962550415
 20
468.5596945124
 30
0.0
  0
SPLINE
  5
63A
100
AcDbEntity
  8
0
100
AcDbSpline
 62
7
  6
BYLAYER
 70
0
 71
3
 72
9
 73
5
 74
0
 42
0.0000001
 43
0.0000001
 44
0.0000000001
 40
0.0
 40
0.0
 40
0.0
 40
0.0
 40
0.5239605986
 40
1.0
 40
1.0
 40
1.0
 40
1.0
 10
102.2213902205
 20
463.6112853802
 30
0.0
 10
102.1839361579
 20
463.700476922
 30
0.0
 10
102.1166639598
 20
463.8759618186
 30
0.0
 10
101.9733934145
 20
464.0039795354
 30
0.0
 10
101.8982189782
 20
464.0495127578
 30
0.0
  0
SPLINE
  5
63B
100
AcDbEntity
  8
0
100
AcDbSpline
 62
7
  6
BYLAYER
 70
0
 71
3
 72
9
 73
5
 74
0
 42
0.0000001
 43
0.0000001
 44
0.0000000001
 40
0.0
 40
0.0
 40
0.0
 40
0.0
 40
0.5566076404
 40
1.0
 40
1.0
 40
1.0
 40
1.0
 10
101.8982189782
 20
464.0495127578
 30
0.0
 10
101.8566698255
 20
464.0711811682
 30
0.0
 10
101.779788925
 20
464.1116303468
 30
0.0
 10
101.6889771332
 20
464.0976531901
 30
0.0
 10
101.6566494592
 20
464.078989356
 30
0.0
  0
SPLINE
  5
63C
100
AcDbEntity
  8
0
100
AcDbSpline
 62
7
  6
BYLAYER
 70
0
 71
3
 72
10
 73
6
 74
0
 42
0.0000001
 43
0.0000001
 44
0.0000000001
 40
0.0
 40
0.0
 40
0.0
 40
0.0
 40
0.4949741418
 40
0.7632131664
 40
1.0
 40
1.0
 40
1.0
 40
1.0
 10
86.9969857906
 20
476.1902989121
 30
0.0
 10
87.1401821469
 20
476.1031213217
 30
0.0
 10
87.3582039608
 20
475.9426931302
 30
0.0
 10
87.4987160256
 20
475.6237838767
 30
0.0
 10
87.5086659461
 20
475.4514243542
 30
0.0
 10
87.5107451996
 20
475.3712525201
 30
0.0
  0
SPLINE
  5
63D
100
AcDbEntity
  8
0
100
AcDbSpline
 62
7
  6
BYLAYER
 70
0
 71
3
 72
10
 73
6
 74
0
 42
0.0000001
 43
0.0000001
 44
0.0000000001
 40
0.0
 40
0.0
 40
0.0
 40
0.0
 40
0.2269320557
 40
0.4882054106
 40
1.0
 40
1.0
 40
1.0
 40
1.0
 10
104.1985353028
 20
462.5798424165
 30
0.0
 10
104.1949885818
 20
462.6784237186
 30
0.0
 10
104.167012728
 20
462.8915685921
 30
0.0
 10
103.9847158
 20
463.2911806736
 30
0.0
 10
103.7730991839
 20
463.557102941
 30
0.0
 10
103.6209107365
 20
463.719375706
 30
0.0
  0
SPLINE
  5
63E
100
AcDbEntity
  8
0
100
AcDbSpline
 62
7
  6
BYLAYER
 70
0
 71
3
 72
9
 73
5
 74
0
 42
0.0000001
 43
0.0000001
 44
0.0000000001
 40
0.0
 40
0.0
 40
0.0
 40
0.0
 40
0.2600217308
 40
1.0
 40
1.0
 40
1.0
 40
1.0
 10
103.6209107365
 20
463.719375706
 30
0.0
 10
103.5839483694
 20
463.7587872751
 30
0.0
 10
103.4390865412
 20
463.9078465163
 30
0.0
 10
103.2840669977
 20
464.0466133744
 30
0.0
 10
103.1677019067
 20
464.1471290814
 30
0.0
  0
SPLINE
  5
63F
100
AcDbEntity
  8
0
100
AcDbSpline
 62
7
  6
BYLAYER
 70
0
 71
3
 72
9
 73
5
 74
0
 42
0.0000001
 43
0.0000001
 44
0.0000000001
 40
0.0
 40
0.0
 40
0.0
 40
0.0
 40
0.2898960588
 40
1.0
 40
1.0
 40
1.0
 40
1.0
 10
89.4157982372
 20
470.62966616
 30
0.0
 10
89.4631521109
 20
470.6038702229
 30
0.0
 10
89.6262533673
 20
470.5181506462
 30
0.0
 10
89.8250761233
 20
470.4753173491
 30
0.0
 10
89.9535735627
 20
470.5059056926
 30
0.0
  0
SPLINE
  5
640
100
AcDbEntity
  8
0
100
AcDbSpline
 62
7
  6
BYLAYER
 70
0
 71
3
 72
10
 73
6
 74
0
 42
0.0000001
 43
0.0000001
 44
0.0000000001
 40
0.0
 40
0.0
 40
0.0
 40
0.0
 40
0.4883738038
 40
0.759979557
 40
1.0
 40
1.0
 40
1.0
 40
1.0
 10
84.3511248308
 20
477.7178528916
 30
0.0
 10
84.5017204327
 20
477.6287596707
 30
0.0
 10
84.753101861
 20
477.4756730998
 30
0.0
 10
84.8684966606
 20
477.1251502779
 30
0.0
 10
84.9083587339
 20
476.9476947618
 30
0.0
 10
84.9262431496
 20
476.8635797457
 30
0.0
  0
SPLINE
  5
641
100
AcDbEntity
  8
0
100
AcDbSpline
 62
7
  6
BYLAYER
 70
0
 71
3
 72
9
 73
5
 74
0
 42
0.0000001
 43
0.0000001
 44
0.0000000001
 40
0.0
 40
0.0
 40
0.0
 40
0.0
 40
0.2254529314
 40
1.0
 40
1.0
 40
1.0
 40
1.0
 10
88.942642393
 20
471.3468098242
 30
0.0
 10
88.9448116672
 20
471.302814716
 30
0.0
 10
88.9661333453
 20
471.1075254549
 30
0.0
 10
89.077071524
 20
470.9303448362
 30
0.0
 10
89.1792112411
 20
470.8186842048
 30
0.0
  0
SPLINE
  5
642
100
AcDbEntity
  8
0
100
AcDbSpline
 62
7
  6
BYLAYER
 70
0
 71
3
 72
9
 73
5
 74
0
 42
0.0000001
 43
0.0000001
 44
0.0000000001
 40
0.0
 40
0.0
 40
0.0
 40
0.0
 40
0.2697943976
 40
1.0
 40
1.0
 40
1.0
 40
1.0
 10
89.1792112411
 20
470.8186842048
 30
0.0
 10
89.1976365706
 20
470.7985413654
 30
0.0
 10
89.2687646061
 20
470.7263395536
 30
0.0
 10
89.352789585
 20
470.6682525219
 30
0.0
 10
89.4157982372
 20
470.62966616
 30
0.0
  0
SPLINE
  5
643
100
AcDbEntity
  8
0
100
AcDbSpline
 62
7
  6
BYLAYER
 70
0
 71
3
 72
10
 73
6
 74
0
 42
0.0000001
 43
0.0000001
 44
0.0000000001
 40
0.0
 40
0.0
 40
0.0
 40
0.0
 40
0.2405446357
 40
0.5131932508
 40
1.0
 40
1.0
 40
1.0
 40
1.0
 10
96.6222412978
 20
466.3874702926
 30
0.0
 10
96.5096006519
 20
466.4580407998
 30
0.0
 10
96.2858927766
 20
466.6394063873
 30
0.0
 10
95.9786920489
 20
467.1070352288
 30
0.0
 10
95.8803683297
 20
467.5313498349
 30
0.0
 10
95.8723182885
 20
467.8002316496
 30
0.0
  0
SPLINE
  5
644
100
AcDbEntity
  8
0
100
AcDbSpline
 62
7
  6
BYLAYER
 70
0
 71
3
 72
10
 73
6
 74
0
 42
0.0000001
 43
0.0000001
 44
0.0000000001
 40
0.0
 40
0.0
 40
0.0
 40
0.0
 40
0.4420016534
 40
0.7010458287
 40
1.0
 40
1.0
 40
1.0
 40
1.0
 10
97.5196629771
 20
466.4310197239
 30
0.0
 10
97.3945039167
 20
466.3683415907
 30
0.0
 10
97.194152907
 20
466.2600454345
 30
0.0
 10
96.865834984
 20
466.2586803777
 30
0.0
 10
96.7057481263
 20
466.342861436
 30
0.0
 10
96.6222412978
 20
466.3874702926
 30
0.0
  0
SPLINE
  5
645
100
AcDbEntity
  8
0
100
AcDbSpline
 62
7
  6
BYLAYER
 70
0
 71
3
 72
8
 73
4
 74
0
 42
0.0000001
 43
0.0000001
 44
0.0000000001
 40
0.0
 40
0.0
 40
0.0
 40
0.0
 40
1.0
 40
1.0
 40
1.0
 40
1.0
 10
97.6878777515
 20
466.3913134019
 30
0.0
 10
97.6501904333
 20
466.411432059
 30
0.0
 10
97.6106588712
 20
466.4331476258
 30
0.0
 10
97.5681049921
 20
466.436924091
 30
0.0
  0
SPLINE
  5
646
100
AcDbEntity
  8
0
100
AcDbSpline
 62
7
  6
BYLAYER
 70
0
 71
3
 72
8
 73
4
 74
0
 42
0.0000001
 43
0.0000001
 44
0.0000000001
 40
0.0
 40
0.0
 40
0.0
 40
0.0
 40
1.0
 40
1.0
 40
1.0
 40
1.0
 10
97.5681049921
 20
466.436924091
 30
0.0
 10
97.5519018344
 20
466.4383620484
 30
0.0
 10
97.5353877255
 20
466.4351841359
 30
0.0
 10
97.5196629771
 20
466.4310197239
 30
0.0
  0
SPLINE
  5
647
100
AcDbEntity
  8
0
100
AcDbSpline
 62
7
  6
BYLAYER
 70
0
 71
3
 72
9
 73
5
 74
0
 42
0.0000001
 43
0.0000001
 44
0.0000000001
 40
0.0
 40
0.0
 40
0.0
 40
0.0
 40
0.5013486126
 40
1.0
 40
1.0
 40
1.0
 40
1.0
 10
97.9505579658
 20
465.9506930314
 30
0.0
 10
97.948343574
 20
466.0393921763
 30
0.0
 10
97.9001061527
 20
466.2203902272
 30
0.0
 10
97.7629540524
 20
466.3449290056
 30
0.0
 10
97.6878777515
 20
466.3913134019
 30
0.0
  0
SPLINE
  5
648
100
AcDbEntity
  8
0
100
AcDbSpline
 62
7
  6
BYLAYER
 70
0
 71
3
 72
8
 73
4
 74
0
 42
0.0000001
 43
0.0000001
 44
0.0000000001
 40
0.0
 40
0.0
 40
0.0
 40
0.0
 40
1.0
 40
1.0
 40
1.0
 40
1.0
 10
196.9757131393
 20
202.6228490273
 30
0.0
 10
196.9598028401
 20
202.5637847302
 30
0.0
 10
196.9549875632
 20
202.5020988368
 30
0.0
 10
196.9502865302
 20
202.4411100747
 30
0.0
  0
SPLINE
  5
649
100
AcDbEntity
  8
0
100
AcDbSpline
 62
7
  6
BYLAYER
 70
0
 71
3
 72
9
 73
5
 74
0
 42
0.0000001
 43
0.0000001
 44
0.0000000001
 40
0.0
 40
0.0
 40
0.0
 40
0.0
 40
0.5074461689
 40
1.0
 40
1.0
 40
1.0
 40
1.0
 10
97.9953047538
 20
467.0893318293
 30
0.0
 10
97.9801761749
 20
467.5525781503
 30
0.0
 10
97.6570006135
 20
468.4608965346
 30
0.0
 10
96.9763263928
 20
469.1188720544
 30
0.0
 10
96.588266886
 20
469.3464936864
 30
0.0
  0
SPLINE
  5
64A
100
AcDbEntity
  8
0
100
AcDbSpline
 62
7
  6
BYLAYER
 70
0
 71
3
 72
9
 73
5
 74
0
 42
0.0000001
 43
0.0000001
 44
0.0000000001
 40
0.0
 40
0.0
 40
0.0
 40
0.0
 40
0.2828424085
 40
1.0
 40
1.0
 40
1.0
 40
1.0
 10
95.8723182882
 20
468.2901330982
 30
0.0
 10
95.8786847995
 20
468.3438294835
 30
0.0
 10
95.9021595675
 20
468.529100956
 30
0.0
 10
95.9839998041
 20
468.73791201
 30
0.0
 10
96.1027345183
 20
468.8064631307
 30
0.0
  0
SPLINE
  5
64B
100
AcDbEntity
  8
0
100
AcDbSpline
 62
7
  6
BYLAYER
 70
0
 71
3
 72
9
 73
5
 74
0
 42
0.0000001
 43
0.0000001
 44
0.0000000001
 40
0.0
 40
0.0
 40
0.0
 40
0.0
 40
0.2201305043
 40
1.0
 40
1.0
 40
1.0
 40
1.0
 10
89.9579303569
 20
470.4941092563
 30
0.0
 10
89.9174799766
 20
470.4707554807
 30
0.0
 10
89.7033101324
 20
470.4206289107
 30
0.0
 10
89.4904007743
 20
470.5096827935
 30
0.0
 10
89.3450878527
 20
470.588841745
 30
0.0
  0
SPLINE
  5
64C
100
AcDbEntity
  8
0
100
AcDbSpline
 62
7
  6
BYLAYER
 70
0
 71
3
 72
9
 73
5
 74
0
 42
0.0000001
 43
0.0000001
 44
0.0000000001
 40
0.0
 40
0.0
 40
0.0
 40
0.0
 40
0.7206755641
 40
1.0
 40
1.0
 40
1.0
 40
1.0
 10
197.1375671098
 20
203.0497584863
 30
0.0
 10
197.1799082016
 20
203.0742063955
 30
0.0
 10
197.2512472209
 20
203.0936751891
 30
0.0
 10
197.3177980737
 20
203.0775336881
 30
0.0
 10
197.3357435517
 20
203.0714456128
 30
0.0
  0
SPLINE
  5
64D
100
AcDbEntity
  8
0
100
AcDbSpline
 62
7
  6
BYLAYER
 70
0
 71
3
 72
9
 73
5
 74
0
 42
0.0000001
 43
0.0000001
 44
0.0000000001
 40
0.0
 40
0.0
 40
0.0
 40
0.0
 40
0.4642001736
 40
1.0
 40
1.0
 40
1.0
 40
1.0
 10
197.3357435517
 20
203.0714456128
 30
0.0
 10
197.423521435
 20
203.0416666141
 30
0.0
 10
197.5797350139
 20
202.8991816063
 30
0.0
 10
197.6870309664
 20
202.7332999624
 30
0.0
 10
197.7437957647
 20
202.6426117992
 30
0.0
  0
SPLINE
  5
64E
100
AcDbEntity
  8
0
100
AcDbSpline
 62
7
  6
BYLAYER
 70
0
 71
3
 72
9
 73
5
 74
0
 42
0.0000001
 43
0.0000001
 44
0.0000000001
 40
0.0
 40
0.0
 40
0.0
 40
0.0
 40
0.4924806626
 40
1.0
 40
1.0
 40
1.0
 40
1.0
 10
89.3450878528
 20
470.5888417451
 30
0.0
 10
89.2212275721
 20
470.6646935121
 30
0.0
 10
88.992868897
 20
470.8638803573
 30
0.0
 10
88.8793031469
 20
471.1564911729
 30
0.0
 10
88.8719320093
 20
471.305985408
 30
0.0
  0
SPLINE
  5
64F
100
AcDbEntity
  8
0
100
AcDbSpline
 62
7
  6
BYLAYER
 70
0
 71
3
 72
9
 73
5
 74
0
 42
0.0000001
 43
0.0000001
 44
0.0000000001
 40
0.0
 40
0.0
 40
0.0
 40
0.0
 40
0.2965285297
 40
1.0
 40
1.0
 40
1.0
 40
1.0
 10
88.8719320093
 20
471.305985408
 30
0.0
 10
88.8726988961
 20
471.3280764915
 30
0.0
 10
88.8734436562
 20
471.4012776011
 30
0.0
 10
88.909682937
 20
471.4820776005
 30
0.0
 10
88.9550970756
 20
471.5082970074
 30
0.0
  0
SPLINE
  5
650
100
AcDbEntity
  8
0
100
AcDbSpline
 62
7
  6
BYLAYER
 70
0
 71
3
 72
11
 73
7
 74
0
 42
0.0000001
 43
0.0000001
 44
0.0000000001
 40
0.0
 40
0.0
 40
0.0
 40
0.0
 40
0.2372523758
 40
0.4999990758
 40
0.7627462798
 40
1.0
 40
1.0
 40
1.0
 40
1.0
 10
336.7981895055
 20
359.5321557909
 30
0.0
 10
337.2436013732
 20
359.2750029468
 30
0.0
 10
338.08650401
 20
358.5656964746
 30
0.0
 10
339.0699105711
 20
357.2212665133
 30
0.0
 10
339.7425254925
 20
355.6973966639
 30
0.0
 10
339.9353591455
 20
354.6127660751
 30
0.0
 10
339.9353591455
 20
354.0984487462
 30
0.0
  0
SPLINE
  5
651
100
AcDbEntity
  8
0
100
AcDbSpline
 62
7
  6
BYLAYER
 70
0
 71
3
 72
10
 73
6
 74
0
 42
0.0000001
 43
0.0000001
 44
0.0000000001
 40
0.0
 40
0.0
 40
0.0
 40
0.0
 40
0.4841466376
 40
0.7533942422
 40
1.0
 40
1.0
 40
1.0
 40
1.0
 10
94.4404210958
 20
469.9263062269
 30
0.0
 10
94.438852882
 20
470.0875494711
 30
0.0
 10
94.4281395673
 20
470.3417533905
 30
0.0
 10
94.2872213696
 20
470.6556601091
 30
0.0
 10
94.1450827018
 20
470.7613864468
 30
0.0
 10
94.0749889996
 20
470.804200395
 30
0.0
  0
SPLINE
  5
652
100
AcDbEntity
  8
0
100
AcDbSpline
 62
7
  6
BYLAYER
 70
0
 71
3
 72
9
 73
5
 74
0
 42
0.0000001
 43
0.0000001
 44
0.0000000001
 40
0.0
 40
0.0
 40
0.0
 40
0.0
 40
0.284084358
 40
1.0
 40
1.0
 40
1.0
 40
1.0
 10
340.2538576491
 20
133.2587691332
 30
0.0
 10
340.2475796552
 20
133.0726580719
 30
0.0
 10
340.1867046325
 20
132.4233607868
 30
0.0
 10
339.9214569355
 20
131.7656767301
 30
0.0
 10
339.5917548568
 20
131.4317277852
 30
0.0
  0
SPLINE
  5
653
100
AcDbEntity
  8
0
100
AcDbSpline
 62
7
  6
BYLAYER
 70
0
 71
3
 72
8
 73
4
 74
0
 42
0.0000001
 43
0.0000001
 44
0.0000000001
 40
0.0
 40
0.0
 40
0.0
 40
0.0
 40
1.0
 40
1.0
 40
1.0
 40
1.0
 10
339.5917548568
 20
131.4317277852
 30
0.0
 10
339.5025876273
 20
131.3414119997
 30
0.0
 10
339.4029250107
 20
131.2602382317
 30
0.0
 10
339.2957818043
 20
131.1922083175
 30
0.0
  0
SPLINE
  5
654
100
AcDbEntity
  8
0
100
AcDbSpline
 62
7
  6
BYLAYER
 70
0
 71
3
 72
9
 73
5
 74
0
 42
0.0000001
 43
0.0000001
 44
0.0000000001
 40
0.0
 40
0.0
 40
0.0
 40
0.0
 40
0.2961762889
 40
1.0
 40
1.0
 40
1.0
 40
1.0
 10
91.8790818453
 20
468.4522582351
 30
0.0
 10
91.859048316
 20
468.4627527124
 30
0.0
 10
91.7927522189
 20
468.4987900935
 30
0.0
 10
91.703155346
 20
468.5021797372
 30
0.0
 10
91.6566120387
 20
468.4753080016
 30
0.0
  0
SPLINE
  5
655
100
AcDbEntity
  8
0
100
AcDbSpline
 62
7
  6
BYLAYER
 70
0
 71
3
 72
9
 73
5
 74
0
 42
0.0000001
 43
0.0000001
 44
0.0000000001
 40
0.0
 40
0.0
 40
0.0
 40
0.0
 40
0.5260081695
 40
1.0
 40
1.0
 40
1.0
 40
1.0
 10
92.164135454
 20
468.0781384891
 30
0.0
 10
92.1289261499
 20
468.153800778
 30
0.0
 10
92.0606763583
 20
468.2992663665
 30
0.0
 10
91.9413108144
 20
468.4100359666
 30
0.0
 10
91.8790818453
 20
468.4522582351
 30
0.0
  0
SPLINE
  5
656
100
AcDbEntity
  8
0
100
AcDbSpline
 62
7
  6
BYLAYER
 70
0
 71
3
 72
9
 73
5
 74
0
 42
0.0000001
 43
0.0000001
 44
0.0000000001
 40
0.0
 40
0.0
 40
0.0
 40
0.0
 40
0.472336622
 40
1.0
 40
1.0
 40
1.0
 40
1.0
 10
92.893342358
 20
467.1930734075
 30
0.0
 10
92.7362640507
 20
467.2879532874
 30
0.0
 10
92.4158550689
 20
467.530432633
 30
0.0
 10
92.2555599582
 20
467.8946485378
 30
0.0
 10
92.164135454
 20
468.0781384891
 30
0.0
  0
SPLINE
  5
657
100
AcDbEntity
  8
0
100
AcDbSpline
 62
7
  6
BYLAYER
 70
0
 71
3
 72
10
 73
6
 74
0
 42
0.0000001
 43
0.0000001
 44
0.0000000001
 40
0.0
 40
0.0
 40
0.0
 40
0.0
 40
0.214208473
 40
0.4636066093
 40
1.0
 40
1.0
 40
1.0
 40
1.0
 10
85.8119049572
 20
472.1623166696
 30
0.0
 10
85.8474835647
 20
472.1828581763
 30
0.0
 10
85.9156935221
 20
472.2470278216
 30
0.0
 10
85.9716087942
 20
472.4339957511
 30
0.0
 10
86.0119755827
 20
472.5778230442
 30
0.0
 10
86.0371401672
 20
472.6775718572
 30
0.0
  0
SPLINE
  5
658
100
AcDbEntity
  8
0
100
AcDbSpline
 62
7
  6
BYLAYER
 70
0
 71
3
 72
9
 73
5
 74
0
 42
0.0000001
 43
0.0000001
 44
0.0000000001
 40
0.0
 40
0.0
 40
0.0
 40
0.0
 40
0.5554678204
 40
1.0
 40
1.0
 40
1.0
 40
1.0
 10
92.7251275826
 20
471.5768277459
 30
0.0
 10
92.5803140778
 20
471.6566934958
 30
0.0
 10
92.3039017216
 20
471.7906013698
 30
0.0
 10
91.9842800814
 20
471.7421979806
 30
0.0
 10
91.8696628577
 20
471.6760239046
 30
0.0
  0
SPLINE
  5
659
100
AcDbEntity
  8
0
100
AcDbSpline
 62
7
  6
BYLAYER
 70
0
 71
3
 72
8
 73
4
 74
0
 42
0.0000001
 43
0.0000001
 44
0.0000000001
 40
0.0
 40
0.0
 40
0.0
 40
0.0
 40
1.0
 40
1.0
 40
1.0
 40
1.0
 10
93.7261297882
 20
470.3855782767
 30
0.0
 10
93.6473872938
 20
470.5492273716
 30
0.0
 10
93.5627870544
 20
470.7108888045
 30
0.0
 10
93.4632144199
 20
470.8627660481
 30
0.0
  0
SPLINE
  5
65A
100
AcDbEntity
  8
0
100
AcDbSpline
 62
7
  6
BYLAYER
 70
0
 71
3
 72
9
 73
5
 74
0
 42
0.0000001
 43
0.0000001
 44
0.0000000001
 40
0.0
 40
0.0
 40
0.0
 40
0.0
 40
0.52677691
 40
1.0
 40
1.0
 40
1.0
 40
1.0
 10
93.4632144199
 20
470.8627660481
 30
0.0
 10
93.3635901494
 20
471.0147220516
 30
0.0
 10
93.1492518948
 20
471.2909357942
 30
0.0
 10
92.8644264902
 20
471.4917412038
 30
0.0
 10
92.7251275829
 20
471.5768277461
 30
0.0
  0
SPLINE
  5
65B
100
AcDbEntity
  8
0
100
AcDbSpline
 62
7
  6
BYLAYER
 70
0
 71
3
 72
9
 73
5
 74
0
 42
0.0000001
 43
0.0000001
 44
0.0000000001
 40
0.0
 40
0.0
 40
0.0
 40
0.0
 40
0.2239286483
 40
1.0
 40
1.0
 40
1.0
 40
1.0
 10
88.9836749205
 20
471.5111893531
 30
0.0
 10
88.9762872016
 20
471.50077334
 30
0.0
 10
88.9488557021
 20
471.4501052147
 30
0.0
 10
88.9441778372
 20
471.3910401144
 30
0.0
 10
88.942642393
 20
471.3468098242
 30
0.0
  0
SPLINE
  5
65C
100
AcDbEntity
  8
0
100
AcDbSpline
 62
7
  6
BYLAYER
 70
0
 71
3
 72
9
 73
5
 74
0
 42
0.0000001
 43
0.0000001
 44
0.0000000001
 40
0.0
 40
0.0
 40
0.0
 40
0.0
 40
0.2994741374
 40
1.0
 40
1.0
 40
1.0
 40
1.0
 10
94.0749889996
 20
470.804200395
 30
0.0
 10
94.0537198681
 20
470.8154540678
 30
0.0
 10
93.9845373494
 20
470.854255605
 30
0.0
 10
93.8899577632
 20
470.8589797088
 30
0.0
 10
93.8412111349
 20
470.8308363227
 30
0.0
  0
SPLINE
  5
65D
100
AcDbEntity
  8
0
100
AcDbSpline
 62
7
  6
BYLAYER
 70
0
 71
3
 72
9
 73
5
 74
0
 42
0.0000001
 43
0.0000001
 44
0.0000000001
 40
0.0
 40
0.0
 40
0.0
 40
0.0
 40
0.5110294411
 40
1.0
 40
1.0
 40
1.0
 40
1.0
 10
92.9480328749
 20
468.6312028877
 30
0.0
 10
92.6970710909
 20
468.7809721749
 30
0.0
 10
92.302341433
 20
469.2560033673
 30
0.0
 10
92.2175684169
 20
469.8380388494
 30
0.0
 10
92.2130254613
 20
470.1176410505
 30
0.0
  0
SPLINE
  5
65E
100
AcDbEntity
  8
0
100
AcDbSpline
 62
7
  6
BYLAYER
 70
0
 71
3
 72
9
 73
5
 74
0
 42
0.0000001
 43
0.0000001
 44
0.0000000001
 40
0.0
 40
0.0
 40
0.0
 40
0.0
 40
0.2940776491
 40
1.0
 40
1.0
 40
1.0
 40
1.0
 10
319.5487290306
 20
145.2671459041
 30
0.0
 10
319.5487290306
 20
145.2512411448
 30
0.0
 10
319.5450014987
 20
145.1979080216
 30
0.0
 10
319.5164835781
 20
145.1417545311
 30
0.0
 10
319.4834144836
 20
145.1226743312
 30
0.0
  0
SPLINE
  5
65F
100
AcDbEntity
  8
0
100
AcDbSpline
 62
7
  6
BYLAYER
 70
0
 71
3
 72
9
 73
5
 74
0
 42
0.0000001
 43
0.0000001
 44
0.0000000001
 40
0.0
 40
0.0
 40
0.0
 40
0.0
 40
0.2836273482
 40
1.0
 40
1.0
 40
1.0
 40
1.0
 10
92.2130254613
 20
470.1176410505
 30
0.0
 10
92.2142208396
 20
470.190713349
 30
0.0
 10
92.2197045031
 20
470.4401628578
 30
0.0
 10
92.3010017664
 20
470.7446253696
 30
0.0
 10
92.4608583205
 20
470.8369202514
 30
0.0
  0
SPLINE
  5
660
100
AcDbEntity
  8
0
100
AcDbSpline
 62
7
  6
BYLAYER
 70
0
 71
3
 72
8
 73
4
 74
0
 42
0.0000001
 43
0.0000001
 44
0.0000000001
 40
0.0
 40
0.0
 40
0.0
 40
0.0
 40
1.0
 40
1.0
 40
1.0
 40
1.0
 10
91.0297215309
 20
469.3578935731
 30
0.0
 10
91.0235166896
 20
469.4558456243
 30
0.0
 10
91.0007598684
 20
469.55221322
 30
0.0
 10
90.9793526379
 20
469.6479985784
 30
0.0
  0
SPLINE
  5
661
100
AcDbEntity
  8
0
100
AcDbSpline
 62
7
  6
BYLAYER
 70
0
 71
3
 72
9
 73
5
 74
0
 42
0.0000001
 43
0.0000001
 44
0.0000000001
 40
0.0
 40
0.0
 40
0.0
 40
0.0
 40
0.2617127957
 40
1.0
 40
1.0
 40
1.0
 40
1.0
 10
90.9793526379
 20
469.6479985784
 30
0.0
 10
90.9669121233
 20
469.7036629091
 30
0.0
 10
90.9177736049
 20
469.9158654717
 30
0.0
 10
90.8896516517
 20
470.1337534057
 30
0.0
 10
90.8871947276
 20
470.2946366238
 30
0.0
  0
SPLINE
  5
662
100
AcDbEntity
  8
0
100
AcDbSpline
 62
7
  6
BYLAYER
 70
0
 71
3
 72
10
 73
6
 74
0
 42
0.0000001
 43
0.0000001
 44
0.0000000001
 40
0.0
 40
0.0
 40
0.0
 40
0.0
 40
0.236515704
 40
0.511554803
 40
1.0
 40
1.0
 40
1.0
 40
1.0
 10
90.8929952364
 20
471.2883137672
 30
0.0
 10
90.8918695377
 20
471.4939577759
 30
0.0
 10
90.8648154344
 20
471.9406030556
 30
0.0
 10
90.5337366361
 20
472.7742916292
 30
0.0
 10
89.9555078784
 20
473.1735294283
 30
0.0
 10
89.5887092505
 20
473.3875987486
 30
0.0
  0
SPLINE
  5
663
100
AcDbEntity
  8
0
100
AcDbSpline
 62
7
  6
BYLAYER
 70
0
 71
3
 72
9
 73
5
 74
0
 42
0.0000001
 43
0.0000001
 44
0.0000000001
 40
0.0
 40
0.0
 40
0.0
 40
0.0
 40
0.5519269435
 40
1.0
 40
1.0
 40
1.0
 40
1.0
 10
89.5887092505
 20
473.3875987486
 30
0.0
 10
89.4007093871
 20
473.4924270592
 30
0.0
 10
89.0633147139
 20
473.6737928753
 30
0.0
 10
88.6254833611
 20
473.7078444785
 30
0.0
 10
88.4741460573
 20
473.620472481
 30
0.0
  0
SPLINE
  5
664
100
AcDbEntity
  8
0
100
AcDbSpline
 62
7
  6
BYLAYER
 70
0
 71
3
 72
9
 73
5
 74
0
 42
0.0000001
 43
0.0000001
 44
0.0000000001
 40
0.0
 40
0.0
 40
0.0
 40
0.0
 40
0.2158856307
 40
1.0
 40
1.0
 40
1.0
 40
1.0
 10
193.1809020643
 20
204.8338126242
 30
0.0
 10
193.1658054023
 20
204.7980592775
 30
0.0
 10
193.1224856984
 20
204.6220228479
 30
0.0
 10
193.1449521729
 20
204.4344193996
 30
0.0
 10
193.1885731331
 20
204.3003776901
 30
0.0
  0
SPLINE
  5
665
100
AcDbEntity
  8
0
100
AcDbSpline
 62
7
  6
BYLAYER
 70
0
 71
3
 72
9
 73
5
 74
0
 42
0.0000001
 43
0.0000001
 44
0.0000000001
 40
0.0
 40
0.0
 40
0.0
 40
0.0
 40
0.5589356197
 40
1.0
 40
1.0
 40
1.0
 40
1.0
 10
193.325208395
 20
204.028741542
 30
0.0
 10
193.4163886435
 20
203.900050308
 30
0.0
 10
193.6349237074
 20
203.6950329467
 30
0.0
 10
193.918621213
 20
203.6372803257
 30
0.0
 10
194.0421179541
 20
203.6218387875
 30
0.0
  0
SPLINE
  5
666
100
AcDbEntity
  8
0
100
AcDbSpline
 62
7
  6
BYLAYER
 70
0
 71
3
 72
8
 73
4
 74
0
 42
0.0000001
 43
0.0000001
 44
0.0000000001
 40
0.0
 40
0.0
 40
0.0
 40
0.0
 40
1.0
 40
1.0
 40
1.0
 40
1.0
 10
88.5605577399
 20
472.2464857702
 30
0.0
 10
88.6216331208
 20
472.2564848428
 30
0.0
 10
88.6849288873
 20
472.2559237105
 30
0.0
 10
88.7462211423
 20
472.2473538162
 30
0.0
  0
SPLINE
  5
667
100
AcDbEntity
  8
0
100
AcDbSpline
 62
7
  6
BYLAYER
 70
0
 71
3
 72
8
 73
4
 74
0
 42
0.0000001
 43
0.0000001
 44
0.0000000001
 40
0.0
 40
0.0
 40
0.0
 40
0.0
 40
1.0
 40
1.0
 40
1.0
 40
1.0
 10
88.7462211423
 20
472.2473538162
 30
0.0
 10
88.7720461256
 20
472.2437429623
 30
0.0
 10
88.797691672
 20
472.2387325333
 30
0.0
 10
88.8230837615
 20
472.2327987468
 30
0.0
  0
SPLINE
  5
668
100
AcDbEntity
  8
0
100
AcDbSpline
 62
7
  6
BYLAYER
 70
0
 71
3
 72
8
 73
4
 74
0
 42
0.0000001
 43
0.0000001
 44
0.0000000001
 40
0.0
 40
0.0
 40
0.0
 40
0.0
 40
1.0
 40
1.0
 40
1.0
 40
1.0
 10
88.8230837615
 20
472.2327987468
 30
0.0
 10
88.8560613286
 20
472.2250923373
 30
0.0
 10
88.8886780051
 20
472.2158423333
 30
0.0
 10
88.9210976443
 20
472.2060507208
 30
0.0
  0
SPLINE
  5
669
100
AcDbEntity
  8
0
100
AcDbSpline
 62
7
  6
BYLAYER
 70
0
 71
3
 72
9
 73
5
 74
0
 42
0.0000001
 43
0.0000001
 44
0.0000000001
 40
0.0
 40
0.0
 40
0.0
 40
0.0
 40
0.5088202198
 40
1.0
 40
1.0
 40
1.0
 40
1.0
 10
90.1447295153
 20
471.7805962548
 30
0.0
 10
89.9217734033
 20
471.8332607075
 30
0.0
 10
89.4860328958
 20
471.9487052324
 30
0.0
 10
89.0614095839
 20
472.099070895
 30
0.0
 10
88.8503872606
 20
472.1652263054
 30
0.0
  0
SPLINE
  5
66A
100
AcDbEntity
  8
0
100
AcDbSpline
 62
7
  6
BYLAYER
 70
0
 71
3
 72
8
 73
4
 74
0
 42
0.0000001
 43
0.0000001
 44
0.0000000001
 40
0.0
 40
0.0
 40
0.0
 40
0.0
 40
1.0
 40
1.0
 40
1.0
 40
1.0
 10
88.8503872609
 20
472.1652263056
 30
0.0
 10
88.8180861314
 20
472.1749821249
 30
0.0
 10
88.7855896246
 20
472.1842001363
 30
0.0
 10
88.7527352552
 20
472.1918897
 30
0.0
  0
SPLINE
  5
66B
100
AcDbEntity
  8
0
100
AcDbSpline
 62
7
  6
BYLAYER
 70
0
 71
3
 72
9
 73
5
 74
0
 42
0.0000001
 43
0.0000001
 44
0.0000000001
 40
0.0
 40
0.0
 40
0.0
 40
0.0
 40
0.2633910191
 40
1.0
 40
1.0
 40
1.0
 40
1.0
 10
88.7527352552
 20
472.1918897
 30
0.0
 10
88.7184844188
 20
472.1999061068
 30
0.0
 10
88.5879595566
 20
472.2236717316
 30
0.0
 10
88.4430624964
 20
472.2089505328
 30
0.0
 10
88.357867175
 20
472.1597616634
 30
0.0
  0
SPLINE
  5
66C
100
AcDbEntity
  8
0
100
AcDbSpline
 62
7
  6
BYLAYER
 70
0
 71
3
 72
9
 73
5
 74
0
 42
0.0000001
 43
0.0000001
 44
0.0000000001
 40
0.0
 40
0.0
 40
0.0
 40
0.0
 40
0.2906413023
 40
1.0
 40
1.0
 40
1.0
 40
1.0
 10
93.0187432586
 20
468.6720273031
 30
0.0
 10
93.0583901084
 20
468.6511458737
 30
0.0
 10
93.1934779983
 20
468.5801525418
 30
0.0
 10
93.3650874507
 20
468.5578523927
 30
0.0
 10
93.4675998975
 20
468.5959576519
 30
0.0
  0
SPLINE
  5
66D
100
AcDbEntity
  8
0
100
AcDbSpline
 62
7
  6
BYLAYER
 70
0
 71
3
 72
9
 73
5
 74
0
 42
0.0000001
 43
0.0000001
 44
0.0000000001
 40
0.0
 40
0.0
 40
0.0
 40
0.0
 40
0.4889705589
 40
1.0
 40
1.0
 40
1.0
 40
1.0
 10
92.283735845
 20
470.1584654659
 30
0.0
 10
92.2882788007
 20
469.8788632648
 30
0.0
 10
92.3730518167
 20
469.2968277827
 30
0.0
 10
92.7677814746
 20
468.8217965903
 30
0.0
 10
93.0187432586
 20
468.6720273031
 30
0.0
  0
SPLINE
  5
66E
100
AcDbEntity
  8
0
100
AcDbSpline
 62
7
  6
BYLAYER
 70
0
 71
3
 72
8
 73
4
 74
0
 42
0.0000001
 43
0.0000001
 44
0.0000000001
 40
0.0
 40
0.0
 40
0.0
 40
0.0
 40
1.0
 40
1.0
 40
1.0
 40
1.0
 10
193.0621141246
 20
205.3190487143
 30
0.0
 10
193.1182495449
 20
205.3514596032
 30
0.0
 10
193.1872951518
 20
205.3646144926
 30
0.0
 10
193.2520105959
 20
205.360931771
 30
0.0
  0
SPLINE
  5
66F
100
AcDbEntity
  8
0
100
AcDbSpline
 62
7
  6
BYLAYER
 70
0
 71
3
 72
8
 73
4
 74
0
 42
0.0000001
 43
0.0000001
 44
0.0000000001
 40
0.0
 40
0.0
 40
0.0
 40
0.0
 40
1.0
 40
1.0
 40
1.0
 40
1.0
 10
193.2520105959
 20
205.360931771
 30
0.0
 10
193.306956263
 20
205.3578050121
 30
0.0
 10
193.3615671607
 20
205.3446146478
 30
0.0
 10
193.4134048942
 20
205.3261308079
 30
0.0
  0
SPLINE
  5
670
100
AcDbEntity
  8
0
100
AcDbSpline
 62
7
  6
BYLAYER
 70
0
 71
3
 72
9
 73
5
 74
0
 42
0.0000001
 43
0.0000001
 44
0.0000000001
 40
0.0
 40
0.0
 40
0.0
 40
0.0
 40
0.2234002758
 40
1.0
 40
1.0
 40
1.0
 40
1.0
 10
193.4134048942
 20
205.3261308079
 30
0.0
 10
193.4659283049
 20
205.3074024753
 30
0.0
 10
193.6923160157
 20
205.19760162
 30
0.0
 10
193.8709703866
 20
205.0156801874
 30
0.0
 10
194.0092307484
 20
204.8798119063
 30
0.0
  0
SPLINE
  5
671
100
AcDbEntity
  8
0
100
AcDbSpline
 62
7
  6
BYLAYER
 70
0
 71
3
 72
10
 73
6
 74
0
 42
0.0000001
 43
0.0000001
 44
0.0000000001
 40
0.0
 40
0.0
 40
0.0
 40
0.0
 40
0.2571426538
 40
0.5113153632
 40
1.0
 40
1.0
 40
1.0
 40
1.0
 10
88.7530881232
 20
472.6319670748
 30
0.0
 10
88.7797575238
 20
472.6473580641
 30
0.0
 10
88.8187800117
 20
472.6973553125
 30
0.0
 10
88.8962533501
 20
472.7865036544
 30
0.0
 10
88.9555804641
 20
472.8570249326
 30
0.0
 10
89.0062587434
 20
472.8862839027
 30
0.0
  0
SPLINE
  5
672
100
AcDbEntity
  8
0
100
AcDbSpline
 62
7
  6
BYLAYER
 70
0
 71
3
 72
11
 73
7
 74
0
 42
0.0000001
 43
0.0000001
 44
0.0000000001
 40
0.0
 40
0.0
 40
0.0
 40
0.0
 40
0.2372497972
 40
0.4999963452
 40
0.7627456032
 40
1.0
 40
1.0
 40
1.0
 40
1.0
 10
105.5066396359
 20
469.6069054115
 30
0.0
 10
105.8078089539
 20
469.4330048811
 30
0.0
 10
106.3778056926
 20
468.9534363561
 30
0.0
 10
107.0427735144
 20
468.0443389114
 30
0.0
 10
107.4976332645
 20
467.0139252894
 30
0.0
 10
107.6279940888
 20
466.280502525
 30
0.0
 10
107.6280151137
 20
465.9327252374
 30
0.0
  0
ENDSEC
  0
SECTION
  2
OBJECTS
  0
DICTIONARY
  5
C
100
AcDbDictionary
280
0
281
1
  3
ACAD_GROUP
350
D
  3
ACAD_MLINESTYLE
350
17
  3
ACAD_LAYOUT
350
1A
  3
ACAD_PLOTSETTINGS
350
19
  3
ACAD_PLOTSTYLENAME
350
E
  0
DICTIONARY
  5
D
102
{ACAD_REACTORS
330
C
102
}
100
AcDbDictionary
280
0
281
1
  0
ACDBDICTIONARYWDFLT
  5
E
102
{ACAD_REACTORS
330
C
102
}
100
AcDbDictionary
281
1
  3
Normal
350
F
100
AcDbDictionaryWithDefault
340
F
  0
DICTIONARY
  5
17
102
{ACAD_REACTORS
330
C
102
}
100
AcDbDictionary
280
0
281
1
  3
Standard
350
18
  0
DICTIONARY
  5
19
102
{ACAD_REACTORS
330
C
102
}
100
AcDbDictionary
281
1
  0
DICTIONARY
  5
1A
102
{ACAD_REACTORS
330
C
102
}
100
AcDbDictionary
281
1
  3
Model
350
673
  3
Layout1
350
674
  0
ACDBPLACEHOLDER
  5
F
102
{ACAD_REACTORS
330
E
102
}
  0
MLINESTYLE
  5
18
102
{ACAD_REACTORS
330
17
102
}
100
AcDbMlineStyle
  2
STANDARD
 70
0
  3

 62
256
 51
90.0
 52
90.0
 71
2
 49
0.5
 62
256
  6
BYLAYER
 49
-0.5
 62
256
  6
BYLAYER
  0
LAYOUT
  5
673
102
{ACAD_REACTORS
330
1A
102
}
100
AcDbPlotSettings
  1

  2
none_device
  4

  6

 40
0.0
 41
0.0
 42
0.0
 43
0.0
 44
210.0
 45
297.0
 46
0.0
 47
0.0
 48
0.0
 49
0.0
140
0.0
141
0.0
142
1.0
143
1.0
 70
1024
 72
1
 73
0
 74
0
  7

 75
0
147
1.0
148
0.0
149
0.0
100
AcDbLayout
  1
Model
 70
0
 71
0
 10
0.0
 20
0.0
 11
210.0
 21
297.0
 12
0.0
 22
0.0
 32
0.0
 14
0.0
 24
0.0
 34
0.0
 15
0.0
 25
0.0
 35
0.0
146
0.0
 13
0.0
 23
0.0
 33
0.0
 16
1.0
 26
0.0
 36
0.0
 17
0.0
 27
1.0
 37
0.0
 76
0
330
210
345
0
346
0
  0
LAYOUT
  5
674
102
{ACAD_REACTORS
330
1A
102
}
100
AcDbPlotSettings
  1

  2
none_device
  4

  6

 40
0.0
 41
0.0
 42
0.0
 43
0.0
 44
210.0
 45
297.0
 46
0.0
 47
0.0
 48
0.0
 49
0.0
140
0.0
141
0.0
142
1.0
143
1.0
 70
0
 72
1
 73
0
 74
0
  7

 75
0
147
1.0
148
0.0
149
0.0
100
AcDbLayout
  1
Layout1
 70
0
 71
1
 10
0.0
 20
0.0
 11
210.0
 21
297.0
 12
0.0
 22
0.0
 32
0.0
 14
0.0
 24
0.0
 34
0.0
 15
0.0
 25
0.0
 35
0.0
146
0.0
 13
0.0
 23
0.0
 33
0.0
 16
1.0
 26
0.0
 36
0.0
 17
0.0
 27
1.0
 37
0.0
 76
0
330
211
345
0
346
0
  0
ENDSEC
  0
EOF
