999
DXF file: C:\Users\sesa63760\Dev\_Creo\CAD\MCADID0004349_3D-CAD\drw0001_1.dxf
999
Pro/ENGINEER 2019471 by Parametric Technology Corporation
  0
SECTION
  2
HEADER
  9
$ACADVER
  1
AC1024
  9
$DWGCODEPAGE
  3
ANSI_1252
  9
$EXTMAX
 10
39.17684541
 20
55.4072527941
 30
0.0
  9
$EXTMIN
 10
0.0
 20
0.0
 30
0.0
  9
$LIMMIN
 10
0.0
 20
0.0
  9
$LIMMAX
 10
39.17684541
 20
55.4072527941
  9
$VIEWCTR
 10
19.588422705
 20
27.7036263971
  9
$VIEWSIZE
 40
55.4072527941
  9
$CLAYER
  8
0
  9
$LTSCALE
 40
3.611732034
  9
$CELTYPE
  6
BYLAYER
  9
$DIMSCALE
 40
1.0
  9
$DIMASZ
 40
0.4663910168
  9
$DIMEXO
 40
1.0
  9
$DIMDLI
 40
2.4953784962
  9
$DIMEXE
 40
1.0
  9
$DIMCEN
 40
0.5910106965
  9
$DIMLFAC
 40
1.0
  9
$DIMBLK
  1
_FILLED
  9
$DIMALT
 70
0
  9
$DIMALTF
 40
0.0393700787
  9
$DIMTXT
 40
0.6529474235
  9
$DIMTOL
 70
1
  9
$DIMLIM
 70
0
  9
$DIMTFAC
 40
1.0
  9
$DIMTP
 40
0.01
  9
$DIMTM
 40
0.01
  9
$DIMGAP
 40
0.625
  9
$DIMDSEP
 70
46
  9
$AUNITS
 70
0
  9
$PDMODE
 70
3
  9
$PDSIZE
 40
0.3125
  9
$HANDSEED
  5
278
  9
$TILEMODE
 70
1
  9
$MEASUREMENT
 70
1
  9
$INSUNITS
 70
4
  0
ENDSEC
  0
SECTION
  2
CLASSES
  0
CLASS
  1
ACDBDICTIONARYWDFLT
  2
AcDbDictionaryWithDefault
  3
AutoCAD 2000
 90
0
 91
1
280
0
281
0
  0
CLASS
  1
ACDBPLACEHOLDER
  2
AcDbPlaceHolder
  3
AutoCAD 2000
 90
0
 91
1
280
0
281
0
  0
CLASS
  1
LAYOUT
  2
AcDbLayout
  3
AutoCAD 2000
 90
0
 91
0
280
0
281
0
  0
ENDSEC
  0
SECTION
  2
TABLES
  0
TABLE
  2
VPORT
  5
8
100
AcDbSymbolTable
 70
2
  0
VPORT
  5
1F4
100
AcDbSymbolTableRecord
100
AcDbViewportTableRecord
  2
*ACTIVE
 70
0
 10
0.0
 20
0.0
 11
1.0
 21
1.0
 12
19.588422705
 22
27.7036263971
 13
0.0
 23
0.0
 14
1.0
 24
1.0
 15
0.0
 25
0.0
 16
0.0
 26
0.0
 36
1.0
 17
0.0
 27
0.0
 37
0.0
 40
55.4072527941
 41
0.7070707071
 42
50.0
 43
0.0
 44
0.0
 50
0.0
 51
0.0
 71
0
 72
100
 73
1
 74
1
 75
0
 76
0
 77
0
 78
0
  0
ENDTAB
  0
TABLE
  2
LTYPE
  5
5
100
AcDbSymbolTable
 70
6
  0
LTYPE
  5
14
100
AcDbSymbolTableRecord
100
AcDbLinetypeTableRecord
  2
BYBLOCK
 70
0
  3

 72
65
 73
0
 40
0.0
  0
LTYPE
  5
15
100
AcDbSymbolTableRecord
100
AcDbLinetypeTableRecord
  2
BYLAYER
 70
0
  3

 72
65
 73
0
 40
0.0
  0
LTYPE
  5
16
100
AcDbSymbolTableRecord
100
AcDbLinetypeTableRecord
  2
CONTINUOUS
 70
64
  3
Solid line
 72
65
 73
0
 40
0.0
  0
LTYPE
  5
1F5
100
AcDbSymbolTableRecord
100
AcDbLinetypeTableRecord
  2
CENTER
 70
64
  3
____ _ ____ _ ____ _ ____ _ ____ _ ____ _ ____
 72
65
 73
4
 40
0.6
 49
0.375
 74
0
 49
-0.075
 74
0
 49
0.075
 74
0
 49
-0.075
 74
0
  0
LTYPE
  5
1F6
100
AcDbSymbolTableRecord
100
AcDbLinetypeTableRecord
  2
HIDDEN
 70
64
  3
- - - - - - - - - - - - - - - - - - - -
 72
65
 73
2
 40
0.2
 49
0.1
 74
0
 49
-0.1
 74
0
  0
LTYPE
  5
1F7
100
AcDbSymbolTableRecord
100
AcDbLinetypeTableRecord
  2
PHANTOM
 70
64
  3
_____ _ _ _____ _ _ _____ _ _ _____
 72
65
 73
6
 40
0.8
 49
0.45
 74
0
 49
-0.05
 74
0
 49
0.1
 74
0
 49
-0.05
 74
0
 49
0.1
 74
0
 49
-0.05
 74
0
  0
LTYPE
  5
1F8
100
AcDbSymbolTableRecord
100
AcDbLinetypeTableRecord
  2
DOT
 70
64
  3
. . . . . . . . . . . . . . . . . . . .
 72
65
 73
2
 40
0.2
 49
0.1
 74
0
 49
-0.1
 74
0
  0
LTYPE
  5
1F9
100
AcDbSymbolTableRecord
100
AcDbLinetypeTableRecord
  2
DASHED
 70
64
  3
- - - - - - - - - - - - - - - - - - - -
 72
65
 73
2
 40
0.2
 49
0.1
 74
0
 49
-0.1
 74
0
  0
ENDTAB
  0
TABLE
  2
LAYER
  5
2
100
AcDbSymbolTable
 70
36
  0
LAYER
  5
10
100
AcDbSymbolTableRecord
100
AcDbLayerTableRecord
  2
0
 70
0
 62
7
  6
CONTINUOUS
370
-3
390
F
  0
LAYER
  5
1FA
100
AcDbSymbolTableRecord
100
AcDbLayerTableRecord
  2
DEFAULT_1
 70
0
 62
7
  6
CENTER
370
-3
390
F
  0
LAYER
  5
1FB
100
AcDbSymbolTableRecord
100
AcDbLayerTableRecord
  2
DEFAULT_2
 70
0
 62
7
  6
HIDDEN
370
-3
390
F
  0
LAYER
  5
1FC
100
AcDbSymbolTableRecord
100
AcDbLayerTableRecord
  2
DEFAULT_3
 70
0
 62
7
  6
PHANTOM
370
-3
390
F
  0
LAYER
  5
1FD
100
AcDbSymbolTableRecord
100
AcDbLayerTableRecord
  2
00_COMPONENTS
 70
0
 62
7
  6
CONTINUOUS
370
-3
390
F
  0
LAYER
  5
1FE
100
AcDbSymbolTableRecord
100
AcDbLayerTableRecord
  2
01_1_DEFAULT_DATUMS
 70
0
 62
7
  6
CONTINUOUS
370
-3
390
F
  0
LAYER
  5
1FF
100
AcDbSymbolTableRecord
100
AcDbLayerTableRecord
  2
01_PLANES
 70
0
 62
7
  6
CONTINUOUS
370
-3
390
F
  0
LAYER
  5
200
100
AcDbSymbolTableRecord
100
AcDbLayerTableRecord
  2
02_COORD_SYS
 70
0
 62
7
  6
CONTINUOUS
370
-3
390
F
  0
LAYER
  5
201
100
AcDbSymbolTableRecord
100
AcDbLayerTableRecord
  2
03_AXES
 70
0
 62
7
  6
CONTINUOUS
370
-3
390
F
  0
LAYER
  5
202
100
AcDbSymbolTableRecord
100
AcDbLayerTableRecord
  2
04_POINTS
 70
0
 62
7
  6
CONTINUOUS
370
-3
390
F
  0
LAYER
  5
203
100
AcDbSymbolTableRecord
100
AcDbLayerTableRecord
  2
05_CURVES
 70
0
 62
7
  6
CONTINUOUS
370
-3
390
F
  0
LAYER
  5
204
100
AcDbSymbolTableRecord
100
AcDbLayerTableRecord
  2
06_SURFS
 70
0
 62
7
  6
CONTINUOUS
370
-3
390
F
  0
LAYER
  5
205
100
AcDbSymbolTableRecord
100
AcDbLayerTableRecord
  2
07_COSMETICS
 70
0
 62
7
  6
CONTINUOUS
370
-3
390
F
  0
LAYER
  5
206
100
AcDbSymbolTableRecord
100
AcDbLayerTableRecord
  2
10_NOTES
 70
0
 62
7
  6
CONTINUOUS
370
-3
390
F
  0
LAYER
  5
207
100
AcDbSymbolTableRecord
100
AcDbLayerTableRecord
  2
11_NOTES_PUB
 70
0
 62
7
  6
CONTINUOUS
370
-3
390
F
  0
LAYER
  5
208
100
AcDbSymbolTableRecord
100
AcDbLayerTableRecord
  2
13_REF_GTOL
 70
0
 62
7
  6
CONTINUOUS
370
-3
390
F
  0
LAYER
  5
209
100
AcDbSymbolTableRecord
100
AcDbLayerTableRecord
  2
16_MISC
 70
0
 62
7
  6
CONTINUOUS
370
-3
390
F
  0
LAYER
  5
20A
100
AcDbSymbolTableRecord
100
AcDbLayerTableRecord
  2
17_NO_PRINT
 70
0
 62
7
  6
CONTINUOUS
370
-3
390
F
  0
LAYER
  5
20B
100
AcDbSymbolTableRecord
100
AcDbLayerTableRecord
  2
18_DATUM_CAMS_JOINTS
 70
0
 62
7
  6
CONTINUOUS
370
-3
390
F
  0
LAYER
  5
20C
100
AcDbSymbolTableRecord
100
AcDbLayerTableRecord
  2
19_DATUM_FUNCTIONAL
 70
0
 62
7
  6
CONTINUOUS
370
-3
390
F
  0
LAYER
  5
20D
100
AcDbSymbolTableRecord
100
AcDbLayerTableRecord
  2
20_DATUM_KINEMATIC_SCHEME
 70
0
 62
7
  6
CONTINUOUS
370
-3
390
F
  0
ENDTAB
  0
TABLE
  2
STYLE
  5
3
100
AcDbSymbolTable
 70
1
  0
STYLE
  5
11
100
AcDbSymbolTableRecord
100
AcDbTextStyleTableRecord
  2
STANDARD
 70
0
 40
0.0
 41
1.0
 50
0.0
 71
0
 42
0.2
  3
ARIAL.TTF
  4

  0
STYLE
  5
20E
100
AcDbSymbolTableRecord
100
AcDbTextStyleTableRecord
  2
TEXTSTYLE_1
 70
0
 40
0.0
 41
0.8
 50
0.0
 71
0
 42
0.2
  3
gdt
  4

  0
ENDTAB
  0
TABLE
  2
VIEW
  5
6
100
AcDbSymbolTable
 70
0
  0
ENDTAB
  0
TABLE
  2
UCS
  5
7
100
AcDbSymbolTable
 70
0
  0
ENDTAB
  0
TABLE
  2
APPID
  5
9
100
AcDbSymbolTable
 70
1
  0
APPID
  5
20F
100
AcDbSymbolTableRecord
100
AcDbRegAppTableRecord
  2
ACAD
 70
0
  0
ENDTAB
  0
TABLE
  2
BLOCK_RECORD
  5
1
100
AcDbSymbolTable
 70
0
  0
BLOCK_RECORD
  5
210
100
AcDbSymbolTableRecord
100
AcDbBlockTableRecord
  2
*Model_Space
  0
BLOCK_RECORD
  5
211
100
AcDbSymbolTableRecord
100
AcDbBlockTableRecord
  2
*Paper_Space
  0
BLOCK_RECORD
  5
212
100
AcDbSymbolTableRecord
100
AcDbBlockTableRecord
  2
_FILLED
  0
ENDTAB
  0
TABLE
  2
DIMSTYLE
  5
A
100
AcDbSymbolTable
 70
1
100
AcDbDimStyleTable
 71
0
  0
DIMSTYLE
105
213
100
AcDbSymbolTableRecord
100
AcDbDimStyleTableRecord
  2
STANDARD
 70
0
  3

  4

 40
1.0
 41
0.4663910168
 42
1.0
 43
0.38
 44
1.0
 45
0.0
 46
0.0
 47
0.01
 48
0.01
140
0.6529474235
141
0.09
142
0.0
143
25.4
144
1.0
145
0.0
146
1.0
147
0.625
 71
1
 72
0
 73
0
 74
0
 75
0
 76
0
 77
1
 78
8
 79
2
170
0
171
1
172
0
173
0
174
0
175
0
176
0
177
0
178
0
270
2
179
2
271
2
272
2
273
2
274
2
275
0
280
0
281
0
282
0
283
1
284
8
285
0
286
0
287
3
288
0
340
11
278
46
341
212
342
212
343
212
344
212
  0
ENDTAB
  0
ENDSEC
  0
SECTION
  2
BLOCKS
  0
BLOCK
  5
20
100
AcDbEntity
  8
0
100
AcDbBlockBegin
  2
*Model_Space
 70
0
 10
0.0
 20
0.0
 30
0.0
  3
*Model_Space
  1

  0
ENDBLK
  5
21
100
AcDbEntity
  8
0
100
AcDbBlockEnd
  0
BLOCK
  5
1C
100
AcDbEntity
  8
0
100
AcDbBlockBegin
  2
*Paper_Space
 70
0
 10
0.0
 20
0.0
 30
0.0
  3
*Paper_Space
  1

  0
ENDBLK
  5
1D
100
AcDbEntity
  8
0
100
AcDbBlockEnd
  0
BLOCK
  5
214
100
AcDbEntity
  8
0
100
AcDbBlockBegin
  2
_FILLED
 70
64
 10
0.0
 20
0.0
  3
_FILLED
  1

  0
SOLID
  5
215
100
AcDbEntity
  8
0
  6
BYBLOCK
 62
0
100
AcDbTrace
 10
0.0
 20
0.0
 11
-1.0
 21
0.25
 12
-1.0
 22
-0.25
 13
-1.0
 23
-0.25
  0
ENDBLK
  5
216
100
AcDbEntity
  8
0
  6
BYBLOCK
 62
0
100
AcDbBlockEnd
  0
ENDSEC
  0
SECTION
  2
ENTITIES
  0
LINE
  5
217
100
AcDbEntity
  8
0
100
AcDbLine
 62
7
  6
BYLAYER
 10
5.1084214619
 20
36.2011902128
 11
4.5449648079
 21
35.8758803037
  0
LINE
  5
218
100
AcDbEntity
  8
0
100
AcDbLine
 62
7
  6
BYLAYER
 10
14.8015752186
 20
34.4899991084
 11
14.2712429247
 21
34.1838028614
  0
LINE
  5
219
100
AcDbEntity
  8
0
100
AcDbLine
 62
7
  6
BYLAYER
 10
11.9731554539
 20
30.2033544091
 11
11.9731598698
 21
29.5909856286
  0
LINE
  5
21A
100
AcDbEntity
  8
0
100
AcDbLine
 62
7
  6
BYLAYER
 10
25.2692455004
 20
18.7411669074
 11
23.7794812577
 21
19.6012632359
  0
LINE
  5
21B
100
AcDbEntity
  8
0
100
AcDbLine
 62
7
  6
BYLAYER
 10
19.5745658491
 20
31.7343740236
 11
19.0442335552
 21
31.4281777766
  0
LINE
  5
21C
100
AcDbEntity
  8
0
100
AcDbLine
 62
7
  6
BYLAYER
 10
12.8016091526
 20
27.7598682331
 11
15.2764932107
 21
26.3310255808
  0
LINE
  5
21D
100
AcDbEntity
  8
0
100
AcDbLine
 62
7
  6
BYLAYER
 10
17.574599785
 20
25.0042431371
 11
22.1708130064
 21
22.3506782281
  0
LINE
  5
21E
100
AcDbEntity
  8
0
100
AcDbLine
 62
7
  6
BYLAYER
 10
22.5535361407
 20
22.129717912
 11
23.4937144195
 21
21.5869180095
  0
LINE
  5
21F
100
AcDbEntity
  8
0
100
AcDbLine
 62
7
  6
BYLAYER
 10
16.7461460844
 20
27.4477293243
 11
16.7461505003
 21
26.8353605438
  0
LWPOLYLINE
  5
220
100
AcDbEntity
  8
0
100
AcDbPolyline
 62
7
  6
BYLAYER
 90
4
 70
0
 10
15.2764932107
 20
26.3310255808
 10
15.3709681777
 20
26.2814072867
 10
16.2547178033
 20
26.1597842772
 10
16.7579995766
 20
26.3417173376
  0
LINE
  5
221
100
AcDbEntity
  8
0
100
AcDbLine
 62
7
  6
BYLAYER
 10
16.1818191419
 20
26.6743677411
 11
16.8268908364
 21
26.30194385
  0
LINE
  5
222
100
AcDbEntity
  8
0
100
AcDbLine
 62
7
  6
BYLAYER
 10
29.8668996579
 20
19.3508085676
 11
31.9208678
 21
18.164976335
  0
LINE
  5
223
100
AcDbEntity
  8
0
100
AcDbLine
 62
7
  6
BYLAYER
 10
25.2692455004
 20
23.4552458106
 11
23.7794812577
 21
24.3153421392
  0
LINE
  5
224
100
AcDbEntity
  8
0
100
AcDbLine
 62
7
  6
BYLAYER
 10
12.2060053295
 20
31.4523451044
 11
4.6842099648
 21
35.7949574399
  0
LINE
  5
225
100
AcDbEntity
  8
0
100
AcDbLine
 62
7
  6
BYLAYER
 10
13.3050748939
 20
33.3581381679
 11
6.3294101679
 21
37.3854489653
  0
LINE
  5
226
100
AcDbEntity
  8
0
100
AcDbLine
 62
7
  6
BYLAYER
 10
32.6168529986
 20
24.1139752269
 11
34.6708211407
 21
22.9281429943
  0
LINE
  5
227
100
AcDbEntity
  8
0
100
AcDbLine
 62
7
  6
BYLAYER
 10
19.431763999
 20
32.3035647021
 11
20.0930255414
 21
31.9217938094
  0
LINE
  5
228
100
AcDbEntity
  8
0
100
AcDbLine
 62
7
  6
BYLAYER
 10
16.8015412845
 20
34.6881106466
 11
19.2764253425
 21
33.2592679943
  0
LINE
  5
229
100
AcDbEntity
  8
0
100
AcDbLine
 62
7
  6
BYLAYER
 10
21.5745319257
 20
31.9324855659
 11
26.1707451472
 21
29.2789206569
  0
LINE
  5
22A
100
AcDbEntity
  8
0
100
AcDbLine
 62
7
  6
BYLAYER
 10
26.5534682903
 20
29.0579603562
 11
27.248200455
 21
28.6568656278
  0
LINE
  5
22B
100
AcDbEntity
  8
0
100
AcDbLine
 62
7
  6
BYLAYER
 10
28.8047646865
 20
27.8535060316
 11
27.3150004437
 21
28.7136023602
  0
LINE
  5
22C
100
AcDbEntity
  8
0
100
AcDbLine
 62
7
  6
BYLAYER
 10
32.3402838725
 20
27.5376873493
 11
30.8505196298
 21
28.3977836779
  0
LWPOLYLINE
  5
22D
100
AcDbEntity
  8
0
100
AcDbPolyline
 62
7
  6
BYLAYER
 90
8
 70
0
 10
31.2418763283
 20
24.556469647
 10
30.3054282086
 20
23.8005937397
 10
29.5137372602
 20
22.7329945118
 10
28.9820712167
 20
21.5076427662
 10
28.7961856235
 20
20.3203750477
 10
28.9811441751
 20
19.3498136339
 10
29.509416754
 20
18.7388185963
 10
30.301086555
 20
18.5824566574
  0
LINE
  5
22E
100
AcDbEntity
  8
0
100
AcDbLine
 62
7
  6
BYLAYER
 10
30.301086555
 20
18.5824566574
 11
30.8615260063
 21
18.7765737686
  0
LINE
  5
22F
100
AcDbEntity
  8
0
100
AcDbLine
 62
7
  6
BYLAYER
 10
28.867898165
 20
18.4789758397
 11
28.872030248
 21
18.4824857644
  0
LINE
  5
230
100
AcDbEntity
  8
0
100
AcDbLine
 62
7
  6
BYLAYER
 10
28.8697409882
 20
18.4768238953
 11
28.8739864894
 21
18.4802035292
  0
LINE
  5
231
100
AcDbEntity
  8
0
100
AcDbLine
 62
7
  6
BYLAYER
 10
30.8591531895
 20
18.6873425227
 11
30.9376158626
 21
18.7326442634
  0
LINE
  5
232
100
AcDbEntity
  8
0
100
AcDbLine
 62
7
  6
BYLAYER
 10
33.6875692037
 20
23.4958109224
 11
33.6875685508
 21
23.5863560242
  0
LINE
  5
233
100
AcDbEntity
  8
0
100
AcDbLine
 62
7
  6
BYLAYER
 10
35.2370442165
 20
21.5362267509
 11
35.240366761
 21
21.6692387443
  0
LINE
  5
234
100
AcDbEntity
  8
0
100
AcDbLine
 62
7
  6
BYLAYER
 10
33.2958179469
 20
18.3011933305
 11
33.4088049272
 21
18.3702196107
  0
ARC
  5
235
100
AcDbEntity
  8
0
100
AcDbCircle
 62
7
  6
BYLAYER
 10
17.0930589753
 20
33.2754541698
 40
18.9126861454
100
AcDbArc
 50
308.2614819081
 51
308.5126131449
  0
ARC
  5
236
100
AcDbEntity
  8
0
100
AcDbCircle
 62
7
  6
BYLAYER
 10
31.2418763283
 20
21.7323918973
 40
4.0
100
AcDbArc
 50
302.806466505
 51
357.1819277837
  0
ARC
  5
237
100
AcDbEntity
  8
0
100
AcDbCircle
 62
7
  6
BYLAYER
 10
17.2199754855
 20
31.4944717473
 40
2.8815030189
100
AcDbArc
 50
8.5829275456
 51
9.8792987794
  0
ARC
  5
238
100
AcDbEntity
  8
0
100
AcDbCircle
 62
7
  6
BYLAYER
 10
31.185637263
 20
23.2008756414
 40
2.4990476576
100
AcDbArc
 50
8.5670723334
 51
9.3317797868
  0
ARC
  5
239
100
AcDbEntity
  8
0
100
AcDbCircle
 62
7
  6
BYLAYER
 10
25.4965581867
 20
28.1125036043
 40
1.3472329691
100
AcDbArc
 50
51.2108680034
 51
59.9721647539
  0
ARC
  5
23A
100
AcDbEntity
  8
0
100
AcDbCircle
 62
7
  6
BYLAYER
 10
22.8412943114
 20
23.5121041006
 40
1.3410574948
100
AcDbArc
 50
240.0025247314
 51
250.3160757002
  0
SPLINE
  5
23B
100
AcDbEntity
  8
0
100
AcDbSpline
 62
7
  6
BYLAYER
 70
0
 71
3
 72
23
 73
19
 74
0
 42
0.0000001
 43
0.0000001
 44
0.0000000001
 40
0.0
 40
0.0
 40
0.0
 40
0.0
 40
0.0558386938
 40
0.1141795962
 40
0.1747831612
 40
0.2373536158
 40
0.3015489421
 40
0.3669926241
 40
0.4332827893
 40
0.5000001338
 40
0.56671755
 40
0.6330077227
 40
0.6984509464
 40
0.7626467584
 40
0.8252172258
 40
0.8858176269
 40
0.9441687512
 40
1.0
 40
1.0
 40
1.0
 40
1.0
 10
26.2921333781
 20
21.3241112583
 30
0.0
 10
26.2921326479
 20
21.4335353208
 30
0.0
 10
26.3018489905
 20
21.6573688566
 30
0.0
 10
26.3430733724
 20
21.9976851363
 30
0.0
 10
26.4108738137
 20
22.3471583827
 30
0.0
 10
26.5046080999
 20
22.7024303821
 30
0.0
 10
26.6233711813
 20
23.0601272291
 30
0.0
 10
26.7660231956
 20
23.4168336992
 30
0.0
 10
26.9312091626
 20
23.7691379037
 30
0.0
 10
27.117346693
 20
24.1136707172
 30
0.0
 10
27.3226484026
 20
24.4471392549
 30
0.0
 10
27.5451557828
 20
24.7663484712
 30
0.0
 10
27.7827422223
 20
25.0682455538
 30
0.0
 10
28.0331339919
 20
25.3499471906
 30
0.0
 10
28.2939356035
 20
25.6087574978
 30
0.0
 10
28.5626906707
 20
25.8422296957
 30
0.0
 10
28.8368081785
 20
26.0480784847
 30
0.0
 10
29.0257956284
 20
26.1684193378
 30
0.0
 10
29.1205471528
 20
26.2231238294
 30
0.0
  0
SPLINE
  5
23C
100
AcDbEntity
  8
0
100
AcDbSpline
 62
7
  6
BYLAYER
 70
0
 71
3
 72
10
 73
6
 74
0
 42
0.0000001
 43
0.0000001
 44
0.0000000001
 40
0.0
 40
0.0
 40
0.0
 40
0.0
 40
0.4897647511
 40
0.7428168824
 40
1.0
 40
1.0
 40
1.0
 40
1.0
 10
32.6384785015
 20
25.5459424274
 30
0.0
 10
32.6178218354
 20
25.8743360618
 30
0.0
 10
32.560355379
 20
26.3709419218
 30
0.0
 10
32.4460941881
 20
27.0330173544
 30
0.0
 10
32.3771620001
 20
27.3688832834
 30
0.0
 10
32.3402838725
 20
27.5376873493
 30
0.0
  0
SPLINE
  5
23D
100
AcDbEntity
  8
0
100
AcDbSpline
 62
7
  6
BYLAYER
 70
0
 71
3
 72
11
 73
7
 74
0
 42
0.0000001
 43
0.0000001
 44
0.0000000001
 40
0.0
 40
0.0
 40
0.0
 40
0.0
 40
0.2727717609
 40
0.5326326878
 40
0.7761314729
 40
1.0
 40
1.0
 40
1.0
 40
1.0
 10
25.2692455004
 20
18.7411669074
 30
0.0
 10
25.4571501336
 20
18.701456908
 30
0.0
 10
25.8246749679
 20
18.626741547
 30
0.0
 10
26.3624413189
 20
18.5293231331
 30
0.0
 10
26.8687278808
 20
18.4523058663
 30
0.0
 10
27.1957899966
 20
18.4149687804
 30
0.0
 10
27.3527875598
 20
18.4009445987
 30
0.0
  0
SPLINE
  5
23E
100
AcDbEntity
  8
0
100
AcDbSpline
 62
7
  6
BYLAYER
 70
0
 71
3
 72
11
 73
7
 74
0
 42
0.0000001
 43
0.0000001
 44
0.0000000001
 40
0.0
 40
0.0
 40
0.0
 40
0.0
 40
0.2238686444
 40
0.4673674335
 40
0.7272282874
 40
1.0
 40
1.0
 40
1.0
 40
1.0
 10
28.7669775704
 20
28.7380059865
 30
0.0
 10
28.9239752159
 20
28.7239817974
 30
0.0
 10
29.2510374155
 20
28.6866446901
 30
0.0
 10
29.7573240124
 20
28.6096274296
 30
0.0
 10
30.2950902915
 20
28.5122090767
 30
0.0
 10
30.6626150298
 20
28.4374936702
 30
0.0
 10
30.8505196298
 20
28.3977836779
 30
0.0
  0
SPLINE
  5
23F
100
AcDbEntity
  8
0
100
AcDbSpline
 62
7
  6
BYLAYER
 70
0
 71
3
 72
11
 73
7
 74
0
 42
0.0000001
 43
0.0000001
 44
0.0000000001
 40
0.0
 40
0.0
 40
0.0
 40
0.0
 40
0.2100625315
 40
0.444062914
 40
0.7063986533
 40
1.0
 40
1.0
 40
1.0
 40
1.0
 10
27.3150004437
 20
28.7136023602
 30
0.0
 10
27.4157232402
 20
28.7291822202
 30
0.0
 10
27.6298376438
 20
28.7548041047
 30
0.0
 10
27.9723405307
 20
28.7727527493
 30
0.0
 10
28.3558171808
 20
28.7687238407
 30
0.0
 10
28.6250895591
 20
28.7506804715
 30
0.0
 10
28.7669775704
 20
28.7380059865
 30
0.0
  0
SPLINE
  5
240
100
AcDbEntity
  8
0
100
AcDbSpline
 62
7
  6
BYLAYER
 70
0
 71
3
 72
13
 73
9
 74
0
 42
0.0000001
 43
0.0000001
 44
0.0000000001
 40
0.0
 40
0.0
 40
0.0
 40
0.0
 40
0.1235472241
 40
0.2476900725
 40
0.3723270963
 40
0.4973705625
 40
0.7483197754
 40
1.0
 40
1.0
 40
1.0
 40
1.0
 10
25.2314583843
 20
26.6967852172
 30
0.0
 10
25.3064346284
 20
26.7900572416
 30
0.0
 10
25.4600306101
 20
26.9744387118
 30
0.0
 10
25.7002581907
 20
27.2435150488
 30
0.0
 10
25.9502291763
 20
27.5055714115
 30
0.0
 10
26.2957089798
 20
27.8459479197
 30
0.0
 10
26.7469983269
 20
28.2538128829
 30
0.0
 10
27.1235849401
 20
28.5626370435
 30
0.0
 10
27.3150004437
 20
28.7136023602
 30
0.0
  0
SPLINE
  5
241
100
AcDbEntity
  8
0
100
AcDbSpline
 62
7
  6
BYLAYER
 70
0
 71
3
 72
11
 73
7
 74
0
 42
0.0000001
 43
0.0000001
 44
0.0000000001
 40
0.0
 40
0.0
 40
0.0
 40
0.0
 40
0.293601477
 40
0.5559372501
 40
0.7899376188
 40
1.0
 40
1.0
 40
1.0
 40
1.0
 10
27.3527875598
 20
18.4009445987
 30
0.0
 10
27.4946756346
 20
18.3882701081
 30
0.0
 10
27.763948095
 20
18.3702267427
 30
0.0
 10
28.1474248161
 20
18.3661978366
 30
0.0
 10
28.4899276505
 20
18.38414638
 30
0.0
 10
28.7040419616
 20
18.4097683761
 30
0.0
 10
28.8047646865
 20
18.4253482251
 30
0.0
  0
SPLINE
  5
242
100
AcDbEntity
  8
0
100
AcDbSpline
 62
7
  6
BYLAYER
 70
0
 71
3
 72
11
 73
7
 74
0
 42
0.0000001
 43
0.0000001
 44
0.0000000001
 40
0.0
 40
0.0
 40
0.0
 40
0.0
 40
0.2602536681
 40
0.5147427021
 40
0.7618353688
 40
1.0
 40
1.0
 40
1.0
 40
1.0
 10
23.7794812577
 20
19.6012632359
 30
0.0
 10
23.7320157387
 20
19.8185294888
 30
0.0
 10
23.6451286685
 20
20.2498374552
 30
0.0
 10
23.5439617021
 20
20.8931798605
 30
0.0
 10
23.479226493
 20
21.5223282212
 30
0.0
 10
23.4636987913
 20
21.9371004195
 30
0.0
 10
23.4636987913
 20
22.140615655
 30
0.0
  0
SPLINE
  5
243
100
AcDbEntity
  8
0
100
AcDbSpline
 62
7
  6
BYLAYER
 70
0
 71
3
 72
13
 73
9
 74
0
 42
0.0000001
 43
0.0000001
 44
0.0000000001
 40
0.0
 40
0.0
 40
0.0
 40
0.0
 40
0.1342229311
 40
0.2655705068
 40
0.3940781487
 40
0.5198808741
 40
0.764105829
 40
1.0
 40
1.0
 40
1.0
 40
1.0
 10
23.4636987913
 20
22.140615655
 30
0.0
 10
23.4636987913
 20
22.239268169
 30
0.0
 10
23.4672303279
 20
22.4344813234
 30
0.0
 10
23.4834395494
 20
22.7237381704
 30
0.0
 10
23.5101837908
 20
23.0060018701
 30
0.0
 10
23.5586221952
 20
23.3692793775
 30
0.0
 10
23.6417262579
 20
23.8072132223
 30
0.0
 10
23.7308578324
 20
24.1489199702
 30
0.0
 10
23.7794812577
 20
24.3153421392
 30
0.0
  0
SPLINE
  5
244
100
AcDbEntity
  8
0
100
AcDbSpline
 62
7
  6
BYLAYER
 70
0
 71
3
 72
13
 73
9
 74
0
 42
0.0000001
 43
0.0000001
 44
0.0000000001
 40
0.0
 40
0.0
 40
0.0
 40
0.0
 40
0.2454488372
 40
0.4937870452
 40
0.6191482223
 40
0.745317738
 40
0.8722868338
 40
1.0
 40
1.0
 40
1.0
 40
1.0
 10
23.7794812577
 20
24.3153421392
 30
0.0
 10
23.8757820191
 20
24.5228424996
 30
0.0
 10
24.0787838719
 20
24.9360836279
 30
0.0
 10
24.3609665029
 20
25.439834789
 30
0.0
 10
24.6073654884
 20
25.8353033162
 30
0.0
 10
24.8037423761
 20
26.1284350086
 30
0.0
 10
25.0113751311
 20
26.4164085601
 30
0.0
 10
25.15688456
 20
26.6040138114
 30
0.0
 10
25.2314583843
 20
26.6967852172
 30
0.0
  0
SPLINE
  5
245
100
AcDbEntity
  8
0
100
AcDbSpline
 62
7
  6
BYLAYER
 70
0
 71
3
 72
13
 73
9
 74
0
 42
0.0000001
 43
0.0000001
 44
0.0000000001
 40
0.0
 40
0.0
 40
0.0
 40
0.0
 40
0.1235472241
 40
0.2476900725
 40
0.3723270963
 40
0.4973705625
 40
0.7483197754
 40
1.0
 40
1.0
 40
1.0
 40
1.0
 10
27.3527875598
 20
25.4720629536
 30
0.0
 10
27.2778113157
 20
25.3787909292
 30
0.0
 10
27.124215334
 20
25.1944094589
 30
0.0
 10
26.8839877534
 20
24.925333122
 30
0.0
 10
26.6340167679
 20
24.6632767592
 30
0.0
 10
26.2885369643
 20
24.3229002511
 30
0.0
 10
25.8372476172
 20
23.9150352879
 30
0.0
 10
25.460661004
 20
23.6062111272
 30
0.0
 10
25.2692455004
 20
23.4552458106
 30
0.0
  0
SPLINE
  5
246
100
AcDbEntity
  8
0
100
AcDbSpline
 62
7
  6
BYLAYER
 70
0
 71
3
 72
11
 73
7
 74
0
 42
0.0000001
 43
0.0000001
 44
0.0000000001
 40
0.0
 40
0.0
 40
0.0
 40
0.0
 40
0.2602536681
 40
0.5147427021
 40
0.7618353688
 40
1.0
 40
1.0
 40
1.0
 40
1.0
 10
25.2692455004
 20
23.4552458106
 30
0.0
 10
25.3167110194
 20
23.2379795577
 30
0.0
 10
25.4035980895
 20
22.8066715913
 30
0.0
 10
25.5047650559
 20
22.163329186
 30
0.0
 10
25.5695002651
 20
21.5341808253
 30
0.0
 10
25.5850279667
 20
21.119408627
 30
0.0
 10
25.5850279667
 20
20.9158933915
 30
0.0
  0
SPLINE
  5
247
100
AcDbEntity
  8
0
100
AcDbSpline
 62
7
  6
BYLAYER
 70
0
 71
3
 72
13
 73
9
 74
0
 42
0.0000001
 43
0.0000001
 44
0.0000000001
 40
0.0
 40
0.0
 40
0.0
 40
0.0
 40
0.2454488372
 40
0.4937870452
 40
0.6191482223
 40
0.745317738
 40
0.8722868338
 40
1.0
 40
1.0
 40
1.0
 40
1.0
 10
28.8047646865
 20
27.8535060316
 30
0.0
 10
28.708463925
 20
27.6460056711
 30
0.0
 10
28.5054620722
 20
27.2327645428
 30
0.0
 10
28.2232794413
 20
26.7290133818
 30
0.0
 10
27.9768804557
 20
26.3335448545
 30
0.0
 10
27.7805035681
 20
26.0404131622
 30
0.0
 10
27.572870813
 20
25.7524396107
 30
0.0
 10
27.4273613841
 20
25.5648343594
 30
0.0
 10
27.3527875598
 20
25.4720629536
 30
0.0
  0
SPLINE
  5
248
100
AcDbEntity
  8
0
100
AcDbSpline
 62
7
  6
BYLAYER
 70
0
 71
3
 72
11
 73
7
 74
0
 42
0.0000001
 43
0.0000001
 44
0.0000000001
 40
0.0
 40
0.0
 40
0.0
 40
0.0
 40
0.2238686444
 40
0.4673674335
 40
0.7272282874
 40
1.0
 40
1.0
 40
1.0
 40
1.0
 10
30.8883067459
 20
27.513283723
 30
0.0
 10
30.7313091004
 20
27.527307912
 30
0.0
 10
30.4042469007
 20
27.5646450193
 30
0.0
 10
29.8979603038
 20
27.6416622799
 30
0.0
 10
29.3601940247
 20
27.7390806327
 30
0.0
 10
28.9926692864
 20
27.8137960393
 30
0.0
 10
28.8047646865
 20
27.8535060316
 30
0.0
  0
SPLINE
  5
249
100
AcDbEntity
  8
0
100
AcDbSpline
 62
7
  6
BYLAYER
 70
0
 71
3
 72
11
 73
7
 74
0
 42
0.0000001
 43
0.0000001
 44
0.0000000001
 40
0.0
 40
0.0
 40
0.0
 40
0.0
 40
0.2313301485
 40
0.4741978562
 40
0.7300828156
 40
1.0
 40
1.0
 40
1.0
 40
1.0
 10
27.3527875598
 20
18.4009445987
 30
0.0
 10
27.4493274907
 20
18.3923209392
 30
0.0
 10
27.6487087873
 20
18.3889794768
 30
0.0
 10
27.9533875335
 20
18.4234307156
 30
0.0
 10
28.2676576416
 20
18.4967432605
 30
0.0
 10
28.4761894924
 20
18.5690850655
 30
0.0
 10
28.5812249179
 20
18.611005395
 30
0.0
  0
SPLINE
  5
24A
100
AcDbEntity
  8
0
100
AcDbSpline
 62
7
  6
BYLAYER
 70
0
 71
3
 72
23
 73
19
 74
0
 42
0.0000001
 43
0.0000001
 44
0.0000000001
 40
0.0
 40
0.0
 40
0.0
 40
0.0
 40
0.0772103336
 40
0.1518235751
 40
0.2237646168
 40
0.2930593587
 40
0.3597892382
 40
0.4240805615
 40
0.4861128697
 40
0.5461338393
 40
0.6044503639
 40
0.6614293115
 40
0.7174850172
 40
0.7730676446
 40
0.828647703
 40
0.8847057637
 40
0.9416971716
 40
1.0
 40
1.0
 40
1.0
 40
1.0
 10
25.5850279667
 20
20.9158933915
 30
0.0
 10
25.5850279667
 20
20.8283315086
 30
0.0
 10
25.5898317398
 20
20.6561050165
 30
0.0
 10
25.6122222528
 20
20.4031700548
 30
0.0
 10
25.6496479094
 20
20.1610708357
 30
0.0
 10
25.7019283025
 20
19.9308784042
 30
0.0
 10
25.7688859985
 20
19.7135549676
 30
0.0
 10
25.8502284794
 20
19.5100100513
 30
0.0
 10
25.9456810665
 20
19.3211423553
 30
0.0
 10
26.0548284775
 20
19.1477645063
 30
0.0
 10
26.1772666591
 20
18.990671087
 30
0.0
 10
26.3124574749
 20
18.8505563424
 30
0.0
 10
26.4598520085
 20
18.7281094025
 30
0.0
 10
26.6187585716
 20
18.6238708192
 30
0.0
 10
26.7884803117
 20
18.5383594453
 30
0.0
 10
26.9682382912
 20
18.4719323319
 30
0.0
 10
27.1571634574
 20
18.4249187633
 30
0.0
 10
27.2869303295
 20
18.4068274529
 30
0.0
 10
27.3527875598
 20
18.4009445987
 30
0.0
  0
SPLINE
  5
24B
100
AcDbEntity
  8
0
100
AcDbSpline
 62
7
  6
BYLAYER
 70
0
 71
3
 72
18
 73
14
 74
0
 42
0.0000001
 43
0.0000001
 44
0.0000000001
 40
0.0
 40
0.0
 40
0.0
 40
0.0
 40
0.1298342557
 40
0.2611601978
 40
0.3924862804
 40
0.522320965
 40
0.6492247245
 40
0.7111697463
 40
0.7718928688
 40
0.8312520934
 40
0.8891309916
 40
0.9454211837
 40
1.0
 40
1.0
 40
1.0
 40
1.0
 10
27.3527875598
 20
25.4720629536
 30
0.0
 10
27.2179437595
 20
25.3043144303
 30
0.0
 10
26.9600410786
 20
24.955951831
 30
0.0
 10
26.6134675903
 20
24.4046281076
 30
0.0
 10
26.3092751357
 20
23.8287768559
 30
0.0
 10
26.05265829
 20
23.2382110726
 30
0.0
 10
25.8806467324
 20
22.7380407822
 30
0.0
 10
25.7710178641
 20
22.3390036075
 30
0.0
 10
25.7037430078
 20
22.044746743
 30
0.0
 10
25.6510663313
 20
21.7543754851
 30
0.0
 10
25.6131947202
 20
21.4691037873
 30
0.0
 10
25.5903244416
 20
21.1901900195
 30
0.0
 10
25.5850279667
 20
21.0063687741
 30
0.0
 10
25.5850279667
 20
20.9158933915
 30
0.0
  0
SPLINE
  5
24C
100
AcDbEntity
  8
0
100
AcDbSpline
 62
7
  6
BYLAYER
 70
0
 71
3
 72
13
 73
9
 74
0
 42
0.0000001
 43
0.0000001
 44
0.0000000001
 40
0.0
 40
0.0
 40
0.0
 40
0.0
 40
0.1142644905
 40
0.2321128125
 40
0.3532889632
 40
0.4775602415
 40
0.7343157112
 40
1.0
 40
1.0
 40
1.0
 40
1.0
 10
29.1205471528
 20
27.0396262465
 30
0.0
 10
29.042194279
 20
26.9943894637
 30
0.0
 10
28.8856499074
 20
26.8978936469
 30
0.0
 10
28.6555407195
 20
26.7386312939
 30
0.0
 10
28.4274244732
 20
26.5631969219
 30
0.0
 10
28.1239843279
 20
26.3060136347
 30
0.0
 10
27.7564298857
 20
25.9485010153
 30
0.0
 10
27.4845870138
 20
25.6360242462
 30
0.0
 10
27.3527875598
 20
25.4720629536
 30
0.0
  0
SPLINE
  5
24D
100
AcDbEntity
  8
0
100
AcDbSpline
 62
7
  6
BYLAYER
 70
0
 71
3
 72
15
 73
11
 74
0
 42
0.0000001
 43
0.0000001
 44
0.0000000001
 40
0.0
 40
0.0
 40
0.0
 40
0.0
 40
0.1098775931
 40
0.2234861512
 40
0.3412133349
 40
0.4633930863
 40
0.5902737579
 40
0.722003028
 40
0.8586240371
 40
1.0
 40
1.0
 40
1.0
 40
1.0
 10
30.8883067459
 20
27.513283723
 30
0.0
 10
30.8205244742
 20
27.519338536
 30
0.0
 10
30.6819520855
 20
27.5246414215
 30
0.0
 10
30.470677132
 20
27.5128831922
 30
0.0
 10
30.2537127837
 20
27.4815598984
 30
0.0
 10
30.0320325012
 20
27.4308821096
 30
0.0
 10
29.8065461476
 20
27.3610653476
 30
0.0
 10
29.5781710235
 20
27.2724322934
 30
0.0
 10
29.3479293013
 20
27.1653580719
 30
0.0
 10
29.1963769096
 20
27.0834063156
 30
0.0
 10
29.1205471528
 20
27.0396262465
 30
0.0
  0
SPLINE
  5
24E
100
AcDbEntity
  8
0
100
AcDbSpline
 62
7
  6
BYLAYER
 70
0
 71
3
 72
21
 73
17
 74
0
 42
0.0000001
 43
0.0000001
 44
0.0000000001
 40
0.0
 40
0.0
 40
0.0
 40
0.0
 40
0.1453219718
 40
0.214583877
 40
0.2816737286
 40
0.409791878
 40
0.4713008201
 40
0.5313977541
 40
0.5903697413
 40
0.6485332037
 40
0.7062278161
 40
0.7638063152
 40
0.8216319147
 40
0.8800640976
 40
0.9394292391
 40
1.0
 40
1.0
 40
1.0
 40
1.0
 10
32.6146763716
 20
25.5972997237
 30
0.0
 10
32.5952208065
 20
25.7315914113
 30
0.0
 10
32.5555275535
 20
25.9286547872
 30
0.0
 10
32.4784318621
 20
26.1802952307
 30
0.0
 10
32.3899711979
 20
26.4110020706
 30
0.0
 10
32.2798284237
 20
26.6252219589
 30
0.0
 10
32.1479152582
 20
26.8177892551
 30
0.0
 10
32.0407546195
 20
26.9482683577
 30
0.0
 10
31.924405289
 20
27.0662818466
 30
0.0
 10
31.799202276
 20
27.171420901
 30
0.0
 10
31.6655783084
 20
27.2633585547
 30
0.0
 10
31.5239508955
 20
27.3417686072
 30
0.0
 10
31.3747848289
 20
27.4064057063
 30
0.0
 10
31.2185582332
 20
27.457057493
 30
0.0
 10
31.0558307606
 20
27.4935592568
 30
0.0
 10
30.9446400938
 20
27.5082516123
 30
0.0
 10
30.8883067459
 20
27.513283723
 30
0.0
  0
SPLINE
  5
24F
100
AcDbEntity
  8
0
100
AcDbSpline
 62
7
  6
BYLAYER
 70
0
 71
3
 72
45
 73
41
 74
0
 42
0.0000001
 43
0.0000001
 44
0.0000000001
 40
0.0
 40
0.0
 40
0.0
 40
0.0
 40
0.0309831394
 40
0.0603684923
 40
0.0881466176
 40
0.1014633868
 40
0.1144162074
 40
0.1393051188
 40
0.1630635061
 40
0.1746251236
 40
0.1860302605
 40
0.1973288552
 40
0.208573579
 40
0.2198183087
 40
0.2311169193
 40
0.2425220959
 40
0.2540838155
 40
0.2778426486
 40
0.3027315985
 40
0.3156843534
 40
0.3290015824
 40
0.3567819383
 40
0.3861617551
 40
0.4171494582
 40
0.4496951657
 40
0.48369927
 40
0.5190221504
 40
0.5554914152
 40
0.5929077199
 40
0.6310516132
 40
0.6696888651
 40
0.7085750866
 40
0.74746134
 40
0.7860985673
 40
0.8242421455
 40
0.8616586675
 40
0.8981278577
 40
0.9334487972
 40
0.9674587504
 40
1.0
 40
1.0
 40
1.0
 40
1.0
 10
29.1205471528
 20
26.2231238294
 30
0.0
 10
29.2107614206
 20
26.2752087503
 30
0.0
 10
29.3908635749
 20
26.3694888403
 30
0.0
 10
29.6655532908
 20
26.481922869
 30
0.0
 10
29.8935739009
 20
26.5483957446
 30
0.0
 10
30.0719775365
 20
26.5834890206
 30
0.0
 10
30.2425737013
 20
26.6061555182
 30
0.0
 10
30.450240236
 20
26.6133835602
 30
0.0
 10
30.6522753199
 20
26.5908373045
 30
0.0
 10
30.8053402529
 20
26.5548147164
 30
0.0
 10
30.9150909671
 20
26.519343526
 30
0.0
 10
31.0205119477
 20
26.4752399562
 30
0.0
 10
31.1213406424
 20
26.422610071
 30
0.0
 10
31.2173322207
 20
26.3616022159
 30
0.0
 10
31.3082359985
 20
26.2923544239
 30
0.0
 10
31.3938289818
 20
26.2150408639
 30
0.0
 10
31.5015566145
 20
26.1004900374
 30
0.0
 10
31.6220958823
 20
25.9367904523
 30
0.0
 10
31.7196690525
 20
25.7533302852
 30
0.0
 10
31.7853371736
 20
25.5942548454
 30
0.0
 10
31.8441465223
 20
25.4221958737
 30
0.0
 10
31.9005766205
 20
25.1914990075
 30
0.0
 10
31.9405671842
 20
24.8973738291
 30
0.0
 10
31.9534860172
 20
24.5848336304
 30
0.0
 10
31.9392431775
 20
24.2568516788
 30
0.0
 10
31.8980171816
 20
23.9165148488
 30
0.0
 10
31.8302153168
 20
23.5670488986
 30
0.0
 10
31.736479939
 20
23.2117766654
 30
0.0
 10
31.6177160588
 20
22.8540819967
 30
0.0
 10
31.4750635479
 20
22.4973772697
 30
0.0
 10
31.3098773757
 20
22.1450750986
 30
0.0
 10
31.1237399166
 20
21.8005443444
 30
0.0
 10
30.9184385381
 20
21.4670778979
 30
0.0
 10
30.6959317273
 20
21.1478707374
 30
0.0
 10
30.4583460677
 20
20.8459756311
 30
0.0
 10
30.2079552597
 20
20.5642758427
 30
0.0
 10
29.9471547597
 20
20.3054672119
 30
0.0
 10
29.6784009182
 20
20.0719964794
 30
0.0
 10
29.4042847145
 20
19.8661489086
 30
0.0
 10
29.2152982035
 20
19.7458087104
 30
0.0
 10
29.1205471528
 20
19.6911044923
 30
0.0
  0
SPLINE
  5
250
100
AcDbEntity
  8
0
100
AcDbSpline
 62
7
  6
BYLAYER
 70
0
 71
3
 72
29
 73
25
 74
0
 42
0.0000001
 43
0.0000001
 44
0.0000000001
 40
0.0
 40
0.0
 40
0.0
 40
0.0
 40
0.0742735625
 40
0.144716891
 40
0.2113073508
 40
0.24323067
 40
0.274281525
 40
0.33394591
 40
0.3909001712
 40
0.4186159948
 40
0.4459566938
 40
0.4730419803
 40
0.499998117
 40
0.5269542577
 40
0.5540395519
 40
0.5813802966
 40
0.6090962973
 40
0.6660514427
 40
0.7257156831
 40
0.7567662478
 40
0.788690529
 40
0.8552860412
 40
0.9257157956
 40
1.0
 40
1.0
 40
1.0
 40
1.0
 10
29.1205471528
 20
19.6911044923
 30
0.0
 10
29.0303333144
 20
19.6390198194
 30
0.0
 10
28.850232014
 20
19.5447401317
 30
0.0
 10
28.5755436138
 20
19.4323064172
 30
0.0
 10
28.347524073
 20
19.3658335257
 30
0.0
 10
28.1691212319
 20
19.3307400512
 30
0.0
 10
27.9985257791
 20
19.3080732432
 30
0.0
 10
27.7908600637
 20
19.3008446025
 30
0.0
 10
27.5888256677
 20
19.3233899475
 30
0.0
 10
27.4357611562
 20
19.3594116432
 30
0.0
 10
27.3260107054
 20
19.3948820885
 30
0.0
 10
27.2205899264
 20
19.4389848328
 30
0.0
 10
27.1197613699
 20
19.4916138194
 30
0.0
 10
27.0237698633
 20
19.5526207045
 30
0.0
 10
26.9328660863
 20
19.6218674577
 30
0.0
 10
26.847273034
 20
19.6991799187
 30
0.0
 10
26.7395452325
 20
19.8137291614
 30
0.0
 10
26.6190055439
 20
19.9774266348
 30
0.0
 10
26.5214316715
 20
20.1608846011
 30
0.0
 10
26.4557628576
 20
20.3199583769
 30
0.0
 10
26.3969527082
 20
20.4920149569
 30
0.0
 10
26.3405213874
 20
20.7227134797
 30
0.0
 10
26.3005291691
 20
21.0168177179
 30
0.0
 10
26.2921340734
 20
21.2199265206
 30
0.0
 10
26.2921333781
 20
21.3241112583
 30
0.0
  0
SPLINE
  5
251
100
AcDbEntity
  8
0
100
AcDbSpline
 62
7
  6
BYLAYER
 70
0
 71
3
 72
11
 73
7
 74
0
 42
0.0000001
 43
0.0000001
 44
0.0000000001
 40
0.0
 40
0.0
 40
0.0
 40
0.0
 40
0.2100625315
 40
0.444062914
 40
0.7063986533
 40
1.0
 40
1.0
 40
1.0
 40
1.0
 10
32.3402838725
 20
27.5376873493
 30
0.0
 10
32.2395610761
 20
27.5221074893
 30
0.0
 10
32.0254466725
 20
27.4964856048
 30
0.0
 10
31.6829437856
 20
27.4785369601
 30
0.0
 10
31.2994671354
 20
27.4825658688
 30
0.0
 10
31.0301947571
 20
27.500609238
 30
0.0
 10
30.8883067459
 20
27.513283723
 30
0.0
  0
SPLINE
  5
252
100
AcDbEntity
  8
0
100
AcDbSpline
 62
7
  6
BYLAYER
 70
0
 71
3
 72
13
 73
9
 74
0
 42
0.0000001
 43
0.0000001
 44
0.0000000001
 40
0.0
 40
0.0
 40
0.0
 40
0.0
 40
0.1342229311
 40
0.2655705068
 40
0.3940781487
 40
0.5198808741
 40
0.764105829
 40
1.0
 40
1.0
 40
1.0
 40
1.0
 10
25.5850279667
 20
20.9158933915
 30
0.0
 10
25.5850279667
 20
20.8172408776
 30
0.0
 10
25.5814964302
 20
20.6220277232
 30
0.0
 10
25.5652872087
 20
20.3327708761
 30
0.0
 10
25.5385429673
 20
20.0505071765
 30
0.0
 10
25.4901045628
 20
19.6872296691
 30
0.0
 10
25.4070005001
 20
19.2492958243
 30
0.0
 10
25.3178689257
 20
18.9075890763
 30
0.0
 10
25.2692455004
 20
18.7411669074
 30
0.0
  0
SPLINE
  5
253
100
AcDbEntity
  8
0
100
AcDbSpline
 62
7
  6
BYLAYER
 70
0
 71
3
 72
15
 73
11
 74
0
 42
0.0000001
 43
0.0000001
 44
0.0000000001
 40
0.0
 40
0.0
 40
0.0
 40
0.0
 40
0.1485415192
 40
0.2895051555
 40
0.4227351372
 40
0.5486406985
 40
0.6679984166
 40
0.7819399768
 40
0.8919879602
 40
1.0
 40
1.0
 40
1.0
 40
1.0
 10
24.5535022155
 20
28.8598488171
 30
0.0
 10
24.643688771
 20
28.9119177383
 30
0.0
 10
24.8237929165
 20
29.0061716819
 30
0.0
 10
25.0984901915
 20
29.1186524773
 30
0.0
 10
25.3683385751
 20
29.1973059092
 30
0.0
 10
25.6307052073
 20
29.2413221931
 30
0.0
 10
25.8831830346
 20
29.2500857928
 30
0.0
 10
26.1233551456
 20
29.2233232039
 30
0.0
 10
26.3486460755
 20
29.1610112442
 30
0.0
 10
26.4878866369
 20
29.0958181514
 30
0.0
 10
26.5534625846
 20
29.0579505789
 30
0.0
  0
SPLINE
  5
254
100
AcDbEntity
  8
0
100
AcDbSpline
 62
7
  6
BYLAYER
 70
0
 71
3
 72
15
 73
11
 74
0
 42
0.0000001
 43
0.0000001
 44
0.0000000001
 40
0.0
 40
0.0
 40
0.0
 40
0.0
 40
0.1080100592
 40
0.2180575887
 40
0.3320020016
 40
0.4513533904
 40
0.5772583837
 40
0.7105005509
 40
0.8514755188
 40
1.0
 40
1.0
 40
1.0
 40
1.0
 10
31.920867809
 20
18.1649763498
 30
0.0
 10
31.965953151
 20
18.1389475532
 30
0.0
 10
32.0616833403
 20
18.0941383327
 30
0.0
 10
32.2165665119
 20
18.0512803894
 30
0.0
 10
32.3816853927
 20
18.0329016843
 30
0.0
 10
32.555261862
 20
18.0389049578
 30
0.0
 10
32.7356407381
 20
18.0691769383
 30
0.0
 10
32.92117243
 20
18.1232520312
 30
0.0
 10
33.1100259429
 20
18.2005932022
 30
0.0
 10
33.2338479068
 20
18.2653854626
 30
0.0
 10
33.2958444703
 20
18.3011780176
 30
0.0
  0
SPLINE
  5
255
100
AcDbEntity
  8
0
100
AcDbSpline
 62
7
  6
BYLAYER
 70
0
 71
3
 72
15
 73
11
 74
0
 42
0.0000001
 43
0.0000001
 44
0.0000000001
 40
0.0
 40
0.0
 40
0.0
 40
0.0
 40
0.148541072
 40
0.2895046219
 40
0.4227341418
 40
0.548638914
 40
0.667996025
 40
0.7819381288
 40
0.8919876537
 40
1.0
 40
1.0
 40
1.0
 40
1.0
 10
19.5745658491
 20
31.7343740308
 30
0.0
 10
19.6647521951
 20
31.7864428312
 30
0.0
 10
19.8448561864
 20
31.8806965432
 30
0.0
 10
20.1195528139
 20
31.9931775966
 30
0.0
 10
20.389400396
 20
32.0718311077
 30
0.0
 10
20.651765738
 20
32.1158480522
 30
0.0
 10
20.9042430786
 20
32.1246131758
 30
0.0
 10
21.1444165516
 20
32.0978508586
 30
0.0
 10
21.3697089778
 20
32.035537961
 30
0.0
 10
21.5089518459
 20
31.9703465302
 30
0.0
 10
21.5745281848
 20
31.9324791011
 30
0.0
  0
SPLINE
  5
256
100
AcDbEntity
  8
0
100
AcDbSpline
 62
7
  6
BYLAYER
 70
0
 71
3
 72
13
 73
9
 74
0
 42
0.0000001
 43
0.0000001
 44
0.0000000001
 40
0.0
 40
0.0
 40
0.0
 40
0.0
 40
0.1665420102
 40
0.2662836597
 40
0.3801021881
 40
0.5095197285
 40
0.6556695514
 40
1.0
 40
1.0
 40
1.0
 40
1.0
 10
4.9282170888
 20
35.7251329479
 30
0.0
 10
4.9410002468
 20
35.7325133272
 30
0.0
 10
4.9587312958
 20
35.7490207708
 30
0.0
 10
4.9783477975
 20
35.776392542
 30
0.0
 10
4.9933980337
 20
35.8028800461
 30
0.0
 10
5.0079559092
 20
35.8341947343
 30
0.0
 10
5.0280102103
 20
35.8853729979
 30
0.0
 10
5.0410559931
 20
35.9268970124
 30
0.0
 10
5.0494496245
 20
35.9562382757
 30
0.0
  0
SPLINE
  5
257
100
AcDbEntity
  8
0
100
AcDbSpline
 62
7
  6
BYLAYER
 70
0
 71
3
 72
15
 73
11
 74
0
 42
0.0000001
 43
0.0000001
 44
0.0000000001
 40
0.0
 40
0.0
 40
0.0
 40
0.0
 40
0.148541072
 40
0.2895046219
 40
0.4227341418
 40
0.548638914
 40
0.667996025
 40
0.7819381288
 40
0.8919876537
 40
1.0
 40
1.0
 40
1.0
 40
1.0
 10
14.8015752186
 20
34.4899991084
 30
0.0
 10
14.8917615644
 20
34.5420679086
 30
0.0
 10
15.0718655553
 20
34.6363216204
 30
0.0
 10
15.3465621822
 20
34.7488026736
 30
0.0
 10
15.6164097637
 20
34.8274561845
 30
0.0
 10
15.8787751051
 20
34.871473129
 30
0.0
 10
16.1312524451
 20
34.8802382526
 30
0.0
 10
16.3714259176
 20
34.8534759353
 30
0.0
 10
16.5967183433
 20
34.7911630379
 30
0.0
 10
16.7359612111
 20
34.7259716073
 30
0.0
 10
16.8015375498
 20
34.6881041782
 30
0.0
  0
SPLINE
  5
258
100
AcDbEntity
  8
0
100
AcDbSpline
 62
7
  6
BYLAYER
 70
0
 71
3
 72
21
 73
17
 74
0
 42
0.0000001
 43
0.0000001
 44
0.0000000001
 40
0.0
 40
0.0
 40
0.0
 40
0.0
 40
0.0558448602
 40
0.1141903919
 40
0.1748008281
 40
0.2373764864
 40
0.3015787806
 40
0.3670289896
 40
0.499996695
 40
0.6329628352
 40
0.698415588
 40
0.7626175039
 40
0.8251878078
 40
0.8858075952
 40
0.9441821258
 40
1.0
 40
1.0
 40
1.0
 40
1.0
 10
11.9731598745
 20
30.203356962
 30
0.0
 10
11.9731592706
 20
30.2922640884
 30
0.0
 10
11.9810679906
 20
30.4741250879
 30
0.0
 10
12.0145373541
 20
30.7506327662
 30
0.0
 10
12.0696505805
 20
31.0345702851
 30
0.0
 10
12.1457838672
 20
31.3232309932
 30
0.0
 10
12.2422958484
 20
31.6138575093
 30
0.0
 10
12.3976151385
 20
32.0022616451
 30
0.0
 10
12.635944028
 20
32.4742960008
 30
0.0
 10
12.9255649109
 20
32.916723119
 30
0.0
 10
13.1842745244
 20
33.2454357332
 30
0.0
 10
13.3876975582
 20
33.4743333021
 30
0.0
 10
13.5996093515
 20
33.6846144311
 30
0.0
 10
13.8179928162
 20
33.8743446517
 30
0.0
 10
14.0407491273
 20
34.0415753273
 30
0.0
 10
14.1942841868
 20
34.1393709786
 30
0.0
 10
14.2712429247
 20
34.1838028614
 30
0.0
  0
SPLINE
  5
259
100
AcDbEntity
  8
0
100
AcDbSpline
 62
7
  6
BYLAYER
 70
0
 71
3
 72
10
 73
6
 74
0
 42
0.0000001
 43
0.0000001
 44
0.0000000001
 40
0.0
 40
0.0
 40
0.0
 40
0.0
 40
0.4665514838
 40
0.7260225017
 40
1.0
 40
1.0
 40
1.0
 40
1.0
 10
5.0494496245
 20
35.9562382757
 30
0.0
 10
5.0602280884
 20
35.9939160966
 30
0.0
 10
5.0751560752
 20
36.0530739232
 30
0.0
 10
5.0939075532
 20
36.1349484266
 30
0.0
 10
5.1035767343
 20
36.1787026849
 30
0.0
 10
5.1084147414
 20
36.201201853
 30
0.0
  0
LINE
  5
25A
100
AcDbEntity
  8
0
100
AcDbLine
 62
7
  6
BYLAYER
 10
4.5449648079
 20
35.8758803037
 11
4.6842096068
 21
35.7949574091
  0
SPLINE
  5
25B
100
AcDbEntity
  8
0
100
AcDbSpline
 62
7
  6
BYLAYER
 70
0
 71
3
 72
23
 73
19
 74
0
 42
0.0000001
 43
0.0000001
 44
0.0000000001
 40
0.0
 40
0.0
 40
0.0
 40
0.0
 40
0.0667108835
 40
0.1362293686
 40
0.2065359609
 40
0.2761512925
 40
0.3440789629
 40
0.4097050337
 40
0.4727281906
 40
0.5331803064
 40
0.5915671046
 40
0.6489644969
 40
0.7066097137
 40
0.765112396
 40
0.8242850032
 40
0.8835634603
 40
0.9423288104
 40
1.0
 40
1.0
 40
1.0
 40
1.0
 10
5.108416183
 20
36.2012026853
 30
0.0
 10
5.1182739382
 20
36.2470462089
 30
0.0
 10
5.1376282274
 20
36.3408275814
 30
0.0
 10
5.1672785949
 20
36.4829422589
 30
0.0
 10
5.1987737426
 20
36.626756621
 30
0.0
 10
5.2332857304
 20
36.7687409371
 30
0.0
 10
5.2720975146
 20
36.9062236001
 30
0.0
 10
5.317070838
 20
37.0369849817
 30
0.0
 10
5.3707375785
 20
37.1588312354
 30
0.0
 10
5.4364802171
 20
37.2689919506
 30
0.0
 10
5.5181300704
 20
37.3632864958
 30
0.0
 10
5.6176288203
 20
37.4357824656
 30
0.0
 10
5.7317787947
 20
37.4819521423
 30
0.0
 10
5.8541488053
 20
37.5023228707
 30
0.0
 10
5.9790771368
 20
37.5002859629
 30
0.0
 10
6.1022837141
 20
37.4791414227
 30
0.0
 10
6.2202605515
 20
37.4413614441
 30
0.0
 10
6.2943034879
 20
37.405717735
 30
0.0
 10
6.3294100211
 20
37.3854493115
 30
0.0
  0
SPLINE
  5
25C
100
AcDbEntity
  8
0
100
AcDbSpline
 62
7
  6
BYLAYER
 70
0
 71
3
 72
16
 73
12
 74
0
 42
0.0000001
 43
0.0000001
 44
0.0000000001
 40
0.0
 40
0.0
 40
0.0
 40
0.0
 40
0.1080063215
 40
0.218048366
 40
0.3319786943
 40
0.4513301755
 40
0.5134424923
 40
0.5773017415
 40
0.7105181524
 40
0.8514014732
 40
1.0
 40
1.0
 40
1.0
 40
1.0
 10
12.8016128873
 20
27.7598747015
 30
0.0
 10
12.736034288
 20
27.7977434359
 30
0.0
 10
12.6099369114
 20
27.8857144835
 30
0.0
 10
12.4433394625
 20
28.049690752
 30
0.0
 10
12.3000461514
 20
28.2442721929
 30
0.0
 10
12.2024694955
 20
28.4277559198
 30
0.0
 10
12.1367984271
 20
28.5868268032
 30
0.0
 10
12.0779774767
 20
28.758882523
 30
0.0
 10
12.0215626185
 20
28.9895852367
 30
0.0
 10
11.9815438234
 20
29.2836900841
 30
0.0
 10
11.9731692903
 20
29.4868028851
 30
0.0
 10
11.9731685401
 20
29.5909906344
 30
0.0
  0
SPLINE
  5
25D
100
AcDbEntity
  8
0
100
AcDbSpline
 62
7
  6
BYLAYER
 70
0
 71
3
 72
15
 73
11
 74
0
 42
0.0000001
 43
0.0000001
 44
0.0000000001
 40
0.0
 40
0.0
 40
0.0
 40
0.0
 40
0.1485589136
 40
0.2894781516
 40
0.4226864624
 40
0.5485974926
 40
0.6679594854
 40
0.7819025069
 40
0.8919642371
 40
1.0
 40
1.0
 40
1.0
 40
1.0
 10
35.240366761
 20
21.6692387443
 30
0.0
 10
35.240366761
 20
21.7408447644
 30
0.0
 10
35.2345966266
 20
21.8804703892
 30
0.0
 10
35.2071303425
 20
22.0826708685
 30
0.0
 10
35.1612168084
 20
22.2703550078
 30
0.0
 10
35.0972295499
 20
22.4416943229
 30
0.0
 10
35.0156826864
 20
22.5950570124
 30
0.0
 10
34.917169109
 20
22.7288589769
 30
0.0
 10
34.8026153971
 20
22.8416005435
 30
0.0
 10
34.7159156003
 20
22.902101533
 30
0.0
 10
34.670820196
 20
22.9281413841
 30
0.0
  0
SPLINE
  5
25E
100
AcDbEntity
  8
0
100
AcDbSpline
 62
7
  6
BYLAYER
 70
0
 71
3
 72
16
 73
12
 74
0
 42
0.0000001
 43
0.0000001
 44
0.0000000001
 40
0.0
 40
0.0
 40
0.0
 40
0.0
 40
0.1485985268
 40
0.2894818476
 40
0.4226982585
 40
0.4865575077
 40
0.5486698245
 40
0.6680213057
 40
0.781951634
 40
0.8919936785
 40
1.0
 40
1.0
 40
1.0
 40
1.0
 10
33.6875598806
 20
23.5863510184
 30
0.0
 10
33.6875591303
 20
23.6905387681
 30
0.0
 10
33.6791845972
 20
23.89365157
 30
0.0
 10
33.6391658019
 20
24.1877564188
 30
0.0
 10
33.5827509434
 20
24.4184591334
 30
0.0
 10
33.5239299928
 20
24.590514854
 30
0.0
 10
33.4582589241
 20
24.7495857381
 30
0.0
 10
33.3606822678
 20
24.9330694658
 30
0.0
 10
33.217388956
 20
25.1276509076
 30
0.0
 10
33.0507915064
 20
25.2916271768
 30
0.0
 10
32.9246941292
 20
25.3795982248
 30
0.0
 10
32.8591155296
 20
25.4174669593
 30
0.0
  0
SPLINE
  5
25F
100
AcDbEntity
  8
0
100
AcDbSpline
 62
7
  6
BYLAYER
 70
0
 71
3
 72
9
 73
5
 74
0
 42
0.0000001
 43
0.0000001
 44
0.0000000001
 40
0.0
 40
0.0
 40
0.0
 40
0.0
 40
0.4960356882
 40
1.0
 40
1.0
 40
1.0
 40
1.0
 10
22.5535418464
 20
22.1297276893
 30
0.0
 10
22.49327252
 20
22.1645308934
 30
0.0
 10
22.3771114033
 20
22.2443678722
 30
0.0
 10
22.2746987483
 20
22.3411434672
 30
0.0
 10
22.2269701672
 20
22.3933135401
 30
0.0
  0
SPLINE
  5
260
100
AcDbEntity
  8
0
100
AcDbSpline
 62
7
  6
BYLAYER
 70
0
 71
3
 72
24
 73
20
 74
0
 42
0.0000001
 43
0.0000001
 44
0.0000000001
 40
0.0
 40
0.0
 40
0.0
 40
0.0
 40
0.0216866874
 40
0.0440074931
 40
0.0909937071
 40
0.1417379411
 40
0.1965670799
 40
0.2554730066
 40
0.318177033
 40
0.3841909055
 40
0.4528704851
 40
0.5234579872
 40
0.59511877
 40
0.6669764019
 40
0.7381507374
 40
0.8077864371
 40
0.8750778506
 40
0.9393525486
 40
1.0
 40
1.0
 40
1.0
 40
1.0
 10
22.2269701672
 20
22.3933135401
 30
0.0
 10
22.1900813436
 20
22.4336351372
 30
0.0
 10
22.1197590894
 20
22.5197234068
 30
0.0
 10
21.9939328816
 20
22.71182679
 30
0.0
 10
21.8672529787
 20
22.988671669
 30
0.0
 10
21.7683656618
 20
23.3617233932
 30
0.0
 10
21.7208732627
 20
23.7747425162
 30
0.0
 10
21.7253281196
 20
24.2203319882
 30
0.0
 10
21.7814390857
 20
24.6906314239
 30
0.0
 10
21.888101609
 20
25.1772232108
 30
0.0
 10
22.0433553192
 20
25.6713404988
 30
0.0
 10
22.244388854
 20
26.1640191671
 30
0.0
 10
22.487538601
 20
26.6462892829
 30
0.0
 10
22.7683507077
 20
27.1093709416
 30
0.0
 10
23.0817209996
 20
27.5448219092
 30
0.0
 10
23.4219449027
 20
27.9446773009
 30
0.0
 10
23.7828635777
 20
28.3017596374
 30
0.0
 10
24.1578979149
 20
28.6094206819
 30
0.0
 10
24.4211472173
 20
28.7834340793
 30
0.0
 10
24.5535022155
 20
28.8598488171
 30
0.0
  0
SPLINE
  5
261
100
AcDbEntity
  8
0
100
AcDbSpline
 62
7
  6
BYLAYER
 70
0
 71
3
 72
15
 73
11
 74
0
 42
0.0000001
 43
0.0000001
 44
0.0000000001
 40
0.0
 40
0.0
 40
0.0
 40
0.0
 40
0.1080123463
 40
0.2180618712
 40
0.332003975
 40
0.451361086
 40
0.5772658582
 40
0.7104953781
 40
0.851458928
 40
1.0
 40
1.0
 40
1.0
 40
1.0
 10
28.8591908494
 20
18.489237452
 30
0.0
 10
28.9247671885
 20
18.4513700228
 30
0.0
 10
29.0640100568
 20
18.3861785919
 30
0.0
 10
29.2893024836
 20
18.3238656942
 30
0.0
 10
29.5294759571
 20
18.2971033768
 30
0.0
 10
29.7819532983
 20
18.3058685004
 30
0.0
 10
30.0443186408
 20
18.3498854451
 30
0.0
 10
30.3141662235
 20
18.4285389564
 30
0.0
 10
30.5888628516
 20
18.54102001
 30
0.0
 10
30.7689668433
 20
18.6352737222
 30
0.0
 10
30.8591531895
 20
18.6873425227
 30
0.0
  0
SPLINE
  5
262
100
AcDbEntity
  8
0
100
AcDbSpline
 62
7
  6
BYLAYER
 70
0
 71
3
 72
14
 73
10
 74
0
 42
0.0000001
 43
0.0000001
 44
0.0000000001
 40
0.0
 40
0.0
 40
0.0
 40
0.0
 40
0.2781500467
 40
0.4085999376
 40
0.5338530459
 40
0.6546267119
 40
0.7718368059
 40
0.8865570353
 40
1.0
 40
1.0
 40
1.0
 40
1.0
 10
20.0587497928
 20
31.9888603393
 30
0.0
 10
20.0342323929
 20
32.1295520156
 30
0.0
 10
19.9823874726
 20
32.3343056025
 30
0.0
 10
19.8774177438
 20
32.5878975451
 30
0.0
 10
19.7853773368
 20
32.7583128387
 30
0.0
 10
19.6788040346
 20
32.9118571958
 30
0.0
 10
19.5583250419
 20
33.0476724183
 30
0.0
 10
19.4245749175
 20
33.164804561
 30
0.0
 10
19.3268614551
 20
33.2301347498
 30
0.0
 10
19.2764216079
 20
33.2592615259
 30
0.0
  0
SPLINE
  5
263
100
AcDbEntity
  8
0
100
AcDbSpline
 62
7
  6
BYLAYER
 70
0
 71
3
 72
16
 73
12
 74
0
 42
0.0000001
 43
0.0000001
 44
0.0000000001
 40
0.0
 40
0.0
 40
0.0
 40
0.0
 40
0.1080063215
 40
0.218048366
 40
0.3319786943
 40
0.4513301755
 40
0.5134424923
 40
0.5773017415
 40
0.7105181524
 40
0.8514014732
 40
1.0
 40
1.0
 40
1.0
 40
1.0
 10
17.5746035134
 20
25.0042496091
 30
0.0
 10
17.509024914
 20
25.0421183435
 30
0.0
 10
17.3829275371
 20
25.1300893913
 30
0.0
 10
17.2163300878
 20
25.2940656602
 30
0.0
 10
17.0730367764
 20
25.4886471015
 30
0.0
 10
16.9754601203
 20
25.6721308289
 30
0.0
 10
16.9097890518
 20
25.8312017125
 30
0.0
 10
16.8509681012
 20
26.0032574328
 30
0.0
 10
16.7945532428
 20
26.2339601469
 30
0.0
 10
16.7545344477
 20
26.528064995
 30
0.0
 10
16.7461599146
 20
26.7311777965
 30
0.0
 10
16.7461591643
 20
26.835365546
 30
0.0
  0
SPLINE
  5
264
100
AcDbEntity
  8
0
100
AcDbSpline
 62
7
  6
BYLAYER
 70
0
 71
3
 72
15
 73
11
 74
0
 42
0.0000001
 43
0.0000001
 44
0.0000000001
 40
0.0
 40
0.0
 40
0.0
 40
0.0
 40
0.1485048349
 40
0.2894884657
 40
0.4227450379
 40
0.5486500903
 40
0.6679948345
 40
0.7819384742
 40
0.891988697
 40
1.0
 40
1.0
 40
1.0
 40
1.0
 10
31.2418763283
 20
23.9777735444
 30
0.0
 10
31.3038641114
 20
24.0135619941
 30
0.0
 10
31.4276836465
 20
24.0783467875
 30
0.0
 10
31.6165365823
 20
24.1556911387
 30
0.0
 10
31.8020770535
 20
24.209775402
 30
0.0
 10
31.9824592675
 20
24.2400462014
 30
0.0
 10
32.1560328048
 20
24.2460493439
 30
0.0
 10
32.321145343
 20
24.2276547406
 30
0.0
 10
32.4760385668
 20
24.1848239139
 30
0.0
 10
32.5717600348
 20
24.1399917474
 30
0.0
 10
32.6168481378
 20
24.1139668076
 30
0.0
  0
SPLINE
  5
265
100
AcDbEntity
  8
0
100
AcDbSpline
 62
7
  6
BYLAYER
 70
0
 71
3
 72
25
 73
21
 74
0
 42
0.0000001
 43
0.0000001
 44
0.0000000001
 40
0.0
 40
0.0
 40
0.0
 40
0.0
 40
0.0623762279
 40
0.1287254749
 40
0.198312566
 40
0.2702901879
 40
0.343667126
 40
0.4173987979
 40
0.4904230993
 40
0.5617095994
 40
0.6303073028
 40
0.6953955392
 40
0.7563433391
 40
0.8127807237
 40
0.8646816877
 40
0.9124572118
 40
0.9351017743
 40
0.9571074821
 40
0.9786678079
 40
1.0
 40
1.0
 40
1.0
 40
1.0
 10
17.2764592766
 20
33.061156456
 30
0.0
 10
17.1327619522
 20
32.9781932624
 30
0.0
 10
16.8472679968
 20
32.7873839175
 30
0.0
 10
16.4429539115
 20
32.4471653457
 30
0.0
 10
16.0564901024
 20
32.0503338937
 30
0.0
 10
15.6961050094
 20
31.6054851677
 30
0.0
 10
15.3694483498
 20
31.1219864272
 30
0.0
 10
15.0834900712
 20
30.610180351
 30
0.0
 10
14.8443234933
 20
30.0809813785
 30
0.0
 10
14.657044168
 20
29.5456658481
 30
0.0
 10
14.5256390074
 20
29.0155999221
 30
0.0
 10
14.4529322136
 20
28.5019635843
 30
0.0
 10
14.4405521971
 20
28.0155033384
 30
0.0
 10
14.489037485
 20
27.5662199513
 30
0.0
 10
14.5978294126
 20
27.1634690909
 30
0.0
 10
14.7405276368
 20
26.8682551544
 30
0.0
 10
14.8831133855
 20
26.6673771685
 30
0.0
 10
15.0013288771
 20
26.5362304588
 30
0.0
 10
15.1320935853
 20
26.4228671591
 30
0.0
 10
15.2273558776
 20
26.3594088377
 30
0.0
 10
15.2764969453
 20
26.3310320491
 30
0.0
  0
SPLINE
  5
266
100
AcDbEntity
  8
0
100
AcDbSpline
 62
7
  6
BYLAYER
 70
0
 71
3
 72
15
 73
11
 74
0
 42
0.0000001
 43
0.0000001
 44
0.0000000001
 40
0.0
 40
0.0
 40
0.0
 40
0.0
 40
0.148526535
 40
0.2894995093
 40
0.422738371
 40
0.5486419018
 40
0.6679935774
 40
0.781938239
 40
0.8919877513
 40
1.0
 40
1.0
 40
1.0
 40
1.0
 10
31.351308918
 20
19.4238894924
 30
0.0
 10
31.3513088508
 20
19.352298715
 30
0.0
 10
31.357106704
 20
19.2126637399
 30
0.0
 10
31.3845565955
 20
19.010434768
 30
0.0
 10
31.4304925253
 20
18.8227174739
 30
0.0
 10
31.4944675675
 20
18.6513639634
 30
0.0
 10
31.5760571353
 20
18.4980334113
 30
0.0
 10
31.6745383163
 20
18.3642192462
 30
0.0
 10
31.7891042178
 20
18.2515118397
 30
0.0
 10
31.8757797198
 20
18.1910067325
 30
0.0
 10
31.920867809
 20
18.1649763498
 30
0.0
  0
SPLINE
  5
267
100
AcDbEntity
  8
0
100
AcDbSpline
 62
7
  6
BYLAYER
 70
0
 71
3
 72
19
 73
15
 74
0
 42
0.0000001
 43
0.0000001
 44
0.0000000001
 40
0.0
 40
0.0
 40
0.0
 40
0.0
 40
0.0558240615
 40
0.1142044853
 40
0.1748302337
 40
0.237407024
 40
0.3670173203
 40
0.4999988531
 40
0.6329825441
 40
0.7625936209
 40
0.8251703325
 40
0.8857955995
 40
0.9441756461
 40
1.0
 40
1.0
 40
1.0
 40
1.0
 10
33.2958444703
 20
22.7919413118
 30
0.0
 10
33.2307261851
 20
22.7543454755
 30
0.0
 10
33.1008132563
 20
22.671596886
 30
0.0
 10
32.9123319278
 20
22.5300970092
 30
0.0
 10
32.727542727
 20
22.3695586394
 30
0.0
 10
32.4856948544
 20
22.1295473718
 30
0.0
 10
32.2045911923
 20
21.7921632263
 30
0.0
 10
31.9121359714
 20
21.3454620536
 30
0.0
 10
31.6715113852
 20
20.8688353793
 30
0.0
 10
31.5198815723
 20
20.456695716
 30
0.0
 10
31.4329512682
 20
20.1272429594
 30
0.0
 10
31.3863164957
 20
19.886942761
 30
0.0
 10
31.3580146983
 20
19.6529639656
 30
0.0
 10
31.3513089886
 20
19.4990818936
 30
0.0
 10
31.351308918
 20
19.4238894924
 30
0.0
  0
SPLINE
  5
268
100
AcDbEntity
  8
0
100
AcDbSpline
 62
7
  6
BYLAYER
 70
0
 71
3
 72
25
 73
21
 74
0
 42
0.0000001
 43
0.0000001
 44
0.0000000001
 40
0.0
 40
0.0
 40
0.0
 40
0.0
 40
0.0623762279
 40
0.1287254749
 40
0.198312566
 40
0.2702901879
 40
0.343667126
 40
0.4173987979
 40
0.4904230993
 40
0.5617095994
 40
0.6303073028
 40
0.6953955392
 40
0.7563433391
 40
0.8127807237
 40
0.8646816877
 40
0.9124572118
 40
0.9351017743
 40
0.9571074821
 40
0.9786678079
 40
1.0
 40
1.0
 40
1.0
 40
1.0
 10
24.1707790768
 20
29.0808091182
 30
0.0
 10
24.0270817521
 20
28.9978459244
 30
0.0
 10
23.741587796
 20
28.807036579
 30
0.0
 10
23.3372737099
 20
28.4668180065
 30
0.0
 10
22.9508098999
 20
28.0699865537
 30
0.0
 10
22.5904248061
 20
27.6251378267
 30
0.0
 10
22.2637681458
 20
27.1416390851
 30
0.0
 10
21.9778098665
 20
26.6298330078
 30
0.0
 10
21.7386432881
 20
26.1006340341
 30
0.0
 10
21.5513639624
 20
25.5653185025
 30
0.0
 10
21.4199588015
 20
25.0352525754
 30
0.0
 10
21.3472520076
 20
24.5216162364
 30
0.0
 10
21.334871991
 20
24.0351559894
 30
0.0
 10
21.383357279
 20
23.5858726013
 30
0.0
 10
21.4921492068
 20
23.18312174
 30
0.0
 10
21.6348474314
 20
22.8879078029
 30
0.0
 10
21.7774331804
 20
22.6870298166
 30
0.0
 10
21.8956486722
 20
22.5558831066
 30
0.0
 10
22.0264133808
 20
22.4425198066
 30
0.0
 10
22.1216756732
 20
22.379061485
 30
0.0
 10
22.1708167411
 20
22.3506846965
 30
0.0
  0
SPLINE
  5
269
100
AcDbEntity
  8
0
100
AcDbSpline
 62
7
  6
BYLAYER
 70
0
 71
3
 72
15
 73
11
 74
0
 42
0.0000001
 43
0.0000001
 44
0.0000000001
 40
0.0
 40
0.0
 40
0.0
 40
0.0
 40
0.1485249489
 40
0.2894986408
 40
0.4227385198
 40
0.5486420198
 40
0.6679930974
 40
0.7819376971
 40
0.8919871115
 40
1.0
 40
1.0
 40
1.0
 40
1.0
 10
17.8067915705
 20
32.1425990773
 30
0.0
 10
17.8800599822
 20
32.184900362
 30
0.0
 10
18.0263943432
 20
32.2614736166
 30
0.0
 10
18.2495839455
 20
32.3528744165
 30
0.0
 10
18.4688457831
 20
32.4167809129
 30
0.0
 10
18.6820184497
 20
32.4525566737
 30
0.0
 10
18.8871532421
 20
32.4596540115
 30
0.0
 10
19.0822950116
 20
32.4379344251
 30
0.0
 10
19.2653412541
 20
32.3872833947
 30
0.0
 10
19.3784805607
 20
32.3343279254
 30
0.0
 10
19.4317639992
 20
32.3035647023
 30
0.0
  0
SPLINE
  5
26A
100
AcDbEntity
  8
0
100
AcDbSpline
 62
7
  6
BYLAYER
 70
0
 71
3
 72
23
 73
19
 74
0
 42
0.0000001
 43
0.0000001
 44
0.0000000001
 40
0.0
 40
0.0
 40
0.0
 40
0.0
 40
0.0691739569
 40
0.1349500111
 40
0.1975603477
 40
0.2573824897
 40
0.3149387385
 40
0.3708855504
 40
0.4259896581
 40
0.4810771469
 40
0.5369775843
 40
0.594463816
 40
0.6541930725
 40
0.7166860173
 40
0.782335037
 40
0.8514044374
 40
0.9239958835
 40
1.0
 40
1.0
 40
1.0
 40
1.0
 10
33.6516123467
 20
23.6060991367
 30
0.0
 10
33.6397418802
 20
23.6783250435
 30
0.0
 10
33.6102972968
 20
23.8183100094
 30
0.0
 10
33.5468870858
 20
24.0178965491
 30
0.0
 10
33.4657154981
 20
24.2002518214
 30
0.0
 10
33.3673072218
 20
24.3639135228
 30
0.0
 10
33.2523617738
 20
24.5075790213
 30
0.0
 10
33.1216486229
 20
24.6299432742
 30
0.0
 10
32.976284497
 20
24.7300000454
 30
0.0
 10
32.8174261898
 20
24.8067403746
 30
0.0
 10
32.6465172987
 20
24.8596507009
 30
0.0
 10
32.4649866561
 20
24.8882552803
 30
0.0
 10
32.2743594346
 20
24.8925487199
 30
0.0
 10
32.0761155254
 20
24.8725788724
 30
0.0
 10
31.8717323094
 20
24.8285836457
 30
0.0
 10
31.6626991136
 20
24.7609604835
 30
0.0
 10
31.4506840176
 20
24.6702785581
 30
0.0
 10
31.3115239745
 20
24.5966804942
 30
0.0
 10
31.2418763283
 20
24.556469647
 30
0.0
  0
SPLINE
  5
26B
100
AcDbEntity
  8
0
100
AcDbSpline
 62
7
  6
BYLAYER
 70
0
 71
3
 72
15
 73
11
 74
0
 42
0.0000001
 43
0.0000001
 44
0.0000000001
 40
0.0
 40
0.0
 40
0.0
 40
0.0
 40
0.1080123463
 40
0.2180618712
 40
0.332003975
 40
0.451361086
 40
0.5772658582
 40
0.7104953781
 40
0.851458928
 40
1.0
 40
1.0
 40
1.0
 40
1.0
 10
19.2764216079
 20
33.2592615259
 30
0.0
 10
19.2108452691
 20
33.2971289549
 30
0.0
 10
19.0716024014
 20
33.3623203855
 30
0.0
 10
18.8463099756
 20
33.424633283
 30
0.0
 10
18.6061365032
 20
33.4513956002
 30
0.0
 10
18.3536591631
 20
33.4426304766
 30
0.0
 10
18.0912938217
 20
33.3986135322
 30
0.0
 10
17.8214462402
 20
33.3199600212
 30
0.0
 10
17.5467496133
 20
33.2074789681
 30
0.0
 10
17.3666456224
 20
33.1132252563
 30
0.0
 10
17.2764592766
 20
33.061156456
 30
0.0
  0
SPLINE
  5
26C
100
AcDbEntity
  8
0
100
AcDbSpline
 62
7
  6
BYLAYER
 70
0
 71
3
 72
15
 73
11
 74
0
 42
0.0000001
 43
0.0000001
 44
0.0000000001
 40
0.0
 40
0.0
 40
0.0
 40
0.0
 40
0.1080123463
 40
0.2180618712
 40
0.332003975
 40
0.451361086
 40
0.5772658582
 40
0.7104953781
 40
0.851458928
 40
1.0
 40
1.0
 40
1.0
 40
1.0
 10
32.8591155296
 20
25.4174669593
 30
0.0
 10
32.7935391906
 20
25.4553343885
 30
0.0
 10
32.6542963222
 20
25.5205258194
 30
0.0
 10
32.4290038955
 20
25.5828387172
 30
0.0
 10
32.188830422
 20
25.6096010345
 30
0.0
 10
31.9363530808
 20
25.6008359109
 30
0.0
 10
31.6739877382
 20
25.5568189662
 30
0.0
 10
31.4041401555
 20
25.4781654549
 30
0.0
 10
31.1294435275
 20
25.3656844013
 30
0.0
 10
30.9493395358
 20
25.2714306891
 30
0.0
 10
30.8591531895
 20
25.2193618886
 30
0.0
  0
SPLINE
  5
26D
100
AcDbEntity
  8
0
100
AcDbSpline
 62
7
  6
BYLAYER
 70
0
 71
3
 72
25
 73
21
 74
0
 42
0.0000001
 43
0.0000001
 44
0.0000000001
 40
0.0
 40
0.0
 40
0.0
 40
0.0
 40
0.0623762279
 40
0.1287254749
 40
0.198312566
 40
0.2702901879
 40
0.343667126
 40
0.4173987979
 40
0.4904230993
 40
0.5617095994
 40
0.6303073028
 40
0.6953955392
 40
0.7563433391
 40
0.8127807237
 40
0.8646816877
 40
0.9124572118
 40
0.9351017743
 40
0.9571074821
 40
0.9786678079
 40
1.0
 40
1.0
 40
1.0
 40
1.0
 10
30.8591531895
 20
25.2193618886
 30
0.0
 10
30.7154558645
 20
25.1363986946
 30
0.0
 10
30.4299619078
 20
24.9455893488
 30
0.0
 10
30.0256478208
 20
24.6053707756
 30
0.0
 10
29.63918401
 20
24.2085393218
 30
0.0
 10
29.2787989154
 20
23.7636905939
 30
0.0
 10
28.9521422543
 20
23.2801918512
 30
0.0
 10
28.6661839744
 20
22.7683857728
 30
0.0
 10
28.4270173954
 20
22.239186798
 30
0.0
 10
28.2397380694
 20
21.7038712651
 30
0.0
 10
28.1083329081
 20
21.1738053368
 30
0.0
 10
28.0356261141
 20
20.6601689968
 30
0.0
 10
28.0232460975
 20
20.1737087487
 30
0.0
 10
28.0717313856
 20
19.7244253596
 30
0.0
 10
28.1805233137
 20
19.3216744974
 30
0.0
 10
28.3232215386
 20
19.0264605596
 30
0.0
 10
28.4658072879
 20
18.8255825728
 30
0.0
 10
28.5840227799
 20
18.6944358626
 30
0.0
 10
28.7147874888
 20
18.5810725623
 30
0.0
 10
28.8100497814
 20
18.5176142406
 30
0.0
 10
28.8591908494
 20
18.489237452
 30
0.0
  0
SPLINE
  5
26E
100
AcDbEntity
  8
0
100
AcDbSpline
 62
7
  6
BYLAYER
 70
0
 71
3
 72
15
 73
11
 74
0
 42
0.0000001
 43
0.0000001
 44
0.0000000001
 40
0.0
 40
0.0
 40
0.0
 40
0.0
 40
0.1879805065
 40
0.3527890556
 40
0.4961046714
 40
0.6202336741
 40
0.7280530734
 40
0.8235053553
 40
0.9119005259
 40
1.0
 40
1.0
 40
1.0
 40
1.0
 10
4.6842096068
 20
35.7949574091
 30
0.0
 10
4.6985684165
 20
35.7866685582
 30
0.0
 10
4.7255773236
 20
35.7712169846
 30
0.0
 10
4.7640591763
 20
35.7503766614
 30
0.0
 10
4.7983774485
 20
35.7337260725
 30
0.0
 10
4.8291976871
 20
35.7215325181
 30
0.0
 10
4.8571894478
 20
35.7140738717
 30
0.0
 10
4.8829802008
 20
35.7117348521
 30
0.0
 10
4.9069755344
 20
35.7150720187
 30
0.0
 10
4.9214878989
 20
35.721247838
 30
0.0
 10
4.9282170888
 20
35.7251329479
 30
0.0
  0
SPLINE
  5
26F
100
AcDbEntity
  8
0
100
AcDbSpline
 62
7
  6
BYLAYER
 70
0
 71
3
 72
19
 73
15
 74
0
 42
0.0000001
 43
0.0000001
 44
0.0000000001
 40
0.0
 40
0.0
 40
0.0
 40
0.0
 40
0.1141224835
 40
0.1747409881
 40
0.2373278424
 40
0.3669413891
 40
0.4999286857
 40
0.6329153811
 40
0.6983768231
 40
0.7625885819
 40
0.8251678129
 40
0.8857904012
 40
0.9441690945
 40
1.0
 40
1.0
 40
1.0
 40
1.0
 10
11.9731685401
 20
29.5909906344
 30
0.0
 10
11.9731669301
 20
29.8145735261
 30
0.0
 10
12.0033284104
 20
30.1573871248
 30
0.0
 10
12.0918895212
 20
30.614009816
 30
0.0
 10
12.2183648378
 20
31.0932630931
 30
0.0
 10
12.4389090209
 20
31.6927445089
 30
0.0
 10
12.7888841243
 20
32.3859718737
 30
0.0
 10
13.1453814438
 20
32.9305411095
 30
0.0
 10
13.4637775392
 20
33.3351169701
 30
0.0
 10
13.7141610733
 20
33.616823456
 30
0.0
 10
13.9749622116
 20
33.8756284114
 30
0.0
 10
14.2437289288
 20
34.1091266599
 30
0.0
 10
14.5178762044
 20
34.314951289
 30
0.0
 10
14.7068483227
 20
34.435308836
 30
0.0
 10
14.8015752186
 20
34.4899991084
 30
0.0
  0
SPLINE
  5
270
100
AcDbEntity
  8
0
100
AcDbSpline
 62
7
  6
BYLAYER
 70
0
 71
3
 72
25
 73
21
 74
0
 42
0.0000001
 43
0.0000001
 44
0.0000000001
 40
0.0
 40
0.0
 40
0.0
 40
0.0
 40
0.0213314886
 40
0.042892309
 40
0.0648977212
 40
0.0875424643
 40
0.1353180668
 40
0.1872195849
 40
0.2436560682
 40
0.3046026379
 40
0.3696901612
 40
0.4382862098
 40
0.5095717905
 40
0.582596502
 40
0.6563262978
 40
0.7297038295
 40
0.801682301
 40
0.871268306
 40
0.9376310553
 40
1.0
 40
1.0
 40
1.0
 40
1.0
 10
29.8669045187
 20
19.350816987
 30
0.0
 10
29.8331175065
 20
19.3703189154
 30
0.0
 10
29.7676200193
 20
19.4139422395
 30
0.0
 10
29.6777479746
 20
19.4919086922
 30
0.0
 10
29.5964464476
 20
19.582045958
 30
0.0
 10
29.4984353699
 20
19.7201628458
 30
0.0
 10
29.4003127818
 20
19.9231125682
 30
0.0
 10
29.3255370911
 20
20.2000100958
 30
0.0
 10
29.292197906
 20
20.508886352
 30
0.0
 10
29.3007034571
 20
20.8433229583
 30
0.0
 10
29.3506964139
 20
21.1964395012
 30
0.0
 10
29.4410308211
 20
21.5608538421
 30
0.0
 10
29.569771176
 20
21.9288835185
 30
0.0
 10
29.7342023251
 20
22.292700631
 30
0.0
 10
29.9307993326
 20
22.6445638293
 30
0.0
 10
30.1553709199
 20
22.9769701876
 30
0.0
 10
30.4031231206
 20
23.2828134814
 30
0.0
 10
30.6688332583
 20
23.5556536336
 30
0.0
 10
30.9468197328
 20
23.7895417888
 30
0.0
 10
31.1430961573
 20
23.9207431265
 30
0.0
 10
31.2418763283
 20
23.9777735444
 30
0.0
  0
SPLINE
  5
271
100
AcDbEntity
  8
0
100
AcDbSpline
 62
7
  6
BYLAYER
 70
0
 71
3
 72
15
 73
11
 74
0
 42
0.0000001
 43
0.0000001
 44
0.0000000001
 40
0.0
 40
0.0
 40
0.0
 40
0.0
 40
0.1080123463
 40
0.2180618712
 40
0.332003975
 40
0.451361086
 40
0.5772658582
 40
0.7104953781
 40
0.851458928
 40
1.0
 40
1.0
 40
1.0
 40
1.0
 10
26.1707414125
 20
29.2789141885
 30
0.0
 10
26.1051650735
 20
29.3167816176
 30
0.0
 10
25.9659222055
 20
29.3819730484
 30
0.0
 10
25.7406297793
 20
29.444285946
 30
0.0
 10
25.5004563063
 20
29.4710482632
 30
0.0
 10
25.2479789657
 20
29.4622831396
 30
0.0
 10
24.9856136237
 20
29.4182661951
 30
0.0
 10
24.7157660416
 20
29.339612684
 30
0.0
 10
24.4410694141
 20
29.2271316306
 30
0.0
 10
24.2609654228
 20
29.1328779186
 30
0.0
 10
24.1707790768
 20
29.0808091182
 30
0.0
  0
SPLINE
  5
272
100
AcDbEntity
  8
0
100
AcDbSpline
 62
7
  6
BYLAYER
 70
0
 71
3
 72
21
 73
17
 74
0
 42
0.0000001
 43
0.0000001
 44
0.0000000001
 40
0.0
 40
0.0
 40
0.0
 40
0.0
 40
0.0558174961
 40
0.1141907899
 40
0.1748089021
 40
0.2373778486
 40
0.3015786692
 40
0.3670308861
 40
0.4999988683
 40
0.632967001
 40
0.6984175914
 40
0.7626205194
 40
0.8251969335
 40
0.8858081598
 40
0.9441544533
 40
1.0
 40
1.0
 40
1.0
 40
1.0
 10
19.0442335552
 20
31.4281777766
 30
0.0
 10
18.9672752599
 20
31.3837461493
 30
0.0
 10
18.8137418655
 20
31.2859523344
 30
0.0
 10
18.5909894488
 20
31.1187247217
 30
0.0
 10
18.3726102204
 20
30.9289995643
 30
0.0
 10
18.1607021865
 20
30.7187235856
 30
0.0
 10
17.9572798467
 20
30.4898313565
 30
0.0
 10
17.6985683714
 20
30.1611191977
 30
0.0
 10
17.4089433964
 20
29.7186908349
 30
0.0
 10
17.1706100878
 20
29.2466533169
 30
0.0
 10
17.015288715
 20
28.8582470882
 30
0.0
 10
16.9187743222
 20
28.5676180644
 30
0.0
 10
16.8426395166
 20
28.2789538479
 30
0.0
 10
16.7875245377
 20
27.9950126127
 30
0.0
 10
16.7540547102
 20
27.7185011101
 30
0.0
 10
16.7461454412
 20
27.5366376345
 30
0.0
 10
16.7461460844
 20
27.4477293243
 30
0.0
  0
SPLINE
  5
273
100
AcDbEntity
  8
0
100
AcDbSpline
 62
7
  6
BYLAYER
 70
0
 71
3
 72
15
 73
11
 74
0
 42
0.0000001
 43
0.0000001
 44
0.0000000001
 40
0.0
 40
0.0
 40
0.0
 40
0.0
 40
0.1079982554
 40
0.2180390319
 40
0.3319789819
 40
0.4513317813
 40
0.5772386057
 40
0.7104819529
 40
0.8514620564
 40
1.0
 40
1.0
 40
1.0
 40
1.0
 10
34.670820196
 20
22.9281413841
 30
0.0
 10
34.6257420279
 20
22.9541712822
 30
0.0
 10
34.5300201633
 20
22.9989787954
 30
0.0
 10
34.3751477398
 20
23.0418320922
 30
0.0
 10
34.2100346101
 20
23.0602208877
 30
0.0
 10
34.0364584637
 20
23.0542151344
 30
0.0
 10
33.8560765476
 20
23.023949529
 30
0.0
 10
33.6705400589
 20
22.9698759258
 30
0.0
 10
33.4816757534
 20
22.8925356059
 30
0.0
 10
33.3578462681
 20
22.8277378538
 30
0.0
 10
33.2958444703
 20
22.7919413118
 30
0.0
  0
SPLINE
  5
274
100
AcDbEntity
  8
0
100
AcDbSpline
 62
7
  6
BYLAYER
 70
0
 71
3
 72
19
 73
15
 74
0
 42
0.0000001
 43
0.0000001
 44
0.0000000001
 40
0.0
 40
0.0
 40
0.0
 40
0.0
 40
0.1141224835
 40
0.1747409881
 40
0.2373278424
 40
0.3669413891
 40
0.4999286857
 40
0.6329153811
 40
0.6983768231
 40
0.7625885819
 40
0.8251678129
 40
0.8857904012
 40
0.9441690945
 40
1.0
 40
1.0
 40
1.0
 40
1.0
 10
16.7461591643
 20
26.835365546
 30
0.0
 10
16.7461575543
 20
27.0589484382
 30
0.0
 10
16.7763190347
 20
27.4017620377
 30
0.0
 10
16.8648801457
 20
27.8583847298
 30
0.0
 10
16.9913554626
 20
28.337638008
 30
0.0
 10
17.2118996462
 20
28.9371194251
 30
0.0
 10
17.5618747504
 20
29.6303467915
 30
0.0
 10
17.9183720707
 20
30.1749160285
 30
0.0
 10
18.2367681668
 20
30.5794918899
 30
0.0
 10
18.4871517014
 20
30.8611983765
 30
0.0
 10
18.7479528403
 20
31.1200033325
 30
0.0
 10
19.0167195581
 20
31.3535015815
 30
0.0
 10
19.2908668343
 20
31.559326211
 30
0.0
 10
19.479838953
 20
31.6796837583
 30
0.0
 10
19.5745658491
 20
31.7343740308
 30
0.0
  0
SPLINE
  5
275
100
AcDbEntity
  8
0
100
AcDbSpline
 62
7
  6
BYLAYER
 70
0
 71
3
 72
26
 73
22
 74
0
 42
0.0000001
 43
0.0000001
 44
0.0000000001
 40
0.0
 40
0.0
 40
0.0
 40
0.0
 40
0.0213310506
 40
0.0428905671
 40
0.0648946838
 40
0.0875388652
 40
0.1353113854
 40
0.1607337265
 40
0.187257352
 40
0.2436930235
 40
0.3046383002
 40
0.3697226214
 40
0.4383166819
 40
0.5096003445
 40
0.5826212953
 40
0.6563488798
 40
0.7297228943
 40
0.8016971153
 40
0.8712790819
 40
0.9376301688
 40
1.0
 40
1.0
 40
1.0
 40
1.0
 10
16.1818191418
 20
26.6743677409
 30
0.0
 10
16.1418904487
 20
26.6974205943
 30
0.0
 10
16.064497366
 20
26.7489942482
 30
0.0
 10
15.9582588309
 20
26.8411046521
 30
0.0
 10
15.8621829206
 20
26.9476448332
 30
0.0
 10
15.7463773033
 20
27.1108689326
 30
0.0
 10
15.6554480541
 20
27.2988883956
 30
0.0
 10
15.5890174494
 20
27.5041036806
 30
0.0
 10
15.5360885176
 20
27.7325876214
 30
0.0
 10
15.5026229813
 20
28.0430408746
 30
0.0
 10
15.5126863914
 20
28.4382454442
 30
0.0
 10
15.5717531481
 20
28.8555870512
 30
0.0
 10
15.6785083444
 20
29.2862634587
 30
0.0
 10
15.8306795779
 20
29.7212071399
 30
0.0
 10
16.0250098869
 20
30.1511775485
 30
0.0
 10
16.2573488954
 20
30.567021046
 30
0.0
 10
16.5227511203
 20
30.9598682475
 30
0.0
 10
16.8155649728
 20
31.3213035442
 30
0.0
 10
17.1295696941
 20
31.6437362719
 30
0.0
 10
17.4580818549
 20
31.9201543638
 30
0.0
 10
17.6900439277
 20
32.0751951967
 30
0.0
 10
17.8067915705
 20
32.1425990773
 30
0.0
  0
ENDSEC
  0
SECTION
  2
OBJECTS
  0
DICTIONARY
  5
C
100
AcDbDictionary
280
0
281
1
  3
ACAD_GROUP
350
D
  3
ACAD_MLINESTYLE
350
17
  3
ACAD_LAYOUT
350
1A
  3
ACAD_PLOTSETTINGS
350
19
  3
ACAD_PLOTSTYLENAME
350
E
  0
DICTIONARY
  5
D
102
{ACAD_REACTORS
330
C
102
}
100
AcDbDictionary
280
0
281
1
  0
ACDBDICTIONARYWDFLT
  5
E
102
{ACAD_REACTORS
330
C
102
}
100
AcDbDictionary
281
1
  3
Normal
350
F
100
AcDbDictionaryWithDefault
340
F
  0
DICTIONARY
  5
17
102
{ACAD_REACTORS
330
C
102
}
100
AcDbDictionary
280
0
281
1
  3
Standard
350
18
  0
DICTIONARY
  5
19
102
{ACAD_REACTORS
330
C
102
}
100
AcDbDictionary
281
1
  0
DICTIONARY
  5
1A
102
{ACAD_REACTORS
330
C
102
}
100
AcDbDictionary
281
1
  3
Model
350
276
  3
Layout1
350
277
  0
ACDBPLACEHOLDER
  5
F
102
{ACAD_REACTORS
330
E
102
}
  0
MLINESTYLE
  5
18
102
{ACAD_REACTORS
330
17
102
}
100
AcDbMlineStyle
  2
STANDARD
 70
0
  3

 62
256
 51
90.0
 52
90.0
 71
2
 49
0.5
 62
256
  6
BYLAYER
 49
-0.5
 62
256
  6
BYLAYER
  0
LAYOUT
  5
276
102
{ACAD_REACTORS
330
1A
102
}
100
AcDbPlotSettings
  1

  2
none_device
  4

  6

 40
0.0
 41
0.0
 42
0.0
 43
0.0
 44
210.0
 45
297.0
 46
0.0
 47
0.0
 48
0.0
 49
0.0
140
0.0
141
0.0
142
1.0
143
1.0
 70
1024
 72
1
 73
0
 74
0
  7

 75
0
147
1.0
148
0.0
149
0.0
100
AcDbLayout
  1
Model
 70
0
 71
0
 10
0.0
 20
0.0
 11
210.0
 21
297.0
 12
0.0
 22
0.0
 32
0.0
 14
0.0
 24
0.0
 34
0.0
 15
0.0
 25
0.0
 35
0.0
146
0.0
 13
0.0
 23
0.0
 33
0.0
 16
1.0
 26
0.0
 36
0.0
 17
0.0
 27
1.0
 37
0.0
 76
0
330
210
345
0
346
0
  0
LAYOUT
  5
277
102
{ACAD_REACTORS
330
1A
102
}
100
AcDbPlotSettings
  1

  2
none_device
  4

  6

 40
0.0
 41
0.0
 42
0.0
 43
0.0
 44
210.0
 45
297.0
 46
0.0
 47
0.0
 48
0.0
 49
0.0
140
0.0
141
0.0
142
1.0
143
1.0
 70
0
 72
1
 73
0
 74
0
  7

 75
0
147
1.0
148
0.0
149
0.0
100
AcDbLayout
  1
Layout1
 70
0
 71
1
 10
0.0
 20
0.0
 11
210.0
 21
297.0
 12
0.0
 22
0.0
 32
0.0
 14
0.0
 24
0.0
 34
0.0
 15
0.0
 25
0.0
 35
0.0
146
0.0
 13
0.0
 23
0.0
 33
0.0
 16
1.0
 26
0.0
 36
0.0
 17
0.0
 27
1.0
 37
0.0
 76
0
330
211
345
0
346
0
  0
ENDSEC
  0
EOF
