999
DXF file: C:\Users\sesa63760\Dev\_Creo\CAD\MCADID0004047_3D-CAD\drw0001_7.dxf
999
Pro/ENGINEER 2019471 by Parametric Technology Corporation
  0
SECTION
  2
HEADER
  9
$ACADVER
  1
AC1024
  9
$DWGCODEPAGE
  3
ANSI_1252
  9
$EXTMAX
 10
61.3162626263
 20
86.7187142857
 30
0.0
  9
$EXTMIN
 10
0.0
 20
0.0
 30
0.0
  9
$LIMMIN
 10
0.0
 20
0.0
  9
$LIMMAX
 10
61.3162626263
 20
86.7187142857
  9
$VIEWCTR
 10
30.6581313131
 20
43.3593571429
  9
$VIEWSIZE
 40
86.7187142857
  9
$CLAYER
  8
0
  9
$LTSCALE
 40
5.6527754497
  9
$CELTYPE
  6
BYLAYER
  9
$DIMSCALE
 40
1.0
  9
$DIMASZ
 40
0.7299555075
  9
$DIMEXO
 40
1.0
  9
$DIMDLI
 40
3.9055539471
  9
$DIMEXE
 40
1.0
  9
$DIMCEN
 40
0.924999619
  9
$DIMLFAC
 40
1.0
  9
$DIMBLK
  1
_FILLED
  9
$DIMALT
 70
0
  9
$DIMALTF
 40
0.0393700787
  9
$DIMTXT
 40
1.0219377104
  9
$DIMTOL
 70
1
  9
$DIMLIM
 70
0
  9
$DIMTFAC
 40
1.0
  9
$DIMTP
 40
0.01
  9
$DIMTM
 40
0.01
  9
$DIMGAP
 40
0.625
  9
$DIMDSEP
 70
46
  9
$AUNITS
 70
0
  9
$PDMODE
 70
3
  9
$PDSIZE
 40
0.3125
  9
$HANDSEED
  5
39F
  9
$TILEMODE
 70
1
  9
$MEASUREMENT
 70
1
  9
$INSUNITS
 70
4
  0
ENDSEC
  0
SECTION
  2
CLASSES
  0
CLASS
  1
ACDBDICTIONARYWDFLT
  2
AcDbDictionaryWithDefault
  3
AutoCAD 2000
 90
0
 91
1
280
0
281
0
  0
CLASS
  1
ACDBPLACEHOLDER
  2
AcDbPlaceHolder
  3
AutoCAD 2000
 90
0
 91
1
280
0
281
0
  0
CLASS
  1
LAYOUT
  2
AcDbLayout
  3
AutoCAD 2000
 90
0
 91
0
280
0
281
0
  0
ENDSEC
  0
SECTION
  2
TABLES
  0
TABLE
  2
VPORT
  5
8
100
AcDbSymbolTable
 70
2
  0
VPORT
  5
1F4
100
AcDbSymbolTableRecord
100
AcDbViewportTableRecord
  2
*ACTIVE
 70
0
 10
0.0
 20
0.0
 11
1.0
 21
1.0
 12
30.6581313131
 22
43.3593571429
 13
0.0
 23
0.0
 14
1.0
 24
1.0
 15
0.0
 25
0.0
 16
0.0
 26
0.0
 36
1.0
 17
0.0
 27
0.0
 37
0.0
 40
86.7187142857
 41
0.7070707071
 42
50.0
 43
0.0
 44
0.0
 50
0.0
 51
0.0
 71
0
 72
100
 73
1
 74
1
 75
0
 76
0
 77
0
 78
0
  0
ENDTAB
  0
TABLE
  2
LTYPE
  5
5
100
AcDbSymbolTable
 70
6
  0
LTYPE
  5
14
100
AcDbSymbolTableRecord
100
AcDbLinetypeTableRecord
  2
BYBLOCK
 70
0
  3

 72
65
 73
0
 40
0.0
  0
LTYPE
  5
15
100
AcDbSymbolTableRecord
100
AcDbLinetypeTableRecord
  2
BYLAYER
 70
0
  3

 72
65
 73
0
 40
0.0
  0
LTYPE
  5
16
100
AcDbSymbolTableRecord
100
AcDbLinetypeTableRecord
  2
CONTINUOUS
 70
64
  3
Solid line
 72
65
 73
0
 40
0.0
  0
LTYPE
  5
1F5
100
AcDbSymbolTableRecord
100
AcDbLinetypeTableRecord
  2
CENTER
 70
64
  3
____ _ ____ _ ____ _ ____ _ ____ _ ____ _ ____
 72
65
 73
4
 40
0.6
 49
0.375
 74
0
 49
-0.075
 74
0
 49
0.075
 74
0
 49
-0.075
 74
0
  0
LTYPE
  5
1F6
100
AcDbSymbolTableRecord
100
AcDbLinetypeTableRecord
  2
HIDDEN
 70
64
  3
- - - - - - - - - - - - - - - - - - - -
 72
65
 73
2
 40
0.2
 49
0.1
 74
0
 49
-0.1
 74
0
  0
LTYPE
  5
1F7
100
AcDbSymbolTableRecord
100
AcDbLinetypeTableRecord
  2
PHANTOM
 70
64
  3
_____ _ _ _____ _ _ _____ _ _ _____
 72
65
 73
6
 40
0.8
 49
0.45
 74
0
 49
-0.05
 74
0
 49
0.1
 74
0
 49
-0.05
 74
0
 49
0.1
 74
0
 49
-0.05
 74
0
  0
LTYPE
  5
1F8
100
AcDbSymbolTableRecord
100
AcDbLinetypeTableRecord
  2
DOT
 70
64
  3
. . . . . . . . . . . . . . . . . . . .
 72
65
 73
2
 40
0.2
 49
0.1
 74
0
 49
-0.1
 74
0
  0
LTYPE
  5
1F9
100
AcDbSymbolTableRecord
100
AcDbLinetypeTableRecord
  2
DASHED
 70
64
  3
- - - - - - - - - - - - - - - - - - - -
 72
65
 73
2
 40
0.2
 49
0.1
 74
0
 49
-0.1
 74
0
  0
ENDTAB
  0
TABLE
  2
LAYER
  5
2
100
AcDbSymbolTable
 70
36
  0
LAYER
  5
10
100
AcDbSymbolTableRecord
100
AcDbLayerTableRecord
  2
0
 70
0
 62
7
  6
CONTINUOUS
370
-3
390
F
  0
LAYER
  5
1FA
100
AcDbSymbolTableRecord
100
AcDbLayerTableRecord
  2
DEFAULT_1
 70
0
 62
7
  6
CENTER
370
-3
390
F
  0
LAYER
  5
1FB
100
AcDbSymbolTableRecord
100
AcDbLayerTableRecord
  2
DEFAULT_2
 70
0
 62
7
  6
HIDDEN
370
-3
390
F
  0
LAYER
  5
1FC
100
AcDbSymbolTableRecord
100
AcDbLayerTableRecord
  2
DEFAULT_3
 70
0
 62
7
  6
PHANTOM
370
-3
390
F
  0
LAYER
  5
1FD
100
AcDbSymbolTableRecord
100
AcDbLayerTableRecord
  2
00_COMPONENTS
 70
0
 62
7
  6
CONTINUOUS
370
-3
390
F
  0
LAYER
  5
1FE
100
AcDbSymbolTableRecord
100
AcDbLayerTableRecord
  2
01_1_DEFAULT_DATUMS
 70
0
 62
7
  6
CONTINUOUS
370
-3
390
F
  0
LAYER
  5
1FF
100
AcDbSymbolTableRecord
100
AcDbLayerTableRecord
  2
01_PLANES
 70
0
 62
7
  6
CONTINUOUS
370
-3
390
F
  0
LAYER
  5
200
100
AcDbSymbolTableRecord
100
AcDbLayerTableRecord
  2
02_COORD_SYS
 70
0
 62
7
  6
CONTINUOUS
370
-3
390
F
  0
LAYER
  5
201
100
AcDbSymbolTableRecord
100
AcDbLayerTableRecord
  2
03_AXES
 70
0
 62
7
  6
CONTINUOUS
370
-3
390
F
  0
LAYER
  5
202
100
AcDbSymbolTableRecord
100
AcDbLayerTableRecord
  2
04_POINTS
 70
0
 62
7
  6
CONTINUOUS
370
-3
390
F
  0
LAYER
  5
203
100
AcDbSymbolTableRecord
100
AcDbLayerTableRecord
  2
05_CURVES
 70
0
 62
7
  6
CONTINUOUS
370
-3
390
F
  0
LAYER
  5
204
100
AcDbSymbolTableRecord
100
AcDbLayerTableRecord
  2
06_SURFS
 70
0
 62
7
  6
CONTINUOUS
370
-3
390
F
  0
LAYER
  5
205
100
AcDbSymbolTableRecord
100
AcDbLayerTableRecord
  2
07_COSMETICS
 70
0
 62
7
  6
CONTINUOUS
370
-3
390
F
  0
LAYER
  5
206
100
AcDbSymbolTableRecord
100
AcDbLayerTableRecord
  2
10_NOTES
 70
0
 62
7
  6
CONTINUOUS
370
-3
390
F
  0
LAYER
  5
207
100
AcDbSymbolTableRecord
100
AcDbLayerTableRecord
  2
11_NOTES_PUB
 70
0
 62
7
  6
CONTINUOUS
370
-3
390
F
  0
LAYER
  5
208
100
AcDbSymbolTableRecord
100
AcDbLayerTableRecord
  2
13_REF_GTOL
 70
0
 62
7
  6
CONTINUOUS
370
-3
390
F
  0
LAYER
  5
209
100
AcDbSymbolTableRecord
100
AcDbLayerTableRecord
  2
16_MISC
 70
0
 62
7
  6
CONTINUOUS
370
-3
390
F
  0
LAYER
  5
20A
100
AcDbSymbolTableRecord
100
AcDbLayerTableRecord
  2
17_NO_PRINT
 70
0
 62
7
  6
CONTINUOUS
370
-3
390
F
  0
LAYER
  5
20B
100
AcDbSymbolTableRecord
100
AcDbLayerTableRecord
  2
18_DATUM_CAMS_JOINTS
 70
0
 62
7
  6
CONTINUOUS
370
-3
390
F
  0
LAYER
  5
20C
100
AcDbSymbolTableRecord
100
AcDbLayerTableRecord
  2
19_DATUM_FUNCTIONAL
 70
0
 62
7
  6
CONTINUOUS
370
-3
390
F
  0
LAYER
  5
20D
100
AcDbSymbolTableRecord
100
AcDbLayerTableRecord
  2
20_DATUM_KINEMATIC_SCHEME
 70
0
 62
7
  6
CONTINUOUS
370
-3
390
F
  0
ENDTAB
  0
TABLE
  2
STYLE
  5
3
100
AcDbSymbolTable
 70
1
  0
STYLE
  5
11
100
AcDbSymbolTableRecord
100
AcDbTextStyleTableRecord
  2
STANDARD
 70
0
 40
0.0
 41
1.0
 50
0.0
 71
0
 42
0.2
  3
ARIAL.TTF
  4

  0
STYLE
  5
20E
100
AcDbSymbolTableRecord
100
AcDbTextStyleTableRecord
  2
TEXTSTYLE_1
 70
0
 40
0.0
 41
0.8
 50
0.0
 71
0
 42
0.2
  3
gdt
  4

  0
ENDTAB
  0
TABLE
  2
VIEW
  5
6
100
AcDbSymbolTable
 70
0
  0
ENDTAB
  0
TABLE
  2
UCS
  5
7
100
AcDbSymbolTable
 70
0
  0
ENDTAB
  0
TABLE
  2
APPID
  5
9
100
AcDbSymbolTable
 70
1
  0
APPID
  5
20F
100
AcDbSymbolTableRecord
100
AcDbRegAppTableRecord
  2
ACAD
 70
0
  0
ENDTAB
  0
TABLE
  2
BLOCK_RECORD
  5
1
100
AcDbSymbolTable
 70
0
  0
BLOCK_RECORD
  5
210
100
AcDbSymbolTableRecord
100
AcDbBlockTableRecord
  2
*Model_Space
  0
BLOCK_RECORD
  5
211
100
AcDbSymbolTableRecord
100
AcDbBlockTableRecord
  2
*Paper_Space
  0
BLOCK_RECORD
  5
212
100
AcDbSymbolTableRecord
100
AcDbBlockTableRecord
  2
_FILLED
  0
ENDTAB
  0
TABLE
  2
DIMSTYLE
  5
A
100
AcDbSymbolTable
 70
1
100
AcDbDimStyleTable
 71
0
  0
DIMSTYLE
105
213
100
AcDbSymbolTableRecord
100
AcDbDimStyleTableRecord
  2
STANDARD
 70
0
  3

  4

 40
1.0
 41
0.7299555075
 42
1.0
 43
0.38
 44
1.0
 45
0.0
 46
0.0
 47
0.01
 48
0.01
140
1.0219377104
141
0.09
142
0.0
143
25.4
144
1.0
145
0.0
146
1.0
147
0.625
 71
1
 72
0
 73
0
 74
0
 75
0
 76
0
 77
1
 78
8
 79
2
170
0
171
1
172
0
173
0
174
0
175
0
176
0
177
0
178
0
270
2
179
2
271
2
272
2
273
2
274
2
275
0
280
0
281
0
282
0
283
1
284
8
285
0
286
0
287
3
288
0
340
11
278
46
341
212
342
212
343
212
344
212
  0
ENDTAB
  0
ENDSEC
  0
SECTION
  2
BLOCKS
  0
BLOCK
  5
20
100
AcDbEntity
  8
0
100
AcDbBlockBegin
  2
*Model_Space
 70
0
 10
0.0
 20
0.0
 30
0.0
  3
*Model_Space
  1

  0
ENDBLK
  5
21
100
AcDbEntity
  8
0
100
AcDbBlockEnd
  0
BLOCK
  5
1C
100
AcDbEntity
  8
0
100
AcDbBlockBegin
  2
*Paper_Space
 70
0
 10
0.0
 20
0.0
 30
0.0
  3
*Paper_Space
  1

  0
ENDBLK
  5
1D
100
AcDbEntity
  8
0
100
AcDbBlockEnd
  0
BLOCK
  5
214
100
AcDbEntity
  8
0
100
AcDbBlockBegin
  2
_FILLED
 70
64
 10
0.0
 20
0.0
  3
_FILLED
  1

  0
SOLID
  5
215
100
AcDbEntity
  8
0
  6
BYBLOCK
 62
0
100
AcDbTrace
 10
0.0
 20
0.0
 11
-1.0
 21
0.25
 12
-1.0
 22
-0.25
 13
-1.0
 23
-0.25
  0
ENDBLK
  5
216
100
AcDbEntity
  8
0
  6
BYBLOCK
 62
0
100
AcDbBlockEnd
  0
ENDSEC
  0
SECTION
  2
ENTITIES
  0
LINE
  5
217
100
AcDbEntity
  8
0
100
AcDbLine
 62
7
  6
BYLAYER
 10
35.9350526697
 20
6.4216428571
 11
25.5935382632
 21
6.4216428571
  0
LINE
  5
218
100
AcDbEntity
  8
0
100
AcDbLine
 62
7
  6
BYLAYER
 10
36.1642954664
 20
7.7216428571
 11
25.3642954664
 21
7.7216428571
  0
LINE
  5
219
100
AcDbEntity
  8
0
100
AcDbLine
 62
7
  6
BYLAYER
 10
25.3642954664
 20
7.9216428571
 11
36.1642525463
 21
7.9216428571
  0
LINE
  5
21A
100
AcDbEntity
  8
0
100
AcDbLine
 62
7
  6
BYLAYER
 10
25.4142954664
 20
8.3716428571
 11
36.1142954664
 21
8.3716428571
  0
LINE
  5
21B
100
AcDbEntity
  8
0
100
AcDbLine
 62
7
  6
BYLAYER
 10
36.7642954664
 20
9.0216428571
 11
24.7642954664
 21
9.0216428571
  0
LINE
  5
21C
100
AcDbEntity
  8
0
100
AcDbLine
 62
7
  6
BYLAYER
 10
15.9642954664
 20
67.7216428571
 11
15.7642954664
 21
67.5216428571
  0
LINE
  5
21D
100
AcDbEntity
  8
0
100
AcDbLine
 62
7
  6
BYLAYER
 10
24.7642954664
 20
14.5216428571
 11
36.7642954664
 21
14.5216428571
  0
LINE
  5
21E
100
AcDbEntity
  8
0
100
AcDbLine
 62
7
  6
BYLAYER
 10
36.1142954664
 20
15.1716428571
 11
25.4142954664
 21
15.1716428571
  0
LINE
  5
21F
100
AcDbEntity
  8
0
100
AcDbLine
 62
7
  6
BYLAYER
 10
25.4142954664
 20
8.3716428571
 11
24.7642954664
 21
9.0216428571
  0
LINE
  5
220
100
AcDbEntity
  8
0
100
AcDbLine
 62
7
  6
BYLAYER
 10
25.4142954664
 20
17.4216428571
 11
25.2642954664
 21
17.4216428571
  0
LINE
  5
221
100
AcDbEntity
  8
0
100
AcDbLine
 62
7
  6
BYLAYER
 10
25.4142954664
 20
18.4216428571
 11
25.2642954664
 21
18.4216428571
  0
LINE
  5
222
100
AcDbEntity
  8
0
100
AcDbLine
 62
7
  6
BYLAYER
 10
17.2642954664
 20
20.1216428572
 11
17.0642954664
 21
20.3216428572
  0
LINE
  5
223
100
AcDbEntity
  8
0
100
AcDbLine
 62
7
  6
BYLAYER
 10
44.2640872687
 20
20.1216428571
 11
17.2643609326
 21
20.1216428571
  0
LINE
  5
224
100
AcDbEntity
  8
0
100
AcDbLine
 62
7
  6
BYLAYER
 10
44.4642954664
 20
20.3216428571
 11
17.0642954664
 21
20.3216428571
  0
LINE
  5
225
100
AcDbEntity
  8
0
100
AcDbLine
 62
7
  6
BYLAYER
 10
17.0642954664
 20
26.6216428571
 11
15.7642954664
 21
27.9216428571
  0
LINE
  5
226
100
AcDbEntity
  8
0
100
AcDbLine
 62
7
  6
BYLAYER
 10
17.0642954664
 20
23.1216428571
 11
44.4641747476
 21
23.1216428571
  0
LINE
  5
227
100
AcDbEntity
  8
0
100
AcDbLine
 62
7
  6
BYLAYER
 10
44.4642213445
 20
23.2216428571
 11
17.0643695883
 21
23.2216428571
  0
LINE
  5
228
100
AcDbEntity
  8
0
100
AcDbLine
 62
7
  6
BYLAYER
 10
12.7642954664
 20
54.7216428571
 11
12.7642954664
 21
50.7216428571
  0
LINE
  5
229
100
AcDbEntity
  8
0
100
AcDbLine
 62
7
  6
BYLAYER
 10
12.7642954664
 20
58.7216428571
 11
12.7642954664
 21
62.7216428571
  0
LINE
  5
22A
100
AcDbEntity
  8
0
100
AcDbLine
 62
7
  6
BYLAYER
 10
13.1973081683
 20
54.0412730634
 11
13.1973081683
 21
51.4020126467
  0
LINE
  5
22B
100
AcDbEntity
  8
0
100
AcDbLine
 62
7
  6
BYLAYER
 10
13.1973081683
 20
59.4020126477
 11
13.1973081683
 21
62.0412730666
  0
LINE
  5
22C
100
AcDbEntity
  8
0
100
AcDbLine
 62
7
  6
BYLAYER
 10
14.5128853049
 20
54.9216428571
 11
14.4592954664
 21
54.7216428571
  0
LINE
  5
22D
100
AcDbEntity
  8
0
100
AcDbLine
 62
7
  6
BYLAYER
 10
17.0642954664
 20
26.6216428571
 11
44.4642954664
 21
26.6216428571
  0
LINE
  5
22E
100
AcDbEntity
  8
0
100
AcDbLine
 62
7
  6
BYLAYER
 10
36.1142954664
 20
15.1716428571
 11
36.7642954664
 21
14.5216428571
  0
LINE
  5
22F
100
AcDbEntity
  8
0
100
AcDbLine
 62
7
  6
BYLAYER
 10
15.7642954664
 20
67.5216428571
 11
15.7642954664
 21
62.7216428571
  0
LINE
  5
230
100
AcDbEntity
  8
0
100
AcDbLine
 62
7
  6
BYLAYER
 10
15.7642954664
 20
58.0748073559
 11
15.7642954664
 21
55.3684799999
  0
LINE
  5
231
100
AcDbEntity
  8
0
100
AcDbLine
 62
7
  6
BYLAYER
 10
15.7642954664
 20
50.7216428571
 11
15.7642954664
 21
27.9216428571
  0
LINE
  5
232
100
AcDbEntity
  8
0
100
AcDbLine
 62
7
  6
BYLAYER
 10
16.5142954664
 20
80.5216428571
 11
16.5142954664
 21
67.7216428571
  0
LINE
  5
233
100
AcDbEntity
  8
0
100
AcDbLine
 62
7
  6
BYLAYER
 10
17.0642954664
 20
26.6216428571
 11
17.0642954664
 21
23.2216428571
  0
LINE
  5
234
100
AcDbEntity
  8
0
100
AcDbLine
 62
7
  6
BYLAYER
 10
17.0642954664
 20
23.1216428571
 11
17.0642954664
 21
20.3216428572
  0
LINE
  5
235
100
AcDbEntity
  8
0
100
AcDbLine
 62
7
  6
BYLAYER
 10
17.1142954664
 20
23.2216428571
 11
17.1142954664
 21
23.1216428571
  0
LINE
  5
236
100
AcDbEntity
  8
0
100
AcDbLine
 62
7
  6
BYLAYER
 10
45.7642954664
 20
27.9216428571
 11
15.7642954664
 21
27.9216428571
  0
LINE
  5
237
100
AcDbEntity
  8
0
100
AcDbLine
 62
7
  6
BYLAYER
 10
14.5128853049
 20
58.5216428571
 11
14.4592954664
 21
58.7216428571
  0
LINE
  5
238
100
AcDbEntity
  8
0
100
AcDbLine
 62
7
  6
BYLAYER
 10
25.5935205413
 20
6.4216428571
 11
25.3642954664
 21
7.7216428571
  0
LINE
  5
239
100
AcDbEntity
  8
0
100
AcDbLine
 62
7
  6
BYLAYER
 10
30.2642954664
 20
58.0216428571
 11
30.7642954664
 21
58.5216428571
  0
LINE
  5
23A
100
AcDbEntity
  8
0
100
AcDbLine
 62
7
  6
BYLAYER
 10
31.2642954664
 20
55.4216428571
 11
30.7642954664
 21
54.9216428571
  0
LINE
  5
23B
100
AcDbEntity
  8
0
100
AcDbLine
 62
7
  6
BYLAYER
 10
24.7642954664
 20
14.5216428571
 11
24.7642954664
 21
9.0216428571
  0
LINE
  5
23C
100
AcDbEntity
  8
0
100
AcDbLine
 62
7
  6
BYLAYER
 10
25.2642954664
 20
18.4215530467
 11
25.2642954664
 21
17.4217327543
  0
LINE
  5
23D
100
AcDbEntity
  8
0
100
AcDbLine
 62
7
  6
BYLAYER
 10
25.3642954664
 20
7.9216428571
 11
25.3642954664
 21
7.7216428571
  0
LINE
  5
23E
100
AcDbEntity
  8
0
100
AcDbLine
 62
7
  6
BYLAYER
 10
25.4142954664
 20
20.1216428571
 11
25.4142954664
 21
18.4216428571
  0
LINE
  5
23F
100
AcDbEntity
  8
0
100
AcDbLine
 62
7
  6
BYLAYER
 10
25.4142954664
 20
17.4216428571
 11
25.4142954664
 21
15.1716428571
  0
LINE
  5
240
100
AcDbEntity
  8
0
100
AcDbLine
 62
7
  6
BYLAYER
 10
25.4142954664
 20
8.3716428571
 11
25.4142954664
 21
7.9216428571
  0
LINE
  5
241
100
AcDbEntity
  8
0
100
AcDbLine
 62
7
  6
BYLAYER
 10
29.5716094222
 20
74.2216428571
 11
29.5716094222
 21
80.5216428571
  0
LINE
  5
242
100
AcDbEntity
  8
0
100
AcDbLine
 62
7
  6
BYLAYER
 10
30.3312827645
 20
54.0412730781
 11
30.3312827645
 21
51.4020126362
  0
LINE
  5
243
100
AcDbEntity
  8
0
100
AcDbLine
 62
7
  6
BYLAYER
 10
30.3312827645
 20
59.4020126471
 11
30.3312827645
 21
62.0412730816
  0
LINE
  5
244
100
AcDbEntity
  8
0
100
AcDbLine
 62
7
  6
BYLAYER
 10
31.0241030876
 20
54.0152630779
 11
31.0241030876
 21
51.4280226352
  0
LINE
  5
245
100
AcDbEntity
  8
0
100
AcDbLine
 62
7
  6
BYLAYER
 10
31.0241030875
 20
59.428022635
 11
31.0241030875
 21
62.0152630793
  0
LINE
  5
246
100
AcDbEntity
  8
0
100
AcDbLine
 62
7
  6
BYLAYER
 10
31.9569815106
 20
80.5216428571
 11
31.9569815106
 21
74.2216428571
  0
LINE
  5
247
100
AcDbEntity
  8
0
100
AcDbLine
 62
7
  6
BYLAYER
 10
36.1142954664
 20
20.1216428571
 11
36.1142954664
 21
15.1716428571
  0
LINE
  5
248
100
AcDbEntity
  8
0
100
AcDbLine
 62
7
  6
BYLAYER
 10
36.1142954664
 20
8.3716428571
 11
36.1142954664
 21
7.9216428571
  0
LINE
  5
249
100
AcDbEntity
  8
0
100
AcDbLine
 62
7
  6
BYLAYER
 10
36.1642954664
 20
7.9216428571
 11
36.1642954664
 21
7.7216428571
  0
LINE
  5
24A
100
AcDbEntity
  8
0
100
AcDbLine
 62
7
  6
BYLAYER
 10
36.7642954664
 20
14.5216428571
 11
36.7642954664
 21
9.0216428571
  0
LINE
  5
24B
100
AcDbEntity
  8
0
100
AcDbLine
 62
7
  6
BYLAYER
 10
48.7642954664
 20
50.7216428571
 11
12.7642954664
 21
50.7216428571
  0
LINE
  5
24C
100
AcDbEntity
  8
0
100
AcDbLine
 62
7
  6
BYLAYER
 10
30.2642954664
 20
55.4216428571
 11
30.7642954664
 21
54.9216428571
  0
LINE
  5
24D
100
AcDbEntity
  8
0
100
AcDbLine
 62
7
  6
BYLAYER
 10
12.7642954664
 20
54.7216428571
 11
48.7642954664
 21
54.7216428571
  0
LINE
  5
24E
100
AcDbEntity
  8
0
100
AcDbLine
 62
7
  6
BYLAYER
 10
31.2642954664
 20
58.0216428571
 11
30.7642954664
 21
58.5216428571
  0
LINE
  5
24F
100
AcDbEntity
  8
0
100
AcDbLine
 62
7
  6
BYLAYER
 10
44.4142954664
 20
23.2216428571
 11
44.4142954664
 21
23.1216428571
  0
LINE
  5
250
100
AcDbEntity
  8
0
100
AcDbLine
 62
7
  6
BYLAYER
 10
44.4642954664
 20
26.6216428571
 11
44.4642954664
 21
23.2216428571
  0
LINE
  5
251
100
AcDbEntity
  8
0
100
AcDbLine
 62
7
  6
BYLAYER
 10
44.4642954664
 20
23.1216428571
 11
44.4642954664
 21
20.3216428572
  0
LINE
  5
252
100
AcDbEntity
  8
0
100
AcDbLine
 62
7
  6
BYLAYER
 10
35.9350703915
 20
6.4216428571
 11
36.1642954664
 21
7.7216428571
  0
LINE
  5
253
100
AcDbEntity
  8
0
100
AcDbLine
 62
7
  6
BYLAYER
 10
47.0692954664
 20
58.7216428571
 11
47.0157056279
 21
58.5216428571
  0
LINE
  5
254
100
AcDbEntity
  8
0
100
AcDbLine
 62
7
  6
BYLAYER
 10
14.6546173442
 20
55.4216428571
 11
14.9777251311
 21
55.4216428571
  0
LINE
  5
255
100
AcDbEntity
  8
0
100
AcDbLine
 62
7
  6
BYLAYER
 10
14.9861836419
 20
55.4216428571
 11
15.2361542429
 21
55.4216428571
  0
LINE
  5
256
100
AcDbEntity
  8
0
100
AcDbLine
 62
7
  6
BYLAYER
 10
15.3329508375
 20
55.4216428571
 11
15.6127618856
 21
55.4216428571
  0
LINE
  5
257
100
AcDbEntity
  8
0
100
AcDbLine
 62
7
  6
BYLAYER
 10
15.7971598834
 20
55.4216428571
 11
16.1046818475
 21
55.4216428571
  0
LINE
  5
258
100
AcDbEntity
  8
0
100
AcDbLine
 62
7
  6
BYLAYER
 10
16.3752778685
 20
55.4216428571
 11
16.7081703208
 21
55.4216428571
  0
LINE
  5
259
100
AcDbEntity
  8
0
100
AcDbLine
 62
7
  6
BYLAYER
 10
17.0629049658
 20
55.4216428571
 11
17.4186343938
 21
55.4216428571
  0
LINE
  5
25A
100
AcDbEntity
  8
0
100
AcDbLine
 62
7
  6
BYLAYER
 10
17.8548079179
 20
55.4216428571
 11
18.2306670059
 21
55.4216428571
  0
LINE
  5
25B
100
AcDbEntity
  8
0
100
AcDbLine
 62
7
  6
BYLAYER
 10
18.7449598653
 20
55.4216428571
 11
19.1380880986
 21
55.4216428571
  0
LINE
  5
25C
100
AcDbEntity
  8
0
100
AcDbLine
 62
7
  6
BYLAYER
 10
19.7265862141
 20
55.4216428571
 11
20.1339916494
 21
55.4216428571
  0
LINE
  5
25D
100
AcDbEntity
  8
0
100
AcDbLine
 62
7
  6
BYLAYER
 10
20.7922161949
 20
55.4216428571
 11
21.2107982311
 21
55.4216428571
  0
LINE
  5
25E
100
AcDbEntity
  8
0
100
AcDbLine
 62
7
  6
BYLAYER
 10
21.9337397204
 20
55.4216428571
 11
22.3603126953
 21
55.4216428571
  0
LINE
  5
25F
100
AcDbEntity
  8
0
100
AcDbLine
 62
7
  6
BYLAYER
 10
23.1424691072
 20
55.4216428571
 11
23.5737865428
 21
55.4216428571
  0
LINE
  5
260
100
AcDbEntity
  8
0
100
AcDbLine
 62
7
  6
BYLAYER
 10
24.4092051947
 20
55.4216428571
 11
24.841984505
 21
55.4216428571
  0
LINE
  5
261
100
AcDbEntity
  8
0
100
AcDbLine
 62
7
  6
BYLAYER
 10
25.7243073565
 20
55.4216428571
 11
26.1552548295
 21
55.4216428571
  0
LINE
  5
262
100
AcDbEntity
  8
0
100
AcDbLine
 62
7
  6
BYLAYER
 10
27.0777668711
 20
55.4216428571
 11
27.5036027364
 21
55.4216428571
  0
LINE
  5
263
100
AcDbEntity
  8
0
100
AcDbLine
 62
7
  6
BYLAYER
 10
28.4592830942
 20
55.4216428571
 11
28.8767664837
 21
55.4216428571
  0
LINE
  5
264
100
AcDbEntity
  8
0
100
AcDbLine
 62
7
  6
BYLAYER
 10
29.8583418533
 20
55.4216428571
 11
30.2642954664
 21
55.4216428571
  0
LINE
  5
265
100
AcDbEntity
  8
0
100
AcDbLine
 62
7
  6
BYLAYER
 10
31.2642954664
 20
55.4216428571
 11
31.6702490795
 21
55.4216428571
  0
LINE
  5
266
100
AcDbEntity
  8
0
100
AcDbLine
 62
7
  6
BYLAYER
 10
32.6518244491
 20
55.4216428571
 11
33.0693078386
 21
55.4216428571
  0
LINE
  5
267
100
AcDbEntity
  8
0
100
AcDbLine
 62
7
  6
BYLAYER
 10
34.0249881965
 20
55.4216428571
 11
34.4508240618
 21
55.4216428571
  0
LINE
  5
268
100
AcDbEntity
  8
0
100
AcDbLine
 62
7
  6
BYLAYER
 10
35.3733361033
 20
55.4216428571
 11
35.8042835763
 21
55.4216428571
  0
LINE
  5
269
100
AcDbEntity
  8
0
100
AcDbLine
 62
7
  6
BYLAYER
 10
36.6866064279
 20
55.4216428571
 11
37.1193857381
 21
55.4216428571
  0
LINE
  5
26A
100
AcDbEntity
  8
0
100
AcDbLine
 62
7
  6
BYLAYER
 10
37.9548043901
 20
55.4216428571
 11
38.3861218256
 21
55.4216428571
  0
LINE
  5
26B
100
AcDbEntity
  8
0
100
AcDbLine
 62
7
  6
BYLAYER
 10
39.1682782376
 20
55.4216428571
 11
39.5948512124
 21
55.4216428571
  0
LINE
  5
26C
100
AcDbEntity
  8
0
100
AcDbLine
 62
7
  6
BYLAYER
 10
40.3177927018
 20
55.4216428571
 11
40.7363747379
 21
55.4216428571
  0
LINE
  5
26D
100
AcDbEntity
  8
0
100
AcDbLine
 62
7
  6
BYLAYER
 10
41.3945992834
 20
55.4216428571
 11
41.8020047188
 21
55.4216428571
  0
LINE
  5
26E
100
AcDbEntity
  8
0
100
AcDbLine
 62
7
  6
BYLAYER
 10
42.3905028342
 20
55.4216428571
 11
42.7836310675
 21
55.4216428571
  0
LINE
  5
26F
100
AcDbEntity
  8
0
100
AcDbLine
 62
7
  6
BYLAYER
 10
43.2979239269
 20
55.4216428571
 11
43.6737830149
 21
55.4216428571
  0
LINE
  5
270
100
AcDbEntity
  8
0
100
AcDbLine
 62
7
  6
BYLAYER
 10
44.109956539
 20
55.4216428571
 11
44.465685967
 21
55.4216428571
  0
LINE
  5
271
100
AcDbEntity
  8
0
100
AcDbLine
 62
7
  6
BYLAYER
 10
44.820420612
 20
55.4216428571
 11
45.1533121298
 21
55.4216428571
  0
LINE
  5
272
100
AcDbEntity
  8
0
100
AcDbLine
 62
7
  6
BYLAYER
 10
45.4239090853
 20
55.4216428571
 11
45.7314310494
 21
55.4216428571
  0
LINE
  5
273
100
AcDbEntity
  8
0
100
AcDbLine
 62
7
  6
BYLAYER
 10
45.9158290473
 20
55.4216428571
 11
46.1956400953
 21
55.4216428571
  0
LINE
  5
274
100
AcDbEntity
  8
0
100
AcDbLine
 62
7
  6
BYLAYER
 10
46.2924366899
 20
55.4216428571
 11
46.5424072909
 21
55.4216428571
  0
LINE
  5
275
100
AcDbEntity
  8
0
100
AcDbLine
 62
7
  6
BYLAYER
 10
46.5508658017
 20
55.4216428571
 11
46.8739735886
 21
55.4216428571
  0
LINE
  5
276
100
AcDbEntity
  8
0
100
AcDbLine
 62
7
  6
BYLAYER
 10
45.0142954664
 20
80.5216428571
 11
45.0142954664
 21
67.7216428571
  0
LINE
  5
277
100
AcDbEntity
  8
0
100
AcDbLine
 62
7
  6
BYLAYER
 10
45.7642954664
 20
67.5216428571
 11
45.7642954664
 21
62.7216428571
  0
LINE
  5
278
100
AcDbEntity
  8
0
100
AcDbLine
 62
7
  6
BYLAYER
 10
45.7642954664
 20
58.0748057144
 11
45.7642954664
 21
55.3684783584
  0
LINE
  5
279
100
AcDbEntity
  8
0
100
AcDbLine
 62
7
  6
BYLAYER
 10
45.7642954664
 20
50.7216428571
 11
45.7642954664
 21
27.9216428571
  0
LINE
  5
27A
100
AcDbEntity
  8
0
100
AcDbLine
 62
7
  6
BYLAYER
 10
25.4142954664
 20
15.1716428571
 11
24.7642954664
 21
14.5216428571
  0
LINE
  5
27B
100
AcDbEntity
  8
0
100
AcDbLine
 62
7
  6
BYLAYER
 10
46.8739735886
 20
58.0216428571
 11
46.5508658017
 21
58.0216428571
  0
LINE
  5
27C
100
AcDbEntity
  8
0
100
AcDbLine
 62
7
  6
BYLAYER
 10
46.5424072909
 20
58.0216428571
 11
46.2924366899
 21
58.0216428571
  0
LINE
  5
27D
100
AcDbEntity
  8
0
100
AcDbLine
 62
7
  6
BYLAYER
 10
46.1956400953
 20
58.0216428571
 11
45.9158290473
 21
58.0216428571
  0
LINE
  5
27E
100
AcDbEntity
  8
0
100
AcDbLine
 62
7
  6
BYLAYER
 10
45.7314310494
 20
58.0216428571
 11
45.4239090853
 21
58.0216428571
  0
LINE
  5
27F
100
AcDbEntity
  8
0
100
AcDbLine
 62
7
  6
BYLAYER
 10
45.1533121298
 20
58.0216428571
 11
44.820420612
 21
58.0216428571
  0
LINE
  5
280
100
AcDbEntity
  8
0
100
AcDbLine
 62
7
  6
BYLAYER
 10
44.465685967
 20
58.0216428571
 11
44.109956539
 21
58.0216428571
  0
LINE
  5
281
100
AcDbEntity
  8
0
100
AcDbLine
 62
7
  6
BYLAYER
 10
43.6737830149
 20
58.0216428571
 11
43.2979239269
 21
58.0216428571
  0
LINE
  5
282
100
AcDbEntity
  8
0
100
AcDbLine
 62
7
  6
BYLAYER
 10
42.7836310675
 20
58.0216428571
 11
42.3905028342
 21
58.0216428571
  0
LINE
  5
283
100
AcDbEntity
  8
0
100
AcDbLine
 62
7
  6
BYLAYER
 10
41.8020047188
 20
58.0216428571
 11
41.3945992834
 21
58.0216428571
  0
LINE
  5
284
100
AcDbEntity
  8
0
100
AcDbLine
 62
7
  6
BYLAYER
 10
40.7363747379
 20
58.0216428571
 11
40.3177927018
 21
58.0216428571
  0
LINE
  5
285
100
AcDbEntity
  8
0
100
AcDbLine
 62
7
  6
BYLAYER
 10
39.5948512124
 20
58.0216428571
 11
39.1682782376
 21
58.0216428571
  0
LINE
  5
286
100
AcDbEntity
  8
0
100
AcDbLine
 62
7
  6
BYLAYER
 10
38.3861218256
 20
58.0216428571
 11
37.9548043901
 21
58.0216428571
  0
LINE
  5
287
100
AcDbEntity
  8
0
100
AcDbLine
 62
7
  6
BYLAYER
 10
37.1193857381
 20
58.0216428571
 11
36.6866064279
 21
58.0216428571
  0
LINE
  5
288
100
AcDbEntity
  8
0
100
AcDbLine
 62
7
  6
BYLAYER
 10
35.8042835763
 20
58.0216428571
 11
35.3733361033
 21
58.0216428571
  0
LINE
  5
289
100
AcDbEntity
  8
0
100
AcDbLine
 62
7
  6
BYLAYER
 10
34.4508240618
 20
58.0216428571
 11
34.0249881965
 21
58.0216428571
  0
LINE
  5
28A
100
AcDbEntity
  8
0
100
AcDbLine
 62
7
  6
BYLAYER
 10
33.0693078386
 20
58.0216428571
 11
32.6518244491
 21
58.0216428571
  0
LINE
  5
28B
100
AcDbEntity
  8
0
100
AcDbLine
 62
7
  6
BYLAYER
 10
31.6702490795
 20
58.0216428571
 11
31.2642954664
 21
58.0216428571
  0
LINE
  5
28C
100
AcDbEntity
  8
0
100
AcDbLine
 62
7
  6
BYLAYER
 10
30.2642954664
 20
58.0216428571
 11
29.8583418533
 21
58.0216428571
  0
LINE
  5
28D
100
AcDbEntity
  8
0
100
AcDbLine
 62
7
  6
BYLAYER
 10
28.8767664837
 20
58.0216428571
 11
28.4592830942
 21
58.0216428571
  0
LINE
  5
28E
100
AcDbEntity
  8
0
100
AcDbLine
 62
7
  6
BYLAYER
 10
27.5036027364
 20
58.0216428571
 11
27.0777668711
 21
58.0216428571
  0
LINE
  5
28F
100
AcDbEntity
  8
0
100
AcDbLine
 62
7
  6
BYLAYER
 10
26.1552548295
 20
58.0216428571
 11
25.7243073565
 21
58.0216428571
  0
LINE
  5
290
100
AcDbEntity
  8
0
100
AcDbLine
 62
7
  6
BYLAYER
 10
24.841984505
 20
58.0216428571
 11
24.4092051947
 21
58.0216428571
  0
LINE
  5
291
100
AcDbEntity
  8
0
100
AcDbLine
 62
7
  6
BYLAYER
 10
23.5737865428
 20
58.0216428571
 11
23.1424691072
 21
58.0216428571
  0
LINE
  5
292
100
AcDbEntity
  8
0
100
AcDbLine
 62
7
  6
BYLAYER
 10
22.3603126953
 20
58.0216428571
 11
21.9337397204
 21
58.0216428571
  0
LINE
  5
293
100
AcDbEntity
  8
0
100
AcDbLine
 62
7
  6
BYLAYER
 10
21.2107982311
 20
58.0216428571
 11
20.7922161949
 21
58.0216428571
  0
LINE
  5
294
100
AcDbEntity
  8
0
100
AcDbLine
 62
7
  6
BYLAYER
 10
20.1339916494
 20
58.0216428571
 11
19.7265862141
 21
58.0216428571
  0
LINE
  5
295
100
AcDbEntity
  8
0
100
AcDbLine
 62
7
  6
BYLAYER
 10
19.1380880986
 20
58.0216428571
 11
18.7449598653
 21
58.0216428571
  0
LINE
  5
296
100
AcDbEntity
  8
0
100
AcDbLine
 62
7
  6
BYLAYER
 10
18.2306670059
 20
58.0216428571
 11
17.8548079179
 21
58.0216428571
  0
LINE
  5
297
100
AcDbEntity
  8
0
100
AcDbLine
 62
7
  6
BYLAYER
 10
17.4186343938
 20
58.0216428571
 11
17.0629049658
 21
58.0216428571
  0
LINE
  5
298
100
AcDbEntity
  8
0
100
AcDbLine
 62
7
  6
BYLAYER
 10
16.7081703208
 20
58.0216428571
 11
16.3752778685
 21
58.0216428571
  0
LINE
  5
299
100
AcDbEntity
  8
0
100
AcDbLine
 62
7
  6
BYLAYER
 10
16.1046818475
 20
58.0216428571
 11
15.7971598834
 21
58.0216428571
  0
LINE
  5
29A
100
AcDbEntity
  8
0
100
AcDbLine
 62
7
  6
BYLAYER
 10
15.6127618856
 20
58.0216428571
 11
15.3329508375
 21
58.0216428571
  0
LINE
  5
29B
100
AcDbEntity
  8
0
100
AcDbLine
 62
7
  6
BYLAYER
 10
15.2361542429
 20
58.0216428571
 11
14.9861836419
 21
58.0216428571
  0
LINE
  5
29C
100
AcDbEntity
  8
0
100
AcDbLine
 62
7
  6
BYLAYER
 10
14.9777251311
 20
58.0216428571
 11
14.6546173442
 21
58.0216428571
  0
LINE
  5
29D
100
AcDbEntity
  8
0
100
AcDbLine
 62
7
  6
BYLAYER
 10
48.7642954664
 20
58.7216428571
 11
12.7642954664
 21
58.7216428571
  0
LINE
  5
29E
100
AcDbEntity
  8
0
100
AcDbLine
 62
7
  6
BYLAYER
 10
48.5044878453
 20
54.0152630833
 11
48.5044878453
 21
51.428022631
  0
LINE
  5
29F
100
AcDbEntity
  8
0
100
AcDbLine
 62
7
  6
BYLAYER
 10
48.5044878453
 20
59.4280226358
 11
48.5044878453
 21
62.0152630823
  0
LINE
  5
2A0
100
AcDbEntity
  8
0
100
AcDbLine
 62
7
  6
BYLAYER
 10
48.7642954664
 20
50.7216428571
 11
48.7642954664
 21
54.7216428571
  0
LINE
  5
2A1
100
AcDbEntity
  8
0
100
AcDbLine
 62
7
  6
BYLAYER
 10
48.7642954664
 20
58.7216428571
 11
48.7642954664
 21
62.7216428571
  0
LINE
  5
2A2
100
AcDbEntity
  8
0
100
AcDbLine
 62
7
  6
BYLAYER
 10
12.7642954664
 20
62.7216428571
 11
48.7642954664
 21
62.7216428571
  0
LINE
  5
2A3
100
AcDbEntity
  8
0
100
AcDbLine
 62
7
  6
BYLAYER
 10
47.0692954664
 20
54.7216428571
 11
47.0157056279
 21
54.9216428571
  0
LINE
  5
2A4
100
AcDbEntity
  8
0
100
AcDbLine
 62
7
  6
BYLAYER
 10
44.4642954664
 20
26.6216428571
 11
45.7642954664
 21
27.9216428571
  0
LINE
  5
2A5
100
AcDbEntity
  8
0
100
AcDbLine
 62
7
  6
BYLAYER
 10
15.7642954664
 20
67.5216428571
 11
45.7642954664
 21
67.5216428571
  0
LINE
  5
2A6
100
AcDbEntity
  8
0
100
AcDbLine
 62
7
  6
BYLAYER
 10
15.9642954664
 20
67.7216428571
 11
45.5642557961
 21
67.7216428571
  0
LINE
  5
2A7
100
AcDbEntity
  8
0
100
AcDbLine
 62
7
  6
BYLAYER
 10
44.2642954664
 20
20.1216428572
 11
44.4642954664
 21
20.3216428572
  0
LINE
  5
2A8
100
AcDbEntity
  8
0
100
AcDbLine
 62
7
  6
BYLAYER
 10
45.5642954664
 20
67.7216428571
 11
45.7642954664
 21
67.5216428571
  0
LINE
  5
2A9
100
AcDbEntity
  8
0
100
AcDbLine
 62
7
  6
BYLAYER
 10
36.1142954664
 20
8.3716428571
 11
36.7642954664
 21
9.0216428571
  0
LINE
  5
2AA
100
AcDbEntity
  8
0
100
AcDbLine
 62
7
  6
BYLAYER
 10
29.5716094222
 20
74.2216428571
 11
31.9569815106
 21
74.2216428571
  0
LINE
  5
2AB
100
AcDbEntity
  8
0
100
AcDbLine
 62
7
  6
BYLAYER
 10
16.5142954664
 20
80.5216428571
 11
29.5716094222
 21
80.5216428571
  0
LINE
  5
2AC
100
AcDbEntity
  8
0
100
AcDbLine
 62
7
  6
BYLAYER
 10
31.9569815106
 20
80.5216428571
 11
45.0142954664
 21
80.5216428571
  0
LINE
  5
2AD
100
AcDbEntity
  8
0
100
AcDbLine
 62
7
  6
BYLAYER
 10
16.7142954664
 20
80.7216428571
 11
44.8142709892
 21
80.7216428571
  0
ARC
  5
2AE
100
AcDbEntity
  8
0
100
AcDbCircle
 62
7
  6
BYLAYER
 10
27.7925700278
 20
-22.8218616365
 40
76.9050488623
100
AcDbArc
 50
87.5917350281
 51
88.1082652118
  0
ARC
  5
2AF
100
AcDbEntity
  8
0
100
AcDbCircle
 62
7
  6
BYLAYER
 10
27.7925700278
 20
136.2651473508
 40
76.9050488623
100
AcDbArc
 50
271.8917347882
 51
272.4082649719
  0
ARC
  5
2B0
100
AcDbEntity
  8
0
100
AcDbCircle
 62
7
  6
BYLAYER
 10
27.7925703358
 20
-14.8218534344
 40
76.9050406545
100
AcDbArc
 50
87.5917350005
 51
88.1082652394
  0
ARC
  5
2B1
100
AcDbEntity
  8
0
100
AcDbCircle
 62
7
  6
BYLAYER
 10
27.7925703377
 20
128.265139096
 40
76.9050406018
100
AcDbArc
 50
271.8917347604
 51
272.4082649996
  0
ARC
  5
2B2
100
AcDbEntity
  8
0
100
AcDbCircle
 62
7
  6
BYLAYER
 10
14.7879734855
 20
89.5007074635
 40
30.1406974996
100
AcDbArc
 50
266.1502051837
 51
266.9748288562
  0
ARC
  5
2B3
100
AcDbEntity
  8
0
100
AcDbCircle
 62
7
  6
BYLAYER
 10
14.7879734854
 20
23.9425782512
 40
30.1406974992
100
AcDbArc
 50
93.0251711438
 51
93.8497948163
  0
ARC
  5
2B4
100
AcDbEntity
  8
0
100
AcDbCircle
 62
7
  6
BYLAYER
 10
14.7879733965
 20
81.500705983
 40
30.1406960165
100
AcDbArc
 50
266.1502051634
 51
266.9748288765
  0
ARC
  5
2B5
100
AcDbEntity
  8
0
100
AcDbCircle
 62
7
  6
BYLAYER
 10
14.7879733926
 20
31.9425797971
 40
30.1406959505
100
AcDbArc
 50
93.0251711226
 51
93.8497948375
  0
ARC
  5
2B6
100
AcDbEntity
  8
0
100
AcDbCircle
 62
7
  6
BYLAYER
 10
49.7256445489
 20
43.1280038881
 40
10.9555299496
100
AcDbArc
 50
95.0341863652
 51
96.3997656982
  0
ARC
  5
2B7
100
AcDbEntity
  8
0
100
AcDbCircle
 62
7
  6
BYLAYER
 10
49.7256445489
 20
70.3152818263
 40
10.9555299497
100
AcDbArc
 50
263.6002343018
 51
264.9658136348
  0
ARC
  5
2B8
100
AcDbEntity
  8
0
100
AcDbCircle
 62
7
  6
BYLAYER
 10
49.7256445386
 20
62.3152817237
 40
10.9555298466
100
AcDbArc
 50
263.6002342954
 51
264.9658136412
  0
ARC
  5
2B9
100
AcDbEntity
  8
0
100
AcDbCircle
 62
7
  6
BYLAYER
 10
49.7256445362
 20
51.1280040144
 40
10.9555298227
100
AcDbArc
 50
95.0341863573
 51
96.3997657061
  0
ARC
  5
2BA
100
AcDbEntity
  8
0
100
AcDbCircle
 62
7
  6
BYLAYER
 10
44.8142954664
 20
80.5216428571
 40
0.2
100
AcDbArc
 50
0.0
 51
90.0
  0
ARC
  5
2BB
100
AcDbEntity
  8
0
100
AcDbCircle
 62
7
  6
BYLAYER
 10
16.7142954664
 20
80.5216428571
 40
0.2
100
AcDbArc
 50
90.0
 51
180.0
  0
SPLINE
  5
2BC
100
AcDbEntity
  8
0
100
AcDbSpline
 62
7
  6
BYLAYER
 70
0
 71
3
 72
32
 73
28
 74
0
 42
0.0000001
 43
0.0000001
 44
0.0000000001
 40
0.0
 40
0.0
 40
0.0
 40
0.0
 40
0.0000761726
 40
0.0003041873
 40
0.0006837964
 40
0.001214745
 40
0.0027296374
 40
0.0048468171
 40
0.0075642357
 40
0.010879845
 40
0.0147915968
 40
0.0192974432
 40
0.0300832291
 40
0.0432192353
 40
0.0586695101
 40
0.0763867454
 40
0.0963234995
 40
0.118432382
 40
0.1689670301
 40
0.2274859368
 40
0.2934110412
 40
0.3661335611
 40
0.4449230601
 40
0.5290198516
 40
0.6176408686
 40
0.8051514983
 40
1.0
 40
1.0
 40
1.0
 40
1.0
 10
25.4143175533
 20
17.4216428571
 30
0.0
 10
25.4143302672
 20
17.421642833
 30
0.0
 10
25.414308832
 20
17.4217240291
 30
0.0
 10
25.4143459758
 20
17.4218079928
 30
0.0
 10
25.4143498851
 20
17.4220138685
 30
0.0
 10
25.4143976593
 20
17.4224066543
 30
0.0
 10
25.4144570288
 20
17.4231059155
 30
0.0
 10
25.4145599212
 20
17.4241573607
 30
0.0
 10
25.4146857913
 20
17.4255131648
 30
0.0
 10
25.4148404135
 20
17.4271653479
 30
0.0
 10
25.4150211894
 20
17.4291155199
 30
0.0
 10
25.4153158896
 20
17.432307085
 30
0.0
 10
25.4157486551
 20
17.4370321681
 30
0.0
 10
25.4163430013
 20
17.4435767567
 30
0.0
 10
25.4170324473
 20
17.4512744074
 30
0.0
 10
25.4178083551
 20
17.4601039431
 30
0.0
 10
25.41866223
 20
17.4700422753
 30
0.0
 10
25.4199517331
 20
17.4854408344
 30
0.0
 10
25.4216993961
 20
17.5072632025
 30
0.0
 10
25.4238778642
 20
17.5363874355
 30
0.0
 10
25.4261412661
 20
17.569218505
 30
0.0
 10
25.4284069611
 20
17.60544011
 30
0.0
 10
25.4305888349
 20
17.6447050239
 30
0.0
 10
25.4325955021
 20
17.6866362378
 30
0.0
 10
25.4349788134
 20
17.7467148027
 30
0.0
 10
25.4371022066
 20
17.8253006339
 30
0.0
 10
25.437711195
 20
17.8891209638
 30
0.0
 10
25.437711195
 20
17.9216428571
 30
0.0
  0
SPLINE
  5
2BD
100
AcDbEntity
  8
0
100
AcDbSpline
 62
7
  6
BYLAYER
 70
0
 71
3
 72
21
 73
17
 74
0
 42
0.0000001
 43
0.0000001
 44
0.0000000001
 40
0.0
 40
0.0
 40
0.0
 40
0.0
 40
0.0012557054
 40
0.0049153365
 40
0.0109709807
 40
0.0194147283
 40
0.0434289923
 40
0.0767259992
 40
0.1188945594
 40
0.1695020463
 40
0.228025558
 40
0.2939037739
 40
0.4452197532
 40
0.6177907376
 40
0.8052225767
 40
1.0
 40
1.0
 40
1.0
 40
1.0
 10
25.2642954725
 20
17.4217404886
 30
0.0
 10
25.2642972436
 20
17.421950011
 30
0.0
 10
25.2644096195
 20
17.4227650582
 30
0.0
 10
25.2645375346
 20
17.4245900107
 30
0.0
 10
25.2648288621
 20
17.4276069783
 30
0.0
 10
25.2653856707
 20
17.434008779
 30
0.0
 10
25.2663524388
 20
17.4449385195
 30
0.0
 10
25.2677555263
 20
17.4614784043
 30
0.0
 10
25.2694683919
 20
17.4824454976
 30
0.0
 10
25.2714240796
 20
17.5076158791
 30
0.0
 10
25.2735483816
 20
17.5367410927
 30
0.0
 10
25.2766409494
 20
17.582644116
 30
0.0
 10
25.2803897365
 20
17.6475752456
 30
0.0
 10
25.2840437881
 20
17.7328203614
 30
0.0
 10
25.2864917746
 20
17.8253641163
 30
0.0
 10
25.2870698914
 20
17.8891418545
 30
0.0
 10
25.2870698914
 20
17.9216428571
 30
0.0
  0
SPLINE
  5
2BE
100
AcDbEntity
  8
0
100
AcDbSpline
 62
7
  6
BYLAYER
 70
0
 71
3
 72
32
 73
28
 74
0
 42
0.0000001
 43
0.0000001
 44
0.0000000001
 40
0.0
 40
0.0
 40
0.0
 40
0.0
 40
0.1948483961
 40
0.3823583159
 40
0.4709787705
 40
0.5550751732
 40
0.6338644905
 40
0.7065866748
 40
0.772511263
 40
0.8310298924
 40
0.8815648672
 40
0.9036742656
 40
0.9236116746
 40
0.9413295819
 40
0.9567804137
 40
0.9699167222
 40
0.9807024932
 40
0.9852082568
 40
0.9891199048
 40
0.9924354114
 40
0.995152751
 40
0.9972698983
 40
0.9987848285
 40
0.9993158304
 40
0.9996955208
 40
0.999923651
 40
1.0
 40
1.0
 40
1.0
 40
1.0
 10
25.437711195
 20
17.9216428571
 30
0.0
 10
25.437711195
 20
17.9541646816
 30
0.0
 10
25.4370990241
 20
18.0179847341
 30
0.0
 10
25.4349819349
 20
18.0965703104
 30
0.0
 10
25.432607642
 20
18.1566488624
 30
0.0
 10
25.43060616
 20
18.1985800715
 30
0.0
 10
25.4284286912
 20
18.2378450159
 30
0.0
 10
25.4261683073
 20
18.2740667163
 30
0.0
 10
25.4239126989
 20
18.3068980774
 30
0.0
 10
25.4217407244
 20
18.3360226764
 30
0.0
 10
25.4199934471
 20
18.3578451485
 30
0.0
 10
25.4186997834
 20
18.3732435868
 30
0.0
 10
25.4178420569
 20
18.3831818809
 30
0.0
 10
25.4170621619
 20
18.3920113671
 30
0.0
 10
25.4163693528
 20
18.3997089598
 30
0.0
 10
25.4157731287
 20
18.4062535085
 30
0.0
 10
25.4153403654
 20
18.4109786179
 30
0.0
 10
25.4150462097
 20
18.414170195
 30
0.0
 10
25.4148659252
 20
18.4161203595
 30
0.0
 10
25.4147118238
 20
18.4177725447
 30
0.0
 10
25.4145863077
 20
18.4191283326
 30
0.0
 10
25.4144837431
 20
18.4201798241
 30
0.0
 10
25.4144240352
 20
18.4208790015
 30
0.0
 10
25.4143763023
 20
18.4212718997
 30
0.0
 10
25.4143714598
 20
18.4214775974
 30
0.0
 10
25.4143349823
 20
18.421561902
 30
0.0
 10
25.4143549179
 20
18.4216428026
 30
0.0
 10
25.4143421747
 20
18.4216428571
 30
0.0
  0
SPLINE
  5
2BF
100
AcDbEntity
  8
0
100
AcDbSpline
 62
7
  6
BYLAYER
 70
0
 71
3
 72
19
 73
15
 74
0
 42
0.0000001
 43
0.0000001
 44
0.0000000001
 40
0.0
 40
0.0
 40
0.0
 40
0.0
 40
0.1948044455
 40
0.3823519607
 40
0.7064927133
 40
0.8307272128
 40
0.8813280491
 40
0.9235837716
 40
0.9569519608
 40
0.9809180511
 40
0.9893000954
 40
0.9952765479
 40
0.9988442392
 40
1.0
 40
1.0
 40
1.0
 40
1.0
 10
25.2870698914
 20
17.9216428571
 30
0.0
 10
25.2870698914
 20
17.9541481271
 30
0.0
 10
25.28648015
 20
18.0179489036
 30
0.0
 10
25.2833808762
 20
18.1358003923
 30
0.0
 10
25.2781224817
 20
18.2417892733
 30
0.0
 10
25.2722796389
 20
18.3248622444
 30
0.0
 10
25.2694697284
 20
18.3609571296
 30
0.0
 10
25.2677568283
 20
18.3819935404
 30
0.0
 10
25.2663573555
 20
18.3984359117
 30
0.0
 10
25.2653872567
 20
18.4096017251
 30
0.0
 10
25.2648337881
 20
18.4156452665
 30
0.0
 10
25.2645334623
 20
18.4191578782
 30
0.0
 10
25.2644199087
 20
18.4200001713
 30
0.0
 10
25.2642938451
 20
18.4217381616
 30
0.0
 10
25.2642954724
 20
18.421545317
 30
0.0
  0
SPLINE
  5
2C0
100
AcDbEntity
  8
0
100
AcDbSpline
 62
7
  6
BYLAYER
 70
0
 71
3
 72
10
 73
6
 74
0
 42
0.0000001
 43
0.0000001
 44
0.0000000001
 40
0.0
 40
0.0
 40
0.0
 40
0.0
 40
0.5003306227
 40
0.750219137
 40
1.0
 40
1.0
 40
1.0
 40
1.0
 10
30.3312827645
 20
51.4020126326
 30
0.0
 10
28.9125180197
 20
51.1905923225
 30
0.0
 10
26.7750297084
 20
50.9328076509
 30
0.0
 10
23.9131380565
 20
50.7523782028
 30
0.0
 10
22.4804028049
 20
50.7216428074
 30
0.0
 10
21.7642895654
 20
50.7216428928
 30
0.0
  0
SPLINE
  5
2C1
100
AcDbEntity
  8
0
100
AcDbSpline
 62
7
  6
BYLAYER
 70
0
 71
3
 72
10
 73
6
 74
0
 42
0.0000001
 43
0.0000001
 44
0.0000000001
 40
0.0
 40
0.0
 40
0.0
 40
0.0
 40
0.2497722834
 40
0.4996562696
 40
1.0
 40
1.0
 40
1.0
 40
1.0
 10
39.7642895654
 20
50.7216428928
 30
0.0
 10
39.0336238167
 20
50.7216429764
 30
0.0
 10
37.571753553
 20
50.7536337007
 30
0.0
 10
34.6518096133
 20
50.9413758094
 30
0.0
 10
32.4712985406
 20
51.2090404981
 30
0.0
 10
31.0241030876
 20
51.4280226352
 30
0.0
  0
SPLINE
  5
2C2
100
AcDbEntity
  8
0
100
AcDbSpline
 62
7
  6
BYLAYER
 70
0
 71
3
 72
10
 73
6
 74
0
 42
0.0000001
 43
0.0000001
 44
0.0000000001
 40
0.0
 40
0.0
 40
0.0
 40
0.0
 40
0.2497808308
 40
0.4996693435
 40
1.0
 40
1.0
 40
1.0
 40
1.0
 10
21.7642895654
 20
50.7216428928
 30
0.0
 10
21.0481773472
 20
50.7216429751
 30
0.0
 10
19.6154438138
 20
50.7523670777
 30
0.0
 10
16.7535560665
 20
50.9328044352
 30
0.0
 10
14.6160711683
 20
51.1905925944
 30
0.0
 10
13.1973081683
 20
51.4020126467
 30
0.0
  0
SPLINE
  5
2C3
100
AcDbEntity
  8
0
100
AcDbSpline
 62
7
  6
BYLAYER
 70
0
 71
3
 72
10
 73
6
 74
0
 42
0.0000001
 43
0.0000001
 44
0.0000000001
 40
0.0
 40
0.0
 40
0.0
 40
0.0
 40
0.5003306234
 40
0.7502191514
 40
1.0
 40
1.0
 40
1.0
 40
1.0
 10
13.1973081683
 20
54.0412730634
 30
0.0
 10
14.6160710708
 20
54.2526931018
 30
0.0
 10
16.7535570142
 20
54.5104686658
 30
0.0
 10
19.6154435885
 20
54.6909244698
 30
0.0
 10
21.0481774662
 20
54.7216427652
 30
0.0
 10
21.7642897338
 20
54.721642825
 30
0.0
  0
SPLINE
  5
2C4
100
AcDbEntity
  8
0
100
AcDbSpline
 62
7
  6
BYLAYER
 70
0
 71
3
 72
10
 73
6
 74
0
 42
0.0000001
 43
0.0000001
 44
0.0000000001
 40
0.0
 40
0.0
 40
0.0
 40
0.0
 40
0.24978085
 40
0.4996693784
 40
1.0
 40
1.0
 40
1.0
 40
1.0
 10
21.7642897338
 20
54.721642825
 30
0.0
 10
22.4804029539
 20
54.7216429281
 30
0.0
 10
23.9131386875
 20
54.6909228437
 30
0.0
 10
26.7750292056
 20
54.5104698542
 30
0.0
 10
28.9125179874
 20
54.2526933835
 30
0.0
 10
30.3312827645
 20
54.0412730672
 30
0.0
  0
SPLINE
  5
2C5
100
AcDbEntity
  8
0
100
AcDbSpline
 62
7
  6
BYLAYER
 70
0
 71
3
 72
10
 73
6
 74
0
 42
0.0000001
 43
0.0000001
 44
0.0000000001
 40
0.0
 40
0.0
 40
0.0
 40
0.0
 40
0.5003455877
 40
0.7502292343
 40
1.0
 40
1.0
 40
1.0
 40
1.0
 10
31.0241030876
 20
54.0152630779
 30
0.0
 10
32.4713040184
 20
54.2342460439
 30
0.0
 10
34.6518186078
 20
54.5019214005
 30
0.0
 10
37.5717635444
 20
54.6896536749
 30
0.0
 10
39.0336284185
 20
54.7216427916
 30
0.0
 10
39.7642897807
 20
54.7216428235
 30
0.0
  0
SPLINE
  5
2C6
100
AcDbEntity
  8
0
100
AcDbSpline
 62
7
  6
BYLAYER
 70
0
 71
3
 72
11
 73
7
 74
0
 42
0.0000001
 43
0.0000001
 44
0.0000000001
 40
0.0
 40
0.0
 40
0.0
 40
0.0
 40
0.2497549229
 40
0.4996214883
 40
0.7496870718
 40
1.0
 40
1.0
 40
1.0
 40
1.0
 10
39.7642897807
 20
54.7216428235
 30
0.0
 10
40.4949565196
 20
54.7216429344
 30
0.0
 10
41.9568075406
 20
54.6896448111
 30
0.0
 10
44.1461009143
 20
54.5488795693
 30
0.0
 10
46.329848802
 20
54.3235894453
 30
0.0
 10
47.7804308007
 20
54.1248236486
 30
0.0
 10
48.5044878453
 20
54.0152630786
 30
0.0
  0
SPLINE
  5
2C7
100
AcDbEntity
  8
0
100
AcDbSpline
 62
7
  6
BYLAYER
 70
0
 71
3
 72
10
 73
6
 74
0
 42
0.0000001
 43
0.0000001
 44
0.0000000001
 40
0.0
 40
0.0
 40
0.0
 40
0.0
 40
0.5003455877
 40
0.7502292341
 40
1.0
 40
1.0
 40
1.0
 40
1.0
 10
48.5044878453
 20
51.4280226319
 30
0.0
 10
47.0572850046
 20
51.2090393774
 30
0.0
 10
44.8767675207
 20
50.9413637661
 30
0.0
 10
41.9568187036
 20
50.7536315991
 30
0.0
 10
40.4949518922
 20
50.7216428037
 30
0.0
 10
39.7642895654
 20
50.7216428928
 30
0.0
  0
SPLINE
  5
2C8
100
AcDbEntity
  8
0
100
AcDbSpline
 62
7
  6
BYLAYER
 70
0
 71
3
 72
10
 73
6
 74
0
 42
0.0000001
 43
0.0000001
 44
0.0000000001
 40
0.0
 40
0.0
 40
0.0
 40
0.0
 40
0.5003306246
 40
0.7502191521
 40
1.0
 40
1.0
 40
1.0
 40
1.0
 10
30.3312827645
 20
59.4020126471
 30
0.0
 10
28.9125179788
 20
59.1905923295
 30
0.0
 10
26.7750291907
 20
58.9328158599
 30
0.0
 10
23.9131386726
 20
58.7523628747
 30
0.0
 10
22.4804029478
 20
58.7216427862
 30
0.0
 10
21.7642897337
 20
58.7216428893
 30
0.0
  0
SPLINE
  5
2C9
100
AcDbEntity
  8
0
100
AcDbSpline
 62
7
  6
BYLAYER
 70
0
 71
3
 72
11
 73
7
 74
0
 42
0.0000001
 43
0.0000001
 44
0.0000000001
 40
0.0
 40
0.0
 40
0.0
 40
0.0
 40
0.2497549235
 40
0.4996214901
 40
0.7496870759
 40
1.0
 40
1.0
 40
1.0
 40
1.0
 10
39.7642896867
 20
58.7216428908
 30
0.0
 10
39.0336238968
 20
58.7216429462
 30
0.0
 10
37.5717747085
 20
58.7536386256
 30
0.0
 10
35.382484317
 20
58.8944069022
 30
0.0
 10
33.1987394455
 20
59.1196978133
 30
0.0
 10
31.7481591784
 20
59.3184622105
 30
0.0
 10
31.0241030876
 20
59.4280226364
 30
0.0
  0
SPLINE
  5
2CA
100
AcDbEntity
  8
0
100
AcDbSpline
 62
7
  6
BYLAYER
 70
0
 71
3
 72
10
 73
6
 74
0
 42
0.0000001
 43
0.0000001
 44
0.0000000001
 40
0.0
 40
0.0
 40
0.0
 40
0.0
 40
0.2497723115
 40
0.4996562631
 40
1.0
 40
1.0
 40
1.0
 40
1.0
 10
39.7642895654
 20
62.7216428214
 30
0.0
 10
40.4949563196
 20
62.721642909
 30
0.0
 10
41.9568275963
 20
62.6896245109
 30
0.0
 10
44.8767775037
 20
62.5019255779
 30
0.0
 10
47.0572905438
 20
62.2342454987
 30
0.0
 10
48.5044878453
 20
62.0152630823
 30
0.0
  0
SPLINE
  5
2CB
100
AcDbEntity
  8
0
100
AcDbSpline
 62
7
  6
BYLAYER
 70
0
 71
3
 72
10
 73
6
 74
0
 42
0.0000001
 43
0.0000001
 44
0.0000000001
 40
0.0
 40
0.0
 40
0.0
 40
0.0
 40
0.5003455877
 40
0.7502292341
 40
1.0
 40
1.0
 40
1.0
 40
1.0
 10
48.5044878453
 20
59.4280226358
 30
0.0
 10
47.0572850245
 20
59.2090393842
 30
0.0
 10
44.8767675713
 20
58.9413637585
 30
0.0
 10
41.9568187946
 20
58.7536316246
 30
0.0
 10
40.4949520035
 20
58.7216427565
 30
0.0
 10
39.7642896867
 20
58.7216428908
 30
0.0
  0
SPLINE
  5
2CC
100
AcDbEntity
  8
0
100
AcDbSpline
 62
7
  6
BYLAYER
 70
0
 71
3
 72
10
 73
6
 74
0
 42
0.0000001
 43
0.0000001
 44
0.0000000001
 40
0.0
 40
0.0
 40
0.0
 40
0.0
 40
0.50033066
 40
0.7502191717
 40
1.0
 40
1.0
 40
1.0
 40
1.0
 10
13.1973081683
 20
62.0412730675
 30
0.0
 10
14.6160711782
 20
62.2526931214
 30
0.0
 10
16.7535560836
 20
62.5104812789
 30
0.0
 10
19.6154438307
 20
62.6909186383
 30
0.0
 10
21.0481773542
 20
62.7216427392
 30
0.0
 10
21.7642895654
 20
62.7216428214
 30
0.0
  0
SPLINE
  5
2CD
100
AcDbEntity
  8
0
100
AcDbSpline
 62
7
  6
BYLAYER
 70
0
 71
3
 72
10
 73
6
 74
0
 42
0.0000001
 43
0.0000001
 44
0.0000000001
 40
0.0
 40
0.0
 40
0.0
 40
0.0
 40
0.2497808651
 40
0.4996693803
 40
1.0
 40
1.0
 40
1.0
 40
1.0
 10
21.7642895654
 20
62.7216428214
 30
0.0
 10
22.480402811
 20
62.7216429069
 30
0.0
 10
23.9131380714
 20
62.6909075152
 30
0.0
 10
26.7750297233
 20
62.5104780645
 30
0.0
 10
28.9125180283
 20
62.2526933906
 30
0.0
 10
30.3312827645
 20
62.0412730816
 30
0.0
  0
SPLINE
  5
2CE
100
AcDbEntity
  8
0
100
AcDbSpline
 62
7
  6
BYLAYER
 70
0
 71
3
 72
10
 73
6
 74
0
 42
0.0000001
 43
0.0000001
 44
0.0000000001
 40
0.0
 40
0.0
 40
0.0
 40
0.0
 40
0.5003455877
 40
0.7502292343
 40
1.0
 40
1.0
 40
1.0
 40
1.0
 10
31.0241030876
 20
62.015263079
 30
0.0
 10
32.471303983
 20
62.2342460397
 30
0.0
 10
34.6518185188
 20
62.5019213773
 30
0.0
 10
37.5717633832
 20
62.6896536881
 30
0.0
 10
39.0336282212
 20
62.7216427395
 30
0.0
 10
39.7642895654
 20
62.7216428214
 30
0.0
  0
SPLINE
  5
2CF
100
AcDbEntity
  8
0
100
AcDbSpline
 62
7
  6
BYLAYER
 70
0
 71
3
 72
10
 73
6
 74
0
 42
0.0000001
 43
0.0000001
 44
0.0000000001
 40
0.0
 40
0.0
 40
0.0
 40
0.0
 40
0.2497808507
 40
0.4996693796
 40
1.0
 40
1.0
 40
1.0
 40
1.0
 10
21.7642897337
 20
58.7216428893
 30
0.0
 10
21.0481774602
 20
58.7216429491
 30
0.0
 10
19.6154435737
 20
58.7523612409
 30
0.0
 10
16.7535569995
 20
58.932817048
 30
0.0
 10
14.6160710623
 20
59.1905926138
 30
0.0
 10
13.1973081683
 20
59.4020126509
 30
0.0
  0
SPLINE
  5
2D0
100
AcDbEntity
  8
0
100
AcDbSpline
 62
7
  6
BYLAYER
 70
0
 71
3
 72
45
 73
41
 74
0
 42
0.0000001
 43
0.0000001
 44
0.0000000001
 40
0.0
 40
0.0
 40
0.0
 40
0.0
 40
0.0038861776
 40
0.0077901222
 40
0.0116961748
 40
0.0156030127
 40
0.023413343
 40
0.0312256036
 40
0.0468483823
 40
0.0624734248
 40
0.0780990979
 40
0.0937250011
 40
0.1249759669
 40
0.1562276246
 40
0.1874795613
 40
0.2187316281
 40
0.249983769
 40
0.3124874373
 40
0.3749914402
 40
0.4374956022
 40
0.4999998454
 40
0.5625041368
 40
0.6250083644
 40
0.6875124092
 40
0.7500161102
 40
0.7812682617
 40
0.8125203373
 40
0.8437722801
 40
0.8750239418
 40
0.9062749089
 40
0.9219008122
 40
0.9375264852
 40
0.953151528
 40
0.9687743076
 40
0.9765865676
 40
0.984396901
 40
0.9883037431
 40
0.9922097998
 40
0.9961138171
 40
1.0
 40
1.0
 40
1.0
 40
1.0
 10
31.9569815106
 20
80.5216428571
 30
0.0
 10
31.9569815106
 20
80.5247955845
 30
0.0
 10
31.9550209297
 20
80.5311425472
 30
0.0
 10
31.9488779197
 20
80.5385018162
 30
0.0
 10
31.9414951468
 20
80.5445387625
 30
0.0
 10
31.9307779692
 20
80.5513404027
 30
0.0
 10
31.9164910822
 20
80.5582791228
 30
0.0
 10
31.8928534155
 20
80.567465358
 30
0.0
 10
31.8624725156
 20
80.5766124757
 30
0.0
 10
31.8255021054
 20
80.5855442677
 30
0.0
 10
31.7882214953
 20
80.5930916402
 30
0.0
 10
31.7382670459
 20
80.6018133882
 30
0.0
 10
31.6755085561
 20
80.6107892451
 30
0.0
 10
31.5999438926
 20
80.6195045545
 30
0.0
 10
31.5242183959
 20
80.6266844667
 30
0.0
 10
31.448389731
 20
80.6326604783
 30
0.0
 10
31.3471909575
 20
80.6393096812
 30
0.0
 10
31.2205674181
 20
80.6455485445
 30
0.0
 10
31.0685204563
 20
80.6504955371
 30
0.0
 10
30.916419589
 20
80.6533180939
 30
0.0
 10
30.7642957979
 20
80.6542367008
 30
0.0
 10
30.6121719535
 20
80.6533181409
 30
0.0
 10
30.4600709589
 20
80.6504955852
 30
0.0
 10
30.3080238877
 20
80.6455484859
 30
0.0
 10
30.1814002728
 20
80.6393097485
 30
0.0
 10
30.0802014599
 20
80.6326604981
 30
0.0
 10
30.0043727738
 20
80.6266844925
 30
0.0
 10
29.9286472627
 20
80.6195045709
 30
0.0
 10
29.8530825888
 20
80.6107892717
 30
0.0
 10
29.7903240936
 20
80.6018134209
 30
0.0
 10
29.7403696423
 20
80.5930916783
 30
0.0
 10
29.7030890306
 20
80.5855443116
 30
0.0
 10
29.66611862
 20
80.576612521
 30
0.0
 10
29.6357377082
 20
80.5674654371
 30
0.0
 10
29.6121000433
 20
80.5582791915
 30
0.0
 10
29.597813136
 20
80.5513405015
 30
0.0
 10
29.5870959407
 20
80.5445388725
 30
0.0
 10
29.5797130853
 20
80.5385019273
 30
0.0
 10
29.5735700027
 20
80.531142619
 30
0.0
 10
29.5716094222
 20
80.5247955888
 30
0.0
 10
29.5716094222
 20
80.5216428571
 30
0.0
  0
ELLIPSE
  5
2D1
100
AcDbEntity
  8
0
100
AcDbEllipse
 62
7
  6
BYLAYER
 10
31.9130432944
 20
61.5370179417
 30
0.0
 11
10.9958379272
 21
15.791979517
 31
0.0
 40
0.818317629
 41
-1.3965536952
 42
-1.3960435217
  0
ELLIPSE
  5
2D2
100
AcDbEntity
  8
0
100
AcDbEllipse
 62
7
  6
BYLAYER
 10
32.4764805288
 20
61.5370179417
 30
0.0
 11
12.3580633753
 21
15.6563003942
 31
0.0
 40
0.7470541823
 41
4.8970060586
 42
4.9020265797
  0
ELLIPSE
  5
2D3
100
AcDbEntity
  8
0
100
AcDbEllipse
 62
7
  6
BYLAYER
 10
33.026887001
 20
61.5370179417
 30
0.0
 11
13.3023954138
 21
15.7703479229
 31
0.0
 40
0.6792721423
 41
4.881095312
 42
4.8895407588
  0
ELLIPSE
  5
2D4
100
AcDbEntity
  8
0
100
AcDbEllipse
 62
7
  6
BYLAYER
 10
33.5600737854
 20
61.5370179417
 30
0.0
 11
14.0585338956
 21
15.9844133441
 31
0.0
 40
0.6154007239
 41
-1.4290229293
 42
-1.4178485365
  0
ELLIPSE
  5
2D5
100
AcDbEntity
  8
0
100
AcDbEllipse
 62
7
  6
BYLAYER
 10
34.0719830087
 20
61.5370179417
 30
0.0
 11
14.7051040421
 21
16.2385436118
 31
0.0
 40
0.5552272381
 41
-1.4615012695
 42
-1.4480705033
  0
ELLIPSE
  5
2D6
100
AcDbEntity
  8
0
100
AcDbEllipse
 62
7
  6
BYLAYER
 10
34.5587187326
 20
61.5370179417
 30
0.0
 11
15.274965845
 21
16.5043969512
 31
0.0
 40
0.4983942514
 41
-1.4971206964
 42
-1.4817673503
  0
ELLIPSE
  5
2D7
100
AcDbEntity
  8
0
100
AcDbEllipse
 62
7
  6
BYLAYER
 10
35.0165766042
 20
61.5370179417
 30
0.0
 11
15.7835371161
 21
16.766803626
 31
0.0
 40
0.4445239339
 41
-1.5346729672
 42
-1.5176380826
  0
ELLIPSE
  5
2D8
100
AcDbEntity
  8
0
100
AcDbEllipse
 62
7
  6
BYLAYER
 10
35.4420720488
 20
61.5370179417
 30
0.0
 11
16.2384907108
 21
17.0168501026
 31
0.0
 40
0.3932536107
 41
-1.5734880867
 42
-1.5549485398
  0
ELLIPSE
  5
2D9
100
AcDbEntity
  8
0
100
AcDbEllipse
 62
7
  6
BYLAYER
 10
35.8319667891
 20
61.5370179417
 30
0.0
 11
16.6436838349
 21
17.2489119491
 31
0.0
 40
0.3442450777
 41
-1.6131670271
 42
-1.5932525833
  0
ELLIPSE
  5
2DA
100
AcDbEntity
  8
0
100
AcDbEllipse
 62
7
  6
BYLAYER
 10
36.1832934907
 20
61.5370179417
 30
0.0
 11
17.0009614673
 21
17.4592414022
 31
0.0
 40
0.2971852239
 41
-1.6534575031
 42
-1.6322627734
  0
ELLIPSE
  5
2DB
100
AcDbEntity
  8
0
100
AcDbEllipse
 62
7
  6
BYLAYER
 10
36.4933783452
 20
61.5370179417
 30
0.0
 11
17.311068251
 21
17.6452378715
 31
0.0
 40
0.2517837063
 41
-1.6940323896
 42
-1.6717847557
  0
ELLIPSE
  5
2DC
100
AcDbEntity
  8
0
100
AcDbEllipse
 62
7
  6
BYLAYER
 10
36.7598614197
 20
61.5370179417
 30
0.0
 11
17.5741469284
 21
17.8050458869
 31
0.0
 40
0.2077697388
 41
-1.735034466
 42
-1.7116814851
  0
ELLIPSE
  5
2DD
100
AcDbEntity
  8
0
100
AcDbEllipse
 62
7
  6
BYLAYER
 10
36.9807146171
 20
61.5370179417
 30
0.0
 11
17.7900285404
 21
17.9373217495
 31
0.0
 40
0.1648887629
 41
-1.7763537932
 42
-1.7518524984
  0
ELLIPSE
  5
2DE
100
AcDbEntity
  8
0
100
AcDbEllipse
 62
7
  6
BYLAYER
 10
37.1542571112
 20
61.5370179417
 30
0.0
 11
17.9584099181
 21
18.0410926156
 31
0.0
 40
0.1228992729
 41
-1.8179059513
 42
-1.7922212391
  0
ELLIPSE
  5
2DF
100
AcDbEntity
  8
0
100
AcDbEllipse
 62
7
  6
BYLAYER
 10
37.2791681388
 20
61.5370179417
 30
0.0
 11
18.0789658936
 21
18.1156691418
 31
0.0
 40
0.0815698667
 41
-1.8596229162
 42
-1.8327268879
  0
ELLIPSE
  5
2E0
100
AcDbEntity
  8
0
100
AcDbEllipse
 62
7
  6
BYLAYER
 10
37.3544970516
 20
61.5370179417
 30
0.0
 11
18.1514209571
 21
18.1605909673
 31
0.0
 40
0.0406765142
 41
-1.9014465147
 42
-1.8733187897
  0
ELLIPSE
  5
2E1
100
AcDbEntity
  8
0
100
AcDbEllipse
 62
7
  6
BYLAYER
 10
30.3554149309
 20
50.2302648414
 30
0.0
 11
10.0427045149
 21
14.9543464083
 31
0.0
 40
0.9066977799
 41
-4.4664841248
 42
-4.4367149809
  0
ELLIPSE
  5
2E2
100
AcDbEntity
  8
0
100
AcDbEllipse
 62
7
  6
BYLAYER
 10
29.9496462232
 20
50.2302648414
 30
0.0
 11
11.8601695234
 21
14.4741311195
 31
0.0
 40
0.8306103506
 41
-4.4158309927
 42
-4.3860618488
  0
ELLIPSE
  5
2E3
100
AcDbEntity
  8
0
100
AcDbEllipse
 62
7
  6
BYLAYER
 10
29.5500774882
 20
50.2302648414
 30
0.0
 11
12.8060309747
 21
14.5700382847
 31
0.0
 40
0.7581403628
 41
-4.4256373985
 42
-4.3958682546
  0
ELLIPSE
  5
2E4
100
AcDbEntity
  8
0
100
AcDbEllipse
 62
7
  6
BYLAYER
 10
29.1597496851
 20
50.2302648414
 30
0.0
 11
13.5094930283
 21
14.8194770471
 31
0.0
 40
0.6901509118
 41
-4.4518479693
 42
-4.4220788254
  0
ELLIPSE
  5
2E5
100
AcDbEntity
  8
0
100
AcDbEllipse
 62
7
  6
BYLAYER
 10
28.7816334442
 20
50.2302648414
 30
0.0
 11
14.1001405585
 21
15.1182070608
 31
0.0
 40
0.6263036642
 41
-4.4847546417
 42
-4.4549854978
  0
ELLIPSE
  5
2E6
100
AcDbEntity
  8
0
100
AcDbEllipse
 62
7
  6
BYLAYER
 10
28.4186064585
 20
50.2302648414
 30
0.0
 11
14.6201143459
 21
15.4285527016
 31
0.0
 40
0.5661264515
 41
-4.5210318424
 42
-4.4912626986
  0
ELLIPSE
  5
2E7
100
AcDbEntity
  8
0
100
AcDbEllipse
 62
7
  6
BYLAYER
 10
28.0734315826
 20
50.2302648414
 30
0.0
 11
15.0865489373
 21
15.7334287619
 31
0.0
 40
0.5091621171
 41
-4.5592362067
 42
-4.5294670628
  0
ELLIPSE
  5
2E8
100
AcDbEntity
  8
0
100
AcDbEllipse
 62
7
  6
BYLAYER
 10
27.7487358055
 20
50.2302648414
 30
0.0
 11
15.507275323
 21
16.023819938
 31
0.0
 40
0.4549951859
 41
-4.5986402883
 42
-4.5688711444
  0
ELLIPSE
  5
2E9
100
AcDbEntity
  8
0
100
AcDbEllipse
 62
7
  6
BYLAYER
 10
27.4469902584
 20
50.2302648414
 30
0.0
 11
15.8860502942
 21
16.2944188981
 31
0.0
 40
0.4032531911
 41
-4.6388372601
 42
-4.6090681162
  0
ELLIPSE
  5
2EA
100
AcDbEntity
  8
0
100
AcDbEllipse
 62
7
  6
BYLAYER
 10
27.1704914069
 20
50.2302648414
 30
0.0
 11
16.2246471729
 21
16.5418339295
 31
0.0
 40
0.3536019736
 41
-4.6795812914
 42
-4.6498121475
  0
ELLIPSE
  5
2EB
100
AcDbEntity
  8
0
100
AcDbEllipse
 62
7
  6
BYLAYER
 10
26.9213435743
 20
50.2302648414
 30
0.0
 11
16.523808647
 21
16.7637596114
 31
0.0
 40
0.3057398728
 41
1.5624707743
 42
1.5922399181
  0
ELLIPSE
  5
2EC
100
AcDbEntity
  8
0
100
AcDbEllipse
 62
7
  6
BYLAYER
 10
26.701442926
 20
50.2302648414
 30
0.0
 11
16.7837266909
 21
16.9585571531
 31
0.0
 40
0.2593921815
 41
1.5210548867
 42
1.5508240306
  0
ELLIPSE
  5
2ED
100
AcDbEntity
  8
0
100
AcDbEllipse
 62
7
  6
BYLAYER
 10
26.5124630388
 20
50.2302648414
 30
0.0
 11
17.0043043001
 21
17.1250267564
 31
0.0
 40
0.2143062114
 41
1.4794315045
 42
1.5092006484
  0
ELLIPSE
  5
2EE
100
AcDbEntity
  8
0
100
AcDbEllipse
 62
7
  6
BYLAYER
 10
26.3558421637
 20
50.2302648414
 30
0.0
 11
17.185307668
 21
17.2622772411
 31
0.0
 40
0.1702469903
 41
1.4376558164
 42
1.4674249603
  0
ELLIPSE
  5
2EF
100
AcDbEntity
  8
0
100
AcDbEllipse
 62
7
  6
BYLAYER
 10
26.2327722801
 20
50.2302648414
 30
0.0
 11
17.326459176
 21
17.3696482286
 31
0.0
 40
0.1269935126
 41
1.3957700171
 42
1.425539161
  0
ELLIPSE
  5
2F0
100
AcDbEntity
  8
0
100
AcDbEllipse
 62
7
  6
BYLAYER
 10
26.1441900242
 20
50.2302648414
 30
0.0
 11
17.4274961419
 21
17.4466624083
 31
0.0
 40
0.0843354388
 41
1.3538077783
 42
1.3835769222
  0
ELLIPSE
  5
2F1
100
AcDbEntity
  8
0
100
AcDbEllipse
 62
7
  6
BYLAYER
 10
26.0907695604
 20
50.2302648414
 30
0.0
 11
17.4882083164
 21
17.4929960222
 31
0.0
 40
0.0420701413
 41
1.3117972829
 42
1.3415664268
  0
ELLIPSE
  5
2F2
100
AcDbEntity
  8
0
100
AcDbEllipse
 62
7
  6
BYLAYER
 10
30.7642954664
 20
50.2302648414
 30
0.0
 11
-0.0
 21
17.5084611122
 31
0.0
 40
0.963433044
 41
-1.2995325731
 42
-1.2697634292
  0
ELLIPSE
  5
2F3
100
AcDbEntity
  8
0
100
AcDbEllipse
 62
7
  6
BYLAYER
 10
31.1731760019
 20
50.2302648414
 30
0.0
 11
-10.0427045149
 21
14.9543464083
 31
0.0
 40
0.9066977799
 41
-1.8464703263
 42
-1.8167011824
  0
ELLIPSE
  5
2F4
100
AcDbEntity
  8
0
100
AcDbEllipse
 62
7
  6
BYLAYER
 10
31.5789447096
 20
50.2302648414
 30
0.0
 11
-11.8601695234
 21
14.4741311195
 31
0.0
 40
0.8306103506
 41
-1.8971234584
 42
-1.8673543145
  0
ELLIPSE
  5
2F5
100
AcDbEntity
  8
0
100
AcDbEllipse
 62
7
  6
BYLAYER
 10
31.9785134447
 20
50.2302648414
 30
0.0
 11
-12.8060309747
 21
14.5700382847
 31
0.0
 40
0.7581403628
 41
-1.8873170525
 42
-1.8575479087
  0
ELLIPSE
  5
2F6
100
AcDbEntity
  8
0
100
AcDbEllipse
 62
7
  6
BYLAYER
 10
32.3688412477
 20
50.2302648414
 30
0.0
 11
-13.5094930283
 21
14.8194770471
 31
0.0
 40
0.6901509118
 41
-1.8611064818
 42
-1.8313373379
  0
ELLIPSE
  5
2F7
100
AcDbEntity
  8
0
100
AcDbEllipse
 62
7
  6
BYLAYER
 10
32.7469574886
 20
50.2302648414
 30
0.0
 11
-14.1001405585
 21
15.1182070608
 31
0.0
 40
0.6263036642
 41
-1.8281998094
 42
-1.7984306655
  0
ELLIPSE
  5
2F8
100
AcDbEntity
  8
0
100
AcDbEllipse
 62
7
  6
BYLAYER
 10
33.1099844743
 20
50.2302648414
 30
0.0
 11
-14.6201143459
 21
15.4285527016
 31
0.0
 40
0.5661264515
 41
-1.7919226086
 42
-1.7621534647
  0
ELLIPSE
  5
2F9
100
AcDbEntity
  8
0
100
AcDbEllipse
 62
7
  6
BYLAYER
 10
33.4551593502
 20
50.2302648414
 30
0.0
 11
-15.0865489373
 21
15.7334287619
 31
0.0
 40
0.5091621171
 41
-1.7537182443
 42
-1.7239491005
  0
ELLIPSE
  5
2FA
100
AcDbEntity
  8
0
100
AcDbEllipse
 62
7
  6
BYLAYER
 10
33.7798551273
 20
50.2302648414
 30
0.0
 11
-15.507275323
 21
16.023819938
 31
0.0
 40
0.4549951859
 41
-1.7143141628
 42
-1.6845450189
  0
ELLIPSE
  5
2FB
100
AcDbEntity
  8
0
100
AcDbEllipse
 62
7
  6
BYLAYER
 10
34.0816006744
 20
50.2302648414
 30
0.0
 11
-15.8860502942
 21
16.2944188981
 31
0.0
 40
0.4032531911
 41
-1.674117191
 42
-1.6443480471
  0
ELLIPSE
  5
2FC
100
AcDbEntity
  8
0
100
AcDbEllipse
 62
7
  6
BYLAYER
 10
34.3580995259
 20
50.2302648414
 30
0.0
 11
-16.2246471729
 21
16.5418339295
 31
0.0
 40
0.3536019736
 41
-1.6333731597
 42
-1.6036040158
  0
ELLIPSE
  5
2FD
100
AcDbEntity
  8
0
100
AcDbEllipse
 62
7
  6
BYLAYER
 10
34.6072473585
 20
50.2302648414
 30
0.0
 11
-16.523808647
 21
16.7637596114
 31
0.0
 40
0.3057398728
 41
-1.5922399181
 42
-1.5624707743
  0
ELLIPSE
  5
2FE
100
AcDbEntity
  8
0
100
AcDbEllipse
 62
7
  6
BYLAYER
 10
34.8271480068
 20
50.2302648414
 30
0.0
 11
-16.7837266909
 21
16.9585571531
 31
0.0
 40
0.2593921815
 41
-1.5508240306
 42
-1.5210548867
  0
ELLIPSE
  5
2FF
100
AcDbEntity
  8
0
100
AcDbEllipse
 62
7
  6
BYLAYER
 10
35.016127894
 20
50.2302648414
 30
0.0
 11
-17.0043043001
 21
17.1250267564
 31
0.0
 40
0.2143062114
 41
-1.5092006484
 42
-1.4794315045
  0
ELLIPSE
  5
300
100
AcDbEntity
  8
0
100
AcDbEllipse
 62
7
  6
BYLAYER
 10
35.1727487691
 20
50.2302648414
 30
0.0
 11
-17.185307668
 21
17.2622772411
 31
0.0
 40
0.1702469903
 41
-1.4674249603
 42
-1.4376558164
  0
ELLIPSE
  5
301
100
AcDbEntity
  8
0
100
AcDbEllipse
 62
7
  6
BYLAYER
 10
35.2958186527
 20
50.2302648414
 30
0.0
 11
-17.326459176
 21
17.3696482286
 31
0.0
 40
0.1269935126
 41
-1.425539161
 42
-1.3957700171
  0
ELLIPSE
  5
302
100
AcDbEntity
  8
0
100
AcDbEllipse
 62
7
  6
BYLAYER
 10
35.3844009086
 20
50.2302648414
 30
0.0
 11
-17.4274961419
 21
17.4466624083
 31
0.0
 40
0.0843354388
 41
-1.3835769222
 42
-1.3538077783
  0
ELLIPSE
  5
303
100
AcDbEntity
  8
0
100
AcDbEllipse
 62
7
  6
BYLAYER
 10
35.4378213724
 20
50.2302648414
 30
0.0
 11
-17.4882083164
 21
17.4929960222
 31
0.0
 40
0.0420701413
 41
-1.3415664268
 42
-1.3117972829
  0
ELLIPSE
  5
304
100
AcDbEntity
  8
0
100
AcDbEllipse
 62
7
  6
BYLAYER
 10
24.1740938812
 20
61.5370179417
 30
0.0
 11
-18.1514209571
 21
18.1605909673
 31
0.0
 40
0.0406765142
 41
-4.4098665175
 42
-4.381738787
  0
ELLIPSE
  5
305
100
AcDbEntity
  8
0
100
AcDbEllipse
 62
7
  6
BYLAYER
 10
24.249422794
 20
61.5370179417
 30
0.0
 11
-18.0789658936
 21
18.1156691418
 31
0.0
 40
0.0815698667
 41
-4.4504584193
 42
-4.4235623805
  0
ELLIPSE
  5
306
100
AcDbEntity
  8
0
100
AcDbEllipse
 62
7
  6
BYLAYER
 10
24.3743338216
 20
61.5370179417
 30
0.0
 11
-17.9584099181
 21
18.0410926156
 31
0.0
 40
0.1228992729
 41
-4.490964068
 42
-4.4652793409
  0
ELLIPSE
  5
307
100
AcDbEntity
  8
0
100
AcDbEllipse
 62
7
  6
BYLAYER
 10
24.5478763157
 20
61.5370179417
 30
0.0
 11
-17.7900285404
 21
17.9373217495
 31
0.0
 40
0.1648887629
 41
-4.5313328088
 42
-4.5068314949
  0
ELLIPSE
  5
308
100
AcDbEntity
  8
0
100
AcDbEllipse
 62
7
  6
BYLAYER
 10
24.7687295131
 20
61.5370179417
 30
0.0
 11
-17.5741469284
 21
17.8050458869
 31
0.0
 40
0.2077697388
 41
-4.5715038221
 42
-4.5481508182
  0
ELLIPSE
  5
309
100
AcDbEntity
  8
0
100
AcDbEllipse
 62
7
  6
BYLAYER
 10
25.0352125876
 20
61.5370179417
 30
0.0
 11
-17.311068251
 21
17.6452378715
 31
0.0
 40
0.2517837063
 41
-4.6114005514
 42
-4.5891528902
  0
ELLIPSE
  5
30A
100
AcDbEntity
  8
0
100
AcDbEllipse
 62
7
  6
BYLAYER
 10
25.3452974421
 20
61.5370179417
 30
0.0
 11
-17.0009614673
 21
17.4592414022
 31
0.0
 40
0.2971852239
 41
-4.6509225338
 42
-4.6297277711
  0
ELLIPSE
  5
30B
100
AcDbEntity
  8
0
100
AcDbEllipse
 62
7
  6
BYLAYER
 10
25.6966241437
 20
61.5370179417
 30
0.0
 11
-16.6436838349
 21
17.2489119491
 31
0.0
 40
0.3442450777
 41
-4.6899327238
 42
-4.670018258
  0
ELLIPSE
  5
30C
100
AcDbEntity
  8
0
100
AcDbEllipse
 62
7
  6
BYLAYER
 10
26.086518884
 20
61.5370179417
 30
0.0
 11
-16.2384907108
 21
17.0168501026
 31
0.0
 40
0.3932536107
 41
1.5549485398
 42
1.5734880833
  0
ELLIPSE
  5
30D
100
AcDbEntity
  8
0
100
AcDbEllipse
 62
7
  6
BYLAYER
 10
26.5120143286
 20
61.5370179417
 30
0.0
 11
-15.7835371161
 21
16.766803626
 31
0.0
 40
0.4445239339
 41
1.5176380826
 42
1.5346729655
  0
ELLIPSE
  5
30E
100
AcDbEntity
  8
0
100
AcDbEllipse
 62
7
  6
BYLAYER
 10
26.9698722003
 20
61.5370179417
 30
0.0
 11
-15.274965845
 21
16.5043969512
 31
0.0
 40
0.4983942514
 41
1.4817673503
 42
1.4971206958
  0
ELLIPSE
  5
30F
100
AcDbEntity
  8
0
100
AcDbEllipse
 62
7
  6
BYLAYER
 10
27.4566079241
 20
61.5370179417
 30
0.0
 11
-14.7051040421
 21
16.2385436118
 31
0.0
 40
0.5552272381
 41
1.4480705033
 42
1.4615012691
  0
ELLIPSE
  5
310
100
AcDbEntity
  8
0
100
AcDbEllipse
 62
7
  6
BYLAYER
 10
27.9685171474
 20
61.5370179417
 30
0.0
 11
-14.0585338956
 21
15.9844133441
 31
0.0
 40
0.6154007239
 41
1.4178485365
 42
1.4290229277
  0
ELLIPSE
  5
311
100
AcDbEntity
  8
0
100
AcDbEllipse
 62
7
  6
BYLAYER
 10
28.5017039318
 20
61.5370179417
 30
0.0
 11
-13.3023954138
 21
15.7703479229
 31
0.0
 40
0.6792721423
 41
1.3936445484
 42
1.4020899947
  0
ELLIPSE
  5
312
100
AcDbEntity
  8
0
100
AcDbEllipse
 62
7
  6
BYLAYER
 10
29.052110404
 20
61.5370179417
 30
0.0
 11
-12.3580633753
 21
15.6563003942
 31
0.0
 40
0.7470541823
 41
1.3811587275
 42
1.3861792519
  0
ELLIPSE
  5
313
100
AcDbEntity
  8
0
100
AcDbEllipse
 62
7
  6
BYLAYER
 10
29.6155476384
 20
61.5370179417
 30
0.0
 11
-10.9958379272
 21
15.791979517
 31
0.0
 40
0.818317629
 41
1.3960435217
 42
1.3965536961
  0
ELLIPSE
  5
314
100
AcDbEntity
  8
0
100
AcDbEllipse
 62
7
  6
BYLAYER
 10
30.7642954664
 20
50.2302648414
 30
0.0
 11
-0.0
 21
17.5084611122
 31
0.0
 40
0.963433044
 41
7.5529487364
 42
7.5827178802
  0
ELLIPSE
  5
315
100
AcDbEntity
  8
0
100
AcDbEllipse
 62
7
  6
BYLAYER
 10
33.7798551273
 20
50.2302648414
 30
0.0
 11
-15.507275323
 21
16.023819938
 31
0.0
 40
0.4549951859
 41
0.8549818395
 42
0.8847509834
  0
ELLIPSE
  5
316
100
AcDbEntity
  8
0
100
AcDbEllipse
 62
7
  6
BYLAYER
 10
26.0907695604
 20
50.2302648414
 30
0.0
 11
17.4882083164
 21
17.4929960222
 31
0.0
 40
0.0420701413
 41
-1.2574987193
 42
-1.2277295755
  0
ELLIPSE
  5
317
100
AcDbEntity
  8
0
100
AcDbEllipse
 62
7
  6
BYLAYER
 10
26.1441900242
 20
50.2302648414
 30
0.0
 11
17.4274961419
 21
17.4466624083
 31
0.0
 40
0.0843354388
 41
-1.2154882239
 42
-1.18571908
  0
ELLIPSE
  5
318
100
AcDbEntity
  8
0
100
AcDbEllipse
 62
7
  6
BYLAYER
 10
26.2327722801
 20
50.2302648414
 30
0.0
 11
17.326459176
 21
17.3696482286
 31
0.0
 40
0.1269935126
 41
-1.1735259851
 42
-1.1437568412
  0
ELLIPSE
  5
319
100
AcDbEntity
  8
0
100
AcDbEllipse
 62
7
  6
BYLAYER
 10
26.3558421637
 20
50.2302648414
 30
0.0
 11
17.185307668
 21
17.2622772411
 31
0.0
 40
0.1702469903
 41
-1.1316401859
 42
-1.101871042
  0
ELLIPSE
  5
31A
100
AcDbEntity
  8
0
100
AcDbEllipse
 62
7
  6
BYLAYER
 10
33.4551593502
 20
50.2302648414
 30
0.0
 11
-15.0865489373
 21
15.7334287619
 31
0.0
 40
0.5091621171
 41
0.8155777579
 42
0.8453469018
  0
ELLIPSE
  5
31B
100
AcDbEntity
  8
0
100
AcDbEllipse
 62
7
  6
BYLAYER
 10
35.4378213724
 20
50.2302648414
 30
0.0
 11
-17.4882083164
 21
17.4929960222
 31
0.0
 40
0.0420701413
 41
1.2277295755
 42
1.2574987193
  0
ELLIPSE
  5
31C
100
AcDbEntity
  8
0
100
AcDbEllipse
 62
7
  6
BYLAYER
 10
26.5124630388
 20
50.2302648414
 30
0.0
 11
17.0043043001
 21
17.1250267564
 31
0.0
 40
0.2143062114
 41
-1.0898644977
 42
-1.0600953539
  0
ELLIPSE
  5
31D
100
AcDbEntity
  8
0
100
AcDbEllipse
 62
7
  6
BYLAYER
 10
26.701442926
 20
50.2302648414
 30
0.0
 11
16.7837266909
 21
16.9585571531
 31
0.0
 40
0.2593921815
 41
-1.0482411156
 42
-1.0184719717
  0
ELLIPSE
  5
31E
100
AcDbEntity
  8
0
100
AcDbEllipse
 62
7
  6
BYLAYER
 10
26.9213435743
 20
50.2302648414
 30
0.0
 11
16.523808647
 21
16.7637596114
 31
0.0
 40
0.3057398728
 41
-1.006825228
 42
-0.9770560841
  0
ELLIPSE
  5
31F
100
AcDbEntity
  8
0
100
AcDbEllipse
 62
7
  6
BYLAYER
 10
27.1704914069
 20
50.2302648414
 30
0.0
 11
16.2246471729
 21
16.5418339295
 31
0.0
 40
0.3536019736
 41
-0.9656919865
 42
-0.9359228426
  0
ELLIPSE
  5
320
100
AcDbEntity
  8
0
100
AcDbEllipse
 62
7
  6
BYLAYER
 10
27.4469902584
 20
50.2302648414
 30
0.0
 11
15.8860502942
 21
16.2944188981
 31
0.0
 40
0.4032531911
 41
-0.9249479552
 42
-0.8951788113
  0
ELLIPSE
  5
321
100
AcDbEntity
  8
0
100
AcDbEllipse
 62
7
  6
BYLAYER
 10
27.7487358055
 20
50.2302648414
 30
0.0
 11
15.507275323
 21
16.023819938
 31
0.0
 40
0.4549951859
 41
-0.8847509834
 42
-0.8549818395
  0
ELLIPSE
  5
322
100
AcDbEntity
  8
0
100
AcDbEllipse
 62
7
  6
BYLAYER
 10
35.3844009086
 20
50.2302648414
 30
0.0
 11
-17.4274961419
 21
17.4466624083
 31
0.0
 40
0.0843354388
 41
1.18571908
 42
1.2154882239
  0
ELLIPSE
  5
323
100
AcDbEntity
  8
0
100
AcDbEllipse
 62
7
  6
BYLAYER
 10
33.1099844743
 20
50.2302648414
 30
0.0
 11
-14.6201143459
 21
15.4285527016
 31
0.0
 40
0.5661264515
 41
0.7773733936
 42
0.8071425375
  0
ELLIPSE
  5
324
100
AcDbEntity
  8
0
100
AcDbEllipse
 62
7
  6
BYLAYER
 10
28.0734315826
 20
50.2302648414
 30
0.0
 11
15.0865489373
 21
15.7334287619
 31
0.0
 40
0.5091621171
 41
-0.8453469018
 42
-0.8155777579
  0
ELLIPSE
  5
325
100
AcDbEntity
  8
0
100
AcDbEllipse
 62
7
  6
BYLAYER
 10
28.4186064585
 20
50.2302648414
 30
0.0
 11
14.6201143459
 21
15.4285527016
 31
0.0
 40
0.5661264515
 41
-0.8071425375
 42
-0.7773733936
  0
ELLIPSE
  5
326
100
AcDbEntity
  8
0
100
AcDbEllipse
 62
7
  6
BYLAYER
 10
28.7816334442
 20
50.2302648414
 30
0.0
 11
14.1001405585
 21
15.1182070608
 31
0.0
 40
0.6263036642
 41
-0.7708653368
 42
-0.7410961929
  0
ELLIPSE
  5
327
100
AcDbEntity
  8
0
100
AcDbEllipse
 62
7
  6
BYLAYER
 10
29.1597496851
 20
50.2302648414
 30
0.0
 11
13.5094930283
 21
14.8194770471
 31
0.0
 40
0.6901509118
 41
-0.7379586644
 42
-0.7081895205
  0
ELLIPSE
  5
328
100
AcDbEntity
  8
0
100
AcDbEllipse
 62
7
  6
BYLAYER
 10
29.5500774882
 20
50.2302648414
 30
0.0
 11
12.8060309747
 21
14.5700382847
 31
0.0
 40
0.7581403628
 41
-0.7117480936
 42
-0.6819789497
  0
ELLIPSE
  5
329
100
AcDbEntity
  8
0
100
AcDbEllipse
 62
7
  6
BYLAYER
 10
29.9496462232
 20
50.2302648414
 30
0.0
 11
11.8601695234
 21
14.4741311195
 31
0.0
 40
0.8306103506
 41
-0.7019416878
 42
-0.6721725439
  0
ELLIPSE
  5
32A
100
AcDbEntity
  8
0
100
AcDbEllipse
 62
7
  6
BYLAYER
 10
32.7469574886
 20
50.2302648414
 30
0.0
 11
-14.1001405585
 21
15.1182070608
 31
0.0
 40
0.6263036642
 41
0.7410961929
 42
0.7708653368
  0
ELLIPSE
  5
32B
100
AcDbEntity
  8
0
100
AcDbEllipse
 62
7
  6
BYLAYER
 10
35.2958186527
 20
50.2302648414
 30
0.0
 11
-17.326459176
 21
17.3696482286
 31
0.0
 40
0.1269935126
 41
1.1437568412
 42
1.1735259851
  0
ELLIPSE
  5
32C
100
AcDbEntity
  8
0
100
AcDbEllipse
 62
7
  6
BYLAYER
 10
30.3554149309
 20
50.2302648414
 30
0.0
 11
10.0427045149
 21
14.9543464083
 31
0.0
 40
0.9066977799
 41
-0.7525948199
 42
-0.722825676
  0
ELLIPSE
  5
32D
100
AcDbEntity
  8
0
100
AcDbEllipse
 62
7
  6
BYLAYER
 10
35.1727487691
 20
50.2302648414
 30
0.0
 11
-17.185307668
 21
17.2622772411
 31
0.0
 40
0.1702469903
 41
1.101871042
 42
1.1316401859
  0
ELLIPSE
  5
32E
100
AcDbEntity
  8
0
100
AcDbEllipse
 62
7
  6
BYLAYER
 10
32.3688412477
 20
50.2302648414
 30
0.0
 11
-13.5094930283
 21
14.8194770471
 31
0.0
 40
0.6901509118
 41
0.7081895205
 42
0.7379586644
  0
ELLIPSE
  5
32F
100
AcDbEntity
  8
0
100
AcDbEllipse
 62
7
  6
BYLAYER
 10
31.9785134447
 20
50.2302648414
 30
0.0
 11
-12.8060309747
 21
14.5700382847
 31
0.0
 40
0.7581403628
 41
0.6819789497
 42
0.7117480936
  0
ELLIPSE
  5
330
100
AcDbEntity
  8
0
100
AcDbEllipse
 62
7
  6
BYLAYER
 10
35.016127894
 20
50.2302648414
 30
0.0
 11
-17.0043043001
 21
17.1250267564
 31
0.0
 40
0.2143062114
 41
1.0600953539
 42
1.0898644977
  0
ELLIPSE
  5
331
100
AcDbEntity
  8
0
100
AcDbEllipse
 62
7
  6
BYLAYER
 10
31.5789447096
 20
50.2302648414
 30
0.0
 11
-11.8601695234
 21
14.4741311195
 31
0.0
 40
0.8306103506
 41
0.6721725439
 42
0.7019416878
  0
ELLIPSE
  5
332
100
AcDbEntity
  8
0
100
AcDbEllipse
 62
7
  6
BYLAYER
 10
34.8271480068
 20
50.2302648414
 30
0.0
 11
-16.7837266909
 21
16.9585571531
 31
0.0
 40
0.2593921815
 41
1.0184719717
 42
1.0482411156
  0
ELLIPSE
  5
333
100
AcDbEntity
  8
0
100
AcDbEllipse
 62
7
  6
BYLAYER
 10
31.1731760019
 20
50.2302648414
 30
0.0
 11
-10.0427045149
 21
14.9543464083
 31
0.0
 40
0.9066977799
 41
0.722825676
 42
0.7525948199
  0
ELLIPSE
  5
334
100
AcDbEntity
  8
0
100
AcDbEllipse
 62
7
  6
BYLAYER
 10
34.6072473585
 20
50.2302648414
 30
0.0
 11
-16.523808647
 21
16.7637596114
 31
0.0
 40
0.3057398728
 41
0.9770560841
 42
1.006825228
  0
ELLIPSE
  5
335
100
AcDbEntity
  8
0
100
AcDbEllipse
 62
7
  6
BYLAYER
 10
34.3580995259
 20
50.2302648414
 30
0.0
 11
-16.2246471729
 21
16.5418339295
 31
0.0
 40
0.3536019736
 41
0.9359228426
 42
0.9656919865
  0
ELLIPSE
  5
336
100
AcDbEntity
  8
0
100
AcDbEllipse
 62
7
  6
BYLAYER
 10
34.0816006744
 20
50.2302648414
 30
0.0
 11
-15.8860502942
 21
16.2944188981
 31
0.0
 40
0.4032531911
 41
0.8951788113
 42
0.9249479552
  0
ELLIPSE
  5
337
100
AcDbEntity
  8
0
100
AcDbEllipse
 62
7
  6
BYLAYER
 10
29.6155476384
 20
51.9062677726
 30
0.0
 11
10.9958379272
 21
15.791979517
 31
0.0
 40
0.818317629
 41
-4.5381463488
 42
-4.5376361753
  0
ELLIPSE
  5
338
100
AcDbEntity
  8
0
100
AcDbEllipse
 62
7
  6
BYLAYER
 10
29.052110404
 20
51.9062677726
 30
0.0
 11
12.3580633753
 21
15.6563003942
 31
0.0
 40
0.7470541823
 41
1.755413405
 42
1.7604339261
  0
ELLIPSE
  5
339
100
AcDbEntity
  8
0
100
AcDbEllipse
 62
7
  6
BYLAYER
 10
28.5017039318
 20
51.9062677725
 30
0.0
 11
13.3023954138
 21
15.7703479229
 31
0.0
 40
0.6792721423
 41
1.7395026584
 42
1.7479481052
  0
ELLIPSE
  5
33A
100
AcDbEntity
  8
0
100
AcDbEllipse
 62
7
  6
BYLAYER
 10
27.9685171474
 20
51.9062677726
 30
0.0
 11
14.0585338956
 21
15.9844133441
 31
0.0
 40
0.6154007239
 41
-4.5706155829
 42
-4.5594411901
  0
ELLIPSE
  5
33B
100
AcDbEntity
  8
0
100
AcDbEllipse
 62
7
  6
BYLAYER
 10
27.4566079241
 20
51.9062677726
 30
0.0
 11
14.7051040421
 21
16.2385436118
 31
0.0
 40
0.5552272381
 41
-4.6030939231
 42
-4.5896631569
  0
ELLIPSE
  5
33C
100
AcDbEntity
  8
0
100
AcDbEllipse
 62
7
  6
BYLAYER
 10
26.9698722003
 20
51.9062677725
 30
0.0
 11
15.274965845
 21
16.5043969512
 31
0.0
 40
0.4983942514
 41
-4.63871335
 42
-4.6233600039
  0
ELLIPSE
  5
33D
100
AcDbEntity
  8
0
100
AcDbEllipse
 62
7
  6
BYLAYER
 10
26.5120143286
 20
51.9062677725
 30
0.0
 11
15.7835371161
 21
16.766803626
 31
0.0
 40
0.4445239339
 41
-4.6762656208
 42
-4.6592307362
  0
ELLIPSE
  5
33E
100
AcDbEntity
  8
0
100
AcDbEllipse
 62
7
  6
BYLAYER
 10
26.086518884
 20
51.9062677726
 30
0.0
 11
16.2384907108
 21
17.0168501026
 31
0.0
 40
0.3932536107
 41
1.5681045669
 42
1.5866441138
  0
ELLIPSE
  5
33F
100
AcDbEntity
  8
0
100
AcDbEllipse
 62
7
  6
BYLAYER
 10
25.6966241437
 20
51.9062677725
 30
0.0
 11
16.6436838349
 21
17.2489119491
 31
0.0
 40
0.3442450777
 41
1.5284256265
 42
1.5483400703
  0
ELLIPSE
  5
340
100
AcDbEntity
  8
0
100
AcDbEllipse
 62
7
  6
BYLAYER
 10
25.3452974421
 20
51.9062677725
 30
0.0
 11
17.0009614673
 21
17.4592414022
 31
0.0
 40
0.2971852239
 41
1.4881351505
 42
1.5093298802
  0
ELLIPSE
  5
341
100
AcDbEntity
  8
0
100
AcDbEllipse
 62
7
  6
BYLAYER
 10
25.0352125876
 20
51.9062677726
 30
0.0
 11
17.311068251
 21
17.6452378715
 31
0.0
 40
0.2517837063
 41
1.447560264
 42
1.4698078979
  0
ELLIPSE
  5
342
100
AcDbEntity
  8
0
100
AcDbEllipse
 62
7
  6
BYLAYER
 10
24.7687295131
 20
51.9062677726
 30
0.0
 11
17.5741469284
 21
17.8050458869
 31
0.0
 40
0.2077697388
 41
1.4065581876
 42
1.4299111685
  0
ELLIPSE
  5
343
100
AcDbEntity
  8
0
100
AcDbEllipse
 62
7
  6
BYLAYER
 10
24.5478763157
 20
51.9062677725
 30
0.0
 11
17.7900285404
 21
17.9373217495
 31
0.0
 40
0.1648887629
 41
1.3652388603
 42
1.3897401552
  0
ELLIPSE
  5
344
100
AcDbEntity
  8
0
100
AcDbEllipse
 62
7
  6
BYLAYER
 10
24.3743338216
 20
51.9062677726
 30
0.0
 11
17.9584099181
 21
18.0410926156
 31
0.0
 40
0.1228992729
 41
1.3236867023
 42
1.3493714145
  0
ELLIPSE
  5
345
100
AcDbEntity
  8
0
100
AcDbEllipse
 62
7
  6
BYLAYER
 10
24.249422794
 20
51.9062677726
 30
0.0
 11
18.0789658936
 21
18.1156691418
 31
0.0
 40
0.0815698667
 41
1.2819697374
 42
1.3088657657
  0
ELLIPSE
  5
346
100
AcDbEntity
  8
0
100
AcDbEllipse
 62
7
  6
BYLAYER
 10
24.1740938812
 20
51.9062677725
 30
0.0
 11
18.1514209571
 21
18.1605909673
 31
0.0
 40
0.0406765142
 41
1.2401461389
 42
1.2682738639
  0
ELLIPSE
  5
347
100
AcDbEntity
  8
0
100
AcDbEllipse
 62
7
  6
BYLAYER
 10
31.9130432944
 20
51.9062677726
 30
0.0
 11
-10.9958379272
 21
15.791979517
 31
0.0
 40
0.818317629
 41
-1.7455491319
 42
-1.7450389575
  0
ELLIPSE
  5
348
100
AcDbEntity
  8
0
100
AcDbEllipse
 62
7
  6
BYLAYER
 10
32.4764805288
 20
51.9062677726
 30
0.0
 11
-12.3580633753
 21
15.6563003942
 31
0.0
 40
0.7470541823
 41
-1.7604339261
 42
-1.7554134017
  0
ELLIPSE
  5
349
100
AcDbEntity
  8
0
100
AcDbEllipse
 62
7
  6
BYLAYER
 10
33.026887001
 20
51.9062677725
 30
0.0
 11
-13.3023954138
 21
15.7703479229
 31
0.0
 40
0.6792721423
 41
-1.7479481052
 42
-1.7395026589
  0
ELLIPSE
  5
34A
100
AcDbEntity
  8
0
100
AcDbEllipse
 62
7
  6
BYLAYER
 10
33.5600737854
 20
51.9062677726
 30
0.0
 11
-14.0585338956
 21
15.9844133441
 31
0.0
 40
0.6154007239
 41
-1.7237441171
 42
-1.7125697259
  0
ELLIPSE
  5
34B
100
AcDbEntity
  8
0
100
AcDbEllipse
 62
7
  6
BYLAYER
 10
34.0719830087
 20
51.9062677726
 30
0.0
 11
-14.7051040421
 21
16.2385436118
 31
0.0
 40
0.5552272381
 41
-1.6935221503
 42
-1.6800913845
  0
ELLIPSE
  5
34C
100
AcDbEntity
  8
0
100
AcDbEllipse
 62
7
  6
BYLAYER
 10
34.5587187326
 20
51.9062677725
 30
0.0
 11
-15.274965845
 21
16.5043969512
 31
0.0
 40
0.4983942514
 41
-1.6598253033
 42
-1.6444719578
  0
ELLIPSE
  5
34D
100
AcDbEntity
  8
0
100
AcDbEllipse
 62
7
  6
BYLAYER
 10
35.0165766042
 20
51.9062677725
 30
0.0
 11
-15.7835371161
 21
16.766803626
 31
0.0
 40
0.4445239339
 41
-1.623954571
 42
-1.6069196881
  0
ELLIPSE
  5
34E
100
AcDbEntity
  8
0
100
AcDbEllipse
 62
7
  6
BYLAYER
 10
35.4420720488
 20
51.9062677726
 30
0.0
 11
-16.2384907108
 21
17.0168501026
 31
0.0
 40
0.3932536107
 41
-1.5866441138
 42
-1.5681045703
  0
ELLIPSE
  5
34F
100
AcDbEntity
  8
0
100
AcDbEllipse
 62
7
  6
BYLAYER
 10
35.8319667891
 20
51.9062677725
 30
0.0
 11
-16.6436838349
 21
17.2489119491
 31
0.0
 40
0.3442450777
 41
-1.5483400703
 42
-1.5284256044
  0
ELLIPSE
  5
350
100
AcDbEntity
  8
0
100
AcDbEllipse
 62
7
  6
BYLAYER
 10
36.1832934907
 20
51.9062677725
 30
0.0
 11
-17.0009614673
 21
17.4592414022
 31
0.0
 40
0.2971852239
 41
-1.5093298802
 42
-1.4881351175
  0
ELLIPSE
  5
351
100
AcDbEntity
  8
0
100
AcDbEllipse
 62
7
  6
BYLAYER
 10
36.4933783452
 20
51.9062677726
 30
0.0
 11
-17.311068251
 21
17.6452378715
 31
0.0
 40
0.2517837063
 41
-1.4698078979
 42
-1.4475602366
  0
ELLIPSE
  5
352
100
AcDbEntity
  8
0
100
AcDbEllipse
 62
7
  6
BYLAYER
 10
36.7598614197
 20
51.9062677726
 30
0.0
 11
-17.5741469284
 21
17.8050458869
 31
0.0
 40
0.2077697388
 41
-1.4299111685
 42
-1.4065581646
  0
ELLIPSE
  5
353
100
AcDbEntity
  8
0
100
AcDbEllipse
 62
7
  6
BYLAYER
 10
36.9807146171
 20
51.9062677725
 30
0.0
 11
-17.7900285404
 21
17.9373217495
 31
0.0
 40
0.1648887629
 41
-1.3897401552
 42
-1.3652388413
  0
ELLIPSE
  5
354
100
AcDbEntity
  8
0
100
AcDbEllipse
 62
7
  6
BYLAYER
 10
37.1542571112
 20
51.9062677726
 30
0.0
 11
-17.9584099181
 21
18.0410926156
 31
0.0
 40
0.1228992729
 41
-1.3493714145
 42
-1.3236866873
  0
ELLIPSE
  5
355
100
AcDbEntity
  8
0
100
AcDbEllipse
 62
7
  6
BYLAYER
 10
37.2791681388
 20
51.9062677726
 30
0.0
 11
-18.0789658936
 21
18.1156691418
 31
0.0
 40
0.0815698667
 41
-1.3088657657
 42
-1.2819697269
  0
ELLIPSE
  5
356
100
AcDbEntity
  8
0
100
AcDbEllipse
 62
7
  6
BYLAYER
 10
37.3544970516
 20
51.9062677725
 30
0.0
 11
-18.1514209571
 21
18.1605909673
 31
0.0
 40
0.0406765142
 41
-1.2682738639
 42
-1.2401461334
  0
ELLIPSE
  5
357
100
AcDbEntity
  8
0
100
AcDbEllipse
 62
7
  6
BYLAYER
 10
26.0907695604
 20
63.2130208729
 30
0.0
 11
-17.4882083164
 21
17.4929960222
 31
0.0
 40
0.0420701413
 41
-4.4831590804
 42
-4.4533899365
  0
ELLIPSE
  5
358
100
AcDbEntity
  8
0
100
AcDbEllipse
 62
7
  6
BYLAYER
 10
26.1441900242
 20
63.2130208729
 30
0.0
 11
-17.4274961419
 21
17.4466624083
 31
0.0
 40
0.0843354388
 41
-4.5251695758
 42
-4.4954004319
  0
ELLIPSE
  5
359
100
AcDbEntity
  8
0
100
AcDbEllipse
 62
7
  6
BYLAYER
 10
26.2327722801
 20
63.2130208729
 30
0.0
 11
-17.326459176
 21
17.3696482286
 31
0.0
 40
0.1269935126
 41
-4.5671318146
 42
-4.5373626707
  0
ELLIPSE
  5
35A
100
AcDbEntity
  8
0
100
AcDbEllipse
 62
7
  6
BYLAYER
 10
26.3558421637
 20
63.2130208729
 30
0.0
 11
-17.185307668
 21
17.2622772411
 31
0.0
 40
0.1702469903
 41
-4.6090176139
 42
-4.57924847
  0
ELLIPSE
  5
35B
100
AcDbEntity
  8
0
100
AcDbEllipse
 62
7
  6
BYLAYER
 10
26.5124630388
 20
63.2130208729
 30
0.0
 11
-17.0043043001
 21
17.1250267564
 31
0.0
 40
0.2143062114
 41
-4.650793302
 42
-4.6210241581
  0
ELLIPSE
  5
35C
100
AcDbEntity
  8
0
100
AcDbEllipse
 62
7
  6
BYLAYER
 10
26.701442926
 20
63.2130208729
 30
0.0
 11
-16.7837266909
 21
16.9585571531
 31
0.0
 40
0.2593921815
 41
-4.6924166842
 42
-4.6626475403
  0
ELLIPSE
  5
35D
100
AcDbEntity
  8
0
100
AcDbEllipse
 62
7
  6
BYLAYER
 10
26.9213435743
 20
63.2130208729
 30
0.0
 11
-16.523808647
 21
16.7637596114
 31
0.0
 40
0.3057398728
 41
1.5493527354
 42
1.5791218793
  0
ELLIPSE
  5
35E
100
AcDbEntity
  8
0
100
AcDbEllipse
 62
7
  6
BYLAYER
 10
27.1704914069
 20
63.2130208729
 30
0.0
 11
-16.2246471729
 21
16.5418339295
 31
0.0
 40
0.3536019736
 41
1.5082194939
 42
1.5379886378
  0
ELLIPSE
  5
35F
100
AcDbEntity
  8
0
100
AcDbEllipse
 62
7
  6
BYLAYER
 10
27.4469902584
 20
63.2130208729
 30
0.0
 11
-15.8860502942
 21
16.2944188981
 31
0.0
 40
0.4032531911
 41
1.4674754626
 42
1.4972446065
  0
ELLIPSE
  5
360
100
AcDbEntity
  8
0
100
AcDbEllipse
 62
7
  6
BYLAYER
 10
27.7487358055
 20
63.2130208729
 30
0.0
 11
-15.507275323
 21
16.023819938
 31
0.0
 40
0.4549951859
 41
1.4272784908
 42
1.4570476347
  0
ELLIPSE
  5
361
100
AcDbEntity
  8
0
100
AcDbEllipse
 62
7
  6
BYLAYER
 10
28.0734315826
 20
63.2130208729
 30
0.0
 11
-15.0865489373
 21
15.7334287619
 31
0.0
 40
0.5091621171
 41
1.3878744092
 42
1.4176435531
  0
ELLIPSE
  5
362
100
AcDbEntity
  8
0
100
AcDbEllipse
 62
7
  6
BYLAYER
 10
28.4186064585
 20
63.2130208729
 30
0.0
 11
-14.6201143459
 21
15.4285527016
 31
0.0
 40
0.5661264515
 41
1.349670045
 42
1.3794391888
  0
ELLIPSE
  5
363
100
AcDbEntity
  8
0
100
AcDbEllipse
 62
7
  6
BYLAYER
 10
28.7816334442
 20
63.2130208729
 30
0.0
 11
-14.1001405585
 21
15.1182070608
 31
0.0
 40
0.6263036642
 41
1.3133928442
 42
1.3431619881
  0
ELLIPSE
  5
364
100
AcDbEntity
  8
0
100
AcDbEllipse
 62
7
  6
BYLAYER
 10
29.1597496851
 20
63.2130208729
 30
0.0
 11
-13.5094930283
 21
14.8194770471
 31
0.0
 40
0.6901509118
 41
1.2804861718
 42
1.3102553157
  0
ELLIPSE
  5
365
100
AcDbEntity
  8
0
100
AcDbEllipse
 62
7
  6
BYLAYER
 10
29.5500774882
 20
63.2130208729
 30
0.0
 11
-12.8060309747
 21
14.5700382847
 31
0.0
 40
0.7581403628
 41
1.2542756011
 42
1.2840447449
  0
ELLIPSE
  5
366
100
AcDbEntity
  8
0
100
AcDbEllipse
 62
7
  6
BYLAYER
 10
29.9496462232
 20
63.2130208729
 30
0.0
 11
-11.8601695234
 21
14.4741311195
 31
0.0
 40
0.8306103506
 41
1.2444691952
 42
1.2742383391
  0
ELLIPSE
  5
367
100
AcDbEntity
  8
0
100
AcDbEllipse
 62
7
  6
BYLAYER
 10
30.3554149309
 20
63.2130208729
 30
0.0
 11
-10.0427045149
 21
14.9543464083
 31
0.0
 40
0.9066977799
 41
1.2951223273
 42
1.3248914712
  0
ELLIPSE
  5
368
100
AcDbEntity
  8
0
100
AcDbEllipse
 62
7
  6
BYLAYER
 10
30.7642954664
 20
63.2130208729
 30
0.0
 11
0.0
 21
17.5084611122
 31
0.0
 40
0.963433044
 41
-4.4411252267
 42
-4.4113560828
  0
ELLIPSE
  5
369
100
AcDbEntity
  8
0
100
AcDbEllipse
 62
7
  6
BYLAYER
 10
35.4378213724
 20
63.2130208729
 30
0.0
 11
17.4882083164
 21
17.4929960222
 31
0.0
 40
0.0420701413
 41
-1.8297953707
 42
-1.8000262268
  0
ELLIPSE
  5
36A
100
AcDbEntity
  8
0
100
AcDbEllipse
 62
7
  6
BYLAYER
 10
35.3844009086
 20
63.2130208729
 30
0.0
 11
17.4274961419
 21
17.4466624083
 31
0.0
 40
0.0843354388
 41
-1.7877848753
 42
-1.7580157314
  0
ELLIPSE
  5
36B
100
AcDbEntity
  8
0
100
AcDbEllipse
 62
7
  6
BYLAYER
 10
35.2958186527
 20
63.2130208729
 30
0.0
 11
17.326459176
 21
17.3696482286
 31
0.0
 40
0.1269935126
 41
-1.7458226364
 42
-1.7160534926
  0
ELLIPSE
  5
36C
100
AcDbEntity
  8
0
100
AcDbEllipse
 62
7
  6
BYLAYER
 10
35.1727487691
 20
63.2130208729
 30
0.0
 11
17.185307668
 21
17.2622772411
 31
0.0
 40
0.1702469903
 41
-1.7039368372
 42
-1.6741676933
  0
ELLIPSE
  5
36D
100
AcDbEntity
  8
0
100
AcDbEllipse
 62
7
  6
BYLAYER
 10
35.016127894
 20
63.2130208729
 30
0.0
 11
17.0043043001
 21
17.1250267564
 31
0.0
 40
0.2143062114
 41
-1.6621611491
 42
-1.6323920052
  0
ELLIPSE
  5
36E
100
AcDbEntity
  8
0
100
AcDbEllipse
 62
7
  6
BYLAYER
 10
34.8271480068
 20
63.2130208729
 30
0.0
 11
16.7837266909
 21
16.9585571531
 31
0.0
 40
0.2593921815
 41
-1.6205377669
 42
-1.590768623
  0
ELLIPSE
  5
36F
100
AcDbEntity
  8
0
100
AcDbEllipse
 62
7
  6
BYLAYER
 10
34.6072473585
 20
63.2130208729
 30
0.0
 11
16.523808647
 21
16.7637596114
 31
0.0
 40
0.3057398728
 41
-1.5791218793
 42
-1.5493527354
  0
ELLIPSE
  5
370
100
AcDbEntity
  8
0
100
AcDbEllipse
 62
7
  6
BYLAYER
 10
34.3580995259
 20
63.2130208729
 30
0.0
 11
16.2246471729
 21
16.5418339295
 31
0.0
 40
0.3536019736
 41
-1.5379886378
 42
-1.5082194939
  0
ELLIPSE
  5
371
100
AcDbEntity
  8
0
100
AcDbEllipse
 62
7
  6
BYLAYER
 10
34.0816006744
 20
63.2130208729
 30
0.0
 11
15.8860502942
 21
16.2944188981
 31
0.0
 40
0.4032531911
 41
-1.4972446065
 42
-1.4674754626
  0
ELLIPSE
  5
372
100
AcDbEntity
  8
0
100
AcDbEllipse
 62
7
  6
BYLAYER
 10
33.7798551273
 20
63.2130208729
 30
0.0
 11
15.507275323
 21
16.023819938
 31
0.0
 40
0.4549951859
 41
-1.4570476347
 42
-1.4272784908
  0
ELLIPSE
  5
373
100
AcDbEntity
  8
0
100
AcDbEllipse
 62
7
  6
BYLAYER
 10
33.4551593502
 20
63.2130208729
 30
0.0
 11
15.0865489373
 21
15.7334287619
 31
0.0
 40
0.5091621171
 41
-1.4176435531
 42
-1.3878744092
  0
ELLIPSE
  5
374
100
AcDbEntity
  8
0
100
AcDbEllipse
 62
7
  6
BYLAYER
 10
33.1099844743
 20
63.2130208729
 30
0.0
 11
14.6201143459
 21
15.4285527016
 31
0.0
 40
0.5661264515
 41
-1.3794391888
 42
-1.349670045
  0
ELLIPSE
  5
375
100
AcDbEntity
  8
0
100
AcDbEllipse
 62
7
  6
BYLAYER
 10
32.7469574886
 20
63.2130208729
 30
0.0
 11
14.1001405585
 21
15.1182070608
 31
0.0
 40
0.6263036642
 41
-1.3431619881
 42
-1.3133928442
  0
ELLIPSE
  5
376
100
AcDbEntity
  8
0
100
AcDbEllipse
 62
7
  6
BYLAYER
 10
32.3688412477
 20
63.2130208729
 30
0.0
 11
13.5094930283
 21
14.8194770471
 31
0.0
 40
0.6901509118
 41
-1.3102553157
 42
-1.2804861718
  0
ELLIPSE
  5
377
100
AcDbEntity
  8
0
100
AcDbEllipse
 62
7
  6
BYLAYER
 10
31.9785134447
 20
63.2130208729
 30
0.0
 11
12.8060309747
 21
14.5700382847
 31
0.0
 40
0.7581403628
 41
-1.2840447449
 42
-1.2542756011
  0
ELLIPSE
  5
378
100
AcDbEntity
  8
0
100
AcDbEllipse
 62
7
  6
BYLAYER
 10
31.5789447096
 20
63.2130208729
 30
0.0
 11
11.8601695234
 21
14.4741311195
 31
0.0
 40
0.8306103506
 41
-1.2742383391
 42
-1.2444691952
  0
ELLIPSE
  5
379
100
AcDbEntity
  8
0
100
AcDbEllipse
 62
7
  6
BYLAYER
 10
30.7642954664
 20
63.2130208729
 30
0.0
 11
0.0
 21
17.5084611122
 31
0.0
 40
0.963433044
 41
4.4113560828
 42
4.4411252267
  0
ELLIPSE
  5
37A
100
AcDbEntity
  8
0
100
AcDbEllipse
 62
7
  6
BYLAYER
 10
31.1731760019
 20
63.2130208729
 30
0.0
 11
10.0427045149
 21
14.9543464083
 31
0.0
 40
0.9066977799
 41
-1.3248914712
 42
-1.2951223273
  0
ELLIPSE
  5
37B
100
AcDbEntity
  8
0
100
AcDbEllipse
 62
7
  6
BYLAYER
 10
26.5124630388
 20
63.2130208729
 30
0.0
 11
-17.0043043001
 21
17.1250267564
 31
0.0
 40
0.2143062114
 41
-2.0814972997
 42
-2.0517281558
  0
ELLIPSE
  5
37C
100
AcDbEntity
  8
0
100
AcDbEllipse
 62
7
  6
BYLAYER
 10
28.4186064585
 20
63.2130208729
 30
0.0
 11
-14.6201143459
 21
15.4285527016
 31
0.0
 40
0.5661264515
 41
-2.36421926
 42
-2.3344501161
  0
ELLIPSE
  5
37D
100
AcDbEntity
  8
0
100
AcDbEllipse
 62
7
  6
BYLAYER
 10
26.3558421637
 20
63.2130208729
 30
0.0
 11
-17.185307668
 21
17.2622772411
 31
0.0
 40
0.1702469903
 41
-2.0397216116
 42
-2.0099524677
  0
ELLIPSE
  5
37E
100
AcDbEntity
  8
0
100
AcDbEllipse
 62
7
  6
BYLAYER
 10
30.3554149309
 20
63.2130208729
 30
0.0
 11
-10.0427045149
 21
14.9543464083
 31
0.0
 40
0.9066977799
 41
-2.4187669776
 42
-2.3889978337
  0
ELLIPSE
  5
37F
100
AcDbEntity
  8
0
100
AcDbEllipse
 62
7
  6
BYLAYER
 10
28.0734315826
 20
63.2130208729
 30
0.0
 11
-15.0865489373
 21
15.7334287619
 31
0.0
 40
0.5091621171
 41
-2.3260148957
 42
-2.2962457518
  0
ELLIPSE
  5
380
100
AcDbEntity
  8
0
100
AcDbEllipse
 62
7
  6
BYLAYER
 10
26.2327722801
 20
63.2130208729
 30
0.0
 11
-17.326459176
 21
17.3696482286
 31
0.0
 40
0.1269935126
 41
-1.9978358124
 42
-1.9680666685
  0
ELLIPSE
  5
381
100
AcDbEntity
  8
0
100
AcDbEllipse
 62
7
  6
BYLAYER
 10
31.1731760019
 20
63.2130208729
 30
0.0
 11
10.0427045149
 21
14.9543464083
 31
0.0
 40
0.9066977799
 41
-3.8941874735
 42
-3.8644183296
  0
ELLIPSE
  5
382
100
AcDbEntity
  8
0
100
AcDbEllipse
 62
7
  6
BYLAYER
 10
31.5789447096
 20
63.2130208729
 30
0.0
 11
11.8601695234
 21
14.4741311195
 31
0.0
 40
0.8306103506
 41
-3.8435343414
 42
-3.8137651975
  0
ELLIPSE
  5
383
100
AcDbEntity
  8
0
100
AcDbEllipse
 62
7
  6
BYLAYER
 10
26.1441900242
 20
63.2130208729
 30
0.0
 11
-17.4274961419
 21
17.4466624083
 31
0.0
 40
0.0843354388
 41
-1.9558735735
 42
-1.9261044297
  0
ELLIPSE
  5
384
100
AcDbEntity
  8
0
100
AcDbEllipse
 62
7
  6
BYLAYER
 10
27.7487358055
 20
63.2130208729
 30
0.0
 11
-15.507275323
 21
16.023819938
 31
0.0
 40
0.4549951859
 41
-2.2866108141
 42
-2.2568416702
  0
ELLIPSE
  5
385
100
AcDbEntity
  8
0
100
AcDbEllipse
 62
7
  6
BYLAYER
 10
31.9785134447
 20
63.2130208729
 30
0.0
 11
12.8060309747
 21
14.5700382847
 31
0.0
 40
0.7581403628
 41
-3.8533407472
 42
-3.8235716033
  0
ELLIPSE
  5
386
100
AcDbEntity
  8
0
100
AcDbEllipse
 62
7
  6
BYLAYER
 10
32.3688412477
 20
63.2130208729
 30
0.0
 11
13.5094930283
 21
14.8194770471
 31
0.0
 40
0.6901509118
 41
-3.879551318
 42
-3.8497821741
  0
ELLIPSE
  5
387
100
AcDbEntity
  8
0
100
AcDbEllipse
 62
7
  6
BYLAYER
 10
29.9496462232
 20
63.2130208729
 30
0.0
 11
-11.8601695234
 21
14.4741311195
 31
0.0
 40
0.8306103506
 41
-2.4694201097
 42
-2.4396509658
  0
ELLIPSE
  5
388
100
AcDbEntity
  8
0
100
AcDbEllipse
 62
7
  6
BYLAYER
 10
32.7469574886
 20
63.2130208729
 30
0.0
 11
14.1001405585
 21
15.1182070608
 31
0.0
 40
0.6263036642
 41
-3.9124579904
 42
-3.8826888465
  0
ELLIPSE
  5
389
100
AcDbEntity
  8
0
100
AcDbEllipse
 62
7
  6
BYLAYER
 10
33.1099844743
 20
63.2130208729
 30
0.0
 11
14.6201143459
 21
15.4285527016
 31
0.0
 40
0.5661264515
 41
-3.9487351911
 42
-3.9189660472
  0
ELLIPSE
  5
38A
100
AcDbEntity
  8
0
100
AcDbEllipse
 62
7
  6
BYLAYER
 10
33.4551593502
 20
63.2130208729
 30
0.0
 11
15.0865489373
 21
15.7334287619
 31
0.0
 40
0.5091621171
 41
-3.9869395554
 42
-3.9571704115
  0
ELLIPSE
  5
38B
100
AcDbEntity
  8
0
100
AcDbEllipse
 62
7
  6
BYLAYER
 10
33.7798551273
 20
63.2130208729
 30
0.0
 11
15.507275323
 21
16.023819938
 31
0.0
 40
0.4549951859
 41
-4.0263436369
 42
-3.9965744931
  0
ELLIPSE
  5
38C
100
AcDbEntity
  8
0
100
AcDbEllipse
 62
7
  6
BYLAYER
 10
34.0816006744
 20
63.2130208729
 30
0.0
 11
15.8860502942
 21
16.2944188981
 31
0.0
 40
0.4032531911
 41
-4.0665406088
 42
-4.0367714649
  0
ELLIPSE
  5
38D
100
AcDbEntity
  8
0
100
AcDbEllipse
 62
7
  6
BYLAYER
 10
34.3580995259
 20
63.2130208729
 30
0.0
 11
16.2246471729
 21
16.5418339295
 31
0.0
 40
0.3536019736
 41
-4.1072846401
 42
-4.0775154962
  0
ELLIPSE
  5
38E
100
AcDbEntity
  8
0
100
AcDbEllipse
 62
7
  6
BYLAYER
 10
34.6072473585
 20
63.2130208729
 30
0.0
 11
16.523808647
 21
16.7637596114
 31
0.0
 40
0.3057398728
 41
-4.1484178816
 42
-4.1186487377
  0
ELLIPSE
  5
38F
100
AcDbEntity
  8
0
100
AcDbEllipse
 62
7
  6
BYLAYER
 10
34.8271480068
 20
63.2130208729
 30
0.0
 11
16.7837266909
 21
16.9585571531
 31
0.0
 40
0.2593921815
 41
-4.1898337691
 42
-4.1600646253
  0
ELLIPSE
  5
390
100
AcDbEntity
  8
0
100
AcDbEllipse
 62
7
  6
BYLAYER
 10
26.0907695604
 20
63.2130208729
 30
0.0
 11
-17.4882083164
 21
17.4929960222
 31
0.0
 40
0.0420701413
 41
-1.9138630781
 42
-1.8840939343
  0
ELLIPSE
  5
391
100
AcDbEntity
  8
0
100
AcDbEllipse
 62
7
  6
BYLAYER
 10
35.016127894
 20
63.2130208729
 30
0.0
 11
17.0043043001
 21
17.1250267564
 31
0.0
 40
0.2143062114
 41
-4.2314571513
 42
-4.2016880075
  0
ELLIPSE
  5
392
100
AcDbEntity
  8
0
100
AcDbEllipse
 62
7
  6
BYLAYER
 10
35.1727487691
 20
63.2130208729
 30
0.0
 11
17.185307668
 21
17.2622772411
 31
0.0
 40
0.1702469903
 41
-4.2732328395
 42
-4.2434636956
  0
ELLIPSE
  5
393
100
AcDbEntity
  8
0
100
AcDbEllipse
 62
7
  6
BYLAYER
 10
35.2958186527
 20
63.2130208729
 30
0.0
 11
17.326459176
 21
17.3696482286
 31
0.0
 40
0.1269935126
 41
-4.3151186387
 42
-4.2853494948
  0
ELLIPSE
  5
394
100
AcDbEntity
  8
0
100
AcDbEllipse
 62
7
  6
BYLAYER
 10
27.4469902584
 20
63.2130208729
 30
0.0
 11
-15.8860502942
 21
16.2944188981
 31
0.0
 40
0.4032531911
 41
-2.2464138423
 42
-2.2166446984
  0
ELLIPSE
  5
395
100
AcDbEntity
  8
0
100
AcDbEllipse
 62
7
  6
BYLAYER
 10
35.3844009086
 20
63.2130208729
 30
0.0
 11
17.4274961419
 21
17.4466624083
 31
0.0
 40
0.0843354388
 41
-4.3570808775
 42
-4.3273117336
  0
ELLIPSE
  5
396
100
AcDbEntity
  8
0
100
AcDbEllipse
 62
7
  6
BYLAYER
 10
29.5500774882
 20
63.2130208729
 30
0.0
 11
-12.8060309747
 21
14.5700382847
 31
0.0
 40
0.7581403628
 41
-2.4596137039
 42
-2.42984456
  0
ELLIPSE
  5
397
100
AcDbEntity
  8
0
100
AcDbEllipse
 62
7
  6
BYLAYER
 10
27.1704914069
 20
63.2130208729
 30
0.0
 11
-16.2246471729
 21
16.5418339295
 31
0.0
 40
0.3536019736
 41
-2.205669811
 42
-2.1759006671
  0
ELLIPSE
  5
398
100
AcDbEntity
  8
0
100
AcDbEllipse
 62
7
  6
BYLAYER
 10
29.1597496851
 20
63.2130208729
 30
0.0
 11
-13.5094930283
 21
14.8194770471
 31
0.0
 40
0.6901509118
 41
-2.4334031331
 42
-2.4036339892
  0
ELLIPSE
  5
399
100
AcDbEntity
  8
0
100
AcDbEllipse
 62
7
  6
BYLAYER
 10
26.9213435743
 20
63.2130208729
 30
0.0
 11
-16.523808647
 21
16.7637596114
 31
0.0
 40
0.3057398728
 41
-2.1645365695
 42
-2.1347674256
  0
ELLIPSE
  5
39A
100
AcDbEntity
  8
0
100
AcDbEllipse
 62
7
  6
BYLAYER
 10
35.4378213724
 20
63.2130208729
 30
0.0
 11
17.4882083164
 21
17.4929960222
 31
0.0
 40
0.0420701413
 41
-4.3990913729
 42
-4.369322229
  0
ELLIPSE
  5
39B
100
AcDbEntity
  8
0
100
AcDbEllipse
 62
7
  6
BYLAYER
 10
26.701442926
 20
63.2130208729
 30
0.0
 11
-16.7837266909
 21
16.9585571531
 31
0.0
 40
0.2593921815
 41
-2.1231206819
 42
-2.093351538
  0
ELLIPSE
  5
39C
100
AcDbEntity
  8
0
100
AcDbEllipse
 62
7
  6
BYLAYER
 10
28.7816334442
 20
63.2130208729
 30
0.0
 11
-14.1001405585
 21
15.1182070608
 31
0.0
 40
0.6263036642
 41
-2.4004964607
 42
-2.3707273168
  0
ENDSEC
  0
SECTION
  2
OBJECTS
  0
DICTIONARY
  5
C
100
AcDbDictionary
280
0
281
1
  3
ACAD_GROUP
350
D
  3
ACAD_MLINESTYLE
350
17
  3
ACAD_LAYOUT
350
1A
  3
ACAD_PLOTSETTINGS
350
19
  3
ACAD_PLOTSTYLENAME
350
E
  0
DICTIONARY
  5
D
102
{ACAD_REACTORS
330
C
102
}
100
AcDbDictionary
280
0
281
1
  0
ACDBDICTIONARYWDFLT
  5
E
102
{ACAD_REACTORS
330
C
102
}
100
AcDbDictionary
281
1
  3
Normal
350
F
100
AcDbDictionaryWithDefault
340
F
  0
DICTIONARY
  5
17
102
{ACAD_REACTORS
330
C
102
}
100
AcDbDictionary
280
0
281
1
  3
Standard
350
18
  0
DICTIONARY
  5
19
102
{ACAD_REACTORS
330
C
102
}
100
AcDbDictionary
281
1
  0
DICTIONARY
  5
1A
102
{ACAD_REACTORS
330
C
102
}
100
AcDbDictionary
281
1
  3
Model
350
39D
  3
Layout1
350
39E
  0
ACDBPLACEHOLDER
  5
F
102
{ACAD_REACTORS
330
E
102
}
  0
MLINESTYLE
  5
18
102
{ACAD_REACTORS
330
17
102
}
100
AcDbMlineStyle
  2
STANDARD
 70
0
  3

 62
256
 51
90.0
 52
90.0
 71
2
 49
0.5
 62
256
  6
BYLAYER
 49
-0.5
 62
256
  6
BYLAYER
  0
LAYOUT
  5
39D
102
{ACAD_REACTORS
330
1A
102
}
100
AcDbPlotSettings
  1

  2
none_device
  4

  6

 40
0.0
 41
0.0
 42
0.0
 43
0.0
 44
210.0
 45
297.0
 46
0.0
 47
0.0
 48
0.0
 49
0.0
140
0.0
141
0.0
142
1.0
143
1.0
 70
1024
 72
1
 73
0
 74
0
  7

 75
0
147
1.0
148
0.0
149
0.0
100
AcDbLayout
  1
Model
 70
0
 71
0
 10
0.0
 20
0.0
 11
210.0
 21
297.0
 12
0.0
 22
0.0
 32
0.0
 14
0.0
 24
0.0
 34
0.0
 15
0.0
 25
0.0
 35
0.0
146
0.0
 13
0.0
 23
0.0
 33
0.0
 16
1.0
 26
0.0
 36
0.0
 17
0.0
 27
1.0
 37
0.0
 76
0
330
210
345
0
346
0
  0
LAYOUT
  5
39E
102
{ACAD_REACTORS
330
1A
102
}
100
AcDbPlotSettings
  1

  2
none_device
  4

  6

 40
0.0
 41
0.0
 42
0.0
 43
0.0
 44
210.0
 45
297.0
 46
0.0
 47
0.0
 48
0.0
 49
0.0
140
0.0
141
0.0
142
1.0
143
1.0
 70
0
 72
1
 73
0
 74
0
  7

 75
0
147
1.0
148
0.0
149
0.0
100
AcDbLayout
  1
Layout1
 70
0
 71
1
 10
0.0
 20
0.0
 11
210.0
 21
297.0
 12
0.0
 22
0.0
 32
0.0
 14
0.0
 24
0.0
 34
0.0
 15
0.0
 25
0.0
 35
0.0
146
0.0
 13
0.0
 23
0.0
 33
0.0
 16
1.0
 26
0.0
 36
0.0
 17
0.0
 27
1.0
 37
0.0
 76
0
330
211
345
0
346
0
  0
ENDSEC
  0
EOF
