999
DXF file: C:\Users\sesa63760\Dev\_Creo\CAD\MCADID0004256_3D-CAD\drw0001_1.dxf
999
Pro/ENGINEER 2019471 by Parametric Technology Corporation
  0
SECTION
  2
HEADER
  9
$ACADVER
  1
AC1024
  9
$DWGCODEPAGE
  3
ANSI_1252
  9
$EXTMAX
 10
497.1251955918
 20
703.077062337
 30
0.0
  9
$EXTMIN
 10
0.0
 20
0.0
 30
0.0
  9
$LIMMIN
 10
0.0
 20
0.0
  9
$LIMMAX
 10
497.1251955918
 20
703.077062337
  9
$VIEWCTR
 10
248.5625977959
 20
351.5385311685
  9
$VIEWSIZE
 40
703.077062337
  9
$CLAYER
  8
0
  9
$LTSCALE
 40
45.8302085079
  9
$CELTYPE
  6
BYLAYER
  9
$DIMSCALE
 40
1.0
  9
$DIMASZ
 40
5.9181570904
  9
$DIMEXO
 40
1.0
  9
$DIMDLI
 40
31.6645076964
  9
$DIMEXE
 40
1.0
  9
$DIMCEN
 40
7.4994886649
  9
$DIMLFAC
 40
1.0
  9
$DIMBLK
  1
_FILLED
  9
$DIMALT
 70
0
  9
$DIMALTF
 40
0.0393700787
  9
$DIMTXT
 40
8.2854199265
  9
$DIMTOL
 70
1
  9
$DIMLIM
 70
0
  9
$DIMTFAC
 40
1.0
  9
$DIMTP
 40
0.01
  9
$DIMTM
 40
0.01
  9
$DIMGAP
 40
0.625
  9
$DIMDSEP
 70
46
  9
$AUNITS
 70
0
  9
$PDMODE
 70
3
  9
$PDSIZE
 40
0.3125
  9
$HANDSEED
  5
4E2
  9
$TILEMODE
 70
1
  9
$MEASUREMENT
 70
1
  9
$INSUNITS
 70
4
  0
ENDSEC
  0
SECTION
  2
CLASSES
  0
CLASS
  1
ACDBDICTIONARYWDFLT
  2
AcDbDictionaryWithDefault
  3
AutoCAD 2000
 90
0
 91
1
280
0
281
0
  0
CLASS
  1
ACDBPLACEHOLDER
  2
AcDbPlaceHolder
  3
AutoCAD 2000
 90
0
 91
1
280
0
281
0
  0
CLASS
  1
LAYOUT
  2
AcDbLayout
  3
AutoCAD 2000
 90
0
 91
0
280
0
281
0
  0
ENDSEC
  0
SECTION
  2
TABLES
  0
TABLE
  2
VPORT
  5
8
100
AcDbSymbolTable
 70
2
  0
VPORT
  5
1F4
100
AcDbSymbolTableRecord
100
AcDbViewportTableRecord
  2
*ACTIVE
 70
0
 10
0.0
 20
0.0
 11
1.0
 21
1.0
 12
248.5625977959
 22
351.5385311685
 13
0.0
 23
0.0
 14
1.0
 24
1.0
 15
0.0
 25
0.0
 16
0.0
 26
0.0
 36
1.0
 17
0.0
 27
0.0
 37
0.0
 40
703.077062337
 41
0.7070707071
 42
50.0
 43
0.0
 44
0.0
 50
0.0
 51
0.0
 71
0
 72
100
 73
1
 74
1
 75
0
 76
0
 77
0
 78
0
  0
ENDTAB
  0
TABLE
  2
LTYPE
  5
5
100
AcDbSymbolTable
 70
6
  0
LTYPE
  5
14
100
AcDbSymbolTableRecord
100
AcDbLinetypeTableRecord
  2
BYBLOCK
 70
0
  3

 72
65
 73
0
 40
0.0
  0
LTYPE
  5
15
100
AcDbSymbolTableRecord
100
AcDbLinetypeTableRecord
  2
BYLAYER
 70
0
  3

 72
65
 73
0
 40
0.0
  0
LTYPE
  5
16
100
AcDbSymbolTableRecord
100
AcDbLinetypeTableRecord
  2
CONTINUOUS
 70
64
  3
Solid line
 72
65
 73
0
 40
0.0
  0
LTYPE
  5
1F5
100
AcDbSymbolTableRecord
100
AcDbLinetypeTableRecord
  2
CENTER
 70
64
  3
____ _ ____ _ ____ _ ____ _ ____ _ ____ _ ____
 72
65
 73
4
 40
0.6
 49
0.375
 74
0
 49
-0.075
 74
0
 49
0.075
 74
0
 49
-0.075
 74
0
  0
LTYPE
  5
1F6
100
AcDbSymbolTableRecord
100
AcDbLinetypeTableRecord
  2
HIDDEN
 70
64
  3
- - - - - - - - - - - - - - - - - - - -
 72
65
 73
2
 40
0.2
 49
0.1
 74
0
 49
-0.1
 74
0
  0
LTYPE
  5
1F7
100
AcDbSymbolTableRecord
100
AcDbLinetypeTableRecord
  2
PHANTOM
 70
64
  3
_____ _ _ _____ _ _ _____ _ _ _____
 72
65
 73
6
 40
0.8
 49
0.45
 74
0
 49
-0.05
 74
0
 49
0.1
 74
0
 49
-0.05
 74
0
 49
0.1
 74
0
 49
-0.05
 74
0
  0
LTYPE
  5
1F8
100
AcDbSymbolTableRecord
100
AcDbLinetypeTableRecord
  2
DOT
 70
64
  3
. . . . . . . . . . . . . . . . . . . .
 72
65
 73
2
 40
0.2
 49
0.1
 74
0
 49
-0.1
 74
0
  0
LTYPE
  5
1F9
100
AcDbSymbolTableRecord
100
AcDbLinetypeTableRecord
  2
DASHED
 70
64
  3
- - - - - - - - - - - - - - - - - - - -
 72
65
 73
2
 40
0.2
 49
0.1
 74
0
 49
-0.1
 74
0
  0
ENDTAB
  0
TABLE
  2
LAYER
  5
2
100
AcDbSymbolTable
 70
36
  0
LAYER
  5
10
100
AcDbSymbolTableRecord
100
AcDbLayerTableRecord
  2
0
 70
0
 62
7
  6
CONTINUOUS
370
-3
390
F
  0
LAYER
  5
1FA
100
AcDbSymbolTableRecord
100
AcDbLayerTableRecord
  2
DEFAULT_1
 70
0
 62
7
  6
CENTER
370
-3
390
F
  0
LAYER
  5
1FB
100
AcDbSymbolTableRecord
100
AcDbLayerTableRecord
  2
DEFAULT_2
 70
0
 62
7
  6
HIDDEN
370
-3
390
F
  0
LAYER
  5
1FC
100
AcDbSymbolTableRecord
100
AcDbLayerTableRecord
  2
DEFAULT_3
 70
0
 62
7
  6
PHANTOM
370
-3
390
F
  0
LAYER
  5
1FD
100
AcDbSymbolTableRecord
100
AcDbLayerTableRecord
  2
00_COMPONENTS
 70
0
 62
7
  6
CONTINUOUS
370
-3
390
F
  0
LAYER
  5
1FE
100
AcDbSymbolTableRecord
100
AcDbLayerTableRecord
  2
01_1_DEFAULT_DATUMS
 70
0
 62
7
  6
CONTINUOUS
370
-3
390
F
  0
LAYER
  5
1FF
100
AcDbSymbolTableRecord
100
AcDbLayerTableRecord
  2
01_PLANES
 70
0
 62
7
  6
CONTINUOUS
370
-3
390
F
  0
LAYER
  5
200
100
AcDbSymbolTableRecord
100
AcDbLayerTableRecord
  2
02_COORD_SYS
 70
0
 62
7
  6
CONTINUOUS
370
-3
390
F
  0
LAYER
  5
201
100
AcDbSymbolTableRecord
100
AcDbLayerTableRecord
  2
03_AXES
 70
0
 62
7
  6
CONTINUOUS
370
-3
390
F
  0
LAYER
  5
202
100
AcDbSymbolTableRecord
100
AcDbLayerTableRecord
  2
04_POINTS
 70
0
 62
7
  6
CONTINUOUS
370
-3
390
F
  0
LAYER
  5
203
100
AcDbSymbolTableRecord
100
AcDbLayerTableRecord
  2
05_CURVES
 70
0
 62
7
  6
CONTINUOUS
370
-3
390
F
  0
LAYER
  5
204
100
AcDbSymbolTableRecord
100
AcDbLayerTableRecord
  2
06_SURFS
 70
0
 62
7
  6
CONTINUOUS
370
-3
390
F
  0
LAYER
  5
205
100
AcDbSymbolTableRecord
100
AcDbLayerTableRecord
  2
07_COSMETICS
 70
0
 62
7
  6
CONTINUOUS
370
-3
390
F
  0
LAYER
  5
206
100
AcDbSymbolTableRecord
100
AcDbLayerTableRecord
  2
10_NOTES
 70
0
 62
7
  6
CONTINUOUS
370
-3
390
F
  0
LAYER
  5
207
100
AcDbSymbolTableRecord
100
AcDbLayerTableRecord
  2
11_NOTES_PUB
 70
0
 62
7
  6
CONTINUOUS
370
-3
390
F
  0
LAYER
  5
208
100
AcDbSymbolTableRecord
100
AcDbLayerTableRecord
  2
13_REF_GTOL
 70
0
 62
7
  6
CONTINUOUS
370
-3
390
F
  0
LAYER
  5
209
100
AcDbSymbolTableRecord
100
AcDbLayerTableRecord
  2
16_MISC
 70
0
 62
7
  6
CONTINUOUS
370
-3
390
F
  0
LAYER
  5
20A
100
AcDbSymbolTableRecord
100
AcDbLayerTableRecord
  2
17_NO_PRINT
 70
0
 62
7
  6
CONTINUOUS
370
-3
390
F
  0
LAYER
  5
20B
100
AcDbSymbolTableRecord
100
AcDbLayerTableRecord
  2
18_DATUM_CAMS_JOINTS
 70
0
 62
7
  6
CONTINUOUS
370
-3
390
F
  0
LAYER
  5
20C
100
AcDbSymbolTableRecord
100
AcDbLayerTableRecord
  2
19_DATUM_FUNCTIONAL
 70
0
 62
7
  6
CONTINUOUS
370
-3
390
F
  0
LAYER
  5
20D
100
AcDbSymbolTableRecord
100
AcDbLayerTableRecord
  2
20_DATUM_KINEMATIC_SCHEME
 70
0
 62
7
  6
CONTINUOUS
370
-3
390
F
  0
ENDTAB
  0
TABLE
  2
STYLE
  5
3
100
AcDbSymbolTable
 70
1
  0
STYLE
  5
11
100
AcDbSymbolTableRecord
100
AcDbTextStyleTableRecord
  2
STANDARD
 70
0
 40
0.0
 41
1.0
 50
0.0
 71
0
 42
0.2
  3
ARIAL.TTF
  4

  0
STYLE
  5
20E
100
AcDbSymbolTableRecord
100
AcDbTextStyleTableRecord
  2
TEXTSTYLE_1
 70
0
 40
0.0
 41
0.8
 50
0.0
 71
0
 42
0.2
  3
gdt
  4

  0
ENDTAB
  0
TABLE
  2
VIEW
  5
6
100
AcDbSymbolTable
 70
0
  0
ENDTAB
  0
TABLE
  2
UCS
  5
7
100
AcDbSymbolTable
 70
0
  0
ENDTAB
  0
TABLE
  2
APPID
  5
9
100
AcDbSymbolTable
 70
1
  0
APPID
  5
20F
100
AcDbSymbolTableRecord
100
AcDbRegAppTableRecord
  2
ACAD
 70
0
  0
ENDTAB
  0
TABLE
  2
BLOCK_RECORD
  5
1
100
AcDbSymbolTable
 70
0
  0
BLOCK_RECORD
  5
210
100
AcDbSymbolTableRecord
100
AcDbBlockTableRecord
  2
*Model_Space
  0
BLOCK_RECORD
  5
211
100
AcDbSymbolTableRecord
100
AcDbBlockTableRecord
  2
*Paper_Space
  0
BLOCK_RECORD
  5
212
100
AcDbSymbolTableRecord
100
AcDbBlockTableRecord
  2
_FILLED
  0
ENDTAB
  0
TABLE
  2
DIMSTYLE
  5
A
100
AcDbSymbolTable
 70
1
100
AcDbDimStyleTable
 71
0
  0
DIMSTYLE
105
213
100
AcDbSymbolTableRecord
100
AcDbDimStyleTableRecord
  2
STANDARD
 70
0
  3

  4

 40
1.0
 41
5.9181570904
 42
1.0
 43
0.38
 44
1.0
 45
0.0
 46
0.0
 47
0.01
 48
0.01
140
8.2854199265
141
0.09
142
0.0
143
25.4
144
1.0
145
0.0
146
1.0
147
0.625
 71
1
 72
0
 73
0
 74
0
 75
0
 76
0
 77
1
 78
8
 79
2
170
0
171
1
172
0
173
0
174
0
175
0
176
0
177
0
178
0
270
2
179
2
271
2
272
2
273
2
274
2
275
0
280
0
281
0
282
0
283
1
284
8
285
0
286
0
287
3
288
0
340
11
278
46
341
212
342
212
343
212
344
212
  0
ENDTAB
  0
ENDSEC
  0
SECTION
  2
BLOCKS
  0
BLOCK
  5
20
100
AcDbEntity
  8
0
100
AcDbBlockBegin
  2
*Model_Space
 70
0
 10
0.0
 20
0.0
 30
0.0
  3
*Model_Space
  1

  0
ENDBLK
  5
21
100
AcDbEntity
  8
0
100
AcDbBlockEnd
  0
BLOCK
  5
1C
100
AcDbEntity
  8
0
100
AcDbBlockBegin
  2
*Paper_Space
 70
0
 10
0.0
 20
0.0
 30
0.0
  3
*Paper_Space
  1

  0
ENDBLK
  5
1D
100
AcDbEntity
  8
0
100
AcDbBlockEnd
  0
BLOCK
  5
214
100
AcDbEntity
  8
0
100
AcDbBlockBegin
  2
_FILLED
 70
64
 10
0.0
 20
0.0
  3
_FILLED
  1

  0
SOLID
  5
215
100
AcDbEntity
  8
0
  6
BYBLOCK
 62
0
100
AcDbTrace
 10
0.0
 20
0.0
 11
-1.0
 21
0.25
 12
-1.0
 22
-0.25
 13
-1.0
 23
-0.25
  0
ENDBLK
  5
216
100
AcDbEntity
  8
0
  6
BYBLOCK
 62
0
100
AcDbBlockEnd
  0
ENDSEC
  0
SECTION
  2
ENTITIES
  0
LINE
  5
217
100
AcDbEntity
  8
0
100
AcDbLine
 62
7
  6
BYLAYER
 10
59.029080297
 20
571.148383985
 11
58.6755254344
 21
570.9442531537
  0
LINE
  5
218
100
AcDbEntity
  8
0
100
AcDbLine
 62
7
  6
BYLAYER
 10
128.3252563439
 20
611.1563110644
 11
59.029080297
 21
571.148383985
  0
LINE
  5
219
100
AcDbEntity
  8
0
100
AcDbLine
 62
7
  6
BYLAYER
 10
58.6755460422
 20
568.0865559744
 11
59.0290979608
 21
568.6989292599
  0
LINE
  5
21A
100
AcDbEntity
  8
0
100
AcDbLine
 62
7
  6
BYLAYER
 10
143.5281066027
 20
603.6038622048
 11
144.2352104399
 21
604.0121063587
  0
LINE
  5
21B
100
AcDbEntity
  8
0
100
AcDbLine
 62
7
  6
BYLAYER
 10
143.8816614653
 20
602.991490619
 11
144.5887653025
 21
603.3997347729
  0
LINE
  5
21C
100
AcDbEntity
  8
0
100
AcDbLine
 62
7
  6
BYLAYER
 10
95.5309289035
 20
562.4207870741
 11
147.3314887778
 21
592.3276757417
  0
LINE
  5
21D
100
AcDbEntity
  8
0
100
AcDbLine
 62
7
  6
BYLAYER
 10
95.8844837661
 20
561.8084154883
 11
147.6850436404
 21
591.7153041558
  0
LINE
  5
21E
100
AcDbEntity
  8
0
100
AcDbLine
 62
7
  6
BYLAYER
 10
85.9339116373
 20
555.0425960872
 11
86.1163754182
 21
555.1479409713
  0
LINE
  5
21F
100
AcDbEntity
  8
0
100
AcDbLine
 62
7
  6
BYLAYER
 10
85.96958997
 20
553.1451808191
 11
85.6160380514
 21
552.5328075336
  0
LINE
  5
220
100
AcDbEntity
  8
0
100
AcDbLine
 62
7
  6
BYLAYER
 10
94.2381037531
 20
552.5734293984
 11
94.3845488905
 21
552.7775497756
  0
LINE
  5
221
100
AcDbEntity
  8
0
100
AcDbLine
 62
7
  6
BYLAYER
 10
94.9148914883
 20
549.0010220387
 11
95.2809848351
 21
549.5113229914
  0
LINE
  5
222
100
AcDbEntity
  8
0
100
AcDbLine
 62
7
  6
BYLAYER
 10
95.8844837661
 20
557.3176521941
 11
147.6850436404
 21
587.2245408616
  0
LINE
  5
223
100
AcDbEntity
  8
0
100
AcDbLine
 62
7
  6
BYLAYER
 10
94.0309940279
 20
553.3899213615
 11
94.6523117847
 21
553.7486371943
  0
LINE
  5
224
100
AcDbEntity
  8
0
100
AcDbLine
 62
7
  6
BYLAYER
 10
94.3845488905
 20
552.7775497756
 11
95.0058666473
 21
553.1362656085
  0
LINE
  5
225
100
AcDbEntity
  8
0
100
AcDbLine
 62
7
  6
BYLAYER
 10
93.6835399201
 20
551.1480990668
 11
94.5613366257
 21
551.6548922059
  0
LINE
  5
226
100
AcDbEntity
  8
0
100
AcDbLine
 62
7
  6
BYLAYER
 10
94.0370947827
 20
550.5357274809
 11
94.9148914883
 21
551.0425206201
  0
LINE
  5
227
100
AcDbEntity
  8
0
100
AcDbLine
 62
7
  6
BYLAYER
 10
94.0370947827
 20
548.4944714381
 11
94.9148914883
 21
549.0012645772
  0
LINE
  5
228
100
AcDbEntity
  8
0
100
AcDbLine
 62
7
  6
BYLAYER
 10
136.6724881064
 20
563.1449140753
 11
95.2810043318
 21
539.2476724231
  0
LINE
  5
229
100
AcDbEntity
  8
0
100
AcDbLine
 62
7
  6
BYLAYER
 10
95.2810043318
 20
537.98298406
 11
137.5690005551
 21
562.397824326
  0
LINE
  5
22A
100
AcDbEntity
  8
0
100
AcDbLine
 62
7
  6
BYLAYER
 10
138.0673325176
 20
561.8892886431
 11
95.2810043318
 21
537.1867257981
  0
LINE
  5
22B
100
AcDbEntity
  8
0
100
AcDbLine
 62
7
  6
BYLAYER
 10
95.2810043318
 20
533.5524419865
 11
139.5469461726
 21
559.1092428706
  0
LINE
  5
22C
100
AcDbEntity
  8
0
100
AcDbLine
 62
7
  6
BYLAYER
 10
123.1710086915
 20
571.5275252411
 11
123.1709259889
 21
571.5274923378
  0
LWPOLYLINE
  5
22D
100
AcDbEntity
  8
0
100
AcDbPolyline
 62
7
  6
BYLAYER
 90
3
 70
0
 10
123.170868911
 20
571.5274502794
 10
123.0662104389
 20
571.492753855
 10
122.8989757889
 20
571.456836611
  0
LINE
  5
22E
100
AcDbEntity
  8
0
100
AcDbLine
 62
7
  6
BYLAYER
 10
88.0735031523
 20
552.2289558166
 11
87.8306835064
 21
551.5683601626
  0
LINE
  5
22F
100
AcDbEntity
  8
0
100
AcDbLine
 62
7
  6
BYLAYER
 10
91.651596749
 20
550.3428312081
 11
91.8944163948
 21
551.0034268621
  0
LINE
  5
230
100
AcDbEntity
  8
0
100
AcDbLine
 62
7
  6
BYLAYER
 10
143.7352163278
 20
602.7873702418
 11
143.8816614653
 21
602.991490619
  0
LINE
  5
231
100
AcDbEntity
  8
0
100
AcDbLine
 62
7
  6
BYLAYER
 10
131.7688039633
 20
553.2387773059
 11
96.4136121026
 21
532.8265696124
  0
LINE
  5
232
100
AcDbEntity
  8
0
100
AcDbLine
 62
7
  6
BYLAYER
 10
131.7688039633
 20
538.5417337976
 11
96.4136121026
 21
518.129526104
  0
LINE
  5
233
100
AcDbEntity
  8
0
100
AcDbLine
 62
7
  6
BYLAYER
 10
139.5469461726
 20
541.6526396182
 11
95.2810043318
 21
516.095838734
  0
LINE
  5
234
100
AcDbEntity
  8
0
100
AcDbLine
 62
7
  6
BYLAYER
 10
95.2810043318
 20
515.0812072116
 11
138.9256102819
 21
540.2792817932
  0
LINE
  5
235
100
AcDbEntity
  8
0
100
AcDbLine
 62
7
  6
BYLAYER
 10
57.6504094724
 20
569.5154105129
 11
57.6504094724
 21
567.4741544701
  0
LINE
  5
236
100
AcDbEntity
  8
0
100
AcDbLine
 62
7
  6
BYLAYER
 10
57.6504094724
 20
275.9825490163
 11
57.6504094724
 21
567.4739119316
  0
LINE
  5
237
100
AcDbEntity
  8
0
100
AcDbLine
 62
7
  6
BYLAYER
 10
58.6755460422
 20
274.5536944777
 11
58.6755460422
 21
566.045057393
  0
LINE
  5
238
100
AcDbEntity
  8
0
100
AcDbLine
 62
7
  6
BYLAYER
 10
58.6755460422
 20
566.0452999315
 11
58.6755460422
 21
568.0865559744
  0
LINE
  5
239
100
AcDbEntity
  8
0
100
AcDbLine
 62
7
  6
BYLAYER
 10
85.6160380514
 20
552.5328075336
 11
85.6160380514
 21
550.4915514907
  0
LINE
  5
23A
100
AcDbEntity
  8
0
100
AcDbLine
 62
7
  6
BYLAYER
 10
85.6160380514
 20
550.4913089522
 11
85.6160380514
 21
258.9999460369
  0
LINE
  5
23B
100
AcDbEntity
  8
0
100
AcDbLine
 62
7
  6
BYLAYER
 10
85.9339116373
 20
554.7031868905
 11
85.9339116373
 21
555.0425960872
  0
LINE
  5
23C
100
AcDbEntity
  8
0
100
AcDbLine
 62
7
  6
BYLAYER
 10
86.7831164012
 20
554.9468208526
 11
86.7831164012
 21
554.7957262257
  0
LINE
  5
23D
100
AcDbEntity
  8
0
100
AcDbLine
 62
7
  6
BYLAYER
 10
87.8306835064
 20
258.035498666
 11
87.8306835064
 21
549.5268615812
  0
LINE
  5
23E
100
AcDbEntity
  8
0
100
AcDbLine
 62
7
  6
BYLAYER
 10
87.8306835064
 20
549.5271041198
 11
87.8306835064
 21
551.5683601626
  0
LINE
  5
23F
100
AcDbEntity
  8
0
100
AcDbLine
 62
7
  6
BYLAYER
 10
91.651596749
 20
550.342831208
 11
91.651596749
 21
548.3015751652
  0
LINE
  5
240
100
AcDbEntity
  8
0
100
AcDbLine
 62
7
  6
BYLAYER
 10
91.651596749
 20
548.3013326267
 11
91.651596749
 21
256.8099697115
  0
LINE
  5
241
100
AcDbEntity
  8
0
100
AcDbLine
 62
7
  6
BYLAYER
 10
94.0370947827
 20
257.0028659843
 11
94.0370947827
 21
548.4942288996
  0
LINE
  5
242
100
AcDbEntity
  8
0
100
AcDbLine
 62
7
  6
BYLAYER
 10
94.0370947827
 20
548.4944714381
 11
94.0370947827
 21
550.5357274809
  0
LINE
  5
243
100
AcDbEntity
  8
0
100
AcDbLine
 62
7
  6
BYLAYER
 10
94.3845488905
 20
552.3693194751
 11
94.3845488905
 21
552.7775497756
  0
LINE
  5
244
100
AcDbEntity
  8
0
100
AcDbLine
 62
7
  6
BYLAYER
 10
94.9148914883
 20
551.0425206201
 11
94.9148914883
 21
549.0012645772
  0
LINE
  5
245
100
AcDbEntity
  8
0
100
AcDbLine
 62
7
  6
BYLAYER
 10
94.9148914883
 20
549.0010220387
 11
94.9148914883
 21
257.5096591234
  0
LINE
  5
246
100
AcDbEntity
  8
0
100
AcDbLine
 62
7
  6
BYLAYER
 10
94.9452020596
 20
554.1568803526
 11
94.9451483538
 21
561.6043007577
  0
LINE
  5
247
100
AcDbEntity
  8
0
100
AcDbLine
 62
7
  6
BYLAYER
 10
95.0058666473
 20
553.1362656085
 11
95.0058666473
 21
551.9600357514
  0
LINE
  5
248
100
AcDbEntity
  8
0
100
AcDbLine
 62
7
  6
BYLAYER
 10
95.2810043318
 20
551.5528215632
 11
95.2810043318
 21
549.5115655204
  0
LINE
  5
249
100
AcDbEntity
  8
0
100
AcDbLine
 62
7
  6
BYLAYER
 10
95.2810043318
 20
258.0199600666
 11
95.2810043318
 21
549.5113229819
  0
LINE
  5
24A
100
AcDbEntity
  8
0
100
AcDbLine
 62
7
  6
BYLAYER
 10
95.4452029219
 20
260.0961974028
 11
95.445145767
 21
273.7374205136
  0
LINE
  5
24B
100
AcDbEntity
  8
0
100
AcDbLine
 62
7
  6
BYLAYER
 10
95.4452020595
 20
549.2578670516
 11
95.4452020595
 21
553.7486303459
  0
LINE
  5
24C
100
AcDbEntity
  8
0
100
AcDbLine
 62
7
  6
BYLAYER
 10
95.4452020595
 20
553.7486303459
 11
95.4451483538
 21
561.1960507509
  0
LINE
  5
24D
100
AcDbEntity
  8
0
100
AcDbLine
 62
7
  6
BYLAYER
 10
95.8844837661
 20
557.3176521941
 11
95.8844837661
 21
561.8084154883
  0
LINE
  5
24E
100
AcDbEntity
  8
0
100
AcDbLine
 62
7
  6
BYLAYER
 10
96.3978040789
 20
330.0898717624
 11
96.3978040789
 21
312.6332685098
  0
LINE
  5
24F
100
AcDbEntity
  8
0
100
AcDbLine
 62
7
  6
BYLAYER
 10
96.4136121026
 20
534.2063494846
 11
96.4136121026
 21
516.749746232
  0
LINE
  5
250
100
AcDbEntity
  8
0
100
AcDbLine
 62
7
  6
BYLAYER
 10
103.5766308733
 20
307.4174425311
 11
103.5766308733
 21
315.7633098294
  0
LINE
  5
251
100
AcDbEntity
  8
0
100
AcDbLine
 62
7
  6
BYLAYER
 10
103.5766308733
 20
360.2071806904
 11
103.5766308733
 21
519.8706608392
  0
LINE
  5
252
100
AcDbEntity
  8
0
100
AcDbLine
 62
7
  6
BYLAYER
 10
103.9301857359
 20
307.2133221538
 11
103.9301857359
 21
315.967433606
  0
LINE
  5
253
100
AcDbEntity
  8
0
100
AcDbLine
 62
7
  6
BYLAYER
 10
103.9301857359
 20
360.411304467
 11
103.9301857359
 21
520.0747846158
  0
LINE
  5
254
100
AcDbEntity
  8
0
100
AcDbLine
 62
7
  6
BYLAYER
 10
85.6160380514
 20
258.9999460369
 11
58.6755460422
 21
274.5536944777
  0
LINE
  5
255
100
AcDbEntity
  8
0
100
AcDbLine
 62
7
  6
BYLAYER
 10
371.9251542823
 20
93.7085533902
 11
344.9846622731
 21
109.262301831
  0
LINE
  5
256
100
AcDbEntity
  8
0
100
AcDbLine
 62
7
  6
BYLAYER
 10
58.6755460422
 20
280.2692113976
 11
85.6160380514
 21
264.7154629568
  0
LINE
  5
257
100
AcDbEntity
  8
0
100
AcDbLine
 62
7
  6
BYLAYER
 10
371.9251542823
 20
99.4240703101
 11
344.9846622731
 21
114.9778187509
  0
LINE
  5
258
100
AcDbEntity
  8
0
100
AcDbLine
 62
7
  6
BYLAYER
 10
117.7291903288
 20
307.6330153055
 11
117.7291903288
 21
308.9394191729
  0
LINE
  5
259
100
AcDbEntity
  8
0
100
AcDbLine
 62
7
  6
BYLAYER
 10
118.1369944152
 20
308.0955342726
 11
118.1369944152
 21
311.5334391869
  0
LINE
  5
25A
100
AcDbEntity
  8
0
100
AcDbLine
 62
7
  6
BYLAYER
 10
118.7147085395
 20
312.3901959299
 11
118.7147085395
 21
314.0232007641
  0
LINE
  5
25B
100
AcDbEntity
  8
0
100
AcDbLine
 62
7
  6
BYLAYER
 10
120.6234527799
 20
304.7050746788
 11
120.6234527799
 21
304.4609097232
  0
LINE
  5
25C
100
AcDbEntity
  8
0
100
AcDbLine
 62
7
  6
BYLAYER
 10
121.2291903288
 20
304.4905819892
 11
121.2291903288
 21
304.1111948979
  0
LINE
  5
25D
100
AcDbEntity
  8
0
100
AcDbLine
 62
7
  6
BYLAYER
 10
122.2307875608
 20
305.7320351675
 11
122.2307875608
 21
309.1699400817
  0
LINE
  5
25E
100
AcDbEntity
  8
0
100
AcDbLine
 62
7
  6
BYLAYER
 10
91.6515967491
 20
256.8099697114
 11
87.8306835064
 21
258.035498666
  0
LINE
  5
25F
100
AcDbEntity
  8
0
100
AcDbLine
 62
7
  6
BYLAYER
 10
91.651596749
 20
262.5254866314
 11
87.8306835064
 21
263.7510155859
  0
LINE
  5
260
100
AcDbEntity
  8
0
100
AcDbLine
 62
7
  6
BYLAYER
 10
130.0082923942
 20
303.3791148839
 11
130.4641060252
 21
302.4612748311
  0
LINE
  5
261
100
AcDbEntity
  8
0
100
AcDbLine
 62
7
  6
BYLAYER
 10
126.2291903288
 20
304.5075752615
 11
126.2291903288
 21
300.9073071585
  0
LINE
  5
262
100
AcDbEntity
  8
0
100
AcDbLine
 62
7
  6
BYLAYER
 10
126.9110604454
 20
575.2307476651
 11
126.9110604454
 21
570.1217168438
  0
LINE
  5
263
100
AcDbEntity
  8
0
100
AcDbLine
 62
7
  6
BYLAYER
 10
126.9110604454
 20
533.3427196167
 11
126.9110604454
 21
365.9961125614
  0
LINE
  5
264
100
AcDbEntity
  8
0
100
AcDbLine
 62
7
  6
BYLAYER
 10
126.9110604454
 20
329.2353686068
 11
126.9110604454
 21
320.4812571547
  0
LINE
  5
265
100
AcDbEntity
  8
0
100
AcDbLine
 62
7
  6
BYLAYER
 10
127.5324013967
 20
317.6235650743
 11
127.5324013967
 21
329.594097831
  0
LINE
  5
266
100
AcDbEntity
  8
0
100
AcDbLine
 62
7
  6
BYLAYER
 10
127.5324013967
 20
365.6373893113
 11
127.5324013967
 21
533.7014488408
  0
LINE
  5
267
100
AcDbEntity
  8
0
100
AcDbLine
 62
7
  6
BYLAYER
 10
127.5324013967
 20
569.7629935937
 11
127.5324013967
 21
575.5894768893
  0
LINE
  5
268
100
AcDbEntity
  8
0
100
AcDbLine
 62
7
  6
BYLAYER
 10
127.6344834849
 20
381.1751702934
 11
127.6344834849
 21
533.7603856101
  0
LINE
  5
269
100
AcDbEntity
  8
0
100
AcDbLine
 62
7
  6
BYLAYER
 10
127.8229834744
 20
306.5971529256
 11
127.8229834744
 21
310.0350578398
  0
LINE
  5
26A
100
AcDbEntity
  8
0
100
AcDbLine
 62
7
  6
BYLAYER
 10
127.8411510174
 20
380.8871132184
 11
127.8411510174
 21
533.8797044534
  0
LINE
  5
26B
100
AcDbEntity
  8
0
100
AcDbLine
 62
7
  6
BYLAYER
 10
127.9717456409
 20
317.0111988435
 11
127.9717456409
 21
329.8477518345
  0
LINE
  5
26C
100
AcDbEntity
  8
0
100
AcDbLine
 62
7
  6
BYLAYER
 10
127.9717456409
 20
365.383739532
 11
127.9717456409
 21
380.8117160831
  0
LINE
  5
26D
100
AcDbEntity
  8
0
100
AcDbLine
 62
7
  6
BYLAYER
 10
127.9717456409
 20
569.5093438144
 11
127.9717456409
 21
575.8431308928
  0
LINE
  5
26E
100
AcDbEntity
  8
0
100
AcDbLine
 62
7
  6
BYLAYER
 10
128.7147085395
 20
312.3901959299
 11
128.7147085395
 21
314.0232007641
  0
LINE
  5
26F
100
AcDbEntity
  8
0
100
AcDbLine
 62
7
  6
BYLAYER
 10
128.9263437698
 20
576.3942650897
 11
128.9263437698
 21
568.9582187958
  0
LINE
  5
270
100
AcDbEntity
  8
0
100
AcDbLine
 62
7
  6
BYLAYER
 10
128.9263437698
 20
380.2605910645
 11
128.9263437698
 21
364.8326145134
  0
LINE
  5
271
100
AcDbEntity
  8
0
100
AcDbLine
 62
7
  6
BYLAYER
 10
128.9263437698
 20
330.3988860314
 11
128.9263437698
 21
316.4600738249
  0
LINE
  5
272
100
AcDbEntity
  8
0
100
AcDbLine
 62
7
  6
BYLAYER
 10
129.3213862424
 20
309.8257697888
 11
129.3213862424
 21
313.263674703
  0
LINE
  5
273
100
AcDbEntity
  8
0
100
AcDbLine
 62
7
  6
BYLAYER
 10
129.633450551
 20
316.4600755246
 11
129.633450551
 21
330.807131885
  0
LINE
  5
274
100
AcDbEntity
  8
0
100
AcDbLine
 62
7
  6
BYLAYER
 10
129.633450551
 20
364.4243754585
 11
129.633450551
 21
379.8523520097
  0
LINE
  5
275
100
AcDbEntity
  8
0
100
AcDbLine
 62
7
  6
BYLAYER
 10
129.633450551
 20
568.5499797409
 11
129.633450551
 21
576.8025109433
  0
LINE
  5
276
100
AcDbEntity
  8
0
100
AcDbLine
 62
7
  6
BYLAYER
 10
129.7291903288
 20
307.6330153055
 11
129.7291903288
 21
308.9394191729
  0
LINE
  5
277
100
AcDbEntity
  8
0
100
AcDbLine
 62
7
  6
BYLAYER
 10
129.9870024696
 20
577.0066330202
 11
129.9870024696
 21
568.3458610633
  0
LINE
  5
278
100
AcDbEntity
  8
0
100
AcDbLine
 62
7
  6
BYLAYER
 10
129.9870024696
 20
379.6482333321
 11
129.9870024696
 21
364.2202567809
  0
LINE
  5
279
100
AcDbEntity
  8
0
100
AcDbLine
 62
7
  6
BYLAYER
 10
129.9870024696
 20
331.0112539619
 11
129.9870024696
 21
316.6641976015
  0
LINE
  5
27A
100
AcDbEntity
  8
0
100
AcDbLine
 62
7
  6
BYLAYER
 10
130.0082923942
 20
303.3791148839
 11
130.0082923942
 21
301.5839282782
  0
LINE
  5
27B
100
AcDbEntity
  8
0
100
AcDbLine
 62
7
  6
BYLAYER
 10
130.133447607
 20
316.8683179788
 11
130.133447607
 21
331.0958035967
  0
LINE
  5
27C
100
AcDbEntity
  8
0
100
AcDbLine
 62
7
  6
BYLAYER
 10
130.133447607
 20
364.1357085541
 11
130.133447607
 21
379.5636851053
  0
LINE
  5
27D
100
AcDbEntity
  8
0
100
AcDbLine
 62
7
  6
BYLAYER
 10
130.133447607
 20
568.2613128365
 11
130.133447607
 21
577.0911826551
  0
LINE
  5
27E
100
AcDbEntity
  8
0
100
AcDbLine
 62
7
  6
BYLAYER
 10
131.7529959396
 20
350.502079456
 11
131.7529959396
 21
333.0454762034
  0
LINE
  5
27F
100
AcDbEntity
  8
0
100
AcDbLine
 62
7
  6
BYLAYER
 10
131.7688039633
 20
554.6185571781
 11
131.7688039633
 21
537.1619539255
  0
LINE
  5
280
100
AcDbEntity
  8
0
100
AcDbLine
 62
7
  6
BYLAYER
 10
133.9803166878
 20
360.8749045513
 11
133.9803173023
 21
360.7088768049
  0
LINE
  5
281
100
AcDbEntity
  8
0
100
AcDbLine
 62
7
  6
BYLAYER
 10
133.9961247115
 20
564.9913822735
 11
133.996125326
 21
564.825354527
  0
LINE
  5
282
100
AcDbEntity
  8
0
100
AcDbLine
 62
7
  6
BYLAYER
 10
134.3356801758
 20
579.5173282777
 11
134.3356801758
 21
565.8352076176
  0
LINE
  5
283
100
AcDbEntity
  8
0
100
AcDbLine
 62
7
  6
BYLAYER
 10
134.3356801758
 20
377.1375798863
 11
134.3356801758
 21
361.7096033352
  0
LINE
  5
284
100
AcDbEntity
  8
0
100
AcDbLine
 62
7
  6
BYLAYER
 10
134.3356801758
 20
333.5219492193
 11
134.3356801758
 21
320.6853962283
  0
LINE
  5
285
100
AcDbEntity
  8
0
100
AcDbLine
 62
7
  6
BYLAYER
 10
135.0400937071
 20
538.0359911435
 11
135.0400937071
 21
376.7308957448
  0
LINE
  5
286
100
AcDbEntity
  8
0
100
AcDbLine
 62
7
  6
BYLAYER
 10
135.042786957
 20
320.685397928
 11
135.042786957
 21
333.9301950729
  0
LINE
  5
287
100
AcDbEntity
  8
0
100
AcDbLine
 62
7
  6
BYLAYER
 10
135.042786957
 20
361.2359074136
 11
135.042786957
 21
376.7308957448
  0
LINE
  5
288
100
AcDbEntity
  8
0
100
AcDbLine
 62
7
  6
BYLAYER
 10
135.042786957
 20
565.369584696
 11
135.042786957
 21
579.9255741313
  0
LINE
  5
289
100
AcDbEntity
  8
0
100
AcDbLine
 62
7
  6
BYLAYER
 10
135.3560161323
 20
312.8675568848
 11
135.3560161323
 21
334.1110369421
  0
LINE
  5
28A
100
AcDbEntity
  8
0
100
AcDbLine
 62
7
  6
BYLAYER
 10
135.3560161323
 20
360.8951055419
 11
135.3560161323
 21
376.6553516274
  0
LINE
  5
28B
100
AcDbEntity
  8
0
100
AcDbLine
 62
7
  6
BYLAYER
 10
135.3560161323
 20
565.0287828242
 11
135.3560161323
 21
580.1064160005
  0
LINE
  5
28C
100
AcDbEntity
  8
0
100
AcDbLine
 62
7
  6
BYLAYER
 10
135.5024642137
 20
312.6634348079
 11
135.5024642137
 21
334.1955882766
  0
LINE
  5
28D
100
AcDbEntity
  8
0
100
AcDbLine
 62
7
  6
BYLAYER
 10
135.5024642137
 20
360.5473526306
 11
135.5024642137
 21
376.6203326158
  0
LINE
  5
28E
100
AcDbEntity
  8
0
100
AcDbLine
 62
7
  6
BYLAYER
 10
135.5024642137
 20
564.7381925664
 11
135.5024642137
 21
580.190967335
  0
LINE
  5
28F
100
AcDbEntity
  8
0
100
AcDbLine
 62
7
  6
BYLAYER
 10
136.0379627967
 20
376.7308981434
 11
136.0379627967
 21
538.612107692
  0
LINE
  5
290
100
AcDbEntity
  8
0
100
AcDbLine
 62
7
  6
BYLAYER
 10
136.2418543794
 20
376.8486143009
 11
136.2418543794
 21
538.7298238495
  0
LINE
  5
291
100
AcDbEntity
  8
0
100
AcDbLine
 62
7
  6
BYLAYER
 10
136.4570623426
 20
580.7421015319
 11
136.4570623426
 21
564.0716026271
  0
LINE
  5
292
100
AcDbEntity
  8
0
100
AcDbLine
 62
7
  6
BYLAYER
 10
136.4570623426
 20
538.8540734833
 11
136.4570623426
 21
359.9495430978
  0
LINE
  5
293
100
AcDbEntity
  8
0
100
AcDbLine
 62
7
  6
BYLAYER
 10
136.4570623426
 20
334.7467224735
 11
136.4570623426
 21
312.1123097893
  0
LINE
  5
294
100
AcDbEntity
  8
0
100
AcDbLine
 62
7
  6
BYLAYER
 10
138.5783826862
 20
312.1123148883
 11
138.5783826862
 21
335.9714600342
  0
LINE
  5
295
100
AcDbEntity
  8
0
100
AcDbLine
 62
7
  6
BYLAYER
 10
138.5783826862
 20
357.691624265
 11
138.5783826862
 21
540.078811044
  0
LINE
  5
296
100
AcDbEntity
  8
0
100
AcDbLine
 62
7
  6
BYLAYER
 10
138.5783826862
 20
561.8081019871
 11
138.5783826862
 21
581.9668390925
  0
LINE
  5
297
100
AcDbEntity
  8
0
100
AcDbLine
 62
7
  6
BYLAYER
 10
139.5311381489
 20
354.9927651485
 11
139.5311381489
 21
337.5361618961
  0
LINE
  5
298
100
AcDbEntity
  8
0
100
AcDbLine
 62
7
  6
BYLAYER
 10
139.5469461726
 20
559.1092428706
 11
139.5469461726
 21
541.6526396182
  0
LINE
  5
299
100
AcDbEntity
  8
0
100
AcDbLine
 62
7
  6
BYLAYER
 10
140.4098089735
 20
338.7608841595
 11
140.4098089735
 21
356.2174874121
  0
LINE
  5
29A
100
AcDbEntity
  8
0
100
AcDbLine
 62
7
  6
BYLAYER
 10
140.4256169972
 20
542.8773618816
 11
140.4256169972
 21
560.3339651342
  0
LINE
  5
29B
100
AcDbEntity
  8
0
100
AcDbLine
 62
7
  6
BYLAYER
 10
143.8816614653
 20
602.5832603185
 11
143.8816614653
 21
602.991490619
  0
LINE
  5
29C
100
AcDbEntity
  8
0
100
AcDbLine
 62
7
  6
BYLAYER
 10
144.2352133839
 20
585.2327923235
 11
144.2352133839
 21
314.5617866102
  0
LINE
  5
29D
100
AcDbEntity
  8
0
100
AcDbLine
 62
7
  6
BYLAYER
 10
144.5887653025
 20
603.3997347729
 11
144.5887653025
 21
602.1750229633
  0
LINE
  5
29E
100
AcDbEntity
  8
0
100
AcDbLine
 62
7
  6
BYLAYER
 10
144.6745487962
 20
314.3081419298
 11
144.6745487962
 21
585.486441228
  0
LINE
  5
29F
100
AcDbEntity
  8
0
100
AcDbLine
 62
7
  6
BYLAYER
 10
144.8816555773
 20
603.8079755274
 11
144.8816555773
 21
602.0059265098
  0
LINE
  5
2A0
100
AcDbEntity
  8
0
100
AcDbLine
 62
7
  6
BYLAYER
 10
103.5766308733
 20
307.4174425311
 11
103.9301857359
 21
307.2133221538
  0
LINE
  5
2A1
100
AcDbEntity
  8
0
100
AcDbLine
 62
7
  6
BYLAYER
 10
122.2307875608
 20
305.7320351675
 11
118.1369944152
 21
308.0955342726
  0
LINE
  5
2A2
100
AcDbEntity
  8
0
100
AcDbLine
 62
7
  6
BYLAYER
 10
127.9717456409
 20
317.0111988435
 11
127.5324339361
 21
317.6235650743
  0
LINE
  5
2A3
100
AcDbEntity
  8
0
100
AcDbLine
 62
7
  6
BYLAYER
 10
147.6243790527
 20
592.7359188999
 11
147.6243253469
 21
600.183339305
  0
LINE
  5
2A4
100
AcDbEntity
  8
0
100
AcDbLine
 62
7
  6
BYLAYER
 10
147.6850436404
 20
591.7153041558
 11
147.6850436404
 21
587.2245408616
  0
LINE
  5
2A5
100
AcDbEntity
  8
0
100
AcDbLine
 62
7
  6
BYLAYER
 10
147.8314896401
 20
303.9825097118
 11
147.8314896401
 21
298.2669927919
  0
LINE
  5
2A6
100
AcDbEntity
  8
0
100
AcDbLine
 62
7
  6
BYLAYER
 10
148.1243790527
 20
587.836905599
 11
148.1243790527
 21
592.3276688932
  0
LINE
  5
2A7
100
AcDbEntity
  8
0
100
AcDbLine
 62
7
  6
BYLAYER
 10
148.1243799149
 20
298.6752359501
 11
148.1243227601
 21
312.316459061
  0
LINE
  5
2A8
100
AcDbEntity
  8
0
100
AcDbLine
 62
7
  6
BYLAYER
 10
148.1243790527
 20
592.3276688932
 11
148.1243253469
 21
599.7750892983
  0
LINE
  5
2A9
100
AcDbEntity
  8
0
100
AcDbLine
 62
7
  6
BYLAYER
 10
118.7147085395
 20
312.7782430564
 11
118.1369944152
 21
311.5334391869
  0
LINE
  5
2AA
100
AcDbEntity
  8
0
100
AcDbLine
 62
7
  6
BYLAYER
 10
127.8229834744
 20
310.0350578398
 11
129.3213862424
 21
313.263674703
  0
LINE
  5
2AB
100
AcDbEntity
  8
0
100
AcDbLine
 62
7
  6
BYLAYER
 10
129.3213862424
 20
309.8257697888
 11
127.8229834744
 21
306.5971529256
  0
LINE
  5
2AC
100
AcDbEntity
  8
0
100
AcDbLine
 62
7
  6
BYLAYER
 10
118.1369944152
 20
311.5334391869
 11
120.0016167812
 21
310.4569233159
  0
LINE
  5
2AD
100
AcDbEntity
  8
0
100
AcDbLine
 62
7
  6
BYLAYER
 10
120.3661651948
 20
310.2464559527
 11
122.2307875608
 21
309.1699400817
  0
LINE
  5
2AE
100
AcDbEntity
  8
0
100
AcDbLine
 62
7
  6
BYLAYER
 10
129.3213862424
 20
313.263674703
 11
128.7147085395
 21
313.6139323142
  0
LINE
  5
2AF
100
AcDbEntity
  8
0
100
AcDbLine
 62
7
  6
BYLAYER
 10
127.9717456409
 20
317.0111988435
 11
128.9263437698
 21
316.4600738249
  0
LINE
  5
2B0
100
AcDbEntity
  8
0
100
AcDbLine
 62
7
  6
BYLAYER
 10
135.5024642137
 20
312.6634348079
 11
136.4570623426
 21
312.1123097893
  0
LINE
  5
2B1
100
AcDbEntity
  8
0
100
AcDbLine
 62
7
  6
BYLAYER
 10
148.1243227601
 20
312.316459061
 11
143.5281095467
 21
314.9700239654
  0
LINE
  5
2B2
100
AcDbEntity
  8
0
100
AcDbLine
 62
7
  6
BYLAYER
 10
135.042786957
 20
320.685397928
 11
135.3560161323
 21
320.5045590705
  0
LINE
  5
2B3
100
AcDbEntity
  8
0
100
AcDbLine
 62
7
  6
BYLAYER
 10
343.3141481033
 20
110.5409016708
 11
341.191407526
 21
112.7468652184
  0
LINE
  5
2B4
100
AcDbEntity
  8
0
100
AcDbLine
 62
7
  6
BYLAYER
 10
343.3141481033
 20
116.2564185907
 11
341.1914075261
 21
118.4623821383
  0
LINE
  5
2B5
100
AcDbEntity
  8
0
100
AcDbLine
 62
7
  6
BYLAYER
 10
130.0578918569
 20
353.9539585729
 11
130.5281792128
 21
353.4292192217
  0
LINE
  5
2B6
100
AcDbEntity
  8
0
100
AcDbLine
 62
7
  6
BYLAYER
 10
127.8411510174
 20
380.8871132184
 11
127.6344987914
 21
381.1751702934
  0
LINE
  5
2B7
100
AcDbEntity
  8
0
100
AcDbLine
 62
7
  6
BYLAYER
 10
95.2809649089
 20
263.7354770417
 11
94.9148914883
 21
263.2251760434
  0
LINE
  5
2B8
100
AcDbEntity
  8
0
100
AcDbLine
 62
7
  6
BYLAYER
 10
144.6745162568
 20
315.990629251
 11
144.2352133839
 21
315.3782681193
  0
LINE
  5
2B9
100
AcDbEntity
  8
0
100
AcDbLine
 62
7
  6
BYLAYER
 10
118.6814541603
 20
368.9279070593
 11
95.2810043318
 21
355.4177316966
  0
LINE
  5
2BA
100
AcDbEntity
  8
0
100
AcDbLine
 62
7
  6
BYLAYER
 10
95.2810043318
 20
354.7413389005
 11
119.6814583241
 21
368.8288634897
  0
LINE
  5
2BB
100
AcDbEntity
  8
0
100
AcDbLine
 62
7
  6
BYLAYER
 10
136.0379627967
 20
376.7308981434
 11
136.2418543794
 21
376.8486143009
  0
LINE
  5
2BC
100
AcDbEntity
  8
0
100
AcDbLine
 62
7
  6
BYLAYER
 10
136.6566800826
 20
359.0284363531
 11
95.2810043318
 21
335.1403214133
  0
LINE
  5
2BD
100
AcDbEntity
  8
0
100
AcDbLine
 62
7
  6
BYLAYER
 10
95.2810043318
 20
333.8756330502
 11
137.5531925314
 21
358.2813466039
  0
LWPOLYLINE
  5
2BE
100
AcDbEntity
  8
0
100
AcDbPolyline
 62
7
  6
BYLAYER
 90
4
 70
0
 10
138.1610191759
 20
357.8737651716
 10
138.1135581853
 20
357.9095516928
 10
138.047590173
 20
357.9696995171
 10
138.0258924475
 20
357.9928818528
  0
LINE
  5
2BF
100
AcDbEntity
  8
0
100
AcDbLine
 62
7
  6
BYLAYER
 10
137.5531925314
 20
358.2813466039
 11
137.8475456981
 21
357.9529118974
  0
LINE
  5
2C0
100
AcDbEntity
  8
0
100
AcDbLine
 62
7
  6
BYLAYER
 10
137.7315328839
 20
358.3213225423
 11
138.0258861758
 21
357.992887696
  0
LINE
  5
2C1
100
AcDbEntity
  8
0
100
AcDbLine
 62
7
  6
BYLAYER
 10
138.0515244939
 20
357.772810921
 11
95.2810043318
 21
333.0793747882
  0
LINE
  5
2C2
100
AcDbEntity
  8
0
100
AcDbLine
 62
7
  6
BYLAYER
 10
95.2810043318
 20
329.4450909766
 11
139.5311381489
 21
354.9927651485
  0
LINE
  5
2C3
100
AcDbEntity
  8
0
100
AcDbLine
 62
7
  6
BYLAYER
 10
131.7529959396
 20
349.1222995838
 11
96.3978040789
 21
328.7100918903
  0
LINE
  5
2C4
100
AcDbEntity
  8
0
100
AcDbLine
 62
7
  6
BYLAYER
 10
131.7529959396
 20
334.4252560755
 11
96.3978040789
 21
314.0130483819
  0
LINE
  5
2C5
100
AcDbEntity
  8
0
100
AcDbLine
 62
7
  6
BYLAYER
 10
139.5311381489
 20
337.5361618961
 11
95.2810043318
 21
311.9884877241
  0
LINE
  5
2C6
100
AcDbEntity
  8
0
100
AcDbLine
 62
7
  6
BYLAYER
 10
95.2810043318
 20
310.9738562017
 11
138.9098022581
 21
336.1628040711
  0
LINE
  5
2C7
100
AcDbEntity
  8
0
100
AcDbLine
 62
7
  6
BYLAYER
 10
123.1552006678
 20
367.411047519
 11
123.1551179651
 21
367.4110146157
  0
LWPOLYLINE
  5
2C8
100
AcDbEntity
  8
0
100
AcDbPolyline
 62
7
  6
BYLAYER
 90
3
 70
0
 10
123.1550608872
 20
367.4109725573
 10
123.0504024155
 20
367.376276133
 10
122.8831677652
 20
367.3403588889
  0
LINE
  5
2C9
100
AcDbEntity
  8
0
100
AcDbLine
 62
7
  6
BYLAYER
 10
129.1613794082
 20
354.7010483221
 11
112.1861576493
 21
364.5014754588
  0
LINE
  5
2CA
100
AcDbEntity
  8
0
100
AcDbLine
 62
7
  6
BYLAYER
 10
119.6814583241
 20
368.8288634897
 11
122.1715839575
 21
367.391221309
  0
LINE
  5
2CB
100
AcDbEntity
  8
0
100
AcDbLine
 62
7
  6
BYLAYER
 10
133.697497995
 20
360.736882278
 11
136.6566800826
 21
359.0284363531
  0
LINE
  5
2CC
100
AcDbEntity
  8
0
100
AcDbLine
 62
7
  6
BYLAYER
 10
119.8814549304
 20
368.8486746437
 11
122.3715933583
 21
367.411025076
  0
LINE
  5
2CD
100
AcDbEntity
  8
0
100
AcDbLine
 62
7
  6
BYLAYER
 10
133.8974818782
 20
360.7567007773
 11
136.8566766893
 21
359.048247507
  0
LINE
  5
2CE
100
AcDbEntity
  8
0
100
AcDbLine
 62
7
  6
BYLAYER
 10
122.9443361712
 20
367.2716753078
 11
133.4904293375
 21
361.1830233206
  0
LINE
  5
2CF
100
AcDbEntity
  8
0
100
AcDbLine
 62
7
  6
BYLAYER
 10
134.9146135758
 20
361.3753635423
 11
124.5201006162
 21
367.3765026338
  0
LINE
  5
2D0
100
AcDbEntity
  8
0
100
AcDbLine
 62
7
  6
BYLAYER
 10
95.2810043318
 20
302.6279889034
 11
103.5766308733
 21
307.4174425311
  0
LINE
  5
2D1
100
AcDbEntity
  8
0
100
AcDbLine
 62
7
  6
BYLAYER
 10
103.9301857359
 20
307.2133221538
 11
126.9110604454
 21
320.4812571547
  0
LINE
  5
2D2
100
AcDbEntity
  8
0
100
AcDbLine
 62
7
  6
BYLAYER
 10
130.133447607
 20
318.2592506057
 11
134.3356801758
 21
320.6853962283
  0
LINE
  5
2D3
100
AcDbEntity
  8
0
100
AcDbLine
 62
7
  6
BYLAYER
 10
129.633450551
 20
316.4600755246
 11
129.9870024696
 21
316.6641976015
  0
LINE
  5
2D4
100
AcDbEntity
  8
0
100
AcDbLine
 62
7
  6
BYLAYER
 10
138.5783826862
 20
312.1123148883
 11
144.2352133839
 21
315.3782681192
  0
LINE
  5
2D5
100
AcDbEntity
  8
0
100
AcDbLine
 62
7
  6
BYLAYER
 10
127.8229834744
 20
306.5971529256
 11
122.2307875608
 21
305.7320351675
  0
LINE
  5
2D6
100
AcDbEntity
  8
0
100
AcDbLine
 62
7
  6
BYLAYER
 10
122.2307875608
 20
309.1699400817
 11
127.8229834744
 21
310.0350578398
  0
LWPOLYLINE
  5
2D7
100
AcDbEntity
  8
0
100
AcDbPolyline
 62
7
  6
BYLAYER
 90
4
 70
0
 10
138.562456962
 20
357.691624265
 10
138.4289646668
 20
357.7290181919
 10
138.3248956961
 20
357.7753818109
 10
138.1610149102
 20
357.8737638112
  0
LINE
  5
2D8
100
AcDbEntity
  8
0
100
AcDbLine
 62
7
  6
BYLAYER
 10
127.8411510174
 20
380.8871132184
 11
135.0400937071
 21
376.7308957448
  0
LINE
  5
2D9
100
AcDbEntity
  8
0
100
AcDbLine
 62
7
  6
BYLAYER
 10
94.0370947827
 20
550.5357274809
 11
93.6835399201
 21
551.1480990668
  0
LINE
  5
2DA
100
AcDbEntity
  8
0
100
AcDbLine
 62
7
  6
BYLAYER
 10
94.5613366257
 20
551.6548922059
 11
94.9148914883
 21
551.0425206201
  0
LINE
  5
2DB
100
AcDbEntity
  8
0
100
AcDbLine
 62
7
  6
BYLAYER
 10
94.3845488905
 20
552.7775497756
 11
94.0309940279
 21
553.3899213614
  0
LINE
  5
2DC
100
AcDbEntity
  8
0
100
AcDbLine
 62
7
  6
BYLAYER
 10
94.6523117847
 20
553.7486371943
 11
95.0058666473
 21
553.1362656085
  0
LINE
  5
2DD
100
AcDbEntity
  8
0
100
AcDbLine
 62
7
  6
BYLAYER
 10
95.8844837661
 20
561.8084154883
 11
95.5309289036
 21
562.4207870742
  0
LINE
  5
2DE
100
AcDbEntity
  8
0
100
AcDbLine
 62
7
  6
BYLAYER
 10
95.445145767
 20
273.7374205136
 11
147.8314896401
 21
303.9825097118
  0
LINE
  5
2DF
100
AcDbEntity
  8
0
100
AcDbLine
 62
7
  6
BYLAYER
 10
147.8314896401
 20
298.2669927919
 11
95.445145767
 21
268.0219035937
  0
LINE
  5
2E0
100
AcDbEntity
  8
0
100
AcDbLine
 62
7
  6
BYLAYER
 10
341.8790534467
 20
407.8608648566
 11
342.7568501522
 21
408.3676579957
  0
LINE
  5
2E1
100
AcDbEntity
  8
0
100
AcDbLine
 62
7
  6
BYLAYER
 10
341.8790534467
 20
407.8608648566
 11
341.5254985841
 21
407.6567340253
  0
LINE
  5
2E2
100
AcDbEntity
  8
0
100
AcDbLine
 62
7
  6
BYLAYER
 10
345.7620561802
 20
408.0614833787
 11
346.383373937
 21
408.4201992115
  0
LINE
  5
2E3
100
AcDbEntity
  8
0
100
AcDbLine
 62
7
  6
BYLAYER
 10
94.0370947827
 20
262.7183829042
 11
94.9148914883
 21
263.2251760433
  0
LINE
  5
2E4
100
AcDbEntity
  8
0
100
AcDbLine
 62
7
  6
BYLAYER
 10
138.5628439476
 20
357.6915640674
 11
138.562456962
 21
357.691624265
  0
LINE
  5
2E5
100
AcDbEntity
  8
0
100
AcDbLine
 62
7
  6
BYLAYER
 10
94.3845518345
 20
552.3693073214
 11
94.2381037531
 21
552.5734293984
  0
LINE
  5
2E6
100
AcDbEntity
  8
0
100
AcDbLine
 62
7
  6
BYLAYER
 10
341.1914075261
 20
118.4623821383
 11
340.9400281189
 21
119.0231505022
  0
LINE
  5
2E7
100
AcDbEntity
  8
0
100
AcDbLine
 62
7
  6
BYLAYER
 10
94.9148914883
 20
257.5096591234
 11
94.0370947827
 21
257.0028659843
  0
LINE
  5
2E8
100
AcDbEntity
  8
0
100
AcDbLine
 62
7
  6
BYLAYER
 10
361.4041855588
 20
408.927534001
 11
413.204745433
 21
438.8344226685
  0
LINE
  5
2E9
100
AcDbEntity
  8
0
100
AcDbLine
 62
7
  6
BYLAYER
 10
351.9893273627
 20
401.6547545128
 11
351.8071682927
 21
401.5495855525
  0
LINE
  5
2EA
100
AcDbEntity
  8
0
100
AcDbLine
 62
7
  6
BYLAYER
 10
432.7359841877
 20
436.6386642325
 11
433.443088025
 21
437.0469083864
  0
LINE
  5
2EB
100
AcDbEntity
  8
0
100
AcDbLine
 62
7
  6
BYLAYER
 10
341.191407526
 20
406.2794841764
 11
341.6284851531
 21
406.82792747
  0
LINE
  5
2EC
100
AcDbEntity
  8
0
100
AcDbLine
 62
7
  6
BYLAYER
 10
343.7512257304
 20
404.6219639224
 11
343.3141481033
 21
404.0735206289
  0
LINE
  5
2ED
100
AcDbEntity
  8
0
100
AcDbLine
 62
7
  6
BYLAYER
 10
445.8175229349
 20
427.8614829113
 11
376.5213468879
 21
387.8535558319
  0
LINE
  5
2EE
100
AcDbEntity
  8
0
100
AcDbLine
 62
7
  6
BYLAYER
 10
446.1710777975
 20
427.2491113254
 11
376.8749017505
 21
387.241184246
  0
LINE
  5
2EF
100
AcDbEntity
  8
0
100
AcDbLine
 62
7
  6
BYLAYER
 10
446.1710777975
 20
425.2078552826
 11
376.8749017505
 21
385.1999282032
  0
LWPOLYLINE
  5
2F0
100
AcDbEntity
  8
0
100
AcDbPolyline
 62
7
  6
BYLAYER
 90
3
 70
0
 10
138.7297234515
 20
357.6933967844
 10
138.681714108
 20
357.684957786
 10
138.5628474418
 20
357.6915548836
  0
LINE
  5
2F1
100
AcDbEntity
  8
0
100
AcDbLine
 62
7
  6
BYLAYER
 10
122.8833049377
 20
367.3403883496
 11
122.883185356
 21
367.3403708873
  0
LINE
  5
2F2
100
AcDbEntity
  8
0
100
AcDbLine
 62
7
  6
BYLAYER
 10
147.3314887778
 20
592.3276757417
 11
147.6850436404
 21
591.7153041558
  0
LINE
  5
2F3
100
AcDbEntity
  8
0
100
AcDbLine
 62
7
  6
BYLAYER
 10
143.8816614653
 20
602.991490619
 11
143.5281066027
 21
603.6038622048
  0
LINE
  5
2F4
100
AcDbEntity
  8
0
100
AcDbLine
 62
7
  6
BYLAYER
 10
144.2352104399
 20
604.0121063587
 11
144.5887653025
 21
603.3997347729
  0
LINE
  5
2F5
100
AcDbEntity
  8
0
100
AcDbLine
 62
7
  6
BYLAYER
 10
344.984662273
 20
402.7949207891
 11
345.3382141916
 21
403.4072940746
  0
LINE
  5
2F6
100
AcDbEntity
  8
0
100
AcDbLine
 62
7
  6
BYLAYER
 10
359.9899744353
 20
408.5893314791
 11
347.0904794988
 21
408.5893004725
  0
LINE
  5
2F7
100
AcDbEntity
  8
0
100
AcDbLine
 62
7
  6
BYLAYER
 10
94.9452020596
 20
554.1568803526
 11
95.4452020595
 21
553.7486303459
  0
LINE
  5
2F8
100
AcDbEntity
  8
0
100
AcDbLine
 62
7
  6
BYLAYER
 10
95.4451483538
 20
561.1960507509
 11
94.9451483538
 21
561.6043007576
  0
LINE
  5
2F9
100
AcDbEntity
  8
0
100
AcDbLine
 62
7
  6
BYLAYER
 10
130.0736998806
 20
558.0704362951
 11
130.5439872365
 21
557.5456969438
  0
LINE
  5
2FA
100
AcDbEntity
  8
0
100
AcDbLine
 62
7
  6
BYLAYER
 10
137.5690005551
 20
562.397824326
 11
137.8633537219
 21
562.0693896195
  0
LINE
  5
2FB
100
AcDbEntity
  8
0
100
AcDbLine
 62
7
  6
BYLAYER
 10
137.7473409076
 20
562.4378002644
 11
138.0416941995
 21
562.1093654181
  0
LINE
  5
2FC
100
AcDbEntity
  8
0
100
AcDbLine
 62
7
  6
BYLAYER
 10
143.8816644092
 20
602.5832481648
 11
143.7352163278
 21
602.7873702418
  0
LINE
  5
2FD
100
AcDbEntity
  8
0
100
AcDbLine
 62
7
  6
BYLAYER
 10
340.9397180344
 20
113.3076335582
 11
340.9397180344
 21
406.8402525162
  0
LINE
  5
2FE
100
AcDbEntity
  8
0
100
AcDbLine
 62
7
  6
BYLAYER
 10
341.1914075261
 20
112.7468652184
 11
341.191407526
 21
406.2794841764
  0
LINE
  5
2FF
100
AcDbEntity
  8
0
100
AcDbLine
 62
7
  6
BYLAYER
 10
372.2787062008
 20
387.8535456338
 11
371.9251542822
 21
387.2411723483
  0
LINE
  5
300
100
AcDbEntity
  8
0
100
AcDbLine
 62
7
  6
BYLAYER
 10
426.8113459313
 20
439.003554936
 11
413.9118509948
 21
439.0035239294
  0
LINE
  5
301
100
AcDbEntity
  8
0
100
AcDbLine
 62
7
  6
BYLAYER
 10
58.6755460422
 20
566.045057393
 11
85.6160380514
 21
550.4913089522
  0
LINE
  5
302
100
AcDbEntity
  8
0
100
AcDbLine
 62
7
  6
BYLAYER
 10
371.9251542822
 20
385.1999163055
 11
344.984662273
 21
400.7536647463
  0
LINE
  5
303
100
AcDbEntity
  8
0
100
AcDbLine
 62
7
  6
BYLAYER
 10
343.3141481033
 20
404.0735206289
 11
343.3141481033
 21
110.5409016708
  0
LINE
  5
304
100
AcDbEntity
  8
0
100
AcDbLine
 62
7
  6
BYLAYER
 10
344.9846622731
 20
109.262301831
 11
344.984662273
 21
402.7949207891
  0
LINE
  5
305
100
AcDbEntity
  8
0
100
AcDbLine
 62
7
  6
BYLAYER
 10
351.8071682927
 20
401.2099338173
 11
351.8071682927
 21
401.5495855525
  0
LINE
  5
306
100
AcDbEntity
  8
0
100
AcDbLine
 62
7
  6
BYLAYER
 10
352.6563730565
 20
401.4535677794
 11
352.6563730565
 21
401.3024731525
  0
LINE
  5
307
100
AcDbEntity
  8
0
100
AcDbLine
 62
7
  6
BYLAYER
 10
58.6755460422
 20
568.0865559744
 11
85.6160380514
 21
552.5328075336
  0
LINE
  5
308
100
AcDbEntity
  8
0
100
AcDbLine
 62
7
  6
BYLAYER
 10
371.9251542822
 20
387.2411723483
 11
344.984662273
 21
402.7949207891
  0
LINE
  5
309
100
AcDbEntity
  8
0
100
AcDbLine
 62
7
  6
BYLAYER
 10
59.0290979608
 20
568.6989292599
 11
85.96958997
 21
553.1451808191
  0
LINE
  5
30A
100
AcDbEntity
  8
0
100
AcDbLine
 62
7
  6
BYLAYER
 10
372.2787062008
 20
387.8535456338
 11
345.3382141916
 21
403.4072940746
  0
LINE
  5
30B
100
AcDbEntity
  8
0
100
AcDbLine
 62
7
  6
BYLAYER
 10
94.9148841283
 20
552.0631267556
 11
94.5613322097
 21
552.2672558872
  0
LINE
  5
30C
100
AcDbEntity
  8
0
100
AcDbLine
 62
7
  6
BYLAYER
 10
94.5613322098
 20
552.2672558872
 11
94.0309999159
 21
552.5734364531
  0
LINE
  5
30D
100
AcDbEntity
  8
0
100
AcDbLine
 62
7
  6
BYLAYER
 10
343.817510324
 20
408.3676605452
 11
344.3478426179
 21
408.0614799793
  0
LWPOLYLINE
  5
30E
100
AcDbEntity
  8
0
100
AcDbPolyline
 62
7
  6
BYLAYER
 90
4
 70
0
 10
138.1768271996
 20
561.9902428937
 10
138.129366209
 20
562.026029415
 10
138.0633981966
 20
562.0861772393
 10
138.0417004712
 20
562.1093595749
  0
LINE
  5
30F
100
AcDbEntity
  8
0
100
AcDbLine
 62
7
  6
BYLAYER
 10
343.3141481032
 20
402.0322645861
 11
341.191407526
 21
404.2382281336
  0
LINE
  5
310
100
AcDbEntity
  8
0
100
AcDbLine
 62
7
  6
BYLAYER
 10
343.3141481033
 20
404.0735206289
 11
341.191407526
 21
406.2794841764
  0
LINE
  5
311
100
AcDbEntity
  8
0
100
AcDbLine
 62
7
  6
BYLAYER
 10
341.6284851531
 20
406.82792747
 11
343.7512257304
 21
404.6219639223
  0
LINE
  5
312
100
AcDbEntity
  8
0
100
AcDbLine
 62
7
  6
BYLAYER
 10
340.9400281189
 20
404.7989964976
 11
341.1914075261
 21
404.2382281336
  0
LINE
  5
313
100
AcDbEntity
  8
0
100
AcDbLine
 62
7
  6
BYLAYER
 10
371.9251542822
 20
387.2411723483
 11
371.9251542823
 21
93.7085533902
  0
LINE
  5
314
100
AcDbEntity
  8
0
100
AcDbLine
 62
7
  6
BYLAYER
 10
373.6500064162
 20
387.9387027561
 11
373.6500051422
 21
388.3719106777
  0
LINE
  5
315
100
AcDbEntity
  8
0
100
AcDbLine
 62
7
  6
BYLAYER
 10
375.150005317
 20
388.3476639218
 11
375.1500064161
 21
387.954762922
  0
LINE
  5
316
100
AcDbEntity
  8
0
100
AcDbLine
 62
7
  6
BYLAYER
 10
376.8749017505
 20
93.7085652879
 11
376.8749017505
 21
387.241184246
  0
LINE
  5
317
100
AcDbEntity
  8
0
100
AcDbLine
 62
7
  6
BYLAYER
 10
113.8296444145
 20
567.6782336808
 11
129.177187432
 21
558.8175260442
  0
LINE
  5
318
100
AcDbEntity
  8
0
100
AcDbLine
 62
7
  6
BYLAYER
 10
121.3249450891
 20
572.0056217119
 11
122.1873919813
 21
571.5076990311
  0
LINE
  5
319
100
AcDbEntity
  8
0
100
AcDbLine
 62
7
  6
BYLAYER
 10
133.7133060187
 20
564.8533600001
 11
136.6724881064
 21
563.1449140753
  0
LINE
  5
31A
100
AcDbEntity
  8
0
100
AcDbLine
 62
7
  6
BYLAYER
 10
121.4420997673
 20
572.0732605931
 11
122.387401382
 21
571.5275027981
  0
LINE
  5
31B
100
AcDbEntity
  8
0
100
AcDbLine
 62
7
  6
BYLAYER
 10
133.9132899019
 20
564.8731784994
 11
136.872484713
 21
563.1647252291
  0
LINE
  5
31C
100
AcDbEntity
  8
0
100
AcDbLine
 62
7
  6
BYLAYER
 10
122.9601441949
 20
571.3881530299
 11
133.5062373612
 21
565.2995010427
  0
LINE
  5
31D
100
AcDbEntity
  8
0
100
AcDbLine
 62
7
  6
BYLAYER
 10
134.9304215996
 20
565.4918412645
 11
124.5359086399
 21
571.4929803559
  0
LINE
  5
31E
100
AcDbEntity
  8
0
100
AcDbLine
 62
7
  6
BYLAYER
 10
147.6243790527
 20
592.7359188999
 11
148.1243790527
 21
592.3276688932
  0
LINE
  5
31F
100
AcDbEntity
  8
0
100
AcDbLine
 62
7
  6
BYLAYER
 10
148.1243253469
 20
599.7750892983
 11
147.6243253469
 21
600.183339305
  0
LINE
  5
320
100
AcDbEntity
  8
0
100
AcDbLine
 62
7
  6
BYLAYER
 10
376.8749017505
 20
387.241184246
 11
376.5213468879
 21
387.8535558319
  0
LINE
  5
321
100
AcDbEntity
  8
0
100
AcDbLine
 62
7
  6
BYLAYER
 10
87.8306835064
 20
549.5268615812
 11
91.651596749
 21
548.3013326267
  0
LINE
  5
322
100
AcDbEntity
  8
0
100
AcDbLine
 62
7
  6
BYLAYER
 10
91.6515967489
 20
548.3015751652
 11
87.8306835065
 21
549.5271041197
  0
LINE
  5
323
100
AcDbEntity
  8
0
100
AcDbLine
 62
7
  6
BYLAYER
 10
87.8306835064
 20
551.5683601626
 11
91.651596749
 21
550.3428312081
  0
LINE
  5
324
100
AcDbEntity
  8
0
100
AcDbLine
 62
7
  6
BYLAYER
 10
88.0735031522
 20
552.2289558167
 11
91.8944163949
 21
551.0034268621
  0
LWPOLYLINE
  5
325
100
AcDbEntity
  8
0
100
AcDbPolyline
 62
7
  6
BYLAYER
 90
4
 70
0
 10
138.5782649857
 20
561.8081019871
 10
138.4447726905
 20
561.845495914
 10
138.3407037198
 20
561.891859533
 10
138.1768229339
 20
561.9902415333
  0
LINE
  5
326
100
AcDbEntity
  8
0
100
AcDbLine
 62
7
  6
BYLAYER
 10
147.6849811028
 20
600.3874519236
 11
147.3314291841
 21
600.5915810552
  0
LINE
  5
327
100
AcDbEntity
  8
0
100
AcDbLine
 62
7
  6
BYLAYER
 10
147.3314291842
 20
600.5915810552
 11
143.5281124906
 21
602.7873772965
  0
LINE
  5
328
100
AcDbEntity
  8
0
100
AcDbLine
 62
7
  6
BYLAYER
 10
427.5184539319
 20
438.8344570744
 11
431.3217706254
 21
436.6386608332
  0
LINE
  5
329
100
AcDbEntity
  8
0
100
AcDbLine
 62
7
  6
BYLAYER
 10
144.5887594145
 20
604.2162196813
 11
144.2352074959
 21
604.4203488129
  0
LINE
  5
32A
100
AcDbEntity
  8
0
100
AcDbLine
 62
7
  6
BYLAYER
 10
144.235207496
 20
604.4203488129
 11
132.567897031
 21
611.1563212625
  0
LINE
  5
32B
100
AcDbEntity
  8
0
100
AcDbLine
 62
7
  6
BYLAYER
 10
434.1501948062
 20
437.046910086
 11
445.8175052711
 21
430.3109376365
  0
LINE
  5
32C
100
AcDbEntity
  8
0
100
AcDbLine
 62
7
  6
BYLAYER
 10
446.1710571897
 20
430.1068085048
 11
445.8175052711
 21
430.3109376365
  0
LINE
  5
32D
100
AcDbEntity
  8
0
100
AcDbLine
 62
7
  6
BYLAYER
 10
446.1710777975
 20
427.2491113254
 11
446.1710777975
 21
133.7164923673
  0
LINE
  5
32E
100
AcDbEntity
  8
0
100
AcDbLine
 62
7
  6
BYLAYER
 10
447.1961937595
 20
135.1453350082
 11
447.1961937595
 21
428.6779539663
  0
LINE
  5
32F
100
AcDbEntity
  8
0
100
AcDbLine
 62
7
  6
BYLAYER
 10
138.5786519713
 20
561.8080417896
 11
138.5782649857
 21
561.8081019871
  0
LINE
  5
330
100
AcDbEntity
  8
0
100
AcDbLine
 62
7
  6
BYLAYER
 10
445.8175229349
 20
427.8614829113
 11
446.1710777975
 21
427.2491113254
  0
LWPOLYLINE
  5
331
100
AcDbEntity
  8
0
100
AcDbPolyline
 62
7
  6
BYLAYER
 90
3
 70
0
 10
138.7455314753
 20
561.8098745066
 10
138.6975221317
 20
561.8014355082
 10
138.5786554655
 20
561.8080326057
  0
LINE
  5
332
100
AcDbEntity
  8
0
100
AcDbLine
 62
7
  6
BYLAYER
 10
122.8991129613
 20
571.4568660717
 11
122.8989933797
 21
571.4568486094
  0
LINE
  5
333
100
AcDbEntity
  8
0
100
AcDbLine
 62
7
  6
BYLAYER
 10
446.1710777975
 20
139.4320092873
 11
376.8749017506
 21
99.4240822078
  0
LINE
  5
334
100
AcDbEntity
  8
0
100
AcDbLine
 62
7
  6
BYLAYER
 10
446.1710777975
 20
133.7164923673
 11
376.8749017505
 21
93.7085652879
  0
ARC
  5
335
100
AcDbEntity
  8
0
100
AcDbCircle
 62
7
  6
BYLAYER
 10
91.3511066947
 20
329.6214624593
 40
5.1119930889
100
AcDbArc
 50
25.0018116695
 51
27.0958682967
  0
ARC
  5
336
100
AcDbEntity
  8
0
100
AcDbCircle
 62
7
  6
BYLAYER
 10
91.4235539875
 20
329.655018485
 40
5.0321521648
100
AcDbArc
 50
22.6787391696
 51
25.0041797861
  0
ARC
  5
337
100
AcDbEntity
  8
0
100
AcDbCircle
 62
7
  6
BYLAYER
 10
91.5591756341
 20
329.7114768924
 40
4.8852483101
100
AcDbArc
 50
20.3743414899
 51
22.6810575055
  0
ARC
  5
338
100
AcDbEntity
  8
0
100
AcDbCircle
 62
7
  6
BYLAYER
 10
91.7435295657
 20
329.7798605177
 40
4.6886200161
100
AcDbArc
 50
18.1571060896
 51
20.3752926089
  0
ARC
  5
339
100
AcDbEntity
  8
0
100
AcDbCircle
 62
7
  6
BYLAYER
 10
123.7291903288
 20
313.075815039
 40
4.4217881419
100
AcDbArc
 50
18.9194191999
 51
156.2269881875
  0
ARC
  5
33A
100
AcDbEntity
  8
0
100
AcDbCircle
 62
7
  6
BYLAYER
 10
92.6253050804
 20
265.7911876332
 40
3.4109177432
100
AcDbArc
 50
273.7890569457
 51
275.4570201131
  0
ARC
  5
33B
100
AcDbEntity
  8
0
100
AcDbCircle
 62
7
  6
BYLAYER
 10
137.4098089735
 20
338.7608841595
 40
3.0
100
AcDbArc
 50
299.9998519061
 51
359.9999999955
  0
ARC
  5
33C
100
AcDbEntity
  8
0
100
AcDbCircle
 62
7
  6
BYLAYER
 10
95.0316851032
 20
312.3270705668
 40
1.3191107381
100
AcDbArc
 50
328.3980998911
 51
332.2144217104
  0
ARC
  5
33D
100
AcDbEntity
  8
0
100
AcDbCircle
 62
7
  6
BYLAYER
 10
58.8367253549
 20
281.6991624036
 40
1.1862906615
100
AcDbArc
 50
180.0529574789
 51
191.9736814149
  0
ARC
  5
33E
100
AcDbEntity
  8
0
100
AcDbCircle
 62
7
  6
BYLAYER
 10
91.3669147181
 20
533.7379401812
 40
5.1119930893
100
AcDbArc
 50
25.0018116738
 51
27.0958682949
  0
ARC
  5
33F
100
AcDbEntity
  8
0
100
AcDbCircle
 62
7
  6
BYLAYER
 10
91.4393620111
 20
533.7714962071
 40
5.0321521649
100
AcDbArc
 50
22.6787391704
 51
25.0041797905
  0
ARC
  5
340
100
AcDbEntity
  8
0
100
AcDbCircle
 62
7
  6
BYLAYER
 10
91.5749836584
 20
533.8279546147
 40
4.8852483095
100
AcDbArc
 50
20.3743414871
 51
22.6810575064
  0
ARC
  5
341
100
AcDbEntity
  8
0
100
AcDbCircle
 62
7
  6
BYLAYER
 10
91.7593375899
 20
533.89633824
 40
4.6886200157
100
AcDbArc
 50
18.1571060905
 51
20.3752926062
  0
ARC
  5
342
100
AcDbEntity
  8
0
100
AcDbCircle
 62
7
  6
BYLAYER
 10
92.6275122615
 20
551.5397330916
 40
3.3835465437
100
AcDbArc
 50
273.7609159951
 51
275.4849915813
  0
ARC
  5
343
100
AcDbEntity
  8
0
100
AcDbCircle
 62
7
  6
BYLAYER
 10
85.0566182379
 20
553.5807239208
 40
1.5700420436
100
AcDbArc
 50
119.9454715052
 51
124.9589851332
  0
ARC
  5
344
100
AcDbEntity
  8
0
100
AcDbCircle
 62
7
  6
BYLAYER
 10
62.0755521707
 20
566.8485484427
 40
1.5700420437
100
AcDbArc
 50
119.9454715052
 51
124.9589851331
  0
ARC
  5
345
100
AcDbEntity
  8
0
100
AcDbCircle
 62
7
  6
BYLAYER
 10
95.047493127
 20
516.4435482889
 40
1.3191107381
100
AcDbArc
 50
328.3980998815
 51
332.2144217159
  0
ARC
  5
346
100
AcDbEntity
  8
0
100
AcDbCircle
 62
7
  6
BYLAYER
 10
58.8413308861
 20
567.4749656311
 40
1.1907260446
100
AcDbArc
 50
180.0507022287
 51
191.9120909733
  0
ARC
  5
347
100
AcDbEntity
  8
0
100
AcDbCircle
 62
7
  6
BYLAYER
 10
134.2614289396
 20
356.2748944898
 40
4.1902017425
100
AcDbArc
 50
23.4361451174
 51
24.4732704011
  0
ARC
  5
348
100
AcDbEntity
  8
0
100
AcDbCircle
 62
7
  6
BYLAYER
 10
134.3084271393
 20
356.2952097349
 40
4.1390007942
100
AcDbArc
 50
22.1814901839
 51
23.4368805333
  0
ARC
  5
349
100
AcDbEntity
  8
0
100
AcDbCircle
 62
7
  6
BYLAYER
 10
135.4413393857
 20
356.869012896
 40
3.2156373023
100
AcDbArc
 50
14.6455125451
 51
15.003688903
  0
ARC
  5
34A
100
AcDbEntity
  8
0
100
AcDbCircle
 62
7
  6
BYLAYER
 10
137.4098089735
 20
356.2174874121
 40
3.0
100
AcDbArc
 50
0.0000000045
 51
8.9919485885
  0
ARC
  5
34B
100
AcDbEntity
  8
0
100
AcDbCircle
 62
7
  6
BYLAYER
 10
135.1887343864
 20
356.4870679696
 40
2.9348624888
100
AcDbArc
 50
57.0034726775
 51
59.9884022332
  0
ARC
  5
34C
100
AcDbEntity
  8
0
100
AcDbCircle
 62
7
  6
BYLAYER
 10
122.4928808732
 20
369.6174838275
 40
2.3888568632
100
AcDbArc
 50
280.8935385719
 51
286.7180034997
  0
ARC
  5
34D
100
AcDbEntity
  8
0
100
AcDbCircle
 62
7
  6
BYLAYER
 10
133.3743674277
 20
359.6854912036
 40
2.1613384474
100
AcDbArc
 50
3.6772276937
 51
4.8788853744
  0
ARC
  5
34E
100
AcDbEntity
  8
0
100
AcDbCircle
 62
7
  6
BYLAYER
 10
111.2766148549
 20
362.9267755886
 40
1.8185015195
100
AcDbArc
 50
59.9893748263
 51
62.2131249314
  0
ARC
  5
34F
100
AcDbEntity
  8
0
100
AcDbCircle
 62
7
  6
BYLAYER
 10
124.0188236427
 20
366.5080244847
 40
1.0027619673
100
AcDbArc
 50
60.0068840498
 51
66.2861006229
  0
ARC
  5
350
100
AcDbEntity
  8
0
100
AcDbCircle
 62
7
  6
BYLAYER
 10
120.2520606288
 20
368.0684809581
 40
0.8476639466
100
AcDbArc
 50
110.5913846528
 51
114.4645226723
  0
ARC
  5
351
100
AcDbEntity
  8
0
100
AcDbCircle
 62
7
  6
BYLAYER
 10
135.808474582
 20
359.0871843586
 40
0.8476639466
100
AcDbArc
 50
110.5913846528
 51
114.4645226722
  0
ARC
  5
352
100
AcDbEntity
  8
0
100
AcDbCircle
 62
7
  6
BYLAYER
 10
120.2481112644
 20
368.0773990794
 40
0.8379109698
100
AcDbArc
 50
114.471256467
 51
115.4226022902
  0
ARC
  5
353
100
AcDbEntity
  8
0
100
AcDbCircle
 62
7
  6
BYLAYER
 10
135.8034711877
 20
359.0983881243
 40
0.835394029
100
AcDbArc
 50
114.4703958703
 51
120.0005692665
  0
ARC
  5
354
100
AcDbEntity
  8
0
100
AcDbCircle
 62
7
  6
BYLAYER
 10
138.7896049346
 20
357.5189271077
 40
0.1844543568
100
AcDbArc
 50
105.2837861999
 51
108.9333065645
  0
ARC
  5
355
100
AcDbEntity
  8
0
100
AcDbCircle
 62
7
  6
BYLAYER
 10
134.0175770417
 20
360.7312680402
 40
0.1552229585
100
AcDbArc
 50
155.0872078807
 51
159.4790534494
  0
ARC
  5
356
100
AcDbEntity
  8
0
100
AcDbCircle
 62
7
  6
BYLAYER
 10
134.011218292
 20
360.7336692745
 40
0.1484259581
100
AcDbArc
 50
159.4866980045
 51
163.3360403841
  0
ARC
  5
357
100
AcDbEntity
  8
0
100
AcDbCircle
 62
7
  6
BYLAYER
 10
134.2772369636
 20
560.391372212
 40
4.1902017422
100
AcDbArc
 50
23.4361451174
 51
24.4732704011
  0
ARC
  5
358
100
AcDbEntity
  8
0
100
AcDbCircle
 62
7
  6
BYLAYER
 10
134.3242351628
 20
560.4116874569
 40
4.1390007945
100
AcDbArc
 50
22.181490184
 51
23.4368805332
  0
ARC
  5
359
100
AcDbEntity
  8
0
100
AcDbCircle
 62
7
  6
BYLAYER
 10
135.4571474074
 20
560.9854906176
 40
3.2156373043
100
AcDbArc
 50
14.645512545
 51
15.0036889029
  0
ARC
  5
35A
100
AcDbEntity
  8
0
100
AcDbCircle
 62
7
  6
BYLAYER
 10
137.4256169972
 20
542.8773618816
 40
3.0
100
AcDbArc
 50
299.9998519061
 51
359.9999999955
  0
ARC
  5
35B
100
AcDbEntity
  8
0
100
AcDbCircle
 62
7
  6
BYLAYER
 10
137.4256169972
 20
560.3339651342
 40
3.0
100
AcDbArc
 50
0.0000000045
 51
8.9919485885
  0
ARC
  5
35C
100
AcDbEntity
  8
0
100
AcDbCircle
 62
7
  6
BYLAYER
 10
135.20454241
 20
560.6035456915
 40
2.934862489
100
AcDbArc
 50
57.0034726775
 51
59.9884022331
  0
ARC
  5
35D
100
AcDbEntity
  8
0
100
AcDbCircle
 62
7
  6
BYLAYER
 10
122.5086888977
 20
573.7339615464
 40
2.3888568599
100
AcDbArc
 50
280.8935385677
 51
286.7180035043
  0
ARC
  5
35E
100
AcDbEntity
  8
0
100
AcDbCircle
 62
7
  6
BYLAYER
 10
133.3901754519
 20
563.8019689258
 40
2.161338447
100
AcDbArc
 50
3.6772276935
 51
4.8788853745
  0
ARC
  5
35F
100
AcDbEntity
  8
0
100
AcDbCircle
 62
7
  6
BYLAYER
 10
129.9575205432
 20
606.0399872144
 40
1.5700420436
100
AcDbArc
 50
119.9454715052
 51
124.9589851331
  0
ARC
  5
360
100
AcDbEntity
  8
0
100
AcDbCircle
 62
7
  6
BYLAYER
 10
130.8537020613
 20
606.1437852884
 40
1.3087885923
100
AcDbArc
 50
55.6801281525
 51
59.9707689607
  0
ARC
  5
361
100
AcDbEntity
  8
0
100
AcDbCircle
 62
7
  6
BYLAYER
 10
124.0346316664
 20
570.6245022068
 40
1.0027619673
100
AcDbArc
 50
60.0068840498
 51
66.2861006229
  0
ARC
  5
362
100
AcDbEntity
  8
0
100
AcDbCircle
 62
7
  6
BYLAYER
 10
135.8242826058
 20
563.2036620806
 40
0.8476639467
100
AcDbArc
 50
110.591384653
 51
114.464522672
  0
ARC
  5
363
100
AcDbEntity
  8
0
100
AcDbCircle
 62
7
  6
BYLAYER
 10
135.8192792115
 20
563.2148658464
 40
0.835394029
100
AcDbArc
 50
114.4703958704
 51
120.0005692664
  0
ARC
  5
364
100
AcDbEntity
  8
0
100
AcDbCircle
 62
7
  6
BYLAYER
 10
138.8054129583
 20
561.6354048298
 40
0.1844543568
100
AcDbArc
 50
105.2837862019
 51
108.9333065648
  0
ARC
  5
365
100
AcDbEntity
  8
0
100
AcDbCircle
 62
7
  6
BYLAYER
 10
134.0333850654
 20
564.8477457623
 40
0.1552229585
100
AcDbArc
 50
155.0872078812
 51
159.4790534494
  0
ARC
  5
366
100
AcDbEntity
  8
0
100
AcDbCircle
 62
7
  6
BYLAYER
 10
134.0270263158
 20
564.8501469966
 40
0.1484259582
100
AcDbArc
 50
159.4866980048
 51
163.3360403831
  0
ARC
  5
367
100
AcDbEntity
  8
0
100
AcDbCircle
 62
7
  6
BYLAYER
 10
374.4000177574
 20
104.8647837283
 40
6.0325839085
100
AcDbArc
 50
265.700142349
 51
274.2993930999
  0
ARC
  5
368
100
AcDbEntity
  8
0
100
AcDbCircle
 62
7
  6
BYLAYER
 10
374.4114729984
 20
104.7132366573
 40
5.8806045239
100
AcDbArc
 50
274.2987909772
 51
277.3864933978
  0
ARC
  5
369
100
AcDbEntity
  8
0
100
AcDbCircle
 62
7
  6
BYLAYER
 10
374.3885511485
 20
104.7131188269
 40
5.8804861723
100
AcDbArc
 50
262.6096929998
 51
265.7007568502
  0
ARC
  5
36A
100
AcDbEntity
  8
0
100
AcDbCircle
 62
7
  6
BYLAYER
 10
446.0098767875
 20
140.8619485026
 40
1.1862917511
100
AcDbArc
 50
348.025843583
 51
359.9470373931
  0
ARC
  5
36B
100
AcDbEntity
  8
0
100
AcDbCircle
 62
7
  6
BYLAYER
 10
374.4000173586
 20
390.6630716501
 40
6.0549346023
100
AcDbArc
 50
265.7169053021
 51
274.2841117094
  0
ARC
  5
36C
100
AcDbEntity
  8
0
100
AcDbCircle
 62
7
  6
BYLAYER
 10
374.3846160985
 20
390.4587588773
 40
5.850042197
100
AcDbArc
 50
262.613889885
 51
265.717877366
  0
ARC
  5
36D
100
AcDbEntity
  8
0
100
AcDbCircle
 62
7
  6
BYLAYER
 10
374.4154355069
 20
390.4586027039
 40
5.8498851967
100
AcDbArc
 50
274.283124558
 51
277.3905063068
  0
ARC
  5
36E
100
AcDbEntity
  8
0
100
AcDbCircle
 62
7
  6
BYLAYER
 10
374.4000118929
 20
385.6540780472
 40
3.0754244273
100
AcDbArc
 50
81.2872638343
 51
98.7130116099
  0
ARC
  5
36F
100
AcDbEntity
  8
0
100
AcDbCircle
 62
7
  6
BYLAYER
 10
374.303558664
 20
385.9192466148
 40
2.5556956521
100
AcDbArc
 50
105.0952756549
 51
105.5499548491
  0
ARC
  5
370
100
AcDbEntity
  8
0
100
AcDbCircle
 62
7
  6
BYLAYER
 10
374.5013417877
 20
385.9380368434
 40
2.536258482
100
AcDbArc
 50
73.7702353025
 51
74.5100620969
  0
ARC
  5
371
100
AcDbEntity
  8
0
100
AcDbCircle
 62
7
  6
BYLAYER
 10
350.9298748932
 20
400.0874708477
 40
1.5700420436
100
AcDbArc
 50
119.9454715052
 51
124.9589851331
  0
ARC
  5
372
100
AcDbEntity
  8
0
100
AcDbCircle
 62
7
  6
BYLAYER
 10
441.792909333
 20
426.0110850974
 40
1.5700420437
100
AcDbArc
 50
119.9454715053
 51
124.958985133
  0
ARC
  5
373
100
AcDbEntity
  8
0
100
AcDbCircle
 62
7
  6
BYLAYER
 10
373.9109409604
 20
386.8196463257
 40
1.5700420437
100
AcDbArc
 50
119.9454715052
 51
124.9589851331
  0
ARC
  5
374
100
AcDbEntity
  8
0
100
AcDbCircle
 62
7
  6
BYLAYER
 10
441.9496265321
 20
425.9898249353
 40
1.4546143414
100
AcDbArc
 50
116.3350836929
 51
121.5414536434
  0
ARC
  5
375
100
AcDbEntity
  8
0
100
AcDbCircle
 62
7
  6
BYLAYER
 10
442.6805277057
 20
426.1003120054
 40
1.3259015978
100
AcDbArc
 50
55.6540550876
 51
60.1132690969
  0
ARC
  5
376
100
AcDbEntity
  8
0
100
AcDbCircle
 62
7
  6
BYLAYER
 10
446.0052406707
 20
426.6377541399
 40
1.1907577219
100
AcDbArc
 50
348.0750702249
 51
359.9491778753
  0
ARC
  5
377
100
AcDbEntity
  8
0
100
AcDbCircle
 62
7
  6
BYLAYER
 10
341.6034788237
 20
404.7988880647
 40
0.6637549213
100
AcDbArc
 50
179.2212346965
 51
179.9906416551
  0
SPLINE
  5
378
100
AcDbEntity
  8
0
100
AcDbSpline
 62
7
  6
BYLAYER
 70
0
 71
3
 72
10
 73
6
 74
0
 42
0.0000001
 43
0.0000001
 44
0.0000000001
 40
0.0
 40
0.0
 40
0.0
 40
0.0
 40
0.5144719245
 40
0.7592388599
 40
1.0
 40
1.0
 40
1.0
 40
1.0
 10
118.1317162899
 20
310.1868357073
 30
0.0
 10
118.0051979155
 20
309.9975987456
 30
0.0
 10
117.8511436654
 20
309.6925130254
 30
0.0
 10
117.7465357068
 20
309.2612021175
 30
0.0
 10
117.729198459
 20
309.0459469921
 30
0.0
 10
117.7291949078
 20
308.9394191692
 30
0.0
  0
SPLINE
  5
379
100
AcDbEntity
  8
0
100
AcDbSpline
 62
7
  6
BYLAYER
 70
0
 71
3
 72
23
 73
19
 74
0
 42
0.0000001
 43
0.0000001
 44
0.0000000001
 40
0.0
 40
0.0
 40
0.0
 40
0.0
 40
0.0623942315
 40
0.1287423195
 40
0.1983466164
 40
0.2703345451
 40
0.3437238394
 40
0.4174675572
 40
0.4905038636
 40
0.5618021419
 40
0.6304109104
 40
0.6955094342
 40
0.7564671969
 40
0.8129138108
 40
0.8648228182
 40
0.9126051689
 40
0.9571863745
 40
1.0
 40
1.0
 40
1.0
 40
1.0
 10
127.9718486797
 20
305.1835707784
 30
0.0
 10
127.756276493
 20
305.0591108613
 30
0.0
 10
127.2943145105
 20
304.831334571
 30
0.0
 10
126.5491012113
 20
304.5613271118
 30
0.0
 10
125.7437987949
 20
304.3568831553
 30
0.0
 10
124.8956126427
 20
304.222393336
 30
0.0
 10
124.0225462051
 20
304.1606716706
 30
0.0
 10
123.1432230121
 20
304.1730447801
 30
0.0
 10
122.2763995521
 20
304.259244309
 30
0.0
 10
121.4405459483
 20
304.4174389719
 30
0.0
 10
120.6534194245
 20
304.6442861131
 30
0.0
 10
119.9316609047
 20
304.9350551681
 30
0.0
 10
119.290435149
 20
305.2838104889
 30
0.0
 10
118.7431713647
 20
305.6837014015
 30
0.0
 10
118.3015218311
 20
306.1272053634
 30
0.0
 10
117.9756712366
 20
306.6064871994
 30
0.0
 10
117.7748628252
 20
307.1120654008
 30
0.0
 10
117.7291894289
 20
307.4622109186
 30
0.0
 10
117.7291950585
 20
307.6330153026
 30
0.0
  0
SPLINE
  5
37A
100
AcDbEntity
  8
0
100
AcDbSpline
 62
7
  6
BYLAYER
 70
0
 71
3
 72
14
 73
10
 74
0
 42
0.0000001
 43
0.0000001
 44
0.0000000001
 40
0.0
 40
0.0
 40
0.0
 40
0.0
 40
0.108046662
 40
0.2181308375
 40
0.3321040638
 40
0.4515003944
 40
0.5774618783
 40
0.7107201726
 40
1.0
 40
1.0
 40
1.0
 40
1.0
 10
129.7291855992
 20
307.6330153084
 30
0.0
 10
129.7291818554
 20
307.5194284676
 30
0.0
 10
129.7094660423
 20
307.2896510076
 30
0.0
 10
129.6214127959
 20
306.9502658728
 30
0.0
 10
129.4760843938
 20
306.6181871929
 30
0.0
 10
129.2753161424
 20
306.2967900408
 30
0.0
 10
129.0213329459
 20
305.9889504902
 30
0.0
 10
128.6040523104
 20
305.5895654708
 30
0.0
 10
128.2352185538
 20
305.3356265384
 30
0.0
 10
127.9718486797
 20
305.1835707784
 30
0.0
  0
SPLINE
  5
37B
100
AcDbEntity
  8
0
100
AcDbSpline
 62
7
  6
BYLAYER
 70
0
 71
3
 72
10
 73
6
 74
0
 42
0.0000001
 43
0.0000001
 44
0.0000000001
 40
0.0
 40
0.0
 40
0.0
 40
0.0
 40
0.2416637117
 40
0.4869249053
 40
1.0
 40
1.0
 40
1.0
 40
1.0
 10
129.7291857498
 20
308.9394191767
 30
0.0
 10
129.7291891054
 20
309.0400771115
 30
0.0
 10
129.7137187178
 20
309.243254581
 30
0.0
 10
129.6205727724
 20
309.6503830412
 30
0.0
 10
129.4829644764
 20
309.9402747994
 30
0.0
 10
129.3692249845
 20
310.1211995054
 30
0.0
  0
SPLINE
  5
37C
100
AcDbEntity
  8
0
100
AcDbSpline
 62
7
  6
BYLAYER
 70
0
 71
3
 72
14
 73
10
 74
0
 42
0.0000001
 43
0.0000001
 44
0.0000000001
 40
0.0
 40
0.0
 40
0.0
 40
0.0
 40
0.289279269
 40
0.4225373464
 40
0.5484987566
 40
0.6678950544
 40
0.7818684367
 40
0.8919529301
 40
1.0
 40
1.0
 40
1.0
 40
1.0
 10
127.9718486797
 20
306.4899746458
 30
0.0
 10
128.2352180523
 20
306.6420301163
 30
0.0
 10
128.6040512488
 20
306.8959684427
 30
0.0
 10
129.0213312845
 20
307.295352788
 30
0.0
 10
129.2753148169
 20
307.6031916213
 30
0.0
 10
129.4760833633
 20
307.9245886907
 30
0.0
 10
129.6214120629
 20
308.2566677429
 30
0.0
 10
129.7094660147
 20
308.5960536663
 30
0.0
 10
129.7291819632
 20
308.8258319041
 30
0.0
 10
129.7291857498
 20
308.9394191767
 30
0.0
  0
SPLINE
  5
37D
100
AcDbEntity
  8
0
100
AcDbSpline
 62
7
  6
BYLAYER
 70
0
 71
3
 72
23
 73
19
 74
0
 42
0.0000001
 43
0.0000001
 44
0.0000000001
 40
0.0
 40
0.0
 40
0.0
 40
0.0
 40
0.0428137156
 40
0.0873950263
 40
0.1351775327
 40
0.1870867325
 40
0.2435334897
 40
0.3044912425
 40
0.3695895886
 40
0.4381980996
 40
0.5094961315
 40
0.5825322141
 40
0.6562757094
 40
0.729664859
 40
0.8016528192
 40
0.8712572821
 40
0.9376056075
 40
1.0
 40
1.0
 40
1.0
 40
1.0
 10
117.7291949078
 20
308.9394191692
 30
0.0
 10
117.7291892137
 20
308.7686144253
 30
0.0
 10
117.774862965
 20
308.4184681225
 30
0.0
 10
117.9756723027
 20
307.9128887685
 30
0.0
 10
118.3015245508
 20
307.4336058274
 30
0.0
 10
118.7431761225
 20
306.9901011079
 30
0.0
 10
119.290441564
 20
306.5902102471
 30
0.0
 10
119.9316676244
 20
306.2414558689
 30
0.0
 10
120.6534247714
 20
305.9506881909
 30
0.0
 10
121.4405487957
 20
305.7238422411
 30
0.0
 10
122.2763995659
 20
305.5656482677
 30
0.0
 10
123.1432202571
 20
305.4794488896
 30
0.0
 10
124.022541082
 20
305.4670754631
 30
0.0
 10
124.8956062213
 20
305.5287964888
 30
0.0
 10
125.7437926738
 20
305.6632857672
 30
0.0
 10
126.5490969372
 20
305.8677295497
 30
0.0
 10
127.2943124591
 20
306.1377375279
 30
0.0
 10
127.7562759357
 20
306.365514407
 30
0.0
 10
127.9718486797
 20
306.4899746458
 30
0.0
  0
SPLINE
  5
37E
100
AcDbEntity
  8
0
100
AcDbSpline
 62
7
  6
BYLAYER
 70
0
 71
3
 72
13
 73
9
 74
0
 42
0.0000001
 43
0.0000001
 44
0.0000000001
 40
0.0
 40
0.0
 40
0.0
 40
0.0
 40
0.2894102805
 40
0.5482953968
 40
0.6677462293
 40
0.7817709276
 40
0.8919045095
 40
1.0
 40
1.0
 40
1.0
 40
1.0
 10
120.1791599138
 20
316.0644045367
 30
0.0
 10
119.9596846764
 20
315.9376912057
 30
0.0
 10
119.5617074498
 20
315.6638624496
 30
0.0
 10
119.1547700216
 20
315.2356666497
 30
0.0
 10
118.9256339523
 20
314.868899852
 30
0.0
 10
118.8045184156
 20
314.5921593286
 30
0.0
 10
118.7311509042
 20
314.309338226
 30
0.0
 10
118.7147153197
 20
314.117856704
 30
0.0
 10
118.7147154309
 20
314.0232007646
 30
0.0
  0
SPLINE
  5
37F
100
AcDbEntity
  8
0
100
AcDbSpline
 62
7
  6
BYLAYER
 70
0
 71
3
 72
13
 73
9
 74
0
 42
0.0000001
 43
0.0000001
 44
0.0000000001
 40
0.0
 40
0.0
 40
0.0
 40
0.0
 40
0.1034481688
 40
0.2097192648
 40
0.3212739187
 40
0.4399739684
 40
0.7023872814
 40
1.0
 40
1.0
 40
1.0
 40
1.0
 10
128.7147016481
 20
314.0232007636
 30
0.0
 10
128.7147015136
 20
314.1377638226
 30
0.0
 10
128.690409464
 20
314.3706859821
 30
0.0
 10
128.5825281346
 20
314.7119725745
 30
0.0
 10
128.4055102734
 20
315.0421648113
 30
0.0
 10
128.0706240204
 20
315.4755564291
 30
0.0
 10
127.4844712269
 20
315.9602722567
 30
0.0
 10
126.9289677268
 20
316.2449460723
 30
0.0
 10
126.6243479001
 20
316.3707870681
 30
0.0
  0
SPLINE
  5
380
100
AcDbEntity
  8
0
100
AcDbSpline
 62
7
  6
BYLAYER
 70
0
 71
3
 72
9
 73
5
 74
0
 42
0.0000001
 43
0.0000001
 44
0.0000000001
 40
0.0
 40
0.0
 40
0.0
 40
0.0
 40
0.2564118227
 40
1.0
 40
1.0
 40
1.0
 40
1.0
 10
120.7357021253
 20
316.3416100149
 30
0.0
 10
120.6868366643
 20
316.3206798902
 30
0.0
 10
120.4974089195
 20
316.2364205201
 30
0.0
 10
120.3126670148
 20
316.1414844374
 30
0.0
 10
120.1791599138
 20
316.0644045367
 30
0.0
  0
SPLINE
  5
381
100
AcDbEntity
  8
0
100
AcDbSpline
 62
7
  6
BYLAYER
 70
0
 71
3
 72
9
 73
5
 74
0
 42
0.0000001
 43
0.0000001
 44
0.0000000001
 40
0.0
 40
0.0
 40
0.0
 40
0.0
 40
0.2548424397
 40
1.0
 40
1.0
 40
1.0
 40
1.0
 10
120.3661651948
 20
310.2464559526
 30
0.0
 10
120.3344427896
 20
310.2629723854
 30
0.0
 10
120.2106537168
 20
310.3290939141
 30
0.0
 10
120.0896899838
 20
310.4005397292
 30
0.0
 10
120.0016167812
 20
310.4569233159
 30
0.0
  0
SPLINE
  5
382
100
AcDbEntity
  8
0
100
AcDbSpline
 62
7
  6
BYLAYER
 70
0
 71
3
 72
14
 73
10
 74
0
 42
0.0000001
 43
0.0000001
 44
0.0000000001
 40
0.0
 40
0.0
 40
0.0
 40
0.0
 40
0.1125858172
 40
0.2232402815
 40
0.3352428477
 40
0.451684111
 40
0.5750800794
 40
0.7071634246
 40
1.0
 40
1.0
 40
1.0
 40
1.0
 10
119.5462431458
 20
314.5094107766
 30
0.0
 10
119.5130878155
 20
314.4126388584
 30
0.0
 10
119.4659028502
 20
314.2136392557
 30
0.0
 10
119.4597092135
 20
313.9068483114
 30
0.0
 10
119.5194488657
 20
313.6022701418
 30
0.0
 10
119.6435157154
 20
313.3055196263
 30
0.0
 10
119.8291204504
 20
313.02111817
 30
0.0
 10
120.1652908599
 20
312.6513056138
 30
0.0
 10
120.4836473377
 20
312.4238232496
 30
0.0
 10
120.7140700315
 20
312.2907916549
 30
0.0
  0
SPLINE
  5
383
100
AcDbEntity
  8
0
100
AcDbSpline
 62
7
  6
BYLAYER
 70
0
 71
3
 72
14
 73
10
 74
0
 42
0.0000001
 43
0.0000001
 44
0.0000000001
 40
0.0
 40
0.0
 40
0.0
 40
0.0
 40
0.2927812465
 40
0.4248475638
 40
0.5482210622
 40
0.664662545
 40
0.7766787615
 40
0.887363172
 40
1.0
 40
1.0
 40
1.0
 40
1.0
 10
126.7430329304
 20
312.2900543061
 30
0.0
 10
126.9735959443
 20
312.4230541691
 30
0.0
 10
127.2921339904
 20
312.6505407965
 30
0.0
 10
127.6286793044
 20
313.0202953212
 30
0.0
 10
127.8144507927
 20
313.3047838489
 30
0.0
 10
127.9387488584
 20
313.6016300176
 30
0.0
 10
127.9986595004
 20
313.9064053996
 30
0.0
 10
127.992537803
 20
314.2134686063
 30
0.0
 10
127.9452995491
 20
314.4126607257
 30
0.0
 10
127.912090844
 20
314.509526765
 30
0.0
  0
SPLINE
  5
384
100
AcDbEntity
  8
0
100
AcDbSpline
 62
7
  6
BYLAYER
 70
0
 71
3
 72
15
 73
11
 74
0
 42
0.0000001
 43
0.0000001
 44
0.0000000001
 40
0.0
 40
0.0
 40
0.0
 40
0.0
 40
0.1135491392
 40
0.2358489829
 40
0.3645757827
 40
0.4968647944
 40
0.6295864759
 40
0.7595797487
 40
0.8838824754
 40
1.0
 40
1.0
 40
1.0
 40
1.0
 10
127.2502571652
 20
310.3489921573
 30
0.0
 10
127.0164775849
 20
310.2140202593
 30
0.0
 10
126.5065934796
 20
309.9747649972
 30
0.0
 10
125.6769952564
 20
309.7164953382
 30
0.0
 10
124.7785571789
 20
309.5520549069
 30
0.0
 10
123.8428796383
 20
309.4873119521
 30
0.0
 10
122.9027028989
 20
309.5244478804
 30
0.0
 10
121.9909544718
 20
309.6622382545
 30
0.0
 10
121.1397427348
 20
309.8957402994
 30
0.0
 10
120.6110165289
 20
310.1189728512
 30
0.0
 10
120.3661651948
 20
310.2464559527
 30
0.0
  0
SPLINE
  5
385
100
AcDbEntity
  8
0
100
AcDbSpline
 62
7
  6
BYLAYER
 70
0
 71
3
 72
13
 73
9
 74
0
 42
0.0000001
 43
0.0000001
 44
0.0000000001
 40
0.0
 40
0.0
 40
0.0
 40
0.0
 40
0.2894102805
 40
0.5482953968
 40
0.6677462293
 40
0.7817709276
 40
0.8919045095
 40
1.0
 40
1.0
 40
1.0
 40
1.0
 10
127.2502571652
 20
311.9819969915
 30
0.0
 10
127.4697324026
 20
312.1087103225
 30
0.0
 10
127.8677096292
 20
312.3825390786
 30
0.0
 10
128.2746470574
 20
312.8107348786
 30
0.0
 10
128.5037831267
 20
313.1775016762
 30
0.0
 10
128.6248986634
 20
313.4542421996
 30
0.0
 10
128.6982661748
 20
313.7370633023
 30
0.0
 10
128.7147017592
 20
313.9285448242
 30
0.0
 10
128.7147016481
 20
314.0232007636
 30
0.0
  0
SPLINE
  5
386
100
AcDbEntity
  8
0
100
AcDbSpline
 62
7
  6
BYLAYER
 70
0
 71
3
 72
12
 73
8
 74
0
 42
0.0000001
 43
0.0000001
 44
0.0000000001
 40
0.0
 40
0.0
 40
0.0
 40
0.0
 40
0.2865721773
 40
0.5445629657
 40
0.7788276596
 40
0.8903188356
 40
1.0
 40
1.0
 40
1.0
 40
1.0
 10
120.0016167812
 20
310.4569233159
 30
0.0
 10
119.8070544937
 20
310.5814801539
 30
0.0
 10
119.4547608736
 20
310.848196583
 30
0.0
 10
119.0374966685
 20
311.3239519147
 30
0.0
 10
118.815542267
 20
311.7650328158
 30
0.0
 10
118.7290485757
 20
312.1231557283
 30
0.0
 10
118.7147114694
 20
312.3017776371
 30
0.0
 10
118.7147141345
 20
312.3901959272
 30
0.0
  0
SPLINE
  5
387
100
AcDbEntity
  8
0
100
AcDbSpline
 62
7
  6
BYLAYER
 70
0
 71
3
 72
21
 73
17
 74
0
 42
0.0000001
 43
0.0000001
 44
0.0000000001
 40
0.0
 40
0.0
 40
0.0
 40
0.0
 40
0.0428254757
 40
0.0874190394
 40
0.1352145736
 40
0.1871378905
 40
0.2436000861
 40
0.3045745801
 40
0.3696908522
 40
0.4383182362
 40
0.5825505657
 40
0.7295900219
 40
0.8015978955
 40
0.8712215208
 40
0.9375888117
 40
1.0
 40
1.0
 40
1.0
 40
1.0
 10
118.7147154309
 20
314.0232007646
 30
0.0
 10
118.714715598
 20
313.8808636353
 30
0.0
 10
118.7527711524
 20
313.5890754716
 30
0.0
 10
118.9201154177
 20
313.1677604135
 30
0.0
 10
119.191657503
 20
312.7683590619
 30
0.0
 10
119.5596986988
 20
312.3987727136
 30
0.0
 10
120.0157524379
 20
312.06552853
 30
0.0
 10
120.5501013613
 20
311.7749052477
 30
0.0
 10
121.1515845393
 20
311.5325721797
 30
0.0
 10
122.0406467399
 20
311.2764553604
 30
0.0
 10
123.2318351715
 20
311.1093765227
 30
0.0
 10
124.4448274674
 20
311.1427265325
 30
0.0
 10
125.3935192669
 20
311.2930730096
 30
0.0
 10
126.0646366305
 20
311.463461722
 30
0.0
 10
126.6856423369
 20
311.6884660244
 30
0.0
 10
127.0706143972
 20
311.8782808102
 30
0.0
 10
127.2502571652
 20
311.9819969915
 30
0.0
  0
SPLINE
  5
388
100
AcDbEntity
  8
0
100
AcDbSpline
 62
7
  6
BYLAYER
 70
0
 71
3
 72
15
 73
11
 74
0
 42
0.0000001
 43
0.0000001
 44
0.0000000001
 40
0.0
 40
0.0
 40
0.0
 40
0.0
 40
0.114180477
 40
0.2373796819
 40
0.3670593142
 40
0.500100801
 40
0.6331210821
 40
0.7627454759
 40
0.8858760725
 40
1.0
 40
1.0
 40
1.0
 40
1.0
 10
120.7140700315
 20
312.2907916549
 30
0.0
 10
120.9204775345
 20
312.1716249234
 30
0.0
 10
121.3718228956
 20
311.9614516598
 30
0.0
 10
122.1068155314
 20
311.7380654395
 30
0.0
 10
122.9025305339
 20
311.6005529071
 30
0.0
 10
123.7290390899
 20
311.5541689032
 30
0.0
 10
124.5554300579
 20
311.6005171953
 30
0.0
 10
125.3508652419
 20
311.7378893861
 30
0.0
 10
126.0854896988
 20
311.9611619814
 30
0.0
 10
126.5366839758
 20
312.17102228
 30
0.0
 10
126.7430329304
 20
312.2900543061
 30
0.0
  0
SPLINE
  5
389
100
AcDbEntity
  8
0
100
AcDbSpline
 62
7
  6
BYLAYER
 70
0
 71
3
 72
13
 73
9
 74
0
 42
0.0000001
 43
0.0000001
 44
0.0000000001
 40
0.0
 40
0.0
 40
0.0
 40
0.0
 40
0.1080949976
 40
0.218228181
 40
0.3322527334
 40
0.4517036655
 40
0.7105891646
 40
1.0
 40
1.0
 40
1.0
 40
1.0
 10
128.7147015904
 20
312.3901959292
 30
0.0
 10
128.7147018209
 20
312.2955404259
 30
0.0
 10
128.6982658255
 20
312.1040597475
 30
0.0
 10
128.624899474
 20
311.8212393476
 30
0.0
 10
128.5037841964
 20
311.5444990994
 30
0.0
 10
128.2746481981
 20
311.1777319695
 30
0.0
 10
127.8677107663
 20
310.7495349238
 30
0.0
 10
127.4697328131
 20
310.4757057252
 30
0.0
 10
127.2502571652
 20
310.3489921573
 30
0.0
  0
SPLINE
  5
38A
100
AcDbEntity
  8
0
100
AcDbSpline
 62
7
  6
BYLAYER
 70
0
 71
3
 72
9
 73
5
 74
0
 42
0.0000001
 43
0.0000001
 44
0.0000000001
 40
0.0
 40
0.0
 40
0.0
 40
0.0
 40
0.5133691973
 40
1.0
 40
1.0
 40
1.0
 40
1.0
 10
122.7399434727
 20
367.339672236
 30
0.0
 10
122.5962981545
 20
367.627065515
 30
0.0
 10
122.2440234475
 20
368.1531651212
 30
0.0
 10
121.759761381
 20
368.568343061
 30
0.0
 10
121.4960046984
 20
368.7206196077
 30
0.0
  0
SPLINE
  5
38B
100
AcDbEntity
  8
0
100
AcDbSpline
 62
7
  6
BYLAYER
 70
0
 71
3
 72
11
 73
7
 74
0
 42
0.0000001
 43
0.0000001
 44
0.0000000001
 40
0.0
 40
0.0
 40
0.0
 40
0.0
 40
0.2551566254
 40
0.5046184308
 40
0.7522962198
 40
1.0
 40
1.0
 40
1.0
 40
1.0
 10
121.4960046984
 20
368.7206196077
 30
0.0
 10
121.3740038695
 20
368.7910552257
 30
0.0
 10
121.1196596694
 20
368.9096093553
 30
0.0
 10
120.7110354673
 20
369.0023617202
 30
0.0
 10
120.2952289897
 20
368.9908773693
 30
0.0
 10
120.0304067606
 20
368.9058411534
 30
0.0
 10
119.9078375602
 20
368.8451799841
 30
0.0
  0
SPLINE
  5
38C
100
AcDbEntity
  8
0
100
AcDbSpline
 62
7
  6
BYLAYER
 70
0
 71
3
 72
9
 73
5
 74
0
 42
0.0000001
 43
0.0000001
 44
0.0000000001
 40
0.0
 40
0.0
 40
0.0
 40
0.0
 40
0.4745846906
 40
1.0
 40
1.0
 40
1.0
 40
1.0
 10
121.0793451013
 20
368.6793463706
 30
0.0
 10
121.3113958427
 20
368.5453748434
 30
0.0
 10
121.7540155676
 20
368.1821763682
 30
0.0
 10
122.1011403126
 20
367.7314409655
 30
0.0
 10
122.2576724056
 20
367.4794554404
 30
0.0
  0
SPLINE
  5
38D
100
AcDbEntity
  8
0
100
AcDbSpline
 62
7
  6
BYLAYER
 70
0
 71
3
 72
11
 73
7
 74
0
 42
0.0000001
 43
0.0000001
 44
0.0000000001
 40
0.0
 40
0.0
 40
0.0
 40
0.0
 40
0.2184399464
 40
0.4541543338
 40
0.7138305694
 40
1.0
 40
1.0
 40
1.0
 40
1.0
 10
119.953936462
 20
368.8619897152
 30
0.0
 10
120.0340328731
 20
368.8920916696
 30
0.0
 10
120.2108505957
 20
368.929378388
 30
0.0
 10
120.4925575374
 20
368.9131663154
 30
0.0
 10
120.7890667755
 20
368.829472709
 30
0.0
 10
120.9822659078
 20
368.7353938012
 30
0.0
 10
121.0793451013
 20
368.6793463706
 30
0.0
  0
SPLINE
  5
38E
100
AcDbEntity
  8
0
100
AcDbSpline
 62
7
  6
BYLAYER
 70
0
 71
3
 72
11
 73
7
 74
0
 42
0.0000001
 43
0.0000001
 44
0.0000000001
 40
0.0
 40
0.0
 40
0.0
 40
0.0
 40
0.2527723241
 40
0.5093970093
 40
0.7605486584
 40
1.0
 40
1.0
 40
1.0
 40
1.0
 10
138.5473529131
 20
357.7014810497
 30
0.0
 10
138.4909800558
 20
357.9118159294
 30
0.0
 10
138.33455043
 20
358.325056922
 30
0.0
 10
137.9963772831
 20
358.8900125389
 30
0.0
 10
137.5707221697
 20
359.3775347506
 30
0.0
 10
137.2310655509
 20
359.6361835062
 30
0.0
 10
137.0524186516
 20
359.7393230083
 30
0.0
  0
SPLINE
  5
38F
100
AcDbEntity
  8
0
100
AcDbSpline
 62
7
  6
BYLAYER
 70
0
 71
3
 72
11
 73
7
 74
0
 42
0.0000001
 43
0.0000001
 44
0.0000000001
 40
0.0
 40
0.0
 40
0.0
 40
0.0
 40
0.2551566254
 40
0.5046184308
 40
0.7522962198
 40
1.0
 40
1.0
 40
1.0
 40
1.0
 10
137.0524186516
 20
359.7393230083
 30
0.0
 10
136.9304178227
 20
359.8097586262
 30
0.0
 10
136.6760736226
 20
359.9283127558
 30
0.0
 10
136.2674494205
 20
360.0210651207
 30
0.0
 10
135.8516429429
 20
360.0095807698
 30
0.0
 10
135.5868207139
 20
359.9245445539
 30
0.0
 10
135.4642515135
 20
359.8638833847
 30
0.0
  0
SPLINE
  5
390
100
AcDbEntity
  8
0
100
AcDbSpline
 62
7
  6
BYLAYER
 70
0
 71
3
 72
11
 73
7
 74
0
 42
0.0000001
 43
0.0000001
 44
0.0000000001
 40
0.0
 40
0.0
 40
0.0
 40
0.0
 40
0.2277146836
 40
0.4758248047
 40
0.7364209515
 40
1.0
 40
1.0
 40
1.0
 40
1.0
 10
136.6357590546
 20
359.6980497711
 30
0.0
 10
136.7836024169
 20
359.6126942971
 30
0.0
 10
137.0737523245
 20
359.4010433406
 30
0.0
 10
137.4619003637
 20
359.0057202366
 30
0.0
 10
137.8053021343
 20
358.537328732
 30
0.0
 10
137.9933032382
 20
358.1906122552
 30
0.0
 10
138.0751604744
 20
358.0107638465
 30
0.0
  0
SPLINE
  5
391
100
AcDbEntity
  8
0
100
AcDbSpline
 62
7
  6
BYLAYER
 70
0
 71
3
 72
11
 73
7
 74
0
 42
0.0000001
 43
0.0000001
 44
0.0000000001
 40
0.0
 40
0.0
 40
0.0
 40
0.0
 40
0.2184399464
 40
0.4541543338
 40
0.7138305694
 40
1.0
 40
1.0
 40
1.0
 40
1.0
 10
135.5103504152
 20
359.8806931157
 30
0.0
 10
135.5904468263
 20
359.9107950702
 30
0.0
 10
135.7672645489
 20
359.9480817886
 30
0.0
 10
136.0489714906
 20
359.931869716
 30
0.0
 10
136.3454807287
 20
359.8481761095
 30
0.0
 10
136.538679861
 20
359.7540972017
 30
0.0
 10
136.6357590546
 20
359.6980497711
 30
0.0
  0
SPLINE
  5
392
100
AcDbEntity
  8
0
100
AcDbSpline
 62
7
  6
BYLAYER
 70
0
 71
3
 72
9
 73
5
 74
0
 42
0.0000001
 43
0.0000001
 44
0.0000000001
 40
0.0
 40
0.0
 40
0.0
 40
0.0
 40
0.2532374679
 40
1.0
 40
1.0
 40
1.0
 40
1.0
 10
122.7557514964
 20
571.4561499581
 30
0.0
 10
122.7099571381
 20
571.5477713974
 30
0.0
 10
122.5141899986
 20
571.9017933523
 30
0.0
 10
122.260487113
 20
572.2247430199
 30
0.0
 10
122.0425552896
 20
572.4338807367
 30
0.0
  0
SPLINE
  5
393
100
AcDbEntity
  8
0
100
AcDbSpline
 62
7
  6
BYLAYER
 70
0
 71
3
 72
9
 73
5
 74
0
 42
0.0000001
 43
0.0000001
 44
0.0000000001
 40
0.0
 40
0.0
 40
0.0
 40
0.0
 40
0.2447003348
 40
1.0
 40
1.0
 40
1.0
 40
1.0
 10
121.7612190112
 20
572.2608408169
 30
0.0
 10
121.8085507569
 20
572.2112792347
 30
0.0
 10
121.9963186546
 20
572.0033836557
 30
0.0
 10
122.1618601519
 20
571.7756196005
 30
0.0
 10
122.2734804293
 20
571.5959331625
 30
0.0
  0
SPLINE
  5
394
100
AcDbEntity
  8
0
100
AcDbSpline
 62
7
  6
BYLAYER
 70
0
 71
3
 72
11
 73
7
 74
0
 42
0.0000001
 43
0.0000001
 44
0.0000000001
 40
0.0
 40
0.0
 40
0.0
 40
0.0
 40
0.2527723241
 40
0.5093970093
 40
0.7605486584
 40
1.0
 40
1.0
 40
1.0
 40
1.0
 10
138.5631609368
 20
561.8179587719
 30
0.0
 10
138.5067880795
 20
562.0282936515
 30
0.0
 10
138.3503584537
 20
562.4415346442
 30
0.0
 10
138.0121853068
 20
563.006490261
 30
0.0
 10
137.5865301935
 20
563.4940124727
 30
0.0
 10
137.2468735746
 20
563.7526612283
 30
0.0
 10
137.0682266754
 20
563.8558007304
 30
0.0
  0
SPLINE
  5
395
100
AcDbEntity
  8
0
100
AcDbSpline
 62
7
  6
BYLAYER
 70
0
 71
3
 72
11
 73
7
 74
0
 42
0.0000001
 43
0.0000001
 44
0.0000000001
 40
0.0
 40
0.0
 40
0.0
 40
0.0
 40
0.2551566254
 40
0.5046184308
 40
0.7522962198
 40
1.0
 40
1.0
 40
1.0
 40
1.0
 10
137.0682266754
 20
563.8558007304
 30
0.0
 10
136.9462258464
 20
563.9262363483
 30
0.0
 10
136.6918816463
 20
564.044790478
 30
0.0
 10
136.2832574442
 20
564.1375428428
 30
0.0
 10
135.8674509666
 20
564.126058492
 30
0.0
 10
135.6026287376
 20
564.041022276
 30
0.0
 10
135.4800595372
 20
563.9803611068
 30
0.0
  0
SPLINE
  5
396
100
AcDbEntity
  8
0
100
AcDbSpline
 62
7
  6
BYLAYER
 70
0
 71
3
 72
11
 73
7
 74
0
 42
0.0000001
 43
0.0000001
 44
0.0000000001
 40
0.0
 40
0.0
 40
0.0
 40
0.0
 40
0.2277146836
 40
0.4758248047
 40
0.7364209515
 40
1.0
 40
1.0
 40
1.0
 40
1.0
 10
136.6515670783
 20
563.8145274932
 30
0.0
 10
136.7994104406
 20
563.7291720192
 30
0.0
 10
137.0895603482
 20
563.5175210627
 30
0.0
 10
137.4777083874
 20
563.1221979587
 30
0.0
 10
137.821110158
 20
562.6538064541
 30
0.0
 10
138.0091112619
 20
562.3070899773
 30
0.0
 10
138.0909684981
 20
562.1272415687
 30
0.0
  0
SPLINE
  5
397
100
AcDbEntity
  8
0
100
AcDbSpline
 62
7
  6
BYLAYER
 70
0
 71
3
 72
11
 73
7
 74
0
 42
0.0000001
 43
0.0000001
 44
0.0000000001
 40
0.0
 40
0.0
 40
0.0
 40
0.0
 40
0.2184399464
 40
0.4541543338
 40
0.7138305694
 40
1.0
 40
1.0
 40
1.0
 40
1.0
 10
135.526158439
 20
563.9971708378
 30
0.0
 10
135.6062548501
 20
564.0272727923
 30
0.0
 10
135.7830725726
 20
564.0645595107
 30
0.0
 10
136.0647795143
 20
564.0483474381
 30
0.0
 10
136.3612887525
 20
563.9646538316
 30
0.0
 10
136.5544878847
 20
563.8705749238
 30
0.0
 10
136.6515670783
 20
563.8145274932
 30
0.0
  0
SPLINE
  5
398
100
AcDbEntity
  8
0
100
AcDbSpline
 62
7
  6
BYLAYER
 70
0
 71
3
 72
9
 73
5
 74
0
 42
0.0000001
 43
0.0000001
 44
0.0000000001
 40
0.0
 40
0.0
 40
0.0
 40
0.0
 40
0.5235043701
 40
1.0
 40
1.0
 40
1.0
 40
1.0
 10
96.0655857837
 20
331.5977930322
 30
0.0
 10
96.1700866882
 20
331.3480505634
 30
0.0
 10
96.3315773775
 20
330.8539027771
 30
0.0
 10
96.3978040789
 20
330.3362861864
 30
0.0
 10
96.3978040789
 20
330.0898717624
 30
0.0
  0
SPLINE
  5
399
100
AcDbEntity
  8
0
100
AcDbSpline
 62
7
  6
BYLAYER
 70
0
 71
3
 72
9
 73
5
 74
0
 42
0.0000001
 43
0.0000001
 44
0.0000000001
 40
0.0
 40
0.0
 40
0.0
 40
0.0
 40
0.2479210601
 40
1.0
 40
1.0
 40
1.0
 40
1.0
 10
95.2848694728
 20
332.8874493827
 30
0.0
 10
95.3647346326
 20
332.791497584
 30
0.0
 10
95.6716439588
 20
332.3920442055
 30
0.0
 10
95.9194021976
 20
331.9471512493
 30
0.0
 10
96.0655857837
 20
331.5977930322
 30
0.0
  0
SPLINE
  5
39A
100
AcDbEntity
  8
0
100
AcDbSpline
 62
7
  6
BYLAYER
 70
0
 71
3
 72
9
 73
5
 74
0
 42
0.0000001
 43
0.0000001
 44
0.0000000001
 40
0.0
 40
0.0
 40
0.0
 40
0.0
 40
0.2552804756
 40
1.0
 40
1.0
 40
1.0
 40
1.0
 10
96.0655857837
 20
311.508951206
 30
0.0
 10
96.0450898837
 20
311.4836349781
 30
0.0
 10
95.9606339563
 20
311.3879364199
 30
0.0
 10
95.8587595817
 20
311.307425019
 30
0.0
 10
95.7764700959
 20
311.2599073971
 30
0.0
  0
SPLINE
  5
39B
100
AcDbEntity
  8
0
100
AcDbSpline
 62
7
  6
BYLAYER
 70
0
 71
3
 72
9
 73
5
 74
0
 42
0.0000001
 43
0.0000001
 44
0.0000000001
 40
0.0
 40
0.0
 40
0.0
 40
0.0
 40
0.5400096136
 40
1.0
 40
1.0
 40
1.0
 40
1.0
 10
96.3978040789
 20
312.6332685098
 30
0.0
 10
96.3978040789
 20
312.419223254
 30
0.0
 10
96.3548891065
 20
312.0199607055
 30
0.0
 10
96.1803122298
 20
311.6506595893
 30
0.0
 10
96.0655857837
 20
311.508951206
 30
0.0
  0
SPLINE
  5
39C
100
AcDbEntity
  8
0
100
AcDbSpline
 62
7
  6
BYLAYER
 70
0
 71
3
 72
15
 73
11
 74
0
 42
0.0000001
 43
0.0000001
 44
0.0000000001
 40
0.0
 40
0.0
 40
0.0
 40
0.0
 40
0.0410378667
 40
0.04264324
 40
0.0598910325
 40
0.0883695203
 40
0.1791382201
 40
0.3156236189
 40
0.4983987547
 40
1.0
 40
1.0
 40
1.0
 40
1.0
 10
133.850514213
 20
360.790832995
 30
0.0
 10
133.8500855725
 20
360.7915855036
 30
0.0
 10
133.8483164538
 20
360.7929477411
 30
0.0
 10
133.8496406969
 20
360.7931354188
 30
0.0
 10
133.8500614679
 20
360.7918548161
 30
0.0
 10
133.8521913537
 20
360.790175081
 30
0.0
 10
133.8558328182
 20
360.7859626952
 30
0.0
 10
133.8624159941
 20
360.7804363829
 30
0.0
 10
133.8760723623
 20
360.7697146863
 30
0.0
 10
133.888314649
 20
360.7619933598
 30
0.0
 10
133.8974818782
 20
360.7567007773
 30
0.0
  0
SPLINE
  5
39D
100
AcDbEntity
  8
0
100
AcDbSpline
 62
7
  6
BYLAYER
 70
0
 71
3
 72
10
 73
6
 74
0
 42
0.0000001
 43
0.0000001
 44
0.0000000001
 40
0.0
 40
0.0
 40
0.0
 40
0.0
 40
0.5530187348
 40
0.8046257785
 40
1.0
 40
1.0
 40
1.0
 40
1.0
 10
122.883185356
 20
367.3403708873
 30
0.0
 10
122.7877998813
 20
367.325614668
 30
0.0
 10
122.6444518071
 20
367.3253226211
 30
0.0
 10
122.4738512702
 20
367.363946718
 30
0.0
 10
122.4011243741
 20
367.3939757218
 30
0.0
 10
122.3715933583
 20
367.411025076
 30
0.0
  0
SPLINE
  5
39E
100
AcDbEntity
  8
0
100
AcDbSpline
 62
7
  6
BYLAYER
 70
0
 71
3
 72
11
 73
7
 74
0
 42
0.0000001
 43
0.0000001
 44
0.0000000001
 40
0.0
 40
0.0
 40
0.0
 40
0.0
 40
0.2412783088
 40
0.4852223656
 40
0.7363503982
 40
1.0
 40
1.0
 40
1.0
 40
1.0
 10
118.6814628007
 20
368.9279120479
 30
0.0
 10
118.769021094
 20
368.9784635504
 30
0.0
 10
118.9633332242
 20
369.0513542375
 30
0.0
 10
119.2757215438
 20
369.0660210967
 30
0.0
 10
119.5889595388
 20
368.9959727104
 30
0.0
 10
119.7857778454
 20
368.9039125848
 30
0.0
 10
119.8814549304
 20
368.8486746437
 30
0.0
  0
SPLINE
  5
39F
100
AcDbEntity
  8
0
100
AcDbSpline
 62
7
  6
BYLAYER
 70
0
 71
3
 72
9
 73
5
 74
0
 42
0.0000001
 43
0.0000001
 44
0.0000000001
 40
0.0
 40
0.0
 40
0.0
 40
0.0
 40
0.2616539681
 40
1.0
 40
1.0
 40
1.0
 40
1.0
 10
137.7315328839
 20
358.3213225423
 30
0.0
 10
137.6651745558
 20
358.3953641375
 30
0.0
 10
137.4021602745
 20
358.6694761805
 30
0.0
 10
137.0996546633
 20
358.9079672818
 30
0.0
 10
136.8566766893
 20
359.048247507
 30
0.0
  0
SPLINE
  5
3A0
100
AcDbEntity
  8
0
100
AcDbSpline
 62
7
  6
BYLAYER
 70
0
 71
3
 72
11
 73
7
 74
0
 42
0.0000001
 43
0.0000001
 44
0.0000000001
 40
0.0
 40
0.0
 40
0.0
 40
0.0
 40
0.2364884097
 40
0.4781089699
 40
0.7308006922
 40
1.0
 40
1.0
 40
1.0
 40
1.0
 10
134.9146135758
 20
361.3753635423
 30
0.0
 10
135.0317484376
 20
361.3077372283
 30
0.0
 10
135.2475605667
 20
361.1310356372
 30
0.0
 10
135.4788307126
 20
360.7764145193
 30
0.0
 10
135.6166790839
 20
360.3579077974
 30
0.0
 10
135.6486576829
 20
360.0590671064
 30
0.0
 10
135.652322455
 20
359.905147447
 30
0.0
  0
SPLINE
  5
3A1
100
AcDbEntity
  8
0
100
AcDbSpline
 62
7
  6
BYLAYER
 70
0
 71
3
 72
10
 73
6
 74
0
 42
0.0000001
 43
0.0000001
 44
0.0000000001
 40
0.0
 40
0.0
 40
0.0
 40
0.0
 40
0.5141774632
 40
0.7588579068
 40
1.0
 40
1.0
 40
1.0
 40
1.0
 10
123.1552006678
 20
367.411047519
 30
0.0
 10
123.3793429607
 20
367.5001563234
 30
0.0
 10
123.7389265659
 20
367.5813638107
 30
0.0
 10
124.2081365021
 20
367.5205234626
 30
0.0
 10
124.4221334643
 20
367.4330627157
 30
0.0
 10
124.5201006162
 20
367.3765026338
 30
0.0
  0
SPLINE
  5
3A2
100
AcDbEntity
  8
0
100
AcDbSpline
 62
7
  6
BYLAYER
 70
0
 71
3
 72
10
 73
6
 74
0
 42
0.0000001
 43
0.0000001
 44
0.0000000001
 40
0.0
 40
0.0
 40
0.0
 40
0.0
 40
0.5102539608
 40
0.7563070417
 40
1.0
 40
1.0
 40
1.0
 40
1.0
 10
140.3729418112
 20
356.6863624338
 30
0.0
 10
140.3424362559
 20
356.8791473091
 30
0.0
 10
140.249428168
 20
357.1637841838
 30
0.0
 10
140.012442779
 20
357.4680485481
 30
0.0
 10
139.8619257404
 20
357.5838547858
 30
0.0
 10
139.781196145
 20
357.630462985
 30
0.0
  0
SPLINE
  5
3A3
100
AcDbEntity
  8
0
100
AcDbSpline
 62
7
  6
BYLAYER
 70
0
 71
3
 72
10
 73
6
 74
0
 42
0.0000001
 43
0.0000001
 44
0.0000000001
 40
0.0
 40
0.0
 40
0.0
 40
0.0
 40
0.2446737188
 40
0.4909201924
 40
1.0
 40
1.0
 40
1.0
 40
1.0
 10
139.781196145
 20
357.630462985
 30
0.0
 10
139.7047549791
 20
357.6745953143
 30
0.0
 10
139.539534203
 20
357.7442389012
 30
0.0
 10
139.1806335222
 20
357.8012593466
 30
0.0
 10
138.903401786
 20
357.7529303836
 30
0.0
 10
138.7296743232
 20
357.6933789314
 30
0.0
  0
SPLINE
  5
3A4
100
AcDbEntity
  8
0
100
AcDbSpline
 62
7
  6
BYLAYER
 70
0
 71
3
 72
9
 73
5
 74
0
 42
0.0000001
 43
0.0000001
 44
0.0000000001
 40
0.0
 40
0.0
 40
0.0
 40
0.0
 40
0.2633249513
 40
1.0
 40
1.0
 40
1.0
 40
1.0
 10
123.1800629572
 20
367.3295988005
 30
0.0
 10
123.1948673534
 20
367.3340512611
 30
0.0
 10
123.2509140549
 20
367.3515283898
 30
0.0
 10
123.3062893868
 20
367.3712015078
 30
0.0
 10
123.346479949
 20
367.387176829
 30
0.0
  0
SPLINE
  5
3A5
100
AcDbEntity
  8
0
100
AcDbSpline
 62
7
  6
BYLAYER
 70
0
 71
3
 72
9
 73
5
 74
0
 42
0.0000001
 43
0.0000001
 44
0.0000000001
 40
0.0
 40
0.0
 40
0.0
 40
0.0
 40
0.5110461624
 40
1.0
 40
1.0
 40
1.0
 40
1.0
 10
123.3464858642
 20
367.3871445815
 30
0.0
 10
123.317300635
 20
367.4039958269
 30
0.0
 10
123.2544306413
 20
367.4291303454
 30
0.0
 10
123.1852280319
 20
367.4227968308
 30
0.0
 10
123.1552258105
 20
367.4109842997
 30
0.0
  0
SPLINE
  5
3A6
100
AcDbEntity
  8
0
100
AcDbSpline
 62
7
  6
BYLAYER
 70
0
 71
3
 72
10
 73
6
 74
0
 42
0.0000001
 43
0.0000001
 44
0.0000000001
 40
0.0
 40
0.0
 40
0.0
 40
0.0
 40
0.3479576075
 40
0.6360944024
 40
1.0
 40
1.0
 40
1.0
 40
1.0
 10
122.9443383444
 20
367.271652021
 30
0.0
 10
122.9397049029
 20
367.2816370489
 30
0.0
 10
122.9302841264
 20
367.2998210295
 30
0.0
 10
122.9138169087
 20
367.3253030973
 30
0.0
 10
122.894724091
 20
367.3418810341
 30
0.0
 10
122.8833234157
 20
367.3402823266
 30
0.0
  0
SPLINE
  5
3A7
100
AcDbEntity
  8
0
100
AcDbSpline
 62
7
  6
BYLAYER
 70
0
 71
3
 72
10
 73
6
 74
0
 42
0.0000001
 43
0.0000001
 44
0.0000000001
 40
0.0
 40
0.0
 40
0.0
 40
0.0
 40
0.5238047794
 40
0.7720092394
 40
1.0
 40
1.0
 40
1.0
 40
1.0
 10
138.6685896521
 20
357.4623874562
 30
0.0
 10
138.9337710703
 20
357.0835493184
 30
0.0
 10
139.2532578912
 20
356.4685747892
 30
0.0
 10
139.4868435287
 20
355.6150238541
 30
0.0
 10
139.5311381489
 20
355.1940410476
 30
0.0
 10
139.5311381489
 20
354.9927651485
 30
0.0
  0
SPLINE
  5
3A8
100
AcDbEntity
  8
0
100
AcDbSpline
 62
7
  6
BYLAYER
 70
0
 71
3
 72
11
 73
7
 74
0
 42
0.0000001
 43
0.0000001
 44
0.0000000001
 40
0.0
 40
0.0
 40
0.0
 40
0.0
 40
0.2897977118
 40
0.5490279476
 40
0.7821964336
 40
1.0
 40
1.0
 40
1.0
 40
1.0
 10
139.5311381489
 20
354.9927651485
 30
0.0
 10
139.6628182607
 20
355.0687902427
 30
0.0
 10
139.901676427
 20
355.2331983973
 30
0.0
 10
140.1869803785
 20
355.5332555481
 30
0.0
 10
140.3676369518
 20
355.8649887076
 30
0.0
 10
140.4097961185
 20
356.1032103828
 30
0.0
 10
140.4097911747
 20
356.2174874118
 30
0.0
  0
SPLINE
  5
3A9
100
AcDbEntity
  8
0
100
AcDbSpline
 62
7
  6
BYLAYER
 70
0
 71
3
 72
11
 73
7
 74
0
 42
0.0000001
 43
0.0000001
 44
0.0000000001
 40
0.0
 40
0.0
 40
0.0
 40
0.0
 40
0.2177735307
 40
0.4509532139
 40
0.7102021862
 40
1.0
 40
1.0
 40
1.0
 40
1.0
 10
118.6814628007
 20
368.9279120479
 30
0.0
 10
118.747432459
 20
368.9659994123
 30
0.0
 10
118.8990193594
 20
369.0210530604
 30
0.0
 10
119.1507662061
 20
369.0273583431
 30
0.0
 10
119.4191192686
 20
368.9626450054
 30
0.0
 10
119.5936701465
 20
368.8795468711
 30
0.0
 10
119.6814583238
 20
368.8288634899
 30
0.0
  0
SPLINE
  5
3AA
100
AcDbEntity
  8
0
100
AcDbSpline
 62
7
  6
BYLAYER
 70
0
 71
3
 72
9
 73
5
 74
0
 42
0.0000001
 43
0.0000001
 44
0.0000000001
 40
0.0
 40
0.0
 40
0.0
 40
0.0
 40
0.4491760912
 40
1.0
 40
1.0
 40
1.0
 40
1.0
 10
122.3715840669
 20
367.4110089824
 30
0.0
 10
122.3446054885
 20
367.4265847243
 30
0.0
 10
122.2707869112
 20
367.4377920464
 30
0.0
 10
122.2046804032
 20
367.4103146633
 30
0.0
 10
122.1715967517
 20
367.3912139222
 30
0.0
  0
SPLINE
  5
3AB
100
AcDbEntity
  8
0
100
AcDbSpline
 62
7
  6
BYLAYER
 70
0
 71
3
 72
9
 73
5
 74
0
 42
0.0000001
 43
0.0000001
 44
0.0000000001
 40
0.0
 40
0.0
 40
0.0
 40
0.0
 40
0.4491760913
 40
1.0
 40
1.0
 40
1.0
 40
1.0
 10
136.8566673978
 20
359.0482314133
 30
0.0
 10
136.8296888194
 20
359.0638071551
 30
0.0
 10
136.7558702421
 20
359.0750144774
 30
0.0
 10
136.6897637341
 20
359.0475370942
 30
0.0
 10
136.6566800827
 20
359.0284363531
 30
0.0
  0
SPLINE
  5
3AC
100
AcDbEntity
  8
0
100
AcDbSpline
 62
7
  6
BYLAYER
 70
0
 71
3
 72
10
 73
6
 74
0
 42
0.0000001
 43
0.0000001
 44
0.0000000001
 40
0.0
 40
0.0
 40
0.0
 40
0.0
 40
0.3594575933
 40
0.6533117283
 40
1.0
 40
1.0
 40
1.0
 40
1.0
 10
138.0258340542
 20
357.9928410216
 30
0.0
 10
138.0108144277
 20
358.0098167015
 30
0.0
 10
137.9588579464
 20
358.0044389905
 30
0.0
 10
137.9031706268
 20
357.9827634132
 30
0.0
 10
137.8664779766
 20
357.9638417879
 30
0.0
 10
137.8475456702
 20
357.9529112196
 30
0.0
  0
SPLINE
  5
3AD
100
AcDbEntity
  8
0
100
AcDbSpline
 62
7
  6
BYLAYER
 70
0
 71
3
 72
11
 73
7
 74
0
 42
0.0000001
 43
0.0000001
 44
0.0000000001
 40
0.0
 40
0.0
 40
0.0
 40
0.0
 40
0.2264843222
 40
0.4635844327
 40
0.7198130652
 40
1.0
 40
1.0
 40
1.0
 40
1.0
 10
134.9146132427
 20
361.3753629653
 30
0.0
 10
134.8353415855
 20
361.4211358782
 30
0.0
 10
134.6590940291
 20
361.4923776327
 30
0.0
 10
134.3674109509
 20
361.5274263708
 30
0.0
 10
134.0544164126
 20
361.4927715356
 30
0.0
 10
133.8462243639
 20
361.4278734478
 30
0.0
 10
133.7409929011
 20
361.3860377346
 30
0.0
  0
SPLINE
  5
3AE
100
AcDbEntity
  8
0
100
AcDbSpline
 62
7
  6
BYLAYER
 70
0
 71
3
 72
11
 73
7
 74
0
 42
0.0000001
 43
0.0000001
 44
0.0000000001
 40
0.0
 40
0.0
 40
0.0
 40
0.0
 40
0.2178035647
 40
0.4509720555
 40
0.7102022888
 40
1.0
 40
1.0
 40
1.0
 40
1.0
 10
140.4097910781
 20
338.7608841593
 30
0.0
 10
140.4097960902
 20
338.6466071319
 30
0.0
 10
140.3676369953
 20
338.4083854243
 30
0.0
 10
140.1869803553
 20
338.0766523003
 30
0.0
 10
139.9016764294
 20
337.7765951378
 30
0.0
 10
139.6628182595
 20
337.6121869895
 30
0.0
 10
139.5311381489
 20
337.536161896
 30
0.0
  0
SPLINE
  5
3AF
100
AcDbEntity
  8
0
100
AcDbSpline
 62
7
  6
BYLAYER
 70
0
 71
3
 72
11
 73
7
 74
0
 42
0.0000001
 43
0.0000001
 44
0.0000000001
 40
0.0
 40
0.0
 40
0.0
 40
0.0
 40
0.2782714675
 40
0.5349972008
 40
0.7734934663
 40
1.0
 40
1.0
 40
1.0
 40
1.0
 10
123.346479949
 20
367.387176829
 30
0.0
 10
123.4415858353
 20
367.424987028
 30
0.0
 10
123.6298931928
 20
367.4851614185
 30
0.0
 10
123.9131731686
 20
367.5250253374
 30
0.0
 10
124.1800869928
 20
367.5090136233
 30
0.0
 10
124.3458339302
 20
367.4596288175
 30
0.0
 10
124.4221043181
 20
367.4261183034
 30
0.0
  0
SPLINE
  5
3B0
100
AcDbEntity
  8
0
100
AcDbSpline
 62
7
  6
BYLAYER
 70
0
 71
3
 72
15
 73
11
 74
0
 42
0.0000001
 43
0.0000001
 44
0.0000000001
 40
0.0
 40
0.0
 40
0.0
 40
0.0
 40
0.1435673125
 40
0.2740625534
 40
0.3937511921
 40
0.5067214812
 40
0.6185881506
 40
0.7352200172
 40
0.8614252796
 40
1.0
 40
1.0
 40
1.0
 40
1.0
 10
135.5278747113
 20
359.8693124862
 30
0.0
 10
135.5188243323
 20
359.9752633201
 30
0.0
 10
135.4864136214
 20
360.1768203949
 30
0.0
 10
135.3860941184
 20
360.4528339159
 30
0.0
 10
135.2376725984
 20
360.6805282287
 30
0.0
 10
135.0437594477
 20
360.8516681765
 30
0.0
 10
134.810674846
 20
360.9587045617
 30
0.0
 10
134.5478176311
 20
360.9982135668
 30
0.0
 10
134.2643460988
 20
360.9709231479
 30
0.0
 10
134.0756947571
 20
360.912822158
 30
0.0
 10
133.9803166878
 20
360.8749045513
 30
0.0
  0
SPLINE
  5
3B1
100
AcDbEntity
  8
0
100
AcDbSpline
 62
7
  6
BYLAYER
 70
0
 71
3
 72
9
 73
5
 74
0
 42
0.0000001
 43
0.0000001
 44
0.0000000001
 40
0.0
 40
0.0
 40
0.0
 40
0.0
 40
0.5508239271
 40
1.0
 40
1.0
 40
1.0
 40
1.0
 10
133.6974852716
 20
360.7368896235
 30
0.0
 10
133.7305689242
 20
360.7559903652
 30
0.0
 10
133.7966754325
 20
360.7834677489
 30
0.0
 10
133.8704940097
 20
360.7722604253
 30
0.0
 10
133.8974725867
 20
360.7566846836
 30
0.0
  0
SPLINE
  5
3B2
100
AcDbEntity
  8
0
100
AcDbSpline
 62
7
  6
BYLAYER
 70
0
 71
3
 72
9
 73
5
 74
0
 42
0.0000001
 43
0.0000001
 44
0.0000000001
 40
0.0
 40
0.0
 40
0.0
 40
0.0
 40
0.5227144052
 40
1.0
 40
1.0
 40
1.0
 40
1.0
 10
133.7409929011
 20
361.3860377346
 30
0.0
 10
133.6880346215
 20
361.3649944496
 30
0.0
 10
133.5909906757
 20
361.3115722052
 30
0.0
 10
133.5164204754
 20
361.2281002486
 30
0.0
 10
133.4904265907
 20
361.1830249077
 30
0.0
  0
SPLINE
  5
3B3
100
AcDbEntity
  8
0
100
AcDbSpline
 62
7
  6
BYLAYER
 70
0
 71
3
 72
11
 73
7
 74
0
 42
0.0000001
 43
0.0000001
 44
0.0000000001
 40
0.0
 40
0.0
 40
0.0
 40
0.0
 40
0.2360192243
 40
0.5094022385
 40
0.7771830509
 40
1.0
 40
1.0
 40
1.0
 40
1.0
 10
133.9803398479
 20
360.8749053796
 30
0.0
 10
133.9861119036
 20
360.9210622474
 30
0.0
 10
133.9818545791
 20
361.0229895934
 30
0.0
 10
133.9350267289
 20
361.1705950217
 30
0.0
 10
133.8533979735
 20
361.2991966178
 30
0.0
 10
133.77903088
 20
361.3640499725
 30
0.0
 10
133.7409988257
 20
361.3860052711
 30
0.0
  0
SPLINE
  5
3B4
100
AcDbEntity
  8
0
100
AcDbSpline
 62
7
  6
BYLAYER
 70
0
 71
3
 72
11
 73
7
 74
0
 42
0.0000001
 43
0.0000001
 44
0.0000000001
 40
0.0
 40
0.0
 40
0.0
 40
0.0
 40
0.2536202974
 40
0.526775203
 40
0.7834620059
 40
1.0
 40
1.0
 40
1.0
 40
1.0
 10
133.4904288557
 20
361.1830007306
 30
0.0
 10
133.5395606965
 20
361.1754033398
 30
0.0
 10
133.6396427218
 20
361.1434801095
 30
0.0
 10
133.7674377971
 20
361.0537396985
 30
0.0
 10
133.8548000082
 20
360.93241481
 30
0.0
 10
133.8768063254
 20
360.8390941581
 30
0.0
 10
133.8768067357
 20
360.796647422
 30
0.0
  0
SPLINE
  5
3B5
100
AcDbEntity
  8
0
100
AcDbSpline
 62
7
  6
BYLAYER
 70
0
 71
3
 72
9
 73
5
 74
0
 42
0.0000001
 43
0.0000001
 44
0.0000000001
 40
0.0
 40
0.0
 40
0.0
 40
0.0
 40
0.5181746175
 40
1.0
 40
1.0
 40
1.0
 40
1.0
 10
133.9803264848
 20
360.87489364
 30
0.0
 10
133.9578080636
 20
360.8699962935
 30
0.0
 10
133.9152490287
 20
360.8522016155
 30
0.0
 10
133.8858333233
 20
360.8160846851
 30
0.0
 10
133.876808927
 20
360.7966494048
 30
0.0
  0
SPLINE
  5
3B6
100
AcDbEntity
  8
0
100
AcDbSpline
 62
7
  6
BYLAYER
 70
0
 71
3
 72
11
 73
7
 74
0
 42
0.0000001
 43
0.0000001
 44
0.0000000001
 40
0.0
 40
0.0
 40
0.0
 40
0.0
 40
0.2897980754
 40
0.5490358063
 40
0.7822106197
 40
1.0
 40
1.0
 40
1.0
 40
1.0
 10
139.5311381489
 20
337.536161896
 30
0.0
 10
139.5311381489
 20
337.3841051811
 30
0.0
 10
139.5081798695
 20
337.0950307701
 30
0.0
 10
139.3909740483
 20
336.6978939953
 30
0.0
 10
139.1939848894
 20
336.3755819545
 30
0.0
 10
139.0087719256
 20
336.2199312471
 30
0.0
 10
138.909796067
 20
336.1628147962
 30
0.0
  0
SPLINE
  5
3B7
100
AcDbEntity
  8
0
100
AcDbSpline
 62
7
  6
BYLAYER
 70
0
 71
3
 72
9
 73
5
 74
0
 42
0.0000001
 43
0.0000001
 44
0.0000000001
 40
0.0
 40
0.0
 40
0.0
 40
0.0
 40
0.4848756425
 40
1.0
 40
1.0
 40
1.0
 40
1.0
 10
131.1316589276
 20
331.6721203358
 30
0.0
 10
131.2239555627
 20
331.725406258
 30
0.0
 10
131.3972180217
 20
331.8673544242
 30
0.0
 10
131.5193922445
 20
332.0538360543
 30
0.0
 10
131.5696940968
 20
332.1552713474
 30
0.0
  0
SPLINE
  5
3B8
100
AcDbEntity
  8
0
100
AcDbSpline
 62
7
  6
BYLAYER
 70
0
 71
3
 72
9
 73
5
 74
0
 42
0.0000001
 43
0.0000001
 44
0.0000000001
 40
0.0
 40
0.0
 40
0.0
 40
0.0
 40
0.2288501249
 40
1.0
 40
1.0
 40
1.0
 40
1.0
 10
131.5696940968
 20
332.1552713474
 30
0.0
 10
131.6006567741
 20
332.217708576
 30
0.0
 10
131.7156432171
 20
332.5006716229
 30
0.0
 10
131.7529959396
 20
332.8106341153
 30
0.0
 10
131.7529959396
 20
333.0454762034
 30
0.0
  0
SPLINE
  5
3B9
100
AcDbEntity
  8
0
100
AcDbSpline
 62
7
  6
BYLAYER
 70
0
 71
3
 72
9
 73
5
 74
0
 42
0.0000001
 43
0.0000001
 44
0.0000000001
 40
0.0
 40
0.0
 40
0.0
 40
0.0
 40
0.2466540355
 40
1.0
 40
1.0
 40
1.0
 40
1.0
 10
137.8475456981
 20
357.9529118974
 30
0.0
 10
137.8624950685
 20
357.9362299942
 30
0.0
 10
137.9251111122
 20
357.8704177421
 30
0.0
 10
137.9954316075
 20
357.811981735
 30
0.0
 10
138.0515244939
 20
357.772810921
 30
0.0
  0
SPLINE
  5
3BA
100
AcDbEntity
  8
0
100
AcDbSpline
 62
7
  6
BYLAYER
 70
0
 71
3
 72
11
 73
7
 74
0
 42
0.0000001
 43
0.0000001
 44
0.0000000001
 40
0.0
 40
0.0
 40
0.0
 40
0.0
 40
0.3783991278
 40
0.6914111462
 40
0.9037264758
 40
1.0
 40
1.0
 40
1.0
 40
1.0
 10
138.051532483
 20
357.7728040736
 30
0.0
 10
138.0637437483
 20
357.7874545575
 30
0.0
 10
138.0860867181
 20
357.8135741862
 30
0.0
 10
138.1187972692
 20
357.8477138157
 30
0.0
 10
138.1396434413
 20
357.8662293869
 30
0.0
 10
138.1570755612
 20
357.8765922758
 30
0.0
 10
138.1610139771
 20
357.8737576763
 30
0.0
  0
SPLINE
  5
3BB
100
AcDbEntity
  8
0
100
AcDbSpline
 62
7
  6
BYLAYER
 70
0
 71
3
 72
9
 73
5
 74
0
 42
0.0000001
 43
0.0000001
 44
0.0000000001
 40
0.0
 40
0.0
 40
0.0
 40
0.0
 40
0.237329614
 40
1.0
 40
1.0
 40
1.0
 40
1.0
 10
136.7870258737
 20
358.9485476363
 30
0.0
 10
136.8545738857
 20
358.9047453682
 30
0.0
 10
137.1319698528
 20
358.7091042778
 30
0.0
 10
137.3805242042
 20
358.4740072504
 30
0.0
 10
137.5531925314
 20
358.2813466039
 30
0.0
  0
SPLINE
  5
3BC
100
AcDbEntity
  8
0
100
AcDbSpline
 62
7
  6
BYLAYER
 70
0
 71
3
 72
10
 73
6
 74
0
 42
0.0000001
 43
0.0000001
 44
0.0000000001
 40
0.0
 40
0.0
 40
0.0
 40
0.0
 40
0.3652377263
 40
0.6555075114
 40
1.0
 40
1.0
 40
1.0
 40
1.0
 10
137.5531925314
 20
358.2813466039
 30
0.0
 10
137.5731628026
 20
358.2928763766
 30
0.0
 10
137.6107988672
 20
358.3121505786
 30
0.0
 10
137.6669438412
 20
358.3335555412
 30
0.0
 10
137.7169957423
 20
358.3375005759
 30
0.0
 10
137.7315314374
 20
358.3213212457
 30
0.0
  0
SPLINE
  5
3BD
100
AcDbEntity
  8
0
100
AcDbSpline
 62
7
  6
BYLAYER
 70
0
 71
3
 72
9
 73
5
 74
0
 42
0.0000001
 43
0.0000001
 44
0.0000000001
 40
0.0
 40
0.0
 40
0.0
 40
0.0
 40
0.5089491479
 40
1.0
 40
1.0
 40
1.0
 40
1.0
 10
122.9443361712
 20
367.2716753078
 30
0.0
 10
122.840626355
 20
367.2556313054
 30
0.0
 10
122.632650468
 20
367.2483390966
 30
0.0
 10
122.4277214204
 20
367.2870904853
 30
0.0
 10
122.3318451694
 20
367.3196465802
 30
0.0
  0
SPLINE
  5
3BE
100
AcDbEntity
  8
0
100
AcDbSpline
 62
7
  6
BYLAYER
 70
0
 71
3
 72
9
 73
5
 74
0
 42
0.0000001
 43
0.0000001
 44
0.0000000001
 40
0.0
 40
0.0
 40
0.0
 40
0.0
 40
0.2603869441
 40
1.0
 40
1.0
 40
1.0
 40
1.0
 10
122.3318451694
 20
367.3196465802
 30
0.0
 10
122.3174073896
 20
367.3245491262
 30
0.0
 10
122.2623912186
 20
367.3445948481
 30
0.0
 10
122.2090912229
 20
367.3695669691
 30
0.0
 10
122.1715839575
 20
367.391221309
 30
0.0
  0
SPLINE
  5
3BF
100
AcDbEntity
  8
0
100
AcDbSpline
 62
7
  6
BYLAYER
 70
0
 71
3
 72
11
 73
7
 74
0
 42
0.0000001
 43
0.0000001
 44
0.0000000001
 40
0.0
 40
0.0
 40
0.0
 40
0.0
 40
0.2938600664
 40
0.5470813973
 40
0.7735418202
 40
1.0
 40
1.0
 40
1.0
 40
1.0
 10
133.697497995
 20
360.736882278
 30
0.0
 10
133.6515680755
 20
360.7633993295
 30
0.0
 10
133.5705818934
 20
360.821922665
 30
0.0
 10
133.4844695089
 20
360.9354011571
 30
0.0
 10
133.4531197806
 20
361.0633427721
 30
0.0
 10
133.4732234699
 20
361.1459510055
 30
0.0
 10
133.4904293375
 20
361.1830233206
 30
0.0
  0
SPLINE
  5
3C0
100
AcDbEntity
  8
0
100
AcDbSpline
 62
7
  6
BYLAYER
 70
0
 71
3
 72
13
 73
9
 74
0
 42
0.0000001
 43
0.0000001
 44
0.0000000001
 40
0.0
 40
0.0
 40
0.0
 40
0.0
 40
0.263826968
 40
0.3822488412
 40
0.4962928468
 40
0.6109189486
 40
0.7309625159
 40
1.0
 40
1.0
 40
1.0
 40
1.0
 10
139.0820248223
 20
357.4837136683
 30
0.0
 10
139.229413616
 20
357.534277069
 30
0.0
 10
139.458994213
 20
357.5772104032
 30
0.0
 10
139.7506862372
 20
357.528555481
 30
0.0
 10
139.9400359717
 20
357.443894732
 30
0.0
 10
140.101139101
 20
357.3118091232
 30
0.0
 10
140.2788897683
 20
357.0701552
 30
0.0
 10
140.348093349
 20
356.8433176296
 30
0.0
 10
140.3729393186
 20
356.6863739627
 30
0.0
  0
SPLINE
  5
3C1
100
AcDbEntity
  8
0
100
AcDbSpline
 62
7
  6
BYLAYER
 70
0
 71
3
 72
9
 73
5
 74
0
 42
0.0000001
 43
0.0000001
 44
0.0000000001
 40
0.0
 40
0.0
 40
0.0
 40
0.0
 40
0.2648697163
 40
1.0
 40
1.0
 40
1.0
 40
1.0
 10
130.0578918569
 20
353.9539585729
 30
0.0
 10
129.9889738587
 20
354.0308562084
 30
0.0
 10
129.7192186505
 20
354.3121276785
 30
0.0
 10
129.4095804005
 20
354.5577526542
 30
0.0
 10
129.1613794082
 20
354.7010483221
 30
0.0
  0
SPLINE
  5
3C2
100
AcDbEntity
  8
0
100
AcDbSpline
 62
7
  6
BYLAYER
 70
0
 71
3
 72
9
 73
5
 74
0
 42
0.0000001
 43
0.0000001
 44
0.0000000001
 40
0.0
 40
0.0
 40
0.0
 40
0.0
 40
0.5508239087
 40
1.0
 40
1.0
 40
1.0
 40
1.0
 10
119.6814583238
 20
368.8288634899
 30
0.0
 10
119.7145419753
 20
368.8479642309
 30
0.0
 10
119.7806484833
 20
368.8754416142
 30
0.0
 10
119.8544670606
 20
368.8642342919
 30
0.0
 10
119.8814456389
 20
368.84865855
 30
0.0
  0
SPLINE
  5
3C3
100
AcDbEntity
  8
0
100
AcDbSpline
 62
7
  6
BYLAYER
 70
0
 71
3
 72
9
 73
5
 74
0
 42
0.0000001
 43
0.0000001
 44
0.0000000001
 40
0.0
 40
0.0
 40
0.0
 40
0.0
 40
0.2456869366
 40
1.0
 40
1.0
 40
1.0
 40
1.0
 10
131.5681725691
 20
351.6087540125
 30
0.0
 10
131.5468207739
 20
351.676203765
 30
0.0
 10
131.4535307067
 20
351.9486898864
 30
0.0
 10
131.33569283
 20
352.2126691742
 30
0.0
 10
131.2349546414
 20
352.405110565
 30
0.0
  0
SPLINE
  5
3C4
100
AcDbEntity
  8
0
100
AcDbSpline
 62
7
  6
BYLAYER
 70
0
 71
3
 72
9
 73
5
 74
0
 42
0.0000001
 43
0.0000001
 44
0.0000000001
 40
0.0
 40
0.0
 40
0.0
 40
0.0
 40
0.5247509922
 40
1.0
 40
1.0
 40
1.0
 40
1.0
 10
138.9155397081
 20
357.667514208
 30
0.0
 10
138.8881883828
 20
357.6833128859
 30
0.0
 10
138.8309911329
 20
357.7062173545
 30
0.0
 10
138.7685777598
 20
357.7043978407
 30
0.0
 10
138.7409827505
 20
357.6968576923
 30
0.0
  0
SPLINE
  5
3C5
100
AcDbEntity
  8
0
100
AcDbSpline
 62
7
  6
BYLAYER
 70
0
 71
3
 72
9
 73
5
 74
0
 42
0.0000001
 43
0.0000001
 44
0.0000000001
 40
0.0
 40
0.0
 40
0.0
 40
0.0
 40
0.2680774539
 40
1.0
 40
1.0
 40
1.0
 40
1.0
 10
139.0820248223
 20
357.4837136683
 30
0.0
 10
139.0717085641
 20
357.5035001002
 30
0.0
 10
139.0290306791
 20
357.5748217035
 30
0.0
 10
138.9682807256
 20
357.6370164336
 30
0.0
 10
138.915539708
 20
357.667514208
 30
0.0
  0
SPLINE
  5
3C6
100
AcDbEntity
  8
0
100
AcDbSpline
 62
7
  6
BYLAYER
 70
0
 71
3
 72
9
 73
5
 74
0
 42
0.0000001
 43
0.0000001
 44
0.0000000001
 40
0.0
 40
0.0
 40
0.0
 40
0.0
 40
0.2717975931
 40
1.0
 40
1.0
 40
1.0
 40
1.0
 10
138.6685897183
 20
357.4623873617
 30
0.0
 10
138.7058386055
 20
357.4565484435
 30
0.0
 10
138.843367983
 20
357.4410098093
 30
0.0
 10
138.9865968812
 20
357.4510869739
 30
0.0
 10
139.0821807608
 20
357.4837671554
 30
0.0
  0
SPLINE
  5
3C7
100
AcDbEntity
  8
0
100
AcDbSpline
 62
7
  6
BYLAYER
 70
0
 71
3
 72
9
 73
5
 74
0
 42
0.0000001
 43
0.0000001
 44
0.0000000001
 40
0.0
 40
0.0
 40
0.0
 40
0.0
 40
0.5082510198
 40
1.0
 40
1.0
 40
1.0
 40
1.0
 10
138.0515291121
 20
357.7728074855
 30
0.0
 10
138.1459769776
 20
357.7027609489
 30
0.0
 10
138.3413022563
 20
357.5778644973
 30
0.0
 10
138.5575829791
 20
357.4873101111
 30
0.0
 10
138.6685896521
 20
357.4623874562
 30
0.0
  0
SPLINE
  5
3C8
100
AcDbEntity
  8
0
100
AcDbSpline
 62
7
  6
BYLAYER
 70
0
 71
3
 72
11
 73
7
 74
0
 42
0.0000001
 43
0.0000001
 44
0.0000000001
 40
0.0
 40
0.0
 40
0.0
 40
0.0
 40
0.2995676672
 40
0.5800211708
 40
0.8151319444
 40
1.0
 40
1.0
 40
1.0
 40
1.0
 10
138.6685697694
 20
357.462392591
 30
0.0
 10
138.6670784943
 20
357.4890063184
 30
0.0
 10
138.6614153244
 20
357.5404832409
 30
0.0
 10
138.6425939822
 20
357.6108487388
 30
0.0
 10
138.6130028083
 20
357.6668683016
 30
0.0
 10
138.5790922009
 20
357.6889978674
 30
0.0
 10
138.5628438475
 20
357.6915626092
 30
0.0
  0
SPLINE
  5
3C9
100
AcDbEntity
  8
0
100
AcDbSpline
 62
7
  6
BYLAYER
 70
0
 71
3
 72
9
 73
5
 74
0
 42
0.0000001
 43
0.0000001
 44
0.0000000001
 40
0.0
 40
0.0
 40
0.0
 40
0.0
 40
0.5235043701
 40
1.0
 40
1.0
 40
1.0
 40
1.0
 10
96.0813938074
 20
535.7142707544
 30
0.0
 10
96.185894712
 20
535.4645282856
 30
0.0
 10
96.3473854012
 20
534.9703804993
 30
0.0
 10
96.4136121026
 20
534.4527639086
 30
0.0
 10
96.4136121026
 20
534.2063494846
 30
0.0
  0
SPLINE
  5
3CA
100
AcDbEntity
  8
0
100
AcDbSpline
 62
7
  6
BYLAYER
 70
0
 71
3
 72
9
 73
5
 74
0
 42
0.0000001
 43
0.0000001
 44
0.0000000001
 40
0.0
 40
0.0
 40
0.0
 40
0.0
 40
0.247720364
 40
1.0
 40
1.0
 40
1.0
 40
1.0
 10
95.2844670299
 20
537.0232982898
 30
0.0
 10
95.3661102199
 20
536.9262599867
 30
0.0
 10
95.6799425031
 20
536.5215499139
 30
0.0
 10
95.9327383916
 20
536.0695362971
 30
0.0
 10
96.0813938074
 20
535.7142707544
 30
0.0
  0
SPLINE
  5
3CB
100
AcDbEntity
  8
0
100
AcDbSpline
 62
7
  6
BYLAYER
 70
0
 71
3
 72
9
 73
5
 74
0
 42
0.0000001
 43
0.0000001
 44
0.0000000001
 40
0.0
 40
0.0
 40
0.0
 40
0.0
 40
0.2552804756
 40
1.0
 40
1.0
 40
1.0
 40
1.0
 10
96.0813938074
 20
515.6254289282
 30
0.0
 10
96.0608979074
 20
515.6001127003
 30
0.0
 10
95.97644198
 20
515.5044141421
 30
0.0
 10
95.8745676054
 20
515.4239027412
 30
0.0
 10
95.7922781196
 20
515.3763851193
 30
0.0
  0
SPLINE
  5
3CC
100
AcDbEntity
  8
0
100
AcDbSpline
 62
7
  6
BYLAYER
 70
0
 71
3
 72
9
 73
5
 74
0
 42
0.0000001
 43
0.0000001
 44
0.0000000001
 40
0.0
 40
0.0
 40
0.0
 40
0.0
 40
0.5400096136
 40
1.0
 40
1.0
 40
1.0
 40
1.0
 10
96.4136121026
 20
516.749746232
 30
0.0
 10
96.4136121026
 20
516.5357009762
 30
0.0
 10
96.3706971302
 20
516.1364384277
 30
0.0
 10
96.1961202536
 20
515.7671373115
 30
0.0
 10
96.0813938074
 20
515.6254289282
 30
0.0
  0
SPLINE
  5
3CD
100
AcDbEntity
  8
0
100
AcDbSpline
 62
7
  6
BYLAYER
 70
0
 71
3
 72
15
 73
11
 74
0
 42
0.0000001
 43
0.0000001
 44
0.0000000001
 40
0.0
 40
0.0
 40
0.0
 40
0.0
 40
0.0410378667
 40
0.04264324
 40
0.0598910325
 40
0.0883695203
 40
0.1791382201
 40
0.3156236189
 40
0.4983987547
 40
1.0
 40
1.0
 40
1.0
 40
1.0
 10
133.8663222368
 20
564.9073107171
 30
0.0
 10
133.8658935962
 20
564.9080632257
 30
0.0
 10
133.8641244775
 20
564.9094254632
 30
0.0
 10
133.8654487207
 20
564.9096131409
 30
0.0
 10
133.8658694917
 20
564.9083325382
 30
0.0
 10
133.8679993774
 20
564.9066528031
 30
0.0
 10
133.8716408419
 20
564.9024404174
 30
0.0
 10
133.8782240178
 20
564.896914105
 30
0.0
 10
133.891880386
 20
564.8861924084
 30
0.0
 10
133.9041226728
 20
564.8784710819
 30
0.0
 10
133.9132899019
 20
564.8731784994
 30
0.0
  0
SPLINE
  5
3CE
100
AcDbEntity
  8
0
100
AcDbSpline
 62
7
  6
BYLAYER
 70
0
 71
3
 72
10
 73
6
 74
0
 42
0.0000001
 43
0.0000001
 44
0.0000000001
 40
0.0
 40
0.0
 40
0.0
 40
0.0
 40
0.5530187348
 40
0.8046257785
 40
1.0
 40
1.0
 40
1.0
 40
1.0
 10
122.8989933797
 20
571.4568486094
 30
0.0
 10
122.803607905
 20
571.4420923901
 30
0.0
 10
122.6602598309
 20
571.4418003432
 30
0.0
 10
122.489659294
 20
571.4804244401
 30
0.0
 10
122.4169323978
 20
571.5104534439
 30
0.0
 10
122.387401382
 20
571.5275027981
 30
0.0
  0
SPLINE
  5
3CF
100
AcDbEntity
  8
0
100
AcDbSpline
 62
7
  6
BYLAYER
 70
0
 71
3
 72
9
 73
5
 74
0
 42
0.0000001
 43
0.0000001
 44
0.0000000001
 40
0.0
 40
0.0
 40
0.0
 40
0.0
 40
0.2616539681
 40
1.0
 40
1.0
 40
1.0
 40
1.0
 10
137.7473409076
 20
562.4378002644
 30
0.0
 10
137.6809825795
 20
562.5118418596
 30
0.0
 10
137.4179682982
 20
562.7859539026
 30
0.0
 10
137.115462687
 20
563.0244450039
 30
0.0
 10
136.872484713
 20
563.1647252291
 30
0.0
  0
SPLINE
  5
3D0
100
AcDbEntity
  8
0
100
AcDbSpline
 62
7
  6
BYLAYER
 70
0
 71
3
 72
11
 73
7
 74
0
 42
0.0000001
 43
0.0000001
 44
0.0000000001
 40
0.0
 40
0.0
 40
0.0
 40
0.0
 40
0.2364884097
 40
0.4781089699
 40
0.7308006922
 40
1.0
 40
1.0
 40
1.0
 40
1.0
 10
134.9304215996
 20
565.4918412645
 30
0.0
 10
135.0475564613
 20
565.4242149504
 30
0.0
 10
135.2633685905
 20
565.2475133593
 30
0.0
 10
135.4946387363
 20
564.8928922414
 30
0.0
 10
135.6324871077
 20
564.4743855195
 30
0.0
 10
135.6644657066
 20
564.1755448286
 30
0.0
 10
135.6681304787
 20
564.0216251691
 30
0.0
  0
SPLINE
  5
3D1
100
AcDbEntity
  8
0
100
AcDbSpline
 62
7
  6
BYLAYER
 70
0
 71
3
 72
10
 73
6
 74
0
 42
0.0000001
 43
0.0000001
 44
0.0000000001
 40
0.0
 40
0.0
 40
0.0
 40
0.0
 40
0.5141774632
 40
0.7588579068
 40
1.0
 40
1.0
 40
1.0
 40
1.0
 10
123.1710086915
 20
571.5275252411
 30
0.0
 10
123.3951509845
 20
571.6166340455
 30
0.0
 10
123.7547345896
 20
571.6978415328
 30
0.0
 10
124.2239445258
 20
571.6370011847
 30
0.0
 10
124.437941488
 20
571.5495404379
 30
0.0
 10
124.5359086399
 20
571.4929803559
 30
0.0
  0
SPLINE
  5
3D2
100
AcDbEntity
  8
0
100
AcDbSpline
 62
7
  6
BYLAYER
 70
0
 71
3
 72
10
 73
6
 74
0
 42
0.0000001
 43
0.0000001
 44
0.0000000001
 40
0.0
 40
0.0
 40
0.0
 40
0.0
 40
0.5102539608
 40
0.7563070417
 40
1.0
 40
1.0
 40
1.0
 40
1.0
 10
140.3887498349
 20
560.8028401559
 30
0.0
 10
140.3582442796
 20
560.9956250312
 30
0.0
 10
140.2652361917
 20
561.2802619059
 30
0.0
 10
140.0282508027
 20
561.5845262702
 30
0.0
 10
139.8777337641
 20
561.7003325079
 30
0.0
 10
139.7970041688
 20
561.7469407071
 30
0.0
  0
SPLINE
  5
3D3
100
AcDbEntity
  8
0
100
AcDbSpline
 62
7
  6
BYLAYER
 70
0
 71
3
 72
10
 73
6
 74
0
 42
0.0000001
 43
0.0000001
 44
0.0000000001
 40
0.0
 40
0.0
 40
0.0
 40
0.0
 40
0.2446737188
 40
0.4909201924
 40
1.0
 40
1.0
 40
1.0
 40
1.0
 10
139.7970041688
 20
561.7469407071
 30
0.0
 10
139.7205630028
 20
561.7910730364
 30
0.0
 10
139.5553422268
 20
561.8607166233
 30
0.0
 10
139.1964415459
 20
561.9177370687
 30
0.0
 10
138.9192098098
 20
561.8694081057
 30
0.0
 10
138.7454823469
 20
561.8098566535
 30
0.0
  0
SPLINE
  5
3D4
100
AcDbEntity
  8
0
100
AcDbSpline
 62
7
  6
BYLAYER
 70
0
 71
3
 72
9
 73
5
 74
0
 42
0.0000001
 43
0.0000001
 44
0.0000000001
 40
0.0
 40
0.0
 40
0.0
 40
0.0
 40
0.2633249513
 40
1.0
 40
1.0
 40
1.0
 40
1.0
 10
123.1958709809
 20
571.4460765227
 30
0.0
 10
123.2106753771
 20
571.4505289833
 30
0.0
 10
123.2667220786
 20
571.468006112
 30
0.0
 10
123.3220974105
 20
571.4876792299
 30
0.0
 10
123.3622879727
 20
571.5036545512
 30
0.0
  0
SPLINE
  5
3D5
100
AcDbEntity
  8
0
100
AcDbSpline
 62
7
  6
BYLAYER
 70
0
 71
3
 72
9
 73
5
 74
0
 42
0.0000001
 43
0.0000001
 44
0.0000000001
 40
0.0
 40
0.0
 40
0.0
 40
0.0
 40
0.5110461624
 40
1.0
 40
1.0
 40
1.0
 40
1.0
 10
123.3622938879
 20
571.5036223036
 30
0.0
 10
123.3331086587
 20
571.520473549
 30
0.0
 10
123.270238665
 20
571.5456080675
 30
0.0
 10
123.2010360557
 20
571.5392745529
 30
0.0
 10
123.1710338342
 20
571.5274620218
 30
0.0
  0
SPLINE
  5
3D6
100
AcDbEntity
  8
0
100
AcDbSpline
 62
7
  6
BYLAYER
 70
0
 71
3
 72
10
 73
6
 74
0
 42
0.0000001
 43
0.0000001
 44
0.0000000001
 40
0.0
 40
0.0
 40
0.0
 40
0.0
 40
0.3479576076
 40
0.6360944026
 40
1.0
 40
1.0
 40
1.0
 40
1.0
 10
122.9601463681
 20
571.3881297432
 30
0.0
 10
122.9555129266
 20
571.398114771
 30
0.0
 10
122.9460921501
 20
571.4162987517
 30
0.0
 10
122.9296249324
 20
571.4417808195
 30
0.0
 10
122.9105321147
 20
571.4583587562
 30
0.0
 10
122.8991314394
 20
571.4567600487
 30
0.0
  0
SPLINE
  5
3D7
100
AcDbEntity
  8
0
100
AcDbSpline
 62
7
  6
BYLAYER
 70
0
 71
3
 72
10
 73
6
 74
0
 42
0.0000001
 43
0.0000001
 44
0.0000000001
 40
0.0
 40
0.0
 40
0.0
 40
0.0
 40
0.5238047794
 40
0.7720092394
 40
1.0
 40
1.0
 40
1.0
 40
1.0
 10
138.6843976758
 20
561.5788651783
 30
0.0
 10
138.949579094
 20
561.2000270405
 30
0.0
 10
139.2690659149
 20
560.5850525113
 30
0.0
 10
139.5026515524
 20
559.7315015762
 30
0.0
 10
139.5469461726
 20
559.3105187698
 30
0.0
 10
139.5469461726
 20
559.1092428707
 30
0.0
  0
SPLINE
  5
3D8
100
AcDbEntity
  8
0
100
AcDbSpline
 62
7
  6
BYLAYER
 70
0
 71
3
 72
11
 73
7
 74
0
 42
0.0000001
 43
0.0000001
 44
0.0000000001
 40
0.0
 40
0.0
 40
0.0
 40
0.0
 40
0.2897977118
 40
0.5490279476
 40
0.7821964336
 40
1.0
 40
1.0
 40
1.0
 40
1.0
 10
139.5469461726
 20
559.1092428707
 30
0.0
 10
139.6786262844
 20
559.1852679649
 30
0.0
 10
139.9174844507
 20
559.3496761194
 30
0.0
 10
140.2027884022
 20
559.6497332702
 30
0.0
 10
140.3834449755
 20
559.9814664298
 30
0.0
 10
140.4256041422
 20
560.2196881049
 30
0.0
 10
140.4255991984
 20
560.333965134
 30
0.0
  0
SPLINE
  5
3D9
100
AcDbEntity
  8
0
100
AcDbSpline
 62
7
  6
BYLAYER
 70
0
 71
3
 72
9
 73
5
 74
0
 42
0.0000001
 43
0.0000001
 44
0.0000000001
 40
0.0
 40
0.0
 40
0.0
 40
0.0
 40
0.4491760912
 40
1.0
 40
1.0
 40
1.0
 40
1.0
 10
122.3873920906
 20
571.5274867045
 30
0.0
 10
122.3604135123
 20
571.5430624464
 30
0.0
 10
122.2865949349
 20
571.5542697685
 30
0.0
 10
122.2204884269
 20
571.5267923854
 30
0.0
 10
122.1874047754
 20
571.5076916443
 30
0.0
  0
SPLINE
  5
3DA
100
AcDbEntity
  8
0
100
AcDbSpline
 62
7
  6
BYLAYER
 70
0
 71
3
 72
9
 73
5
 74
0
 42
0.0000001
 43
0.0000001
 44
0.0000000001
 40
0.0
 40
0.0
 40
0.0
 40
0.0
 40
0.4491760913
 40
1.0
 40
1.0
 40
1.0
 40
1.0
 10
136.8724754215
 20
563.1647091354
 30
0.0
 10
136.8454968431
 20
563.1802848772
 30
0.0
 10
136.7716782659
 20
563.1914921995
 30
0.0
 10
136.7055717579
 20
563.1640148163
 30
0.0
 10
136.6724881064
 20
563.1449140752
 30
0.0
  0
SPLINE
  5
3DB
100
AcDbEntity
  8
0
100
AcDbSpline
 62
7
  6
BYLAYER
 70
0
 71
3
 72
10
 73
6
 74
0
 42
0.0000001
 43
0.0000001
 44
0.0000000001
 40
0.0
 40
0.0
 40
0.0
 40
0.0
 40
0.3594575933
 40
0.6533117283
 40
1.0
 40
1.0
 40
1.0
 40
1.0
 10
138.041642078
 20
562.1093187438
 30
0.0
 10
138.0266224514
 20
562.1262944236
 30
0.0
 10
137.9746659701
 20
562.1209167126
 30
0.0
 10
137.9189786505
 20
562.0992411353
 30
0.0
 10
137.8822860003
 20
562.08031951
 30
0.0
 10
137.8633536939
 20
562.0693889418
 30
0.0
  0
SPLINE
  5
3DC
100
AcDbEntity
  8
0
100
AcDbSpline
 62
7
  6
BYLAYER
 70
0
 71
3
 72
11
 73
7
 74
0
 42
0.0000001
 43
0.0000001
 44
0.0000000001
 40
0.0
 40
0.0
 40
0.0
 40
0.0
 40
0.2264843222
 40
0.4635844327
 40
0.7198130652
 40
1.0
 40
1.0
 40
1.0
 40
1.0
 10
134.9304212664
 20
565.4918406874
 30
0.0
 10
134.8511496092
 20
565.5376136003
 30
0.0
 10
134.6749020528
 20
565.6088553548
 30
0.0
 10
134.3832189746
 20
565.6439040929
 30
0.0
 10
134.0702244363
 20
565.6092492577
 30
0.0
 10
133.8620323876
 20
565.5443511699
 30
0.0
 10
133.7568009248
 20
565.5025154567
 30
0.0
  0
SPLINE
  5
3DD
100
AcDbEntity
  8
0
100
AcDbSpline
 62
7
  6
BYLAYER
 70
0
 71
3
 72
11
 73
7
 74
0
 42
0.0000001
 43
0.0000001
 44
0.0000000001
 40
0.0
 40
0.0
 40
0.0
 40
0.0
 40
0.2178035647
 40
0.4509720555
 40
0.7102022888
 40
1.0
 40
1.0
 40
1.0
 40
1.0
 10
140.4255991018
 20
542.8773618814
 30
0.0
 10
140.4256041139
 20
542.763084854
 30
0.0
 10
140.383445019
 20
542.5248631464
 30
0.0
 10
140.202788379
 20
542.1931300224
 30
0.0
 10
139.9174844531
 20
541.8930728599
 30
0.0
 10
139.6786262832
 20
541.7286647116
 30
0.0
 10
139.5469461726
 20
541.6526396181
 30
0.0
  0
SPLINE
  5
3DE
100
AcDbEntity
  8
0
100
AcDbSpline
 62
7
  6
BYLAYER
 70
0
 71
3
 72
11
 73
7
 74
0
 42
0.0000001
 43
0.0000001
 44
0.0000000001
 40
0.0
 40
0.0
 40
0.0
 40
0.0
 40
0.2782714675
 40
0.5349972008
 40
0.7734934663
 40
1.0
 40
1.0
 40
1.0
 40
1.0
 10
123.3622879727
 20
571.5036545512
 30
0.0
 10
123.457393859
 20
571.5414647501
 30
0.0
 10
123.6457012165
 20
571.6016391406
 30
0.0
 10
123.9289811924
 20
571.6415030595
 30
0.0
 10
124.1958950165
 20
571.6254913454
 30
0.0
 10
124.361641954
 20
571.5761065396
 30
0.0
 10
124.4379123418
 20
571.5425960255
 30
0.0
  0
SPLINE
  5
3DF
100
AcDbEntity
  8
0
100
AcDbSpline
 62
7
  6
BYLAYER
 70
0
 71
3
 72
15
 73
11
 74
0
 42
0.0000001
 43
0.0000001
 44
0.0000000001
 40
0.0
 40
0.0
 40
0.0
 40
0.0
 40
0.1435673125
 40
0.2740625534
 40
0.3937511921
 40
0.5067214812
 40
0.6185881506
 40
0.7352200172
 40
0.8614252796
 40
1.0
 40
1.0
 40
1.0
 40
1.0
 10
135.543682735
 20
563.9857902083
 30
0.0
 10
135.534632356
 20
564.0917410422
 30
0.0
 10
135.5022216451
 20
564.293298117
 30
0.0
 10
135.4019021421
 20
564.5693116381
 30
0.0
 10
135.2534806221
 20
564.7970059509
 30
0.0
 10
135.0595674714
 20
564.9681458986
 30
0.0
 10
134.8264828697
 20
565.0751822838
 30
0.0
 10
134.5636256548
 20
565.1146912889
 30
0.0
 10
134.2801541225
 20
565.08740087
 30
0.0
 10
134.0915027808
 20
565.0292998801
 30
0.0
 10
133.9961247115
 20
564.9913822735
 30
0.0
  0
SPLINE
  5
3E0
100
AcDbEntity
  8
0
100
AcDbSpline
 62
7
  6
BYLAYER
 70
0
 71
3
 72
9
 73
5
 74
0
 42
0.0000001
 43
0.0000001
 44
0.0000000001
 40
0.0
 40
0.0
 40
0.0
 40
0.0
 40
0.5508239271
 40
1.0
 40
1.0
 40
1.0
 40
1.0
 10
133.7132932953
 20
564.8533673456
 30
0.0
 10
133.7463769479
 20
564.8724680873
 30
0.0
 10
133.8124834562
 20
564.899945471
 30
0.0
 10
133.8863020334
 20
564.8887381474
 30
0.0
 10
133.9132806104
 20
564.8731624057
 30
0.0
  0
SPLINE
  5
3E1
100
AcDbEntity
  8
0
100
AcDbSpline
 62
7
  6
BYLAYER
 70
0
 71
3
 72
9
 73
5
 74
0
 42
0.0000001
 43
0.0000001
 44
0.0000000001
 40
0.0
 40
0.0
 40
0.0
 40
0.0
 40
0.5227144052
 40
1.0
 40
1.0
 40
1.0
 40
1.0
 10
133.7568009248
 20
565.5025154567
 30
0.0
 10
133.7038426452
 20
565.4814721717
 30
0.0
 10
133.6067986994
 20
565.4280499273
 30
0.0
 10
133.5322284992
 20
565.3445779707
 30
0.0
 10
133.5062346144
 20
565.2995026298
 30
0.0
  0
SPLINE
  5
3E2
100
AcDbEntity
  8
0
100
AcDbSpline
 62
7
  6
BYLAYER
 70
0
 71
3
 72
11
 73
7
 74
0
 42
0.0000001
 43
0.0000001
 44
0.0000000001
 40
0.0
 40
0.0
 40
0.0
 40
0.0
 40
0.2360192243
 40
0.5094022385
 40
0.7771830509
 40
1.0
 40
1.0
 40
1.0
 40
1.0
 10
133.9961478716
 20
564.9913831018
 30
0.0
 10
134.0019199273
 20
565.0375399696
 30
0.0
 10
133.9976626028
 20
565.1394673156
 30
0.0
 10
133.9508347527
 20
565.2870727438
 30
0.0
 10
133.8692059972
 20
565.4156743399
 30
0.0
 10
133.7948389037
 20
565.4805276946
 30
0.0
 10
133.7568068495
 20
565.5024829932
 30
0.0
  0
SPLINE
  5
3E3
100
AcDbEntity
  8
0
100
AcDbSpline
 62
7
  6
BYLAYER
 70
0
 71
3
 72
11
 73
7
 74
0
 42
0.0000001
 43
0.0000001
 44
0.0000000001
 40
0.0
 40
0.0
 40
0.0
 40
0.0
 40
0.2536202974
 40
0.526775203
 40
0.7834620059
 40
1.0
 40
1.0
 40
1.0
 40
1.0
 10
133.5062368794
 20
565.2994784527
 30
0.0
 10
133.5553687202
 20
565.2918810619
 30
0.0
 10
133.6554507455
 20
565.2599578317
 30
0.0
 10
133.7832458209
 20
565.1702174206
 30
0.0
 10
133.8706080319
 20
565.0488925321
 30
0.0
 10
133.8926143491
 20
564.9555718803
 30
0.0
 10
133.8926147595
 20
564.9131251441
 30
0.0
  0
SPLINE
  5
3E4
100
AcDbEntity
  8
0
100
AcDbSpline
 62
7
  6
BYLAYER
 70
0
 71
3
 72
9
 73
5
 74
0
 42
0.0000001
 43
0.0000001
 44
0.0000000001
 40
0.0
 40
0.0
 40
0.0
 40
0.0
 40
0.5181746176
 40
1.0
 40
1.0
 40
1.0
 40
1.0
 10
133.9961345085
 20
564.9913713621
 30
0.0
 10
133.9736160873
 20
564.9864740156
 30
0.0
 10
133.9310570524
 20
564.9686793377
 30
0.0
 10
133.9016413471
 20
564.9325624072
 30
0.0
 10
133.8926169507
 20
564.9131271269
 30
0.0
  0
SPLINE
  5
3E5
100
AcDbEntity
  8
0
100
AcDbSpline
 62
7
  6
BYLAYER
 70
0
 71
3
 72
11
 73
7
 74
0
 42
0.0000001
 43
0.0000001
 44
0.0000000001
 40
0.0
 40
0.0
 40
0.0
 40
0.0
 40
0.2897980754
 40
0.5490358063
 40
0.7822106197
 40
1.0
 40
1.0
 40
1.0
 40
1.0
 10
139.5469461726
 20
541.6526396181
 30
0.0
 10
139.5469461726
 20
541.5005829033
 30
0.0
 10
139.5239878932
 20
541.2115084922
 30
0.0
 10
139.406782072
 20
540.8143717174
 30
0.0
 10
139.2097929131
 20
540.4920596766
 30
0.0
 10
139.0245799493
 20
540.3364089692
 30
0.0
 10
138.9256040907
 20
540.2792925183
 30
0.0
  0
SPLINE
  5
3E6
100
AcDbEntity
  8
0
100
AcDbSpline
 62
7
  6
BYLAYER
 70
0
 71
3
 72
9
 73
5
 74
0
 42
0.0000001
 43
0.0000001
 44
0.0000000001
 40
0.0
 40
0.0
 40
0.0
 40
0.0
 40
0.4848756425
 40
1.0
 40
1.0
 40
1.0
 40
1.0
 10
131.1474669514
 20
535.7885980579
 30
0.0
 10
131.2397635864
 20
535.8418839801
 30
0.0
 10
131.4130260454
 20
535.9838321463
 30
0.0
 10
131.5352002682
 20
536.1703137764
 30
0.0
 10
131.5855021205
 20
536.2717490695
 30
0.0
  0
SPLINE
  5
3E7
100
AcDbEntity
  8
0
100
AcDbSpline
 62
7
  6
BYLAYER
 70
0
 71
3
 72
9
 73
5
 74
0
 42
0.0000001
 43
0.0000001
 44
0.0000000001
 40
0.0
 40
0.0
 40
0.0
 40
0.0
 40
0.2288501249
 40
1.0
 40
1.0
 40
1.0
 40
1.0
 10
131.5855021205
 20
536.2717490695
 30
0.0
 10
131.6164647978
 20
536.3341862981
 30
0.0
 10
131.7314512408
 20
536.617149345
 30
0.0
 10
131.7688039633
 20
536.9271118375
 30
0.0
 10
131.7688039633
 20
537.1619539255
 30
0.0
  0
SPLINE
  5
3E8
100
AcDbEntity
  8
0
100
AcDbSpline
 62
7
  6
BYLAYER
 70
0
 71
3
 72
9
 73
5
 74
0
 42
0.0000001
 43
0.0000001
 44
0.0000000001
 40
0.0
 40
0.0
 40
0.0
 40
0.0
 40
0.2466540355
 40
1.0
 40
1.0
 40
1.0
 40
1.0
 10
137.8633537219
 20
562.0693896195
 30
0.0
 10
137.8783030922
 20
562.0527077164
 30
0.0
 10
137.9409191359
 20
561.9868954642
 30
0.0
 10
138.0112396312
 20
561.9284594571
 30
0.0
 10
138.0673325176
 20
561.8892886431
 30
0.0
  0
SPLINE
  5
3E9
100
AcDbEntity
  8
0
100
AcDbSpline
 62
7
  6
BYLAYER
 70
0
 71
3
 72
11
 73
7
 74
0
 42
0.0000001
 43
0.0000001
 44
0.0000000001
 40
0.0
 40
0.0
 40
0.0
 40
0.0
 40
0.3783991278
 40
0.6914111462
 40
0.9037264758
 40
1.0
 40
1.0
 40
1.0
 40
1.0
 10
138.0673405067
 20
561.8892817958
 30
0.0
 10
138.079551772
 20
561.9039322796
 30
0.0
 10
138.1018947419
 20
561.9300519084
 30
0.0
 10
138.1346052929
 20
561.9641915378
 30
0.0
 10
138.155451465
 20
561.982707109
 30
0.0
 10
138.172883585
 20
561.9930699979
 30
0.0
 10
138.1768220008
 20
561.9902353984
 30
0.0
  0
SPLINE
  5
3EA
100
AcDbEntity
  8
0
100
AcDbSpline
 62
7
  6
BYLAYER
 70
0
 71
3
 72
9
 73
5
 74
0
 42
0.0000001
 43
0.0000001
 44
0.0000000001
 40
0.0
 40
0.0
 40
0.0
 40
0.0
 40
0.237329614
 40
1.0
 40
1.0
 40
1.0
 40
1.0
 10
136.8028338974
 20
563.0650253584
 30
0.0
 10
136.8703819094
 20
563.0212230903
 30
0.0
 10
137.1477778765
 20
562.8255819999
 30
0.0
 10
137.3963322279
 20
562.5904849725
 30
0.0
 10
137.5690005551
 20
562.397824326
 30
0.0
  0
SPLINE
  5
3EB
100
AcDbEntity
  8
0
100
AcDbSpline
 62
7
  6
BYLAYER
 70
0
 71
3
 72
10
 73
6
 74
0
 42
0.0000001
 43
0.0000001
 44
0.0000000001
 40
0.0
 40
0.0
 40
0.0
 40
0.0
 40
0.3652377263
 40
0.6555075115
 40
1.0
 40
1.0
 40
1.0
 40
1.0
 10
137.5690005551
 20
562.3978243261
 30
0.0
 10
137.5889708263
 20
562.4093540987
 30
0.0
 10
137.6266068909
 20
562.4286283007
 30
0.0
 10
137.6827518649
 20
562.4500332633
 30
0.0
 10
137.732803766
 20
562.453978298
 30
0.0
 10
137.7473394611
 20
562.4377989678
 30
0.0
  0
SPLINE
  5
3EC
100
AcDbEntity
  8
0
100
AcDbSpline
 62
7
  6
BYLAYER
 70
0
 71
3
 72
9
 73
5
 74
0
 42
0.0000001
 43
0.0000001
 44
0.0000000001
 40
0.0
 40
0.0
 40
0.0
 40
0.0
 40
0.5089491479
 40
1.0
 40
1.0
 40
1.0
 40
1.0
 10
122.9601441949
 20
571.3881530299
 30
0.0
 10
122.8564343788
 20
571.3721090275
 30
0.0
 10
122.6484584917
 20
571.3648168188
 30
0.0
 10
122.4435294441
 20
571.4035682074
 30
0.0
 10
122.3476531931
 20
571.4361243023
 30
0.0
  0
SPLINE
  5
3ED
100
AcDbEntity
  8
0
100
AcDbSpline
 62
7
  6
BYLAYER
 70
0
 71
3
 72
9
 73
5
 74
0
 42
0.0000001
 43
0.0000001
 44
0.0000000001
 40
0.0
 40
0.0
 40
0.0
 40
0.0
 40
0.2603869441
 40
1.0
 40
1.0
 40
1.0
 40
1.0
 10
122.3476531931
 20
571.4361243023
 30
0.0
 10
122.3332154133
 20
571.4410268483
 30
0.0
 10
122.2781992423
 20
571.4610725702
 30
0.0
 10
122.2248992466
 20
571.4860446912
 30
0.0
 10
122.1873919813
 20
571.5076990311
 30
0.0
  0
SPLINE
  5
3EE
100
AcDbEntity
  8
0
100
AcDbSpline
 62
7
  6
BYLAYER
 70
0
 71
3
 72
11
 73
7
 74
0
 42
0.0000001
 43
0.0000001
 44
0.0000000001
 40
0.0
 40
0.0
 40
0.0
 40
0.0
 40
0.2938600664
 40
0.5470813973
 40
0.7735418202
 40
1.0
 40
1.0
 40
1.0
 40
1.0
 10
133.7133060187
 20
564.8533600001
 30
0.0
 10
133.6673760992
 20
564.8798770516
 30
0.0
 10
133.5863899171
 20
564.9384003871
 30
0.0
 10
133.5002775327
 20
565.0518788792
 30
0.0
 10
133.4689278043
 20
565.1798204942
 30
0.0
 10
133.4890314936
 20
565.2624287276
 30
0.0
 10
133.5062373612
 20
565.2995010427
 30
0.0
  0
SPLINE
  5
3EF
100
AcDbEntity
  8
0
100
AcDbSpline
 62
7
  6
BYLAYER
 70
0
 71
3
 72
13
 73
9
 74
0
 42
0.0000001
 43
0.0000001
 44
0.0000000001
 40
0.0
 40
0.0
 40
0.0
 40
0.0
 40
0.263826968
 40
0.3822488412
 40
0.4962928468
 40
0.6109189486
 40
0.7309625159
 40
1.0
 40
1.0
 40
1.0
 40
1.0
 10
139.097832846
 20
561.6001913904
 30
0.0
 10
139.2452216397
 20
561.6507547911
 30
0.0
 10
139.4748022367
 20
561.6936881253
 30
0.0
 10
139.7664942609
 20
561.6450332031
 30
0.0
 10
139.9558439955
 20
561.5603724541
 30
0.0
 10
140.1169471247
 20
561.4282868453
 30
0.0
 10
140.294697792
 20
561.1866329221
 30
0.0
 10
140.3639013728
 20
560.9597953517
 30
0.0
 10
140.3887473423
 20
560.8028516849
 30
0.0
  0
SPLINE
  5
3F0
100
AcDbEntity
  8
0
100
AcDbSpline
 62
7
  6
BYLAYER
 70
0
 71
3
 72
9
 73
5
 74
0
 42
0.0000001
 43
0.0000001
 44
0.0000000001
 40
0.0
 40
0.0
 40
0.0
 40
0.0
 40
0.2648697163
 40
1.0
 40
1.0
 40
1.0
 40
1.0
 10
130.0736998806
 20
558.070436295
 30
0.0
 10
130.0047818824
 20
558.1473339305
 30
0.0
 10
129.7350266742
 20
558.4286054006
 30
0.0
 10
129.4253884242
 20
558.6742303763
 30
0.0
 10
129.1771874319
 20
558.8175260442
 30
0.0
  0
SPLINE
  5
3F1
100
AcDbEntity
  8
0
100
AcDbSpline
 62
7
  6
BYLAYER
 70
0
 71
3
 72
9
 73
5
 74
0
 42
0.0000001
 43
0.0000001
 44
0.0000000001
 40
0.0
 40
0.0
 40
0.0
 40
0.0
 40
0.2456869366
 40
1.0
 40
1.0
 40
1.0
 40
1.0
 10
131.5839805929
 20
555.7252317347
 30
0.0
 10
131.5626287976
 20
555.7926814871
 30
0.0
 10
131.4693387304
 20
556.0651676085
 30
0.0
 10
131.3515008537
 20
556.3291468964
 30
0.0
 10
131.2507626652
 20
556.5215882871
 30
0.0
  0
SPLINE
  5
3F2
100
AcDbEntity
  8
0
100
AcDbSpline
 62
7
  6
BYLAYER
 70
0
 71
3
 72
9
 73
5
 74
0
 42
0.0000001
 43
0.0000001
 44
0.0000000001
 40
0.0
 40
0.0
 40
0.0
 40
0.0
 40
0.5247509922
 40
1.0
 40
1.0
 40
1.0
 40
1.0
 10
138.9313477318
 20
561.7839919301
 30
0.0
 10
138.9039964066
 20
561.799790608
 30
0.0
 10
138.8467991566
 20
561.8226950766
 30
0.0
 10
138.7843857835
 20
561.8208755628
 30
0.0
 10
138.7567907742
 20
561.8133354144
 30
0.0
  0
SPLINE
  5
3F3
100
AcDbEntity
  8
0
100
AcDbSpline
 62
7
  6
BYLAYER
 70
0
 71
3
 72
9
 73
5
 74
0
 42
0.0000001
 43
0.0000001
 44
0.0000000001
 40
0.0
 40
0.0
 40
0.0
 40
0.0
 40
0.2680774539
 40
1.0
 40
1.0
 40
1.0
 40
1.0
 10
139.097832846
 20
561.6001913904
 30
0.0
 10
139.0875165878
 20
561.6199778223
 30
0.0
 10
139.0448387028
 20
561.6912994256
 30
0.0
 10
138.9840887493
 20
561.7534941558
 30
0.0
 10
138.9313477317
 20
561.7839919301
 30
0.0
  0
SPLINE
  5
3F4
100
AcDbEntity
  8
0
100
AcDbSpline
 62
7
  6
BYLAYER
 70
0
 71
3
 72
9
 73
5
 74
0
 42
0.0000001
 43
0.0000001
 44
0.0000000001
 40
0.0
 40
0.0
 40
0.0
 40
0.0
 40
0.2717975931
 40
1.0
 40
1.0
 40
1.0
 40
1.0
 10
138.684397742
 20
561.5788650838
 30
0.0
 10
138.7216466292
 20
561.5730261656
 30
0.0
 10
138.8591760067
 20
561.5574875314
 30
0.0
 10
139.0024049049
 20
561.5675646961
 30
0.0
 10
139.0979887845
 20
561.6002448775
 30
0.0
  0
SPLINE
  5
3F5
100
AcDbEntity
  8
0
100
AcDbSpline
 62
7
  6
BYLAYER
 70
0
 71
3
 72
9
 73
5
 74
0
 42
0.0000001
 43
0.0000001
 44
0.0000000001
 40
0.0
 40
0.0
 40
0.0
 40
0.0
 40
0.5082510198
 40
1.0
 40
1.0
 40
1.0
 40
1.0
 10
138.0673371359
 20
561.8892852076
 30
0.0
 10
138.1617850013
 20
561.819238671
 30
0.0
 10
138.3571102801
 20
561.6943422194
 30
0.0
 10
138.5733910028
 20
561.6037878332
 30
0.0
 10
138.6843976758
 20
561.5788651783
 30
0.0
  0
SPLINE
  5
3F6
100
AcDbEntity
  8
0
100
AcDbSpline
 62
7
  6
BYLAYER
 70
0
 71
3
 72
11
 73
7
 74
0
 42
0.0000001
 43
0.0000001
 44
0.0000000001
 40
0.0
 40
0.0
 40
0.0
 40
0.0
 40
0.2995676672
 40
0.5800211708
 40
0.8151319444
 40
1.0
 40
1.0
 40
1.0
 40
1.0
 10
138.6843777931
 20
561.5788703131
 30
0.0
 10
138.6828865181
 20
561.6054840405
 30
0.0
 10
138.6772233481
 20
561.656960963
 30
0.0
 10
138.6584020059
 20
561.7273264609
 30
0.0
 10
138.628810832
 20
561.7833460237
 30
0.0
 10
138.5949002246
 20
561.8054755895
 30
0.0
 10
138.5786518712
 20
561.8080403313
 30
0.0
  0
SPLINE
  5
3F7
100
AcDbEntity
  8
0
100
AcDbSpline
 62
7
  6
BYLAYER
 70
0
 71
3
 72
9
 73
5
 74
0
 42
0.0000001
 43
0.0000001
 44
0.0000000001
 40
0.0
 40
0.0
 40
0.0
 40
0.0
 40
0.4999994563
 40
1.0
 40
1.0
 40
1.0
 40
1.0
 10
136.0379627967
 20
376.7308981434
 30
0.0
 10
135.8898721017
 20
376.6453984511
 30
0.0
 10
135.5390287403
 20
376.5777805687
 30
0.0
 10
135.1881853408
 20
376.6453969345
 30
0.0
 10
135.0400937071
 20
376.7308957448
 30
0.0
  0
SPLINE
  5
3F8
100
AcDbEntity
  8
0
100
AcDbSpline
 62
7
  6
BYLAYER
 70
0
 71
3
 72
11
 73
7
 74
0
 42
0.0000001
 43
0.0000001
 44
0.0000000001
 40
0.0
 40
0.0
 40
0.0
 40
0.0
 40
0.2897762308
 40
0.5490772249
 40
0.782240996
 40
1.0
 40
1.0
 40
1.0
 40
1.0
 10
131.7529959396
 20
333.0454762034
 30
0.0
 10
131.7529959396
 20
332.8934324636
 30
0.0
 10
131.7299994433
 20
332.604348767
 30
0.0
 10
131.6128546113
 20
332.2071705828
 30
0.0
 10
131.4157563585
 20
331.8849178935
 30
0.0
 10
131.2306068015
 20
331.729251107
 30
0.0
 10
131.1316585071
 20
331.6721210598
 30
0.0
  0
SPLINE
  5
3F9
100
AcDbEntity
  8
0
100
AcDbSpline
 62
7
  6
BYLAYER
 70
0
 71
3
 72
11
 73
7
 74
0
 42
0.0000001
 43
0.0000001
 44
0.0000000001
 40
0.0
 40
0.0
 40
0.0
 40
0.0
 40
0.2585272494
 40
0.5202349154
 40
0.7713777262
 40
1.0
 40
1.0
 40
1.0
 40
1.0
 10
130.5281792128
 20
353.4292192217
 30
0.0
 10
130.7141651571
 20
353.2216989844
 30
0.0
 10
131.0514850228
 20
352.7698493717
 30
0.0
 10
131.437359906
 20
352.0293976321
 30
0.0
 10
131.6867134632
 20
351.2662392047
 30
0.0
 10
131.7529959396
 20
350.7485120234
 30
0.0
 10
131.7529959396
 20
350.502079456
 30
0.0
  0
SPLINE
  5
3FA
100
AcDbEntity
  8
0
100
AcDbSpline
 62
7
  6
BYLAYER
 70
0
 71
3
 72
9
 73
5
 74
0
 42
0.0000001
 43
0.0000001
 44
0.0000000001
 40
0.0
 40
0.0
 40
0.0
 40
0.0
 40
0.2344133346
 40
1.0
 40
1.0
 40
1.0
 40
1.0
 10
129.1613794082
 20
354.7010483221
 30
0.0
 10
129.2405389748
 20
354.655346559
 30
0.0
 10
129.568731102
 20
354.4440081768
 30
0.0
 10
129.8586518245
 20
354.1762675167
 30
0.0
 10
130.0578918569
 20
353.9539585729
 30
0.0
  0
SPLINE
  5
3FB
100
AcDbEntity
  8
0
100
AcDbSpline
 62
7
  6
BYLAYER
 70
0
 71
3
 72
11
 73
7
 74
0
 42
0.0000001
 43
0.0000001
 44
0.0000000001
 40
0.0
 40
0.0
 40
0.0
 40
0.0
 40
0.220188547
 40
0.4544107215
 40
0.7127016551
 40
1.0
 40
1.0
 40
1.0
 40
1.0
 10
111.186153486
 20
364.6005190284
 30
0.0
 10
111.2483941145
 20
364.6364546995
 30
0.0
 10
111.390061634
 20
364.6895628127
 30
0.0
 10
111.6253090852
 20
364.7016796894
 30
0.0
 10
111.8767772044
 20
364.6501449791
 30
0.0
 10
112.0414012924
 20
364.5792813546
 30
0.0
 10
112.1243711568
 20
364.5355816766
 30
0.0
  0
SPLINE
  5
3FC
100
AcDbEntity
  8
0
100
AcDbSpline
 62
7
  6
BYLAYER
 70
0
 71
3
 72
9
 73
5
 74
0
 42
0.0000001
 43
0.0000001
 44
0.0000000001
 40
0.0
 40
0.0
 40
0.0
 40
0.0
 40
0.2469986656
 40
1.0
 40
1.0
 40
1.0
 40
1.0
 10
95.7764666454
 20
311.2599133675
 30
0.0
 10
95.803353432
 20
311.2754370662
 30
0.0
 10
95.9092830587
 20
311.3432909972
 30
0.0
 10
96.0019846065
 20
311.4312446691
 30
0.0
 10
96.0619107948
 20
311.5045057541
 30
0.0
  0
SPLINE
  5
3FD
100
AcDbEntity
  8
0
100
AcDbSpline
 62
7
  6
BYLAYER
 70
0
 71
3
 72
9
 73
5
 74
0
 42
0.0000001
 43
0.0000001
 44
0.0000000001
 40
0.0
 40
0.0
 40
0.0
 40
0.0
 40
0.2465846472
 40
1.0
 40
1.0
 40
1.0
 40
1.0
 10
96.0619107948
 20
311.5045057541
 30
0.0
 10
96.0702973571
 20
311.5147585112
 30
0.0
 10
96.1035844817
 20
311.5569260034
 30
0.0
 10
96.1339634415
 20
311.6013760513
 30
0.0
 10
96.1551843251
 20
311.6358378725
 30
0.0
  0
SPLINE
  5
3FE
100
AcDbEntity
  8
0
100
AcDbSpline
 62
7
  6
BYLAYER
 70
0
 71
3
 72
9
 73
5
 74
0
 42
0.0000001
 43
0.0000001
 44
0.0000000001
 40
0.0
 40
0.0
 40
0.0
 40
0.0
 40
0.2280251398
 40
1.0
 40
1.0
 40
1.0
 40
1.0
 10
96.1987001831
 20
311.712148667
 30
0.0
 10
96.2323079768
 20
311.7758739149
 30
0.0
 10
96.3575690703
 20
312.0670942346
 30
0.0
 10
96.3978040789
 20
312.3893636435
 30
0.0
 10
96.3978040789
 20
312.6332685098
 30
0.0
  0
SPLINE
  5
3FF
100
AcDbEntity
  8
0
100
AcDbSpline
 62
7
  6
BYLAYER
 70
0
 71
3
 72
9
 73
5
 74
0
 42
0.0000001
 43
0.0000001
 44
0.0000000001
 40
0.0
 40
0.0
 40
0.0
 40
0.0
 40
0.2516674609
 40
1.0
 40
1.0
 40
1.0
 40
1.0
 10
95.9020363176
 20
331.949876707
 30
0.0
 10
95.8596310961
 20
332.0327647935
 30
0.0
 10
95.6822452314
 20
332.3574762519
 30
0.0
 10
95.4702299821
 20
332.6634336822
 30
0.0
 10
95.2937489739
 20
332.8767405804
 30
0.0
  0
SPLINE
  5
400
100
AcDbEntity
  8
0
100
AcDbSpline
 62
7
  6
BYLAYER
 70
0
 71
3
 72
11
 73
7
 74
0
 42
0.0000001
 43
0.0000001
 44
0.0000000001
 40
0.0
 40
0.0
 40
0.0
 40
0.0
 40
0.2897762308
 40
0.5490772249
 40
0.782240996
 40
1.0
 40
1.0
 40
1.0
 40
1.0
 10
131.7688039633
 20
537.1619539255
 30
0.0
 10
131.7688039633
 20
537.0099101857
 30
0.0
 10
131.745807467
 20
536.7208264891
 30
0.0
 10
131.628662635
 20
536.3236483049
 30
0.0
 10
131.4315643822
 20
536.0013956156
 30
0.0
 10
131.2464148252
 20
535.8457288291
 30
0.0
 10
131.1474665308
 20
535.7885987819
 30
0.0
  0
SPLINE
  5
401
100
AcDbEntity
  8
0
100
AcDbSpline
 62
7
  6
BYLAYER
 70
0
 71
3
 72
11
 73
7
 74
0
 42
0.0000001
 43
0.0000001
 44
0.0000000001
 40
0.0
 40
0.0
 40
0.0
 40
0.0
 40
0.2585272494
 40
0.5202349154
 40
0.7713777262
 40
1.0
 40
1.0
 40
1.0
 40
1.0
 10
130.5439872365
 20
557.5456969438
 30
0.0
 10
130.7299731808
 20
557.3381767065
 30
0.0
 10
131.0672930465
 20
556.8863270938
 30
0.0
 10
131.4531679297
 20
556.1458753542
 30
0.0
 10
131.7025214869
 20
555.3827169268
 30
0.0
 10
131.7688039633
 20
554.8649897455
 30
0.0
 10
131.7688039633
 20
554.6185571781
 30
0.0
  0
SPLINE
  5
402
100
AcDbEntity
  8
0
100
AcDbSpline
 62
7
  6
BYLAYER
 70
0
 71
3
 72
9
 73
5
 74
0
 42
0.0000001
 43
0.0000001
 44
0.0000000001
 40
0.0
 40
0.0
 40
0.0
 40
0.0
 40
0.2344133346
 40
1.0
 40
1.0
 40
1.0
 40
1.0
 10
129.177187432
 20
558.8175260442
 30
0.0
 10
129.2563469986
 20
558.771824281
 30
0.0
 10
129.5845391257
 20
558.5604858989
 30
0.0
 10
129.8744598482
 20
558.2927452388
 30
0.0
 10
130.0736998806
 20
558.0704362951
 30
0.0
  0
SPLINE
  5
403
100
AcDbEntity
  8
0
100
AcDbSpline
 62
7
  6
BYLAYER
 70
0
 71
3
 72
9
 73
5
 74
0
 42
0.0000001
 43
0.0000001
 44
0.0000000001
 40
0.0
 40
0.0
 40
0.0
 40
0.0
 40
0.2469986656
 40
1.0
 40
1.0
 40
1.0
 40
1.0
 10
95.7922746691
 20
515.3763910896
 30
0.0
 10
95.8191614557
 20
515.3919147883
 30
0.0
 10
95.9250910824
 20
515.4597687193
 30
0.0
 10
96.0177926303
 20
515.5477223912
 30
0.0
 10
96.0777188185
 20
515.6209834762
 30
0.0
  0
SPLINE
  5
404
100
AcDbEntity
  8
0
100
AcDbSpline
 62
7
  6
BYLAYER
 70
0
 71
3
 72
9
 73
5
 74
0
 42
0.0000001
 43
0.0000001
 44
0.0000000001
 40
0.0
 40
0.0
 40
0.0
 40
0.0
 40
0.2465846472
 40
1.0
 40
1.0
 40
1.0
 40
1.0
 10
96.0777188185
 20
515.6209834762
 30
0.0
 10
96.0861053808
 20
515.6312362333
 30
0.0
 10
96.1193925054
 20
515.6734037255
 30
0.0
 10
96.1497714651
 20
515.7178537733
 30
0.0
 10
96.1709923488
 20
515.7523155944
 30
0.0
  0
SPLINE
  5
405
100
AcDbEntity
  8
0
100
AcDbSpline
 62
7
  6
BYLAYER
 70
0
 71
3
 72
9
 73
5
 74
0
 42
0.0000001
 43
0.0000001
 44
0.0000000001
 40
0.0
 40
0.0
 40
0.0
 40
0.0
 40
0.2280251398
 40
1.0
 40
1.0
 40
1.0
 40
1.0
 10
96.2145082068
 20
515.8286263893
 30
0.0
 10
96.2481160006
 20
515.8923516372
 30
0.0
 10
96.373377094
 20
516.1835719568
 30
0.0
 10
96.4136121026
 20
516.5058413656
 30
0.0
 10
96.4136121026
 20
516.7497462319
 30
0.0
  0
SPLINE
  5
406
100
AcDbEntity
  8
0
100
AcDbSpline
 62
7
  6
BYLAYER
 70
0
 71
3
 72
9
 73
5
 74
0
 42
0.0000001
 43
0.0000001
 44
0.0000000001
 40
0.0
 40
0.0
 40
0.0
 40
0.0
 40
0.2518159531
 40
1.0
 40
1.0
 40
1.0
 40
1.0
 10
95.9178443413
 20
536.0663544289
 30
0.0
 10
95.8743647521
 20
536.1513425467
 30
0.0
 10
95.6923626546
 20
536.4839603472
 30
0.0
 10
95.474014732
 20
536.7968806795
 30
0.0
 10
95.2919500552
 20
537.0143751051
 30
0.0
  0
SPLINE
  5
407
100
AcDbEntity
  8
0
100
AcDbSpline
 62
7
  6
BYLAYER
 70
0
 71
3
 72
11
 73
7
 74
0
 42
0.0000001
 43
0.0000001
 44
0.0000000001
 40
0.0
 40
0.0
 40
0.0
 40
0.0
 40
0.3007307915
 40
0.565089879
 40
0.7940214416
 40
1.0
 40
1.0
 40
1.0
 40
1.0
 10
117.4439583791
 20
305.8596415602
 30
0.0
 10
117.2406751761
 20
305.9329780063
 30
0.0
 10
116.8687615463
 20
306.1033030491
 30
0.0
 10
116.409562293
 20
306.451626317
 30
0.0
 10
116.1076209245
 20
306.8651608296
 30
0.0
 10
116.0337490037
 20
307.1804692228
 30
0.0
 10
116.0337237714
 20
307.3284867763
 30
0.0
  0
SPLINE
  5
408
100
AcDbEntity
  8
0
100
AcDbSpline
 62
7
  6
BYLAYER
 70
0
 71
3
 72
9
 73
5
 74
0
 42
0.0000001
 43
0.0000001
 44
0.0000000001
 40
0.0
 40
0.0
 40
0.0
 40
0.0
 40
0.4717901394
 40
1.0
 40
1.0
 40
1.0
 40
1.0
 10
124.9200170549
 20
301.5434347169
 30
0.0
 10
123.9180253509
 20
302.4692067184
 30
0.0
 10
121.5326608629
 20
304.1524279654
 30
0.0
 10
118.8806647557
 20
305.3413353839
 30
0.0
 10
117.4439583791
 20
305.8596415602
 30
0.0
  0
SPLINE
  5
409
100
AcDbEntity
  8
0
100
AcDbSpline
 62
7
  6
BYLAYER
 70
0
 71
3
 72
16
 73
12
 74
0
 42
0.0000001
 43
0.0000001
 44
0.0000000001
 40
0.0
 40
0.0
 40
0.0
 40
0.0
 40
0.1287487363
 40
0.2703951251
 40
0.4176159997
 40
0.5620240845
 40
0.6957533609
 40
0.8130668983
 40
0.9124728959
 40
0.9571217453
 40
1.0
 40
1.0
 40
1.0
 40
1.0
 10
107.6426001119
 20
292.8227845667
 30
0.0
 10
107.3650024314
 20
292.6625144278
 30
0.0
 10
106.7364951873
 20
292.4031898353
 30
0.0
 10
105.7121639332
 20
292.1982680031
 30
0.0
 10
104.6286806004
 20
292.1683278639
 30
0.0
 10
103.5748044359
 20
292.3161599865
 30
0.0
 10
102.6347611567
 20
292.6308061147
 30
0.0
 10
101.8815594395
 20
293.0879177085
 30
0.0
 10
101.4428470419
 20
293.5918032519
 30
0.0
 10
101.2694843325
 20
294.0280892299
 30
0.0
 10
101.2409798012
 20
294.2469347391
 30
0.0
 10
101.2409609692
 20
294.3536873909
 30
0.0
  0
SPLINE
  5
40A
100
AcDbEntity
  8
0
100
AcDbSpline
 62
7
  6
BYLAYER
 70
0
 71
3
 72
11
 73
7
 74
0
 42
0.0000001
 43
0.0000001
 44
0.0000000001
 40
0.0
 40
0.0
 40
0.0
 40
0.0
 40
0.2897781767
 40
0.5490726313
 40
0.7822276909
 40
1.0
 40
1.0
 40
1.0
 40
1.0
 10
58.6755460422
 20
274.5536944777
 30
0.0
 10
58.5219282877
 20
274.6423837232
 30
0.0
 10
58.2432635182
 20
274.8342363397
 30
0.0
 10
57.9103302671
 20
275.1842731816
 30
0.0
 10
57.6996658342
 20
275.5713629067
 30
0.0
 10
57.6504352019
 20
275.8492443644
 30
0.0
 10
57.6504352002
 20
275.9825490163
 30
0.0
  0
SPLINE
  5
40B
100
AcDbEntity
  8
0
100
AcDbSpline
 62
7
  6
BYLAYER
 70
0
 71
3
 72
9
 73
5
 74
0
 42
0.0000001
 43
0.0000001
 44
0.0000000001
 40
0.0
 40
0.0
 40
0.0
 40
0.0
 40
0.2609166831
 40
1.0
 40
1.0
 40
1.0
 40
1.0
 10
87.8306835064
 20
258.035498666
 30
0.0
 10
87.6304318955
 20
258.099727852
 30
0.0
 10
86.8690016283
 20
258.3638962102
 30
0.0
 10
86.1319361654
 20
258.7020988601
 30
0.0
 10
85.6160380514
 20
258.9999460369
 30
0.0
  0
SPLINE
  5
40C
100
AcDbEntity
  8
0
100
AcDbSpline
 62
7
  6
BYLAYER
 70
0
 71
3
 72
10
 73
6
 74
0
 42
0.0000001
 43
0.0000001
 44
0.0000000001
 40
0.0
 40
0.0
 40
0.0
 40
0.0
 40
0.2312542016
 40
0.486509582
 40
1.0
 40
1.0
 40
1.0
 40
1.0
 10
94.0370947827
 20
257.0028659843
 30
0.0
 10
93.8738235139
 20
256.908601836
 30
0.0
 10
93.500608922
 20
256.7602355476
 30
0.0
 10
92.6950931197
 20
256.6216586477
 30
0.0
 10
92.0502156762
 20
256.6821157127
 30
0.0
 10
91.6515967491
 20
256.8099697114
 30
0.0
  0
SPLINE
  5
40D
100
AcDbEntity
  8
0
100
AcDbSpline
 62
7
  6
BYLAYER
 70
0
 71
3
 72
11
 73
7
 74
0
 42
0.0000001
 43
0.0000001
 44
0.0000000001
 40
0.0
 40
0.0
 40
0.0
 40
0.0
 40
0.2177796463
 40
0.4509237598
 40
0.7102593493
 40
1.0
 40
1.0
 40
1.0
 40
1.0
 10
108.7409163161
 20
294.3536874014
 30
0.0
 10
108.7409415122
 20
294.2108585601
 30
0.0
 10
108.6881219901
 20
293.9131441084
 30
0.0
 10
108.4624605255
 20
293.4983708258
 30
0.0
 10
108.1057101217
 20
293.1233725804
 30
0.0
 10
107.8071658199
 20
292.9177960554
 30
0.0
 10
107.6426001119
 20
292.8227845667
 30
0.0
  0
SPLINE
  5
40E
100
AcDbEntity
  8
0
100
AcDbSpline
 62
7
  6
BYLAYER
 70
0
 71
3
 72
9
 73
5
 74
0
 42
0.0000001
 43
0.0000001
 44
0.0000000001
 40
0.0
 40
0.0
 40
0.0
 40
0.0
 40
0.4677504445
 40
1.0
 40
1.0
 40
1.0
 40
1.0
 10
95.4452029219
 20
260.0961974028
 30
0.0
 10
95.4452033262
 20
260.0401321579
 30
0.0
 10
95.412637715
 20
259.9192494471
 30
0.0
 10
95.3329707645
 20
259.8256597652
 30
0.0
 10
95.2854082728
 20
259.7831419486
 30
0.0
  0
SPLINE
  5
40F
100
AcDbEntity
  8
0
100
AcDbSpline
 62
7
  6
BYLAYER
 70
0
 71
3
 72
9
 73
5
 74
0
 42
0.0000001
 43
0.0000001
 44
0.0000000001
 40
0.0
 40
0.0
 40
0.0
 40
0.0
 40
0.4492438796
 40
1.0
 40
1.0
 40
1.0
 40
1.0
 10
148.1243799149
 20
298.6752359501
 30
0.0
 10
148.1243804766
 20
298.5973414472
 30
0.0
 10
148.0562945558
 20
298.4235263117
 30
0.0
 10
147.9141914954
 20
298.3147404453
 30
0.0
 10
147.8314896401
 20
298.2669927919
 30
0.0
  0
SPLINE
  5
410
100
AcDbEntity
  8
0
100
AcDbSpline
 62
7
  6
BYLAYER
 70
0
 71
3
 72
16
 73
12
 74
0
 42
0.0000001
 43
0.0000001
 44
0.0000000001
 40
0.0
 40
0.0
 40
0.0
 40
0.0
 40
0.043289217
 40
0.0887041242
 40
0.1913592609
 40
0.3139239086
 40
0.4531262097
 40
0.6009447118
 40
0.7473904459
 40
0.882751975
 40
1.0
 40
1.0
 40
1.0
 40
1.0
 10
130.4641320403
 20
302.461274828
 30
0.0
 10
130.4640993228
 20
302.3675644395
 30
0.0
 10
130.4364124673
 20
302.1745874438
 30
0.0
 10
130.2682389997
 20
301.7913808375
 30
0.0
 10
129.8467794462
 20
301.3601025473
 30
0.0
 10
129.1411114456
 20
300.9906102019
 30
0.0
 10
128.2772214783
 20
300.7639067431
 30
0.0
 10
127.3357817821
 20
300.7018185701
 30
0.0
 10
126.4062960548
 20
300.8097752904
 30
0.0
 10
125.5787986746
 20
301.0765142908
 30
0.0
 10
125.1064401463
 20
301.3711924941
 30
0.0
 10
124.9200170549
 20
301.5434347169
 30
0.0
  0
SPLINE
  5
411
100
AcDbEntity
  8
0
100
AcDbSpline
 62
7
  6
BYLAYER
 70
0
 71
3
 72
10
 73
6
 74
0
 42
0.0000001
 43
0.0000001
 44
0.0000000001
 40
0.0
 40
0.0
 40
0.0
 40
0.0
 40
0.2184036142
 40
0.4522473232
 40
1.0
 40
1.0
 40
1.0
 40
1.0
 10
95.2809343906
 20
258.0199600671
 30
0.0
 10
95.2809343801
 20
257.9723593637
 30
0.0
 10
95.2634516097
 20
257.8730805293
 30
0.0
 10
95.1578274689
 20
257.679255811
 30
0.0
 10
95.0182792985
 20
257.5693497472
 30
0.0
 10
94.9148914883
 20
257.5096591234
 30
0.0
  0
SPLINE
  5
412
100
AcDbEntity
  8
0
100
AcDbSpline
 62
7
  6
BYLAYER
 70
0
 71
3
 72
9
 73
5
 74
0
 42
0.0000001
 43
0.0000001
 44
0.0000000001
 40
0.0
 40
0.0
 40
0.0
 40
0.0
 40
0.2408561283
 40
1.0
 40
1.0
 40
1.0
 40
1.0
 10
91.6515967491
 20
262.5254866313
 30
0.0
 10
91.7441747088
 20
262.4957929526
 30
0.0
 10
92.135096077
 20
262.3935466395
 30
0.0
 10
92.5449461379
 20
262.367465555
 30
0.0
 10
92.8507098723
 20
262.3877257882
 30
0.0
  0
SPLINE
  5
413
100
AcDbEntity
  8
0
100
AcDbSpline
 62
7
  6
BYLAYER
 70
0
 71
3
 72
9
 73
5
 74
0
 42
0.0000001
 43
0.0000001
 44
0.0000000001
 40
0.0
 40
0.0
 40
0.0
 40
0.0
 40
0.2672266551
 40
1.0
 40
1.0
 40
1.0
 40
1.0
 10
92.9496800785
 20
262.3957287966
 30
0.0
 10
93.0506550523
 20
262.4053786414
 30
0.0
 10
93.4261476422
 20
262.4584845924
 30
0.0
 10
93.7962101366
 20
262.5793089191
 30
0.0
 10
94.0370947827
 20
262.7183829042
 30
0.0
  0
SPLINE
  5
414
100
AcDbEntity
  8
0
100
AcDbSpline
 62
7
  6
BYLAYER
 70
0
 71
3
 72
9
 73
5
 74
0
 42
0.0000001
 43
0.0000001
 44
0.0000000001
 40
0.0
 40
0.0
 40
0.0
 40
0.0
 40
0.5507561204
 40
1.0
 40
1.0
 40
1.0
 40
1.0
 10
147.8314896401
 20
303.9825097118
 30
0.0
 10
147.9141914954
 20
304.0302573652
 30
0.0
 10
148.0562945558
 20
304.1390432316
 30
0.0
 10
148.1243804766
 20
304.3128583672
 30
0.0
 10
148.1243799149
 20
304.39075287
 30
0.0
  0
SPLINE
  5
415
100
AcDbEntity
  8
0
100
AcDbSpline
 62
7
  6
BYLAYER
 70
0
 71
3
 72
11
 73
7
 74
0
 42
0.0000001
 43
0.0000001
 44
0.0000000001
 40
0.0
 40
0.0
 40
0.0
 40
0.0
 40
0.2177796463
 40
0.4509237598
 40
0.7102593493
 40
1.0
 40
1.0
 40
1.0
 40
1.0
 10
101.2409609692
 20
294.3536873909
 30
0.0
 10
101.2409357731
 20
294.4965162322
 30
0.0
 10
101.2937552952
 20
294.7942306839
 30
0.0
 10
101.5194167598
 20
295.2090039666
 30
0.0
 10
101.8761671636
 20
295.5840022119
 30
0.0
 10
102.1747114653
 20
295.7895787369
 30
0.0
 10
102.3392771733
 20
295.8845902256
 30
0.0
  0
SPLINE
  5
416
100
AcDbEntity
  8
0
100
AcDbSpline
 62
7
  6
BYLAYER
 70
0
 71
3
 72
9
 73
5
 74
0
 42
0.0000001
 43
0.0000001
 44
0.0000000001
 40
0.0
 40
0.0
 40
0.0
 40
0.0
 40
0.2389121469
 40
1.0
 40
1.0
 40
1.0
 40
1.0
 10
85.6160380514
 20
264.7154629568
 30
0.0
 10
85.7828149102
 20
264.6191764708
 30
0.0
 10
86.4931965105
 20
264.2375890986
 30
0.0
 10
87.2465179079
 20
263.9383822728
 30
0.0
 10
87.8306835064
 20
263.7510155859
 30
0.0
  0
SPLINE
  5
417
100
AcDbEntity
  8
0
100
AcDbSpline
 62
7
  6
BYLAYER
 70
0
 71
3
 72
9
 73
5
 74
0
 42
0.0000001
 43
0.0000001
 44
0.0000000001
 40
0.0
 40
0.0
 40
0.0
 40
0.0
 40
0.5322495555
 40
1.0
 40
1.0
 40
1.0
 40
1.0
 10
95.2854082728
 20
265.4986588685
 30
0.0
 10
95.3329707645
 20
265.5411766851
 30
0.0
 10
95.412637715
 20
265.634766367
 30
0.0
 10
95.4452033262
 20
265.7556490778
 30
0.0
 10
95.4452029219
 20
265.8117143227
 30
0.0
  0
SPLINE
  5
418
100
AcDbEntity
  8
0
100
AcDbSpline
 62
7
  6
BYLAYER
 70
0
 71
3
 72
11
 73
7
 74
0
 42
0.0000001
 43
0.0000001
 44
0.0000000001
 40
0.0
 40
0.0
 40
0.0
 40
0.0
 40
0.2011133053
 40
0.4288479458
 40
0.6957057066
 40
1.0
 40
1.0
 40
1.0
 40
1.0
 10
116.0337237714
 20
307.3284867763
 30
0.0
 10
116.0336957931
 20
307.4926123558
 30
0.0
 10
116.1265920332
 20
307.845819636
 30
0.0
 10
116.4954983237
 20
308.2930055787
 30
0.0
 10
117.045772379
 20
308.6550516364
 30
0.0
 10
117.4855723928
 20
308.8199917924
 30
0.0
 10
117.7247122436
 20
308.8869242024
 30
0.0
  0
SPLINE
  5
419
100
AcDbEntity
  8
0
100
AcDbSpline
 62
7
  6
BYLAYER
 70
0
 71
3
 72
10
 73
6
 74
0
 42
0.0000001
 43
0.0000001
 44
0.0000000001
 40
0.0
 40
0.0
 40
0.0
 40
0.0
 40
0.547752844
 40
0.7815965272
 40
1.0
 40
1.0
 40
1.0
 40
1.0
 10
94.9148914883
 20
263.2251760433
 30
0.0
 10
95.0182793294
 20
263.284866685
 30
0.0
 10
95.1578275408
 20
263.3947727744
 30
0.0
 10
95.263451607
 20
263.5885975195
 30
0.0
 10
95.2809344054
 20
263.6878763138
 30
0.0
 10
95.2809343907
 20
263.735476986
 30
0.0
  0
SPLINE
  5
41A
100
AcDbEntity
  8
0
100
AcDbSpline
 62
7
  6
BYLAYER
 70
0
 71
3
 72
8
 73
4
 74
0
 42
0.0000001
 43
0.0000001
 44
0.0000000001
 40
0.0
 40
0.0
 40
0.0
 40
0.0
 40
1.0
 40
1.0
 40
1.0
 40
1.0
 10
57.6762448183
 20
281.4530517424
 30
0.0
 10
57.690521327
 20
281.3856149749
 30
0.0
 10
57.7106281242
 20
281.3192047552
 30
0.0
 10
57.7356354827
 20
281.2549694975
 30
0.0
  0
SPLINE
  5
41B
100
AcDbEntity
  8
0
100
AcDbSpline
 62
7
  6
BYLAYER
 70
0
 71
3
 72
9
 73
5
 74
0
 42
0.0000001
 43
0.0000001
 44
0.0000000001
 40
0.0
 40
0.0
 40
0.0
 40
0.0
 40
0.4601274014
 40
1.0
 40
1.0
 40
1.0
 40
1.0
 10
57.7356354827
 20
281.2549694975
 30
0.0
 10
57.81249103
 20
281.0575541691
 30
0.0
 10
58.0834993771
 20
280.6683422931
 30
0.0
 10
58.4602823911
 20
280.393491113
 30
0.0
 10
58.6755460422
 20
280.2692113976
 30
0.0
  0
SPLINE
  5
41C
100
AcDbEntity
  8
0
100
AcDbSpline
 62
7
  6
BYLAYER
 70
0
 71
3
 72
11
 73
7
 74
0
 42
0.0000001
 43
0.0000001
 44
0.0000000001
 40
0.0
 40
0.0
 40
0.0
 40
0.0
 40
0.2895416688
 40
0.549118971
 40
0.7822562702
 40
1.0
 40
1.0
 40
1.0
 40
1.0
 10
144.2352133839
 20
315.3782681192
 30
0.0
 10
144.3009929533
 20
315.4162457447
 30
0.0
 10
144.4203611219
 20
315.4985541761
 30
0.0
 10
144.5631490514
 20
315.6484577713
 30
0.0
 10
144.653489029
 20
315.8144169688
 30
0.0
 10
144.6744648845
 20
315.9335084438
 30
0.0
 10
144.6744648667
 20
315.9906292504
 30
0.0
  0
SPLINE
  5
41D
100
AcDbEntity
  8
0
100
AcDbSpline
 62
7
  6
BYLAYER
 70
0
 71
3
 72
9
 73
5
 74
0
 42
0.0000001
 43
0.0000001
 44
0.0000000001
 40
0.0
 40
0.0
 40
0.0
 40
0.0
 40
0.2567500282
 40
1.0
 40
1.0
 40
1.0
 40
1.0
 10
127.8515792505
 20
305.1183073451
 30
0.0
 10
128.0451894818
 20
304.981255944
 30
0.0
 10
128.791176365
 20
304.4361886601
 30
0.0
 10
129.5039316142
 20
303.8451098486
 30
0.0
 10
130.0082923942
 20
303.3791148839
 30
0.0
  0
SPLINE
  5
41E
100
AcDbEntity
  8
0
100
AcDbSpline
 62
7
  6
BYLAYER
 70
0
 71
3
 72
16
 73
12
 74
0
 42
0.0000001
 43
0.0000001
 44
0.0000000001
 40
0.0
 40
0.0
 40
0.0
 40
0.0
 40
0.1287487363
 40
0.2703951251
 40
0.4176159997
 40
0.5620240845
 40
0.6957533609
 40
0.8130668983
 40
0.9124728959
 40
0.9571217453
 40
1.0
 40
1.0
 40
1.0
 40
1.0
 10
102.3392771733
 20
295.8845902256
 30
0.0
 10
102.6168748539
 20
296.0448603645
 30
0.0
 10
103.245382098
 20
296.304184957
 30
0.0
 10
104.2697133521
 20
296.5091067892
 30
0.0
 10
105.3531966849
 20
296.5390469284
 30
0.0
 10
106.4070728494
 20
296.3912148058
 30
0.0
 10
107.3471161286
 20
296.0765686776
 30
0.0
 10
108.1003178458
 20
295.6194570838
 30
0.0
 10
108.5390302434
 20
295.1155715404
 30
0.0
 10
108.7123929528
 20
294.6792855625
 30
0.0
 10
108.7408974841
 20
294.4604400532
 30
0.0
 10
108.7409163161
 20
294.3536874014
 30
0.0
  0
SPLINE
  5
41F
100
AcDbEntity
  8
0
100
AcDbSpline
 62
7
  6
BYLAYER
 70
0
 71
3
 72
11
 73
7
 74
0
 42
0.0000001
 43
0.0000001
 44
0.0000000001
 40
0.0
 40
0.0
 40
0.0
 40
0.0
 40
0.2897781767
 40
0.5490726313
 40
0.7822276909
 40
1.0
 40
1.0
 40
1.0
 40
1.0
 10
58.6755460422
 20
566.0452999315
 30
0.0
 10
58.5219282877
 20
566.133989177
 30
0.0
 10
58.2432635182
 20
566.3258417935
 30
0.0
 10
57.9103302671
 20
566.6758786354
 30
0.0
 10
57.6996658342
 20
567.0629683605
 30
0.0
 10
57.6504352019
 20
567.3408498182
 30
0.0
 10
57.6504352002
 20
567.4741544701
 30
0.0
  0
SPLINE
  5
420
100
AcDbEntity
  8
0
100
AcDbSpline
 62
7
  6
BYLAYER
 70
0
 71
3
 72
9
 73
5
 74
0
 42
0.0000001
 43
0.0000001
 44
0.0000000001
 40
0.0
 40
0.0
 40
0.0
 40
0.0
 40
0.2609166831
 40
1.0
 40
1.0
 40
1.0
 40
1.0
 10
87.8306835065
 20
549.5271041197
 30
0.0
 10
87.6304318956
 20
549.5913333058
 30
0.0
 10
86.8690016283
 20
549.855501664
 30
0.0
 10
86.1319361655
 20
550.1937043139
 30
0.0
 10
85.6160380514
 20
550.4915514907
 30
0.0
  0
SPLINE
  5
421
100
AcDbEntity
  8
0
100
AcDbSpline
 62
7
  6
BYLAYER
 70
0
 71
3
 72
10
 73
6
 74
0
 42
0.0000001
 43
0.0000001
 44
0.0000000001
 40
0.0
 40
0.0
 40
0.0
 40
0.0
 40
0.2312542016
 40
0.486509582
 40
1.0
 40
1.0
 40
1.0
 40
1.0
 10
94.0370947827
 20
548.4944714381
 30
0.0
 10
93.8738235139
 20
548.4002072898
 30
0.0
 10
93.500608922
 20
548.2518410014
 30
0.0
 10
92.6950931197
 20
548.1132641015
 30
0.0
 10
92.0502156761
 20
548.1737211665
 30
0.0
 10
91.6515967489
 20
548.3015751652
 30
0.0
  0
SPLINE
  5
422
100
AcDbEntity
  8
0
100
AcDbSpline
 62
7
  6
BYLAYER
 70
0
 71
3
 72
9
 73
5
 74
0
 42
0.0000001
 43
0.0000001
 44
0.0000000001
 40
0.0
 40
0.0
 40
0.0
 40
0.0
 40
0.4775214461
 40
1.0
 40
1.0
 40
1.0
 40
1.0
 10
95.4452020595
 20
549.2578670516
 30
0.0
 10
95.4452025431
 20
549.1908097514
 30
0.0
 10
95.4154507373
 20
549.0493372891
 30
0.0
 10
95.3372882687
 20
548.9293720364
 30
0.0
 10
95.2895280913
 20
548.8736746393
 30
0.0
  0
SPLINE
  5
423
100
AcDbEntity
  8
0
100
AcDbSpline
 62
7
  6
BYLAYER
 70
0
 71
3
 72
10
 73
6
 74
0
 42
0.0000001
 43
0.0000001
 44
0.0000000001
 40
0.0
 40
0.0
 40
0.0
 40
0.0
 40
0.547689002
 40
0.7816220467
 40
1.0
 40
1.0
 40
1.0
 40
1.0
 10
95.8844837661
 20
557.3176521941
 30
0.0
 10
95.7604309831
 20
557.246030714
 30
0.0
 10
95.592888786
 20
557.1141720792
 30
0.0
 10
95.4663021022
 20
556.8815215483
 30
0.0
 10
95.445147942
 20
556.7624024333
 30
0.0
 10
95.4451483538
 20
556.7052874568
 30
0.0
  0
SPLINE
  5
424
100
AcDbEntity
  8
0
100
AcDbSpline
 62
7
  6
BYLAYER
 70
0
 71
3
 72
10
 73
6
 74
0
 42
0.0000001
 43
0.0000001
 44
0.0000000001
 40
0.0
 40
0.0
 40
0.0
 40
0.0
 40
0.2183779533
 40
0.452310998
 40
1.0
 40
1.0
 40
1.0
 40
1.0
 10
148.1243790526
 20
587.836905599
 30
0.0
 10
148.1243794645
 20
587.7797906224
 30
0.0
 10
148.1032253043
 20
587.6606715074
 30
0.0
 10
147.9766386204
 20
587.4280209765
 30
0.0
 10
147.8090964234
 20
587.2961623418
 30
0.0
 10
147.6850436404
 20
587.2245408616
 30
0.0
  0
SPLINE
  5
425
100
AcDbEntity
  8
0
100
AcDbSpline
 62
7
  6
BYLAYER
 70
0
 71
3
 72
11
 73
7
 74
0
 42
0.0000001
 43
0.0000001
 44
0.0000000001
 40
0.0
 40
0.0
 40
0.0
 40
0.0
 40
0.2372405738
 40
0.5000004574
 40
0.7627600882
 40
1.0
 40
1.0
 40
1.0
 40
1.0
 10
132.567897031
 20
611.1563212625
 30
0.0
 10
132.2667275543
 20
611.3301976074
 30
0.0
 10
131.5663642359
 20
611.5839231776
 30
0.0
 10
130.4465736098
 20
611.7054825079
 30
0.0
 10
129.326784511
 20
611.5839181634
 30
0.0
 10
128.6264237265
 20
611.3301890959
 30
0.0
 10
128.3252563439
 20
611.1563110644
 30
0.0
  0
SPLINE
  5
426
100
AcDbEntity
  8
0
100
AcDbSpline
 62
7
  6
BYLAYER
 70
0
 71
3
 72
16
 73
12
 74
0
 42
0.0000001
 43
0.0000001
 44
0.0000000001
 40
0.0
 40
0.0
 40
0.0
 40
0.0
 40
0.1287498631
 40
0.2703965133
 40
0.4176169701
 40
0.562024195
 40
0.6957534275
 40
0.813067195
 40
0.9124731354
 40
0.9571218448
 40
1.0
 40
1.0
 40
1.0
 40
1.0
 10
65.0395070728
 20
568.49482248
 30
0.0
 10
64.7804136386
 20
568.3452357089
 30
0.0
 10
64.1938035935
 20
568.1031985319
 30
0.0
 10
63.2377584622
 20
567.9119399089
 30
0.0
 10
62.226509769
 20
567.8839965818
 30
0.0
 10
61.242895208
 20
568.0219735095
 30
0.0
 10
60.3655230538
 20
568.3156430527
 30
0.0
 10
59.6625348306
 20
568.7422809964
 30
0.0
 10
59.2530697582
 20
569.2125744475
 30
0.0
 10
59.0912660199
 20
569.6197743843
 30
0.0
 10
59.0646611419
 20
569.8240295376
 30
0.0
 10
59.0646437087
 20
569.9236651138
 30
0.0
  0
SPLINE
  5
427
100
AcDbEntity
  8
0
100
AcDbSpline
 62
7
  6
BYLAYER
 70
0
 71
3
 72
16
 73
12
 74
0
 42
0.0000001
 43
0.0000001
 44
0.0000000001
 40
0.0
 40
0.0
 40
0.0
 40
0.0
 40
0.1287498631
 40
0.2703965133
 40
0.4176169701
 40
0.562024195
 40
0.6957534275
 40
0.813067195
 40
0.9124731354
 40
0.9571218448
 40
1.0
 40
1.0
 40
1.0
 40
1.0
 10
88.0205731401
 20
555.2269979581
 30
0.0
 10
87.7614797059
 20
555.077411187
 30
0.0
 10
87.1748696607
 20
554.83537401
 30
0.0
 10
86.2188245295
 20
554.644115387
 30
0.0
 10
85.2075758363
 20
554.6161720599
 30
0.0
 10
84.2239612753
 20
554.7541489876
 30
0.0
 10
83.3465891211
 20
555.0478185308
 30
0.0
 10
82.6436008979
 20
555.4744564745
 30
0.0
 10
82.2341358255
 20
555.9447499256
 30
0.0
 10
82.0723320872
 20
556.3519498624
 30
0.0
 10
82.0457272091
 20
556.5562050157
 30
0.0
 10
82.045709776
 20
556.6558405919
 30
0.0
  0
SPLINE
  5
428
100
AcDbEntity
  8
0
100
AcDbSpline
 62
7
  6
BYLAYER
 70
0
 71
3
 72
16
 73
12
 74
0
 42
0.0000001
 43
0.0000001
 44
0.0000000001
 40
0.0
 40
0.0
 40
0.0
 40
0.0
 40
0.1287498631
 40
0.2703965133
 40
0.4176169701
 40
0.562024195
 40
0.6957534275
 40
0.813067195
 40
0.9124731354
 40
0.9571218448
 40
1.0
 40
1.0
 40
1.0
 40
1.0
 10
132.9214754453
 20
607.6862612517
 30
0.0
 10
132.6623820111
 20
607.5366744806
 30
0.0
 10
132.075771966
 20
607.2946373035
 30
0.0
 10
131.1197268348
 20
607.1033786806
 30
0.0
 10
130.1084781415
 20
607.0754353535
 30
0.0
 10
129.1248635806
 20
607.2134122812
 30
0.0
 10
128.2474914264
 20
607.5070818244
 30
0.0
 10
127.5445032031
 20
607.933719768
 30
0.0
 10
127.1350381308
 20
608.4040132192
 30
0.0
 10
126.9732343924
 20
608.811213156
 30
0.0
 10
126.9466295144
 20
609.0154683092
 30
0.0
 10
126.9466120813
 20
609.1151038854
 30
0.0
  0
SPLINE
  5
429
100
AcDbEntity
  8
0
100
AcDbSpline
 62
7
  6
BYLAYER
 70
0
 71
3
 72
10
 73
6
 74
0
 42
0.0000001
 43
0.0000001
 44
0.0000000001
 40
0.0
 40
0.0
 40
0.0
 40
0.0
 40
0.2183768138
 40
0.4523085138
 40
1.0
 40
1.0
 40
1.0
 40
1.0
 10
148.1243253469
 20
599.7750892983
 30
0.0
 10
148.1243249351
 20
599.8322043944
 30
0.0
 10
148.1031726798
 20
599.951323721
 30
0.0
 10
147.9765847387
 20
600.1839769071
 30
0.0
 10
147.8090358718
 20
600.3158304895
 30
0.0
 10
147.6849811028
 20
600.3874519236
 30
0.0
  0
SPLINE
  5
42A
100
AcDbEntity
  8
0
100
AcDbSpline
 62
7
  6
BYLAYER
 70
0
 71
3
 72
11
 73
7
 74
0
 42
0.0000001
 43
0.0000001
 44
0.0000000001
 40
0.0
 40
0.0
 40
0.0
 40
0.0
 40
0.2897733512
 40
0.5490657165
 40
0.7822241652
 40
1.0
 40
1.0
 40
1.0
 40
1.0
 10
58.6755254344
 20
570.9442531537
 30
0.0
 10
58.5219123493
 20
570.8555651271
 30
0.0
 10
58.243253298
 20
570.6637175631
 30
0.0
 10
57.9103249993
 20
570.3136857825
 30
0.0
 10
57.6996569887
 20
569.9265993744
 30
0.0
 10
57.6504258216
 20
569.6487160459
 30
0.0
 10
57.6504258233
 20
569.5154105129
 30
0.0
  0
SPLINE
  5
42B
100
AcDbEntity
  8
0
100
AcDbSpline
 62
7
  6
BYLAYER
 70
0
 71
3
 72
11
 73
7
 74
0
 42
0.0000001
 43
0.0000001
 44
0.0000000001
 40
0.0
 40
0.0
 40
0.0
 40
0.0
 40
0.21777915
 40
0.4509225762
 40
0.7102588847
 40
1.0
 40
1.0
 40
1.0
 40
1.0
 10
133.9465707334
 20
609.1151038996
 30
0.0
 10
133.9465940579
 20
608.9817972977
 30
0.0
 10
133.8972953923
 20
608.7039314938
 30
0.0
 10
133.6866797791
 20
608.3168091902
 30
0.0
 10
133.35371154
 20
607.9668114547
 30
0.0
 10
133.0750703374
 20
607.7749387747
 30
0.0
 10
132.9214754453
 20
607.6862612517
 30
0.0
  0
SPLINE
  5
42C
100
AcDbEntity
  8
0
100
AcDbSpline
 62
7
  6
BYLAYER
 70
0
 71
3
 72
11
 73
7
 74
0
 42
0.0000001
 43
0.0000001
 44
0.0000000001
 40
0.0
 40
0.0
 40
0.0
 40
0.0
 40
0.2300091028
 40
0.4925239191
 40
0.7591503793
 40
1.0
 40
1.0
 40
1.0
 40
1.0
 10
86.9517027242
 20
554.8551834917
 30
0.0
 10
86.7779604751
 20
554.9806363806
 30
0.0
 10
86.3482536942
 20
555.1687414465
 30
0.0
 10
85.6426897933
 20
555.272582506
 30
0.0
 10
84.9218828454
 20
555.2118728649
 30
0.0
 10
84.4672287527
 20
555.0533666452
 30
0.0
 10
84.2728915968
 20
554.9411667057
 30
0.0
  0
SPLINE
  5
42D
100
AcDbEntity
  8
0
100
AcDbSpline
 62
7
  6
BYLAYER
 70
0
 71
3
 72
11
 73
7
 74
0
 42
0.0000001
 43
0.0000001
 44
0.0000000001
 40
0.0
 40
0.0
 40
0.0
 40
0.0
 40
0.21777915
 40
0.4509225762
 40
0.7102588847
 40
1.0
 40
1.0
 40
1.0
 40
1.0
 10
89.0456684281
 20
556.655840606
 30
0.0
 10
89.0456917526
 20
556.5225340042
 30
0.0
 10
88.996393087
 20
556.2446682002
 30
0.0
 10
88.7857774738
 20
555.8575458966
 30
0.0
 10
88.4528092347
 20
555.5075481612
 30
0.0
 10
88.1741680322
 20
555.3156754811
 30
0.0
 10
88.0205731401
 20
555.2269979581
 30
0.0
  0
SPLINE
  5
42E
100
AcDbEntity
  8
0
100
AcDbSpline
 62
7
  6
BYLAYER
 70
0
 71
3
 72
11
 73
7
 74
0
 42
0.0000001
 43
0.0000001
 44
0.0000000001
 40
0.0
 40
0.0
 40
0.0
 40
0.0
 40
0.2300091028
 40
0.4925239191
 40
0.7591503793
 40
1.0
 40
1.0
 40
1.0
 40
1.0
 10
63.9706366569
 20
568.1230080136
 30
0.0
 10
63.7968944079
 20
568.2484609025
 30
0.0
 10
63.3671876269
 20
568.4365659685
 30
0.0
 10
62.661623726
 20
568.5404070279
 30
0.0
 10
61.9408167782
 20
568.4796973868
 30
0.0
 10
61.4861626854
 20
568.3211911671
 30
0.0
 10
61.2918255295
 20
568.2089912276
 30
0.0
  0
SPLINE
  5
42F
100
AcDbEntity
  8
0
100
AcDbSpline
 62
7
  6
BYLAYER
 70
0
 71
3
 72
11
 73
7
 74
0
 42
0.0000001
 43
0.0000001
 44
0.0000000001
 40
0.0
 40
0.0
 40
0.0
 40
0.0
 40
0.21777915
 40
0.4509225762
 40
0.7102588847
 40
1.0
 40
1.0
 40
1.0
 40
1.0
 10
66.0646023608
 20
569.9236651279
 30
0.0
 10
66.0646256853
 20
569.7903585261
 30
0.0
 10
66.0153270197
 20
569.5124927221
 30
0.0
 10
65.8047114065
 20
569.1253704186
 30
0.0
 10
65.4717431674
 20
568.7753726831
 30
0.0
 10
65.1931019649
 20
568.583500003
 30
0.0
 10
65.0395070728
 20
568.49482248
 30
0.0
  0
SPLINE
  5
430
100
AcDbEntity
  8
0
100
AcDbSpline
 62
7
  6
BYLAYER
 70
0
 71
3
 72
9
 73
5
 74
0
 42
0.0000001
 43
0.0000001
 44
0.0000000001
 40
0.0
 40
0.0
 40
0.0
 40
0.0
 40
0.4491726716
 40
1.0
 40
1.0
 40
1.0
 40
1.0
 10
144.8816091193
 20
603.8079755274
 30
0.0
 10
144.8816091159
 20
603.8858561154
 30
0.0
 10
144.8135979677
 20
604.0596900595
 30
0.0
 10
144.6714706415
 20
604.1684674125
 30
0.0
 10
144.5887594146
 20
604.2162196813
 30
0.0
  0
SPLINE
  5
431
100
AcDbEntity
  8
0
100
AcDbSpline
 62
7
  6
BYLAYER
 70
0
 71
3
 72
10
 73
6
 74
0
 42
0.0000001
 43
0.0000001
 44
0.0000000001
 40
0.0
 40
0.0
 40
0.0
 40
0.0
 40
0.2184036142
 40
0.4522473232
 40
1.0
 40
1.0
 40
1.0
 40
1.0
 10
95.2809343906
 20
549.5115655209
 30
0.0
 10
95.2809343801
 20
549.4639648175
 30
0.0
 10
95.2634516097
 20
549.3646859831
 30
0.0
 10
95.1578274689
 20
549.1708612648
 30
0.0
 10
95.0182792985
 20
549.060955201
 30
0.0
 10
94.9148914883
 20
549.0012645772
 30
0.0
  0
SPLINE
  5
432
100
AcDbEntity
  8
0
100
AcDbSpline
 62
7
  6
BYLAYER
 70
0
 71
3
 72
10
 73
6
 74
0
 42
0.0000001
 43
0.0000001
 44
0.0000000001
 40
0.0
 40
0.0
 40
0.0
 40
0.0
 40
0.2184079711
 40
0.4522563083
 40
1.0
 40
1.0
 40
1.0
 40
1.0
 10
95.2809462593
 20
551.5528215632
 30
0.0
 10
95.2809462572
 20
551.6004243621
 30
0.0
 10
95.2634612022
 20
551.6997077416
 30
0.0
 10
95.1578255842
 20
551.8935325607
 30
0.0
 10
95.018273162
 20
552.0034364195
 30
0.0
 10
94.9148841284
 20
552.0631267556
 30
0.0
  0
SPLINE
  5
433
100
AcDbEntity
  8
0
100
AcDbSpline
 62
7
  6
BYLAYER
 70
0
 71
3
 72
11
 73
7
 74
0
 42
0.0000001
 43
0.0000001
 44
0.0000000001
 40
0.0
 40
0.0
 40
0.0
 40
0.0
 40
0.2300091028
 40
0.4925239191
 40
0.7591503793
 40
1.0
 40
1.0
 40
1.0
 40
1.0
 10
131.8526050295
 20
607.3144467853
 30
0.0
 10
131.6788627804
 20
607.4398996742
 30
0.0
 10
131.2491559994
 20
607.6280047401
 30
0.0
 10
130.5435920986
 20
607.7318457996
 30
0.0
 10
129.8227851507
 20
607.6711361585
 30
0.0
 10
129.3681310579
 20
607.5126299388
 30
0.0
 10
129.173793902
 20
607.4004299992
 30
0.0
  0
SPLINE
  5
434
100
AcDbEntity
  8
0
100
AcDbSpline
 62
7
  6
BYLAYER
 70
0
 71
3
 72
10
 73
6
 74
0
 42
0.0000001
 43
0.0000001
 44
0.0000000001
 40
0.0
 40
0.0
 40
0.0
 40
0.0
 40
0.2183773125
 40
0.4523089943
 40
1.0
 40
1.0
 40
1.0
 40
1.0
 10
95.4451483538
 20
561.196050751
 30
0.0
 10
95.445147942
 20
561.2531657559
 30
0.0
 10
95.466298399
 20
561.3722850738
 30
0.0
 10
95.5928829759
 20
561.6049389953
 30
0.0
 10
95.7604301036
 20
561.7367935004
 30
0.0
 10
95.8844837661
 20
561.8084154883
 30
0.0
  0
SPLINE
  5
435
100
AcDbEntity
  8
0
100
AcDbSpline
 62
7
  6
BYLAYER
 70
0
 71
3
 72
10
 73
6
 74
0
 42
0.0000001
 43
0.0000001
 44
0.0000000001
 40
0.0
 40
0.0
 40
0.0
 40
0.0
 40
0.5476910057
 40
0.7816226875
 40
1.0
 40
1.0
 40
1.0
 40
1.0
 10
147.6850436404
 20
591.7153041558
 30
0.0
 10
147.8090973029
 20
591.7869261438
 30
0.0
 10
147.9766444306
 20
591.9187806489
 30
0.0
 10
148.1032290075
 20
592.1514345704
 30
0.0
 10
148.1243794645
 20
592.2705538882
 30
0.0
 10
148.1243790527
 20
592.3276688932
 30
0.0
  0
SPLINE
  5
436
100
AcDbEntity
  8
0
100
AcDbSpline
 62
7
  6
BYLAYER
 70
0
 71
3
 72
9
 73
5
 74
0
 42
0.0000001
 43
0.0000001
 44
0.0000000001
 40
0.0
 40
0.0
 40
0.0
 40
0.0
 40
0.5508266292
 40
1.0
 40
1.0
 40
1.0
 40
1.0
 10
144.5887653025
 20
603.3997347729
 30
0.0
 10
144.6714750245
 20
603.4474869681
 30
0.0
 10
144.8135996824
 20
603.5562640003
 30
0.0
 10
144.8816091227
 20
603.7300958122
 30
0.0
 10
144.8816091193
 20
603.8079755274
 30
0.0
  0
SPLINE
  5
437
100
AcDbEntity
  8
0
100
AcDbSpline
 62
7
  6
BYLAYER
 70
0
 71
3
 72
9
 73
5
 74
0
 42
0.0000001
 43
0.0000001
 44
0.0000000001
 40
0.0
 40
0.0
 40
0.0
 40
0.0
 40
0.2389121002
 40
1.0
 40
1.0
 40
1.0
 40
1.0
 10
85.6160380514
 20
552.5328075336
 30
0.0
 10
85.7828148792
 20
552.4365210654
 30
0.0
 10
86.4931961979
 20
552.0549331458
 30
0.0
 10
87.2465178662
 20
551.7557268629
 30
0.0
 10
87.8306835064
 20
551.5683601626
 30
0.0
  0
SPLINE
  5
438
100
AcDbEntity
  8
0
100
AcDbSpline
 62
7
  6
BYLAYER
 70
0
 71
3
 72
10
 73
6
 74
0
 42
0.0000001
 43
0.0000001
 44
0.0000000001
 40
0.0
 40
0.0
 40
0.0
 40
0.0
 40
0.5134907701
 40
0.7687485743
 40
1.0
 40
1.0
 40
1.0
 40
1.0
 10
91.651596749
 20
550.342831208
 30
0.0
 10
92.0502162883
 20
550.2149770129
 30
0.0
 10
92.6950958986
 20
550.1545127788
 30
0.0
 10
93.5006126264
 20
550.2930943333
 30
0.0
 10
93.873825335
 20
550.441464384
 30
0.0
 10
94.0370947827
 20
550.5357274809
 30
0.0
  0
SPLINE
  5
439
100
AcDbEntity
  8
0
100
AcDbSpline
 62
7
  6
BYLAYER
 70
0
 71
3
 72
10
 73
6
 74
0
 42
0.0000001
 43
0.0000001
 44
0.0000000001
 40
0.0
 40
0.0
 40
0.0
 40
0.0
 40
0.5477430476
 40
0.7815915762
 40
1.0
 40
1.0
 40
1.0
 40
1.0
 10
94.9148914883
 20
551.0425206201
 30
0.0
 10
95.0182786408
 20
551.1022108641
 30
0.0
 10
95.1578283441
 20
551.2121142233
 30
0.0
 10
95.2634616044
 20
551.4059370436
 30
0.0
 10
95.2809462614
 20
551.5052192777
 30
0.0
 10
95.2809462593
 20
551.5528215632
 30
0.0
  0
SPLINE
  5
43A
100
AcDbEntity
  8
0
100
AcDbSpline
 62
7
  6
BYLAYER
 70
0
 71
3
 72
10
 73
6
 74
0
 42
0.0000001
 43
0.0000001
 44
0.0000000001
 40
0.0
 40
0.0
 40
0.0
 40
0.0
 40
0.5476910057
 40
0.7816226875
 40
1.0
 40
1.0
 40
1.0
 40
1.0
 10
95.0058666473
 20
553.1362656085
 30
0.0
 10
95.1299203098
 20
553.2078875964
 30
0.0
 10
95.2974674375
 20
553.3397421015
 30
0.0
 10
95.4240520144
 20
553.5723960231
 30
0.0
 10
95.4452024714
 20
553.6915153409
 30
0.0
 10
95.4452020595
 20
553.7486303458
 30
0.0
  0
SPLINE
  5
43B
100
AcDbEntity
  8
0
100
AcDbSpline
 62
7
  6
BYLAYER
 70
0
 71
3
 72
9
 73
5
 74
0
 42
0.0000001
 43
0.0000001
 44
0.0000000001
 40
0.0
 40
0.0
 40
0.0
 40
0.0
 40
0.2665771497
 40
1.0
 40
1.0
 40
1.0
 40
1.0
 10
63.8374099418
 20
568.4539480716
 30
0.0
 10
63.8702249179
 20
568.4350027649
 30
0.0
 10
63.9907956957
 20
568.3598438074
 30
0.0
 10
64.1014136592
 20
568.267267003
 30
0.0
 10
64.170185616
 20
568.1889203178
 30
0.0
  0
SPLINE
  5
43C
100
AcDbEntity
  8
0
100
AcDbSpline
 62
7
  6
BYLAYER
 70
0
 71
3
 72
11
 73
7
 74
0
 42
0.0000001
 43
0.0000001
 44
0.0000000001
 40
0.0
 40
0.0
 40
0.0
 40
0.0
 40
0.2372367819
 40
0.4999994738
 40
0.7627624522
 40
1.0
 40
1.0
 40
1.0
 40
1.0
 10
61.2918255295
 20
568.4539419527
 30
0.0
 10
61.4725237606
 20
568.5582675023
 30
0.0
 10
61.8927386335
 20
568.7105091421
 30
0.0
 10
62.5646157345
 20
568.7834514689
 30
0.0
 10
63.2364938493
 20
568.7105122082
 30
0.0
 10
63.656710375
 20
568.5582726549
 30
0.0
 10
63.8374099418
 20
568.4539480716
 30
0.0
  0
SPLINE
  5
43D
100
AcDbEntity
  8
0
100
AcDbSpline
 62
7
  6
BYLAYER
 70
0
 71
3
 72
9
 73
5
 74
0
 42
0.0000001
 43
0.0000001
 44
0.0000000001
 40
0.0
 40
0.0
 40
0.0
 40
0.0
 40
0.2750555056
 40
1.0
 40
1.0
 40
1.0
 40
1.0
 10
60.0897389968
 20
570.5360053445
 30
0.0
 10
59.9996576202
 20
570.483997148
 30
0.0
 10
59.6819501178
 20
570.2801793567
 30
0.0
 10
59.4010963724
 20
570.0067201613
 30
0.0
 10
59.2594751654
 20
569.771982817
 30
0.0
  0
SPLINE
  5
43E
100
AcDbEntity
  8
0
100
AcDbSpline
 62
7
  6
BYLAYER
 70
0
 71
3
 72
9
 73
5
 74
0
 42
0.0000001
 43
0.0000001
 44
0.0000000001
 40
0.0
 40
0.0
 40
0.0
 40
0.0
 40
0.2563881388
 40
1.0
 40
1.0
 40
1.0
 40
1.0
 10
59.2594751654
 20
569.771982817
 30
0.0
 10
59.2456443648
 20
569.749058246
 30
0.0
 10
59.1940075777
 20
569.658284622
 30
0.0
 10
59.151984566
 20
569.5619478756
 30
0.0
 10
59.1274634845
 20
569.4882686351
 30
0.0
  0
SPLINE
  5
43F
100
AcDbEntity
  8
0
100
AcDbSpline
 62
7
  6
BYLAYER
 70
0
 71
3
 72
11
 73
7
 74
0
 42
0.0000001
 43
0.0000001
 44
0.0000000001
 40
0.0
 40
0.0
 40
0.0
 40
0.0
 40
0.2372251801
 40
0.5000005261
 40
0.7627755858
 40
1.0
 40
1.0
 40
1.0
 40
1.0
 10
65.039486465
 20
570.5360172423
 30
0.0
 10
64.6881445469
 20
570.7388600044
 30
0.0
 10
63.8710625995
 20
571.034897393
 30
0.0
 10
62.5646088399
 20
571.1767033317
 30
0.0
 10
61.2581570515
 20
571.034891431
 30
0.0
 10
60.4410783178
 20
570.7388499853
 30
0.0
 10
60.0897389968
 20
570.5360053445
 30
0.0
  0
SPLINE
  5
440
100
AcDbEntity
  8
0
100
AcDbSpline
 62
7
  6
BYLAYER
 70
0
 71
3
 72
11
 73
7
 74
0
 42
0.0000001
 43
0.0000001
 44
0.0000000001
 40
0.0
 40
0.0
 40
0.0
 40
0.0
 40
0.2372367819
 40
0.4999994738
 40
0.7627624522
 40
1.0
 40
1.0
 40
1.0
 40
1.0
 10
84.2728915968
 20
555.1861174308
 30
0.0
 10
84.4535898279
 20
555.2904429804
 30
0.0
 10
84.8738047008
 20
555.4426846202
 30
0.0
 10
85.5456818018
 20
555.515626947
 30
0.0
 10
86.2175599166
 20
555.4426876863
 30
0.0
 10
86.6377764422
 20
555.290448133
 30
0.0
 10
86.818476009
 20
555.1861235496
 30
0.0
  0
SPLINE
  5
441
100
AcDbEntity
  8
0
100
AcDbSpline
 62
7
  6
BYLAYER
 70
0
 71
3
 72
9
 73
5
 74
0
 42
0.0000001
 43
0.0000001
 44
0.0000000001
 40
0.0
 40
0.0
 40
0.0
 40
0.0
 40
0.2750555056
 40
1.0
 40
1.0
 40
1.0
 40
1.0
 10
83.070805064
 20
557.2681808226
 30
0.0
 10
82.9807236875
 20
557.2161726261
 30
0.0
 10
82.6630161851
 20
557.0123548348
 30
0.0
 10
82.3821624396
 20
556.7388956394
 30
0.0
 10
82.2405412327
 20
556.5041582951
 30
0.0
  0
SPLINE
  5
442
100
AcDbEntity
  8
0
100
AcDbSpline
 62
7
  6
BYLAYER
 70
0
 71
3
 72
9
 73
5
 74
0
 42
0.0000001
 43
0.0000001
 44
0.0000000001
 40
0.0
 40
0.0
 40
0.0
 40
0.0
 40
0.2563881388
 40
1.0
 40
1.0
 40
1.0
 40
1.0
 10
82.2405412327
 20
556.5041582951
 30
0.0
 10
82.2267104321
 20
556.4812337241
 30
0.0
 10
82.175073645
 20
556.3904601001
 30
0.0
 10
82.1330506333
 20
556.2941233537
 30
0.0
 10
82.1085295518
 20
556.2204441132
 30
0.0
  0
SPLINE
  5
443
100
AcDbEntity
  8
0
100
AcDbSpline
 62
7
  6
BYLAYER
 70
0
 71
3
 72
11
 73
7
 74
0
 42
0.0000001
 43
0.0000001
 44
0.0000000001
 40
0.0
 40
0.0
 40
0.0
 40
0.0
 40
0.2372251801
 40
0.5000005261
 40
0.7627755858
 40
1.0
 40
1.0
 40
1.0
 40
1.0
 10
88.0205525323
 20
557.2681927203
 30
0.0
 10
87.6692106142
 20
557.4710354824
 30
0.0
 10
86.8521286667
 20
557.7670728711
 30
0.0
 10
85.5456749071
 20
557.9088788098
 30
0.0
 10
84.2392231187
 20
557.7670669091
 30
0.0
 10
83.4221443851
 20
557.4710254634
 30
0.0
 10
83.070805064
 20
557.2681808226
 30
0.0
  0
SPLINE
  5
444
100
AcDbEntity
  8
0
100
AcDbSpline
 62
7
  6
BYLAYER
 70
0
 71
3
 72
9
 73
5
 74
0
 42
0.0000001
 43
0.0000001
 44
0.0000000001
 40
0.0
 40
0.0
 40
0.0
 40
0.0
 40
0.2665771497
 40
1.0
 40
1.0
 40
1.0
 40
1.0
 10
86.818476009
 20
555.1861235496
 30
0.0
 10
86.8512909852
 20
555.1671782429
 30
0.0
 10
86.9718617629
 20
555.0920192855
 30
0.0
 10
87.0824797265
 20
554.9994424811
 30
0.0
 10
87.1512516833
 20
554.9210957959
 30
0.0
  0
SPLINE
  5
445
100
AcDbEntity
  8
0
100
AcDbSpline
 62
7
  6
BYLAYER
 70
0
 71
3
 72
11
 73
7
 74
0
 42
0.0000001
 43
0.0000001
 44
0.0000000001
 40
0.0
 40
0.0
 40
0.0
 40
0.0
 40
0.2372367819
 40
0.4999994738
 40
0.7627624522
 40
1.0
 40
1.0
 40
1.0
 40
1.0
 10
129.173793902
 20
607.6453807244
 30
0.0
 10
129.3544921331
 20
607.749706274
 30
0.0
 10
129.7747070061
 20
607.9019479138
 30
0.0
 10
130.446584107
 20
607.9748902405
 30
0.0
 10
131.1184622218
 20
607.9019509799
 30
0.0
 10
131.5386787475
 20
607.7497114266
 30
0.0
 10
131.7193783143
 20
607.6453868432
 30
0.0
  0
SPLINE
  5
446
100
AcDbEntity
  8
0
100
AcDbSpline
 62
7
  6
BYLAYER
 70
0
 71
3
 72
9
 73
5
 74
0
 42
0.0000001
 43
0.0000001
 44
0.0000000001
 40
0.0
 40
0.0
 40
0.0
 40
0.0
 40
0.2650092518
 40
1.0
 40
1.0
 40
1.0
 40
1.0
 10
127.9717073693
 20
609.7274441162
 30
0.0
 10
127.9135545709
 20
609.6938697828
 30
0.0
 10
127.6981762991
 20
609.5605308786
 30
0.0
 10
127.4990253157
 20
609.3991030321
 30
0.0
 10
127.3713817606
 20
609.2634917571
 30
0.0
  0
SPLINE
  5
447
100
AcDbEntity
  8
0
100
AcDbSpline
 62
7
  6
BYLAYER
 70
0
 71
3
 72
9
 73
5
 74
0
 42
0.0000001
 43
0.0000001
 44
0.0000000001
 40
0.0
 40
0.0
 40
0.0
 40
0.0
 40
0.2588214113
 40
1.0
 40
1.0
 40
1.0
 40
1.0
 10
127.3713817606
 20
609.2634917571
 30
0.0
 10
127.3490047444
 20
609.2397179308
 30
0.0
 10
127.2647627207
 20
609.145828523
 30
0.0
 10
127.1897412177
 20
609.0434750589
 30
0.0
 10
127.1414435379
 20
608.9634215886
 30
0.0
  0
SPLINE
  5
448
100
AcDbEntity
  8
0
100
AcDbSpline
 62
7
  6
BYLAYER
 70
0
 71
3
 72
9
 73
5
 74
0
 42
0.0000001
 43
0.0000001
 44
0.0000000001
 40
0.0
 40
0.0
 40
0.0
 40
0.0
 40
0.2563881388
 40
1.0
 40
1.0
 40
1.0
 40
1.0
 10
127.1414435379
 20
608.9634215886
 30
0.0
 10
127.1276127373
 20
608.9404970177
 30
0.0
 10
127.0759759503
 20
608.8497233937
 30
0.0
 10
127.0339529385
 20
608.7533866473
 30
0.0
 10
127.009431857
 20
608.6797074067
 30
0.0
  0
SPLINE
  5
449
100
AcDbEntity
  8
0
100
AcDbSpline
 62
7
  6
BYLAYER
 70
0
 71
3
 72
11
 73
7
 74
0
 42
0.0000001
 43
0.0000001
 44
0.0000000001
 40
0.0
 40
0.0
 40
0.0
 40
0.0
 40
0.2372251801
 40
0.5000005261
 40
0.7627755858
 40
1.0
 40
1.0
 40
1.0
 40
1.0
 10
132.9214548376
 20
609.7274560139
 30
0.0
 10
132.5701129194
 20
609.930298776
 30
0.0
 10
131.753030972
 20
610.2263361646
 30
0.0
 10
130.4465772124
 20
610.3681421034
 30
0.0
 10
129.140125424
 20
610.2263302027
 30
0.0
 10
128.3230466903
 20
609.9302887569
 30
0.0
 10
127.9717073693
 20
609.7274441162
 30
0.0
  0
SPLINE
  5
44A
100
AcDbEntity
  8
0
100
AcDbSpline
 62
7
  6
BYLAYER
 70
0
 71
3
 72
11
 73
7
 74
0
 42
0.0000001
 43
0.0000001
 44
0.0000000001
 40
0.0
 40
0.0
 40
0.0
 40
0.0
 40
0.2177164324
 40
0.4509408358
 40
0.7102939719
 40
1.0
 40
1.0
 40
1.0
 40
1.0
 10
94.9451483538
 20
561.6043007577
 30
0.0
 10
94.9451478047
 20
561.6804540598
 30
0.0
 10
94.9733479159
 20
561.8392247901
 30
0.0
 10
95.093624098
 20
562.0604989897
 30
0.0
 10
95.2839868879
 20
562.2604451866
 30
0.0
 10
95.4431709792
 20
562.3701203154
 30
0.0
 10
95.5309289035
 20
562.4207870741
 30
0.0
  0
SPLINE
  5
44B
100
AcDbEntity
  8
0
100
AcDbSpline
 62
7
  6
BYLAYER
 70
0
 71
3
 72
9
 73
5
 74
0
 42
0.0000001
 43
0.0000001
 44
0.0000000001
 40
0.0
 40
0.0
 40
0.0
 40
0.0
 40
0.2665771497
 40
1.0
 40
1.0
 40
1.0
 40
1.0
 10
131.7193783143
 20
607.6453868432
 30
0.0
 10
131.7521932904
 20
607.6264415365
 30
0.0
 10
131.8727640682
 20
607.5512825791
 30
0.0
 10
131.9833820318
 20
607.4587057746
 30
0.0
 10
132.0521539885
 20
607.3803590895
 30
0.0
  0
SPLINE
  5
44C
100
AcDbEntity
  8
0
100
AcDbSpline
 62
7
  6
BYLAYER
 70
0
 71
3
 72
9
 73
5
 74
0
 42
0.0000001
 43
0.0000001
 44
0.0000000001
 40
0.0
 40
0.0
 40
0.0
 40
0.0
 40
0.5507561204
 40
1.0
 40
1.0
 40
1.0
 40
1.0
 10
94.6523117847
 20
553.7486371943
 30
0.0
 10
94.73501364
 20
553.7963848477
 30
0.0
 10
94.8771167004
 20
553.9051707141
 30
0.0
 10
94.9452026213
 20
554.0789858497
 30
0.0
 10
94.9452020596
 20
554.1568803526
 30
0.0
  0
SPLINE
  5
44D
100
AcDbEntity
  8
0
100
AcDbSpline
 62
7
  6
BYLAYER
 70
0
 71
3
 72
11
 73
7
 74
0
 42
0.0000001
 43
0.0000001
 44
0.0000000001
 40
0.0
 40
0.0
 40
0.0
 40
0.0
 40
0.2754189014
 40
0.5000011189
 40
0.7245826432
 40
1.0
 40
1.0
 40
1.0
 40
1.0
 10
94.0309999159
 20
552.5734364531
 30
0.0
 10
93.9482884988
 20
552.6211888317
 30
0.0
 10
93.8061643796
 20
552.7300400805
 30
0.0
 10
93.7076153075
 20
552.9816778694
 30
0.0
 10
93.8061606611
 20
553.2333166448
 30
0.0
 10
93.948283419
 20
553.3421686542
 30
0.0
 10
94.0309940279
 20
553.3899213615
 30
0.0
  0
SPLINE
  5
44E
100
AcDbEntity
  8
0
100
AcDbSpline
 62
7
  6
BYLAYER
 70
0
 71
3
 72
11
 73
7
 74
0
 42
0.0000001
 43
0.0000001
 44
0.0000000001
 40
0.0
 40
0.0
 40
0.0
 40
0.0
 40
0.2754175913
 40
0.4999991442
 40
0.7245813331
 40
1.0
 40
1.0
 40
1.0
 40
1.0
 10
94.5613366257
 20
551.6548922059
 30
0.0
 10
94.6233696352
 20
551.6907067668
 30
0.0
 10
94.7299617676
 20
551.7723458345
 30
0.0
 10
94.803870666
 20
551.9610750453
 30
0.0
 10
94.7299587452
 20
552.1498032577
 30
0.0
 10
94.6233657198
 20
552.2314416337
 30
0.0
 10
94.5613322098
 20
552.2672558872
 30
0.0
  0
SPLINE
  5
44F
100
AcDbEntity
  8
0
100
AcDbSpline
 62
7
  6
BYLAYER
 70
0
 71
3
 72
11
 73
7
 74
0
 42
0.0000001
 43
0.0000001
 44
0.0000000001
 40
0.0
 40
0.0
 40
0.0
 40
0.0
 40
0.21777915
 40
0.4509225762
 40
0.7102588847
 40
1.0
 40
1.0
 40
1.0
 40
1.0
 10
126.9466120813
 20
609.1151038854
 30
0.0
 10
126.9465887568
 20
609.2484104873
 30
0.0
 10
126.9958874223
 20
609.5262762912
 30
0.0
 10
127.2065030355
 20
609.9133985948
 30
0.0
 10
127.5394712747
 20
610.2633963302
 30
0.0
 10
127.8181124772
 20
610.4552690103
 30
0.0
 10
127.9717073693
 20
610.5439465333
 30
0.0
  0
SPLINE
  5
450
100
AcDbEntity
  8
0
100
AcDbSpline
 62
7
  6
BYLAYER
 70
0
 71
3
 72
10
 73
6
 74
0
 42
0.0000001
 43
0.0000001
 44
0.0000000001
 40
0.0
 40
0.0
 40
0.0
 40
0.0
 40
0.513490567
 40
0.7687459069
 40
1.0
 40
1.0
 40
1.0
 40
1.0
 10
91.8944163949
 20
551.0034268621
 30
0.0
 10
92.1933806764
 20
550.9075363354
 30
0.0
 10
92.6770388381
 20
550.8621935557
 30
0.0
 10
93.2811756782
 20
550.9661262899
 30
0.0
 10
93.5610865262
 20
551.0774009888
 30
0.0
 10
93.6835399201
 20
551.1480990668
 30
0.0
  0
SPLINE
  5
451
100
AcDbEntity
  8
0
100
AcDbSpline
 62
7
  6
BYLAYER
 70
0
 71
3
 72
9
 73
5
 74
0
 42
0.0000001
 43
0.0000001
 44
0.0000000001
 40
0.0
 40
0.0
 40
0.0
 40
0.0
 40
0.2444669496
 40
1.0
 40
1.0
 40
1.0
 40
1.0
 10
133.8829378626
 20
608.6821424965
 30
0.0
 10
133.8748945571
 20
608.7061517134
 30
0.0
 10
133.8391272895
 20
608.803390683
 30
0.0
 10
133.7921660254
 20
608.8964138077
 30
0.0
 10
133.7517412951
 20
608.9634182394
 30
0.0
  0
SPLINE
  5
452
100
AcDbEntity
  8
0
100
AcDbSpline
 62
7
  6
BYLAYER
 70
0
 71
3
 72
9
 73
5
 74
0
 42
0.0000001
 43
0.0000001
 44
0.0000000001
 40
0.0
 40
0.0
 40
0.0
 40
0.0
 40
0.2418344484
 40
1.0
 40
1.0
 40
1.0
 40
1.0
 10
133.7517412951
 20
608.9634182394
 30
0.0
 10
133.7359801586
 20
608.9895424952
 30
0.0
 10
133.6676434939
 20
609.0956486117
 30
0.0
 10
133.5873362822
 20
609.1938682198
 30
0.0
 10
133.5217758037
 20
609.2635185819
 30
0.0
  0
SPLINE
  5
453
100
AcDbEntity
  8
0
100
AcDbSpline
 62
7
  6
BYLAYER
 70
0
 71
3
 72
9
 73
5
 74
0
 42
0.0000001
 43
0.0000001
 44
0.0000000001
 40
0.0
 40
0.0
 40
0.0
 40
0.0
 40
0.2354310494
 40
1.0
 40
1.0
 40
1.0
 40
1.0
 10
133.5217758037
 20
609.2635185819
 30
0.0
 10
133.480882401
 20
609.306963053
 30
0.0
 10
133.29910445
 20
609.4838721598
 30
0.0
 10
133.0892549491
 20
609.630578766
 30
0.0
 10
132.9214548376
 20
609.7274560139
 30
0.0
  0
SPLINE
  5
454
100
AcDbEntity
  8
0
100
AcDbSpline
 62
7
  6
BYLAYER
 70
0
 71
3
 72
9
 73
5
 74
0
 42
0.0000001
 43
0.0000001
 44
0.0000000001
 40
0.0
 40
0.0
 40
0.0
 40
0.0
 40
0.2389121469
 40
1.0
 40
1.0
 40
1.0
 40
1.0
 10
85.96958997
 20
553.1451808191
 30
0.0
 10
86.1280279858
 20
553.0537086573
 30
0.0
 10
86.8028905061
 20
552.6912006538
 30
0.0
 10
87.5185458336
 20
552.4069541692
 30
0.0
 10
88.0735031522
 20
552.2289558167
 30
0.0
  0
SPLINE
  5
455
100
AcDbEntity
  8
0
100
AcDbSpline
 62
7
  6
BYLAYER
 70
0
 71
3
 72
9
 73
5
 74
0
 42
0.0000001
 43
0.0000001
 44
0.0000000001
 40
0.0
 40
0.0
 40
0.0
 40
0.0
 40
0.240452187
 40
1.0
 40
1.0
 40
1.0
 40
1.0
 10
83.9411902436
 20
554.9223056524
 30
0.0
 10
83.9535520382
 20
554.9363429415
 30
0.0
 10
84.0065927214
 20
554.993281053
 30
0.0
 10
84.0657053741
 20
555.0444330838
 30
0.0
 10
84.11275705
 20
555.080169787
 30
0.0
  0
SPLINE
  5
456
100
AcDbEntity
  8
0
100
AcDbSpline
 62
7
  6
BYLAYER
 70
0
 71
3
 72
9
 73
5
 74
0
 42
0.0000001
 43
0.0000001
 44
0.0000000001
 40
0.0
 40
0.0
 40
0.0
 40
0.0
 40
0.243606757
 40
1.0
 40
1.0
 40
1.0
 40
1.0
 10
84.11275705
 20
555.080169787
 30
0.0
 10
84.1251780987
 20
555.0896038256
 30
0.0
 10
84.1768228754
 20
555.1274617827
 30
0.0
 10
84.2309499044
 20
555.161902528
 30
0.0
 10
84.2728915968
 20
555.1861174308
 30
0.0
  0
SPLINE
  5
457
100
AcDbEntity
  8
0
100
AcDbSpline
 62
7
  6
BYLAYER
 70
0
 71
3
 72
11
 73
7
 74
0
 42
0.0000001
 43
0.0000001
 44
0.0000000001
 40
0.0
 40
0.0
 40
0.0
 40
0.0
 40
0.21777915
 40
0.4509225762
 40
0.7102588847
 40
1.0
 40
1.0
 40
1.0
 40
1.0
 10
82.045709776
 20
556.6558405919
 30
0.0
 10
82.0456864515
 20
556.7891471937
 30
0.0
 10
82.0949851171
 20
557.0670129976
 30
0.0
 10
82.3056007303
 20
557.4541353012
 30
0.0
 10
82.6385689694
 20
557.8041330367
 30
0.0
 10
82.9172101719
 20
557.9960057168
 30
0.0
 10
83.070805064
 20
558.0846832397
 30
0.0
  0
SPLINE
  5
458
100
AcDbEntity
  8
0
100
AcDbSpline
 62
7
  6
BYLAYER
 70
0
 71
3
 72
9
 73
5
 74
0
 42
0.0000001
 43
0.0000001
 44
0.0000000001
 40
0.0
 40
0.0
 40
0.0
 40
0.0
 40
0.2591145179
 40
1.0
 40
1.0
 40
1.0
 40
1.0
 10
59.029080297
 20
571.148383985
 30
0.0
 10
58.9965664159
 20
571.1296121991
 30
0.0
 10
58.8725723693
 20
571.0546533664
 30
0.0
 10
58.7546500631
 20
570.9694072548
 30
0.0
 10
58.6726704072
 20
570.9001029712
 30
0.0
  0
SPLINE
  5
459
100
AcDbEntity
  8
0
100
AcDbSpline
 62
7
  6
BYLAYER
 70
0
 71
3
 72
11
 73
7
 74
0
 42
0.0000001
 43
0.0000001
 44
0.0000000001
 40
0.0
 40
0.0
 40
0.0
 40
0.0
 40
0.2672882759
 40
0.4999882631
 40
0.7326952572
 40
1.0
 40
1.0
 40
1.0
 40
1.0
 10
58.6726704072
 20
570.9001029712
 30
0.0
 10
58.5182608394
 20
570.7695676041
 30
0.0
 10
58.2584995391
 20
570.4805215856
 30
0.0
 10
58.1001002074
 20
569.923558743
 30
0.0
 10
58.2586084211
 20
569.3666161781
 30
0.0
 10
58.5184176562
 20
569.077593441
 30
0.0
 10
58.6728514658
 20
568.9470674567
 30
0.0
  0
SPLINE
  5
45A
100
AcDbEntity
  8
0
100
AcDbSpline
 62
7
  6
BYLAYER
 70
0
 71
3
 72
9
 73
5
 74
0
 42
0.0000001
 43
0.0000001
 44
0.0000000001
 40
0.0
 40
0.0
 40
0.0
 40
0.0
 40
0.240993896
 40
1.0
 40
1.0
 40
1.0
 40
1.0
 10
58.6728514658
 20
568.9470674567
 30
0.0
 10
58.6995078657
 20
568.9245377215
 30
0.0
 10
58.8124416932
 20
568.8338128915
 30
0.0
 10
58.9339009819
 20
568.7538900179
 30
0.0
 10
59.0290979608
 20
568.6989292599
 30
0.0
  0
SPLINE
  5
45B
100
AcDbEntity
  8
0
100
AcDbSpline
 62
7
  6
BYLAYER
 70
0
 71
3
 72
9
 73
5
 74
0
 42
0.0000001
 43
0.0000001
 44
0.0000000001
 40
0.0
 40
0.0
 40
0.0
 40
0.0
 40
0.2444669496
 40
1.0
 40
1.0
 40
1.0
 40
1.0
 10
88.9820355574
 20
556.2228792029
 30
0.0
 10
88.9739922518
 20
556.2468884198
 30
0.0
 10
88.9382249843
 20
556.3441273894
 30
0.0
 10
88.8912637201
 20
556.4371505142
 30
0.0
 10
88.8508389898
 20
556.5041549458
 30
0.0
  0
SPLINE
  5
45C
100
AcDbEntity
  8
0
100
AcDbSpline
 62
7
  6
BYLAYER
 70
0
 71
3
 72
9
 73
5
 74
0
 42
0.0000001
 43
0.0000001
 44
0.0000000001
 40
0.0
 40
0.0
 40
0.0
 40
0.0
 40
0.2274336527
 40
1.0
 40
1.0
 40
1.0
 40
1.0
 10
88.8508389898
 20
556.5041549458
 30
0.0
 10
88.8063739735
 20
556.5778561957
 30
0.0
 10
88.583899959
 20
556.8857707573
 30
0.0
 10
88.2737703691
 20
557.1220006414
 30
0.0
 10
88.0205525323
 20
557.2681927203
 30
0.0
  0
SPLINE
  5
45D
100
AcDbEntity
  8
0
100
AcDbSpline
 62
7
  6
BYLAYER
 70
0
 71
3
 72
9
 73
5
 74
0
 42
0.0000001
 43
0.0000001
 44
0.0000000001
 40
0.0
 40
0.0
 40
0.0
 40
0.0
 40
0.240452187
 40
1.0
 40
1.0
 40
1.0
 40
1.0
 10
60.9601241763
 20
568.1901301743
 30
0.0
 10
60.972485971
 20
568.2041674634
 30
0.0
 10
61.0255266541
 20
568.2611055749
 30
0.0
 10
61.0846393068
 20
568.3122576057
 30
0.0
 10
61.1316909827
 20
568.3479943089
 30
0.0
  0
SPLINE
  5
45E
100
AcDbEntity
  8
0
100
AcDbSpline
 62
7
  6
BYLAYER
 70
0
 71
3
 72
9
 73
5
 74
0
 42
0.0000001
 43
0.0000001
 44
0.0000000001
 40
0.0
 40
0.0
 40
0.0
 40
0.0
 40
0.243606757
 40
1.0
 40
1.0
 40
1.0
 40
1.0
 10
61.1316909827
 20
568.3479943089
 30
0.0
 10
61.1441120315
 20
568.3574283475
 30
0.0
 10
61.1957568081
 20
568.3952863046
 30
0.0
 10
61.2498838371
 20
568.4297270499
 30
0.0
 10
61.2918255295
 20
568.4539419527
 30
0.0
  0
SPLINE
  5
45F
100
AcDbEntity
  8
0
100
AcDbSpline
 62
7
  6
BYLAYER
 70
0
 71
3
 72
11
 73
7
 74
0
 42
0.0000001
 43
0.0000001
 44
0.0000000001
 40
0.0
 40
0.0
 40
0.0
 40
0.0
 40
0.2753956579
 40
0.4999990125
 40
0.7246030321
 40
1.0
 40
1.0
 40
1.0
 40
1.0
 10
144.2352104399
 20
604.0121063587
 30
0.0
 10
144.2765627203
 20
604.0359809664
 30
0.0
 10
144.347603681
 20
604.0904165526
 30
0.0
 10
144.3969366566
 20
604.2162281784
 30
0.0
 10
144.347601744
 20
604.3420392242
 30
0.0
 10
144.2765601452
 20
604.3964743898
 30
0.0
 10
144.235207496
 20
604.4203488129
 30
0.0
  0
SPLINE
  5
460
100
AcDbEntity
  8
0
100
AcDbSpline
 62
7
  6
BYLAYER
 70
0
 71
3
 72
9
 73
5
 74
0
 42
0.0000001
 43
0.0000001
 44
0.0000000001
 40
0.0
 40
0.0
 40
0.0
 40
0.0
 40
0.2444669496
 40
1.0
 40
1.0
 40
1.0
 40
1.0
 10
66.0009694901
 20
569.4907037248
 30
0.0
 10
65.9929261845
 20
569.5147129417
 30
0.0
 10
65.957158917
 20
569.6119519113
 30
0.0
 10
65.9101976529
 20
569.7049750361
 30
0.0
 10
65.8697729226
 20
569.7719794677
 30
0.0
  0
SPLINE
  5
461
100
AcDbEntity
  8
0
100
AcDbSpline
 62
7
  6
BYLAYER
 70
0
 71
3
 72
9
 73
5
 74
0
 42
0.0000001
 43
0.0000001
 44
0.0000000001
 40
0.0
 40
0.0
 40
0.0
 40
0.0
 40
0.2274336527
 40
1.0
 40
1.0
 40
1.0
 40
1.0
 10
65.8697729226
 20
569.7719794677
 30
0.0
 10
65.8253079063
 20
569.8456807176
 30
0.0
 10
65.6028338917
 20
570.1535952792
 30
0.0
 10
65.2927043018
 20
570.3898251633
 30
0.0
 10
65.039486465
 20
570.5360172423
 30
0.0
  0
SPLINE
  5
462
100
AcDbEntity
  8
0
100
AcDbSpline
 62
7
  6
BYLAYER
 70
0
 71
3
 72
11
 73
7
 74
0
 42
0.0000001
 43
0.0000001
 44
0.0000000001
 40
0.0
 40
0.0
 40
0.0
 40
0.0
 40
0.21777915
 40
0.4509225762
 40
0.7102588847
 40
1.0
 40
1.0
 40
1.0
 40
1.0
 10
59.0646437087
 20
569.9236651138
 30
0.0
 10
59.0646203842
 20
570.0569717156
 30
0.0
 10
59.1139190498
 20
570.3348375196
 30
0.0
 10
59.324534663
 20
570.7219598231
 30
0.0
 10
59.6575029021
 20
571.0719575586
 30
0.0
 10
59.9361441047
 20
571.2638302387
 30
0.0
 10
60.0897389968
 20
571.3525077617
 30
0.0
  0
SPLINE
  5
463
100
AcDbEntity
  8
0
100
AcDbSpline
 62
7
  6
BYLAYER
 70
0
 71
3
 72
11
 73
7
 74
0
 42
0.0000001
 43
0.0000001
 44
0.0000000001
 40
0.0
 40
0.0
 40
0.0
 40
0.0
 40
0.2754189014
 40
0.5000011189
 40
0.7245826432
 40
1.0
 40
1.0
 40
1.0
 40
1.0
 10
143.5281124906
 20
602.7873772965
 30
0.0
 10
143.4454010735
 20
602.8351296751
 30
0.0
 10
143.3032769543
 20
602.9439809238
 30
0.0
 10
143.2047278823
 20
603.1956187128
 30
0.0
 10
143.3032732359
 20
603.4472574881
 30
0.0
 10
143.4453959938
 20
603.5561094975
 30
0.0
 10
143.5281066027
 20
603.6038622048
 30
0.0
  0
SPLINE
  5
464
100
AcDbEntity
  8
0
100
AcDbSpline
 62
7
  6
BYLAYER
 70
0
 71
3
 72
11
 73
7
 74
0
 42
0.0000001
 43
0.0000001
 44
0.0000000001
 40
0.0
 40
0.0
 40
0.0
 40
0.0
 40
0.2177753738
 40
0.4509336309
 40
0.7102261693
 40
1.0
 40
1.0
 40
1.0
 40
1.0
 10
57.6504258233
 20
569.5154105129
 30
0.0
 10
57.6504258251
 20
569.3821035449
 30
0.0
 10
57.6996581162
 20
569.1042170101
 30
0.0
 10
57.9103306843
 20
568.717126854
 30
0.0
 10
58.2432657448
 20
568.3670924789
 30
0.0
 10
58.5219300844
 20
568.1752441825
 30
0.0
 10
58.6755460422
 20
568.0865559744
 30
0.0
  0
SPLINE
  5
465
100
AcDbEntity
  8
0
100
AcDbSpline
 62
7
  6
BYLAYER
 70
0
 71
3
 72
9
 73
5
 74
0
 42
0.0000001
 43
0.0000001
 44
0.0000000001
 40
0.0
 40
0.0
 40
0.0
 40
0.0
 40
0.74205641
 40
1.0
 40
1.0
 40
1.0
 40
1.0
 10
147.6243253469
 20
600.183339305
 30
0.0
 10
147.6243250724
 20
600.2214134689
 30
0.0
 10
147.6151057599
 20
600.2731867809
 30
0.0
 10
147.5958180209
 20
600.320748763
 30
0.0
 10
147.5902517821
 20
600.3327561595
 30
0.0
  0
SPLINE
  5
466
100
AcDbEntity
  8
0
100
AcDbSpline
 62
7
  6
BYLAYER
 70
0
 71
3
 72
9
 73
5
 74
0
 42
0.0000001
 43
0.0000001
 44
0.0000000001
 40
0.0
 40
0.0
 40
0.0
 40
0.0
 40
0.2245381614
 40
1.0
 40
1.0
 40
1.0
 40
1.0
 10
147.5902517821
 20
600.3327561595
 30
0.0
 10
147.5786219909
 20
600.3578437485
 30
0.0
 10
147.5151206971
 20
600.4642420285
 30
0.0
 10
147.4141341575
 20
600.5438323968
 30
0.0
 10
147.3314291842
 20
600.5915810552
 30
0.0
  0
SPLINE
  5
467
100
AcDbEntity
  8
0
100
AcDbSpline
 62
7
  6
BYLAYER
 70
0
 71
3
 72
9
 73
5
 74
0
 42
0.0000001
 43
0.0000001
 44
0.0000000001
 40
0.0
 40
0.0
 40
0.0
 40
0.0
 40
0.5507561204
 40
1.0
 40
1.0
 40
1.0
 40
1.0
 10
147.3314887778
 20
592.3276757417
 30
0.0
 10
147.4141906331
 20
592.3754233951
 30
0.0
 10
147.5562936935
 20
592.4842092615
 30
0.0
 10
147.6243796144
 20
592.6580243971
 30
0.0
 10
147.6243790527
 20
592.7359188999
 30
0.0
  0
SPLINE
  5
468
100
AcDbEntity
  8
0
100
AcDbSpline
 62
7
  6
BYLAYER
 70
0
 71
3
 72
16
 73
12
 74
0
 42
0.0000001
 43
0.0000001
 44
0.0000000001
 40
0.0
 40
0.0
 40
0.0
 40
0.0
 40
0.1287498631
 40
0.2703965133
 40
0.4176169701
 40
0.562024195
 40
0.6957534275
 40
0.813067195
 40
0.9124731354
 40
0.9571218448
 40
1.0
 40
1.0
 40
1.0
 40
1.0
 10
60.0897389968
 20
571.3525077617
 30
0.0
 10
60.348832431
 20
571.5020945327
 30
0.0
 10
60.9354424761
 20
571.7441317098
 30
0.0
 10
61.8914876073
 20
571.9353903328
 30
0.0
 10
62.9027363006
 20
571.9633336599
 30
0.0
 10
63.8863508615
 20
571.8253567321
 30
0.0
 10
64.7637230157
 20
571.531687189
 30
0.0
 10
65.466711239
 20
571.1050492453
 30
0.0
 10
65.8761763113
 20
570.6347557941
 30
0.0
 10
66.0379800497
 20
570.2275558573
 30
0.0
 10
66.0645849277
 20
570.0233007041
 30
0.0
 10
66.0646023608
 20
569.9236651279
 30
0.0
  0
SPLINE
  5
469
100
AcDbEntity
  8
0
100
AcDbSpline
 62
7
  6
BYLAYER
 70
0
 71
3
 72
16
 73
12
 74
0
 42
0.0000001
 43
0.0000001
 44
0.0000000001
 40
0.0
 40
0.0
 40
0.0
 40
0.0
 40
0.1287498631
 40
0.2703965133
 40
0.4176169701
 40
0.562024195
 40
0.6957534275
 40
0.813067195
 40
0.9124731354
 40
0.9571218448
 40
1.0
 40
1.0
 40
1.0
 40
1.0
 10
83.070805064
 20
558.0846832397
 30
0.0
 10
83.3298984983
 20
558.2342700108
 30
0.0
 10
83.9165085434
 20
558.4763071879
 30
0.0
 10
84.8725536746
 20
558.6675658109
 30
0.0
 10
85.8838023678
 20
558.695509138
 30
0.0
 10
86.8674169288
 20
558.5575322102
 30
0.0
 10
87.744789083
 20
558.2638626671
 30
0.0
 10
88.4477773062
 20
557.8372247234
 30
0.0
 10
88.8572423786
 20
557.3669312722
 30
0.0
 10
89.019046117
 20
556.9597313354
 30
0.0
 10
89.045650995
 20
556.7554761822
 30
0.0
 10
89.0456684281
 20
556.655840606
 30
0.0
  0
SPLINE
  5
46A
100
AcDbEntity
  8
0
100
AcDbSpline
 62
7
  6
BYLAYER
 70
0
 71
3
 72
9
 73
5
 74
0
 42
0.0000001
 43
0.0000001
 44
0.0000000001
 40
0.0
 40
0.0
 40
0.0
 40
0.0
 40
0.240452187
 40
1.0
 40
1.0
 40
1.0
 40
1.0
 10
128.8420925489
 20
607.3815689459
 30
0.0
 10
128.8544543435
 20
607.3956062351
 30
0.0
 10
128.9074950267
 20
607.4525443466
 30
0.0
 10
128.9666076793
 20
607.5036963774
 30
0.0
 10
129.0136593553
 20
607.5394330805
 30
0.0
  0
SPLINE
  5
46B
100
AcDbEntity
  8
0
100
AcDbSpline
 62
7
  6
BYLAYER
 70
0
 71
3
 72
9
 73
5
 74
0
 42
0.0000001
 43
0.0000001
 44
0.0000000001
 40
0.0
 40
0.0
 40
0.0
 40
0.0
 40
0.243606757
 40
1.0
 40
1.0
 40
1.0
 40
1.0
 10
129.0136593553
 20
607.5394330805
 30
0.0
 10
129.026080404
 20
607.5488671192
 30
0.0
 10
129.0777251807
 20
607.5867250763
 30
0.0
 10
129.1318522097
 20
607.6211658215
 30
0.0
 10
129.173793902
 20
607.6453807244
 30
0.0
  0
SPLINE
  5
46C
100
AcDbEntity
  8
0
100
AcDbSpline
 62
7
  6
BYLAYER
 70
0
 71
3
 72
16
 73
12
 74
0
 42
0.0000001
 43
0.0000001
 44
0.0000000001
 40
0.0
 40
0.0
 40
0.0
 40
0.0
 40
0.1287498631
 40
0.2703965133
 40
0.4176169701
 40
0.562024195
 40
0.6957534275
 40
0.813067195
 40
0.9124731354
 40
0.9571218448
 40
1.0
 40
1.0
 40
1.0
 40
1.0
 10
127.9717073693
 20
610.5439465333
 30
0.0
 10
128.2308008035
 20
610.6935333044
 30
0.0
 10
128.8174108486
 20
610.9355704815
 30
0.0
 10
129.7734559799
 20
611.1268291044
 30
0.0
 10
130.7847046731
 20
611.1547724315
 30
0.0
 10
131.7683192341
 20
611.0167955038
 30
0.0
 10
132.6456913882
 20
610.7231259606
 30
0.0
 10
133.3486796115
 20
610.2964880169
 30
0.0
 10
133.7581446839
 20
609.8261945658
 30
0.0
 10
133.9199484222
 20
609.418994629
 30
0.0
 10
133.9465533002
 20
609.2147394758
 30
0.0
 10
133.9465707334
 20
609.1151038996
 30
0.0
  0
SPLINE
  5
46D
100
AcDbEntity
  8
0
100
AcDbSpline
 62
7
  6
BYLAYER
 70
0
 71
3
 72
9
 73
5
 74
0
 42
0.0000001
 43
0.0000001
 44
0.0000000001
 40
0.0
 40
0.0
 40
0.0
 40
0.0
 40
0.5264642152
 40
1.0
 40
1.0
 40
1.0
 40
1.0
 10
341.191407526
 20
112.7468652184
 30
0.0
 10
341.1151870688
 20
112.8260739319
 30
0.0
 10
340.9890728269
 20
112.9982477473
 30
0.0
 10
340.9397076986
 20
113.2087596498
 30
0.0
 10
340.9397239113
 20
113.3076335631
 30
0.0
  0
SPLINE
  5
46E
100
AcDbEntity
  8
0
100
AcDbSpline
 62
7
  6
BYLAYER
 70
0
 71
3
 72
9
 73
5
 74
0
 42
0.0000001
 43
0.0000001
 44
0.0000000001
 40
0.0
 40
0.0
 40
0.0
 40
0.0
 40
0.2647740475
 40
1.0
 40
1.0
 40
1.0
 40
1.0
 10
344.9846622731
 20
109.262301831
 30
0.0
 10
344.823585963
 20
109.3552971782
 30
0.0
 10
344.2260143572
 20
109.7242544022
 30
0.0
 10
343.6722591899
 20
110.1687506828
 30
0.0
 10
343.3141481033
 20
110.5409016708
 30
0.0
  0
SPLINE
  5
46F
100
AcDbEntity
  8
0
100
AcDbSpline
 62
7
  6
BYLAYER
 70
0
 71
3
 72
11
 73
7
 74
0
 42
0.0000001
 43
0.0000001
 44
0.0000000001
 40
0.0
 40
0.0
 40
0.0
 40
0.0
 40
0.2372279391
 40
0.4999994739
 40
0.762771295
 40
1.0
 40
1.0
 40
1.0
 40
1.0
 10
376.8749017505
 20
93.7085652879
 30
0.0
 10
376.5235574177
 20
93.5057177537
 30
0.0
 10
375.7064763455
 20
93.2096823724
 30
0.0
 10
374.4000319074
 20
93.0678745483
 30
0.0
 10
373.0935854982
 20
93.2096764105
 30
0.0
 10
372.2765012122
 20
93.5057077346
 30
0.0
 10
371.9251542823
 20
93.7085533902
 30
0.0
  0
SPLINE
  5
470
100
AcDbEntity
  8
0
100
AcDbSpline
 62
7
  6
BYLAYER
 70
0
 71
3
 72
11
 73
7
 74
0
 42
0.0000001
 43
0.0000001
 44
0.0000000001
 40
0.0
 40
0.0
 40
0.0
 40
0.0
 40
0.2177727701
 40
0.4509280213
 40
0.7102223029
 40
1.0
 40
1.0
 40
1.0
 40
1.0
 10
447.1961680317
 20
135.1453350082
 30
0.0
 10
447.1961680334
 20
135.0120317914
 30
0.0
 10
447.1469385253
 20
134.7341535398
 30
0.0
 10
446.9362786497
 20
134.3470675626
 30
0.0
 10
446.6033521603
 20
133.9970333154
 30
0.0
 10
446.3246926792
 20
133.8051814313
 30
0.0
 10
446.1710777975
 20
133.7164923673
 30
0.0
  0
SPLINE
  5
471
100
AcDbEntity
  8
0
100
AcDbSpline
 62
7
  6
BYLAYER
 70
0
 71
3
 72
9
 73
5
 74
0
 42
0.0000001
 43
0.0000001
 44
0.0000000001
 40
0.0
 40
0.0
 40
0.0
 40
0.0
 40
0.4765929297
 40
1.0
 40
1.0
 40
1.0
 40
1.0
 10
371.9251542823
 20
99.4240703101
 30
0.0
 10
372.1727448073
 20
99.2811270877
 30
0.0
 10
372.7309311469
 20
99.0470898434
 30
0.0
 10
373.320796841
 20
98.9219073477
 30
0.0
 10
373.6321569787
 20
98.8814822227
 30
0.0
  0
SPLINE
  5
472
100
AcDbEntity
  8
0
100
AcDbSpline
 62
7
  6
BYLAYER
 70
0
 71
3
 72
9
 73
5
 74
0
 42
0.0000001
 43
0.0000001
 44
0.0000000001
 40
0.0
 40
0.0
 40
0.0
 40
0.0
 40
0.5234097128
 40
1.0
 40
1.0
 40
1.0
 40
1.0
 10
375.1674942288
 20
98.8814323511
 30
0.0
 10
375.4789294931
 20
98.9218460372
 30
0.0
 10
376.0689370173
 20
99.047025934
 30
0.0
 10
376.6272572912
 20
99.2811054661
 30
0.0
 10
376.8749017505
 20
99.4240822078
 30
0.0
  0
SPLINE
  5
473
100
AcDbEntity
  8
0
100
AcDbSpline
 62
7
  6
BYLAYER
 70
0
 71
3
 72
9
 73
5
 74
0
 42
0.0000001
 43
0.0000001
 44
0.0000000001
 40
0.0
 40
0.0
 40
0.0
 40
0.0
 40
0.235836764
 40
1.0
 40
1.0
 40
1.0
 40
1.0
 10
343.3141481033
 20
116.2564185907
 30
0.0
 10
343.4290349152
 20
116.1370275912
 30
0.0
 10
343.9373229712
 20
115.6511707009
 30
0.0
 10
344.519714544
 20
115.2462503747
 30
0.0
 10
344.9846622731
 20
114.9778187509
 30
0.0
  0
SPLINE
  5
474
100
AcDbEntity
  8
0
100
AcDbSpline
 62
7
  6
BYLAYER
 70
0
 71
3
 72
9
 73
5
 74
0
 42
0.0000001
 43
0.0000001
 44
0.0000000001
 40
0.0
 40
0.0
 40
0.0
 40
0.0
 40
0.5398648032
 40
1.0
 40
1.0
 40
1.0
 40
1.0
 10
446.1710777975
 20
139.4320092873
 30
0.0
 10
446.3862973899
 20
139.5562656352
 30
0.0
 10
446.7630104503
 20
139.8310606402
 30
0.0
 10
447.0340038305
 20
140.2201653508
 30
0.0
 10
447.1108813677
 20
140.4175336643
 30
0.0
  0
SPLINE
  5
475
100
AcDbEntity
  8
0
100
AcDbSpline
 62
7
  6
BYLAYER
 70
0
 71
3
 72
8
 73
4
 74
0
 42
0.0000001
 43
0.0000001
 44
0.0000000001
 40
0.0
 40
0.0
 40
0.0
 40
0.0
 40
1.0
 40
1.0
 40
1.0
 40
1.0
 10
447.1108813677
 20
140.4175336643
 30
0.0
 10
447.1359276206
 20
140.4818351088
 30
0.0
 10
447.1560635877
 20
140.5483171992
 30
0.0
 10
447.1703563496
 20
140.6158279946
 30
0.0
  0
SPLINE
  5
476
100
AcDbEntity
  8
0
100
AcDbSpline
 62
7
  6
BYLAYER
 70
0
 71
3
 72
9
 73
5
 74
0
 42
0.0000001
 43
0.0000001
 44
0.0000000001
 40
0.0
 40
0.0
 40
0.0
 40
0.0
 40
0.4744336899
 40
1.0
 40
1.0
 40
1.0
 40
1.0
 10
361.4041855587
 20
408.9275340009
 30
0.0
 10
361.2034264605
 20
408.8116263734
 30
0.0
 10
360.73670633
 20
408.642443359
 30
0.0
 10
360.2467749878
 20
408.5893320963
 30
0.0
 10
359.9899744353
 20
408.5893314791
 30
0.0
  0
SPLINE
  5
477
100
AcDbEntity
  8
0
100
AcDbSpline
 62
7
  6
BYLAYER
 70
0
 71
3
 72
9
 73
5
 74
0
 42
0.0000001
 43
0.0000001
 44
0.0000000001
 40
0.0
 40
0.0
 40
0.0
 40
0.0
 40
0.2671444907
 40
1.0
 40
1.0
 40
1.0
 40
1.0
 10
413.9118509948
 20
439.0035239294
 30
0.0
 10
413.8467352025
 20
439.0035237729
 30
0.0
 10
413.6037567235
 20
438.9897127073
 30
0.0
 10
413.35944523
 20
438.9237381048
 30
0.0
 10
413.2047454331
 20
438.8344226685
 30
0.0
  0
SPLINE
  5
478
100
AcDbEntity
  8
0
100
AcDbSpline
 62
7
  6
BYLAYER
 70
0
 71
3
 72
9
 73
5
 74
0
 42
0.0000001
 43
0.0000001
 44
0.0000000001
 40
0.0
 40
0.0
 40
0.0
 40
0.0
 40
0.2291146192
 40
1.0
 40
1.0
 40
1.0
 40
1.0
 10
427.5184539319
 20
438.8344570744
 30
0.0
 10
427.4700587285
 20
438.862397426
 30
0.0
 10
427.2481090281
 20
438.9654986149
 30
0.0
 10
426.9993668799
 20
439.0035553879
 30
0.0
 10
426.8113459313
 20
439.003554936
 30
0.0
  0
SPLINE
  5
479
100
AcDbEntity
  8
0
100
AcDbSpline
 62
7
  6
BYLAYER
 70
0
 71
3
 72
11
 73
7
 74
0
 42
0.0000001
 43
0.0000001
 44
0.0000000001
 40
0.0
 40
0.0
 40
0.0
 40
0.0
 40
0.2372524156
 40
0.4999996414
 40
0.7627470637
 40
1.0
 40
1.0
 40
1.0
 40
1.0
 10
432.7359841878
 20
436.6386642325
 30
0.0
 10
432.6355901096
 20
436.5807020304
 30
0.0
 10
432.402139115
 20
436.4961077712
 30
0.0
 10
432.0288783131
 20
436.4556635275
 30
0.0
 10
431.6556170776
 20
436.496106148
 30
0.0
 10
431.4221653419
 20
436.5806992278
 30
0.0
 10
431.3217706254
 20
436.6386608331
 30
0.0
  0
SPLINE
  5
47A
100
AcDbEntity
  8
0
100
AcDbSpline
 62
7
  6
BYLAYER
 70
0
 71
3
 72
9
 73
5
 74
0
 42
0.0000001
 43
0.0000001
 44
0.0000000001
 40
0.0
 40
0.0
 40
0.0
 40
0.0
 40
0.5000005437
 40
1.0
 40
1.0
 40
1.0
 40
1.0
 10
434.1501948062
 20
437.046910086
 30
0.0
 10
434.0452545896
 20
437.1074959777
 30
0.0
 10
433.7966410695
 20
437.1554100691
 30
0.0
 10
433.5480275764
 20
437.107494903
 30
0.0
 10
433.443088025
 20
437.0469083864
 30
0.0
  0
SPLINE
  5
47B
100
AcDbEntity
  8
0
100
AcDbSpline
 62
7
  6
BYLAYER
 70
0
 71
3
 72
11
 73
7
 74
0
 42
0.0000001
 43
0.0000001
 44
0.0000000001
 40
0.0
 40
0.0
 40
0.0
 40
0.0
 40
0.2372531816
 40
0.5000006935
 40
0.7627478297
 40
1.0
 40
1.0
 40
1.0
 40
1.0
 10
343.817510324
 20
408.3676605452
 30
0.0
 10
343.7422142088
 20
408.4111317942
 30
0.0
 10
343.5671252742
 20
408.4745766192
 30
0.0
 10
343.2871792507
 20
408.5049085245
 30
0.0
 10
343.0072337462
 20
408.4745752816
 30
0.0
 10
342.832145633
 20
408.4111296023
 30
0.0
 10
342.7568501523
 20
408.3676579957
 30
0.0
  0
SPLINE
  5
47C
100
AcDbEntity
  8
0
100
AcDbSpline
 62
7
  6
BYLAYER
 70
0
 71
3
 72
11
 73
7
 74
0
 42
0.0000001
 43
0.0000001
 44
0.0000000001
 40
0.0
 40
0.0
 40
0.0
 40
0.0
 40
0.2372524156
 40
0.4999996414
 40
0.7627470637
 40
1.0
 40
1.0
 40
1.0
 40
1.0
 10
345.7620561802
 20
408.0614833787
 30
0.0
 10
345.6616621021
 20
408.0035211766
 30
0.0
 10
345.4282111074
 20
407.9189269174
 30
0.0
 10
345.0549503056
 20
407.8784826737
 30
0.0
 10
344.68168907
 20
407.9189252941
 30
0.0
 10
344.4482373344
 20
408.003518374
 30
0.0
 10
344.3478426179
 20
408.0614799793
 30
0.0
  0
SPLINE
  5
47D
100
AcDbEntity
  8
0
100
AcDbSpline
 62
7
  6
BYLAYER
 70
0
 71
3
 72
9
 73
5
 74
0
 42
0.0000001
 43
0.0000001
 44
0.0000000001
 40
0.0
 40
0.0
 40
0.0
 40
0.0
 40
0.2671444907
 40
1.0
 40
1.0
 40
1.0
 40
1.0
 10
347.0904794988
 20
408.5893004725
 30
0.0
 10
347.0253637065
 20
408.589300316
 30
0.0
 10
346.7823852275
 20
408.5754892504
 30
0.0
 10
346.5380737339
 20
408.5095146478
 30
0.0
 10
346.383373937
 20
408.4201992115
 30
0.0
  0
SPLINE
  5
47E
100
AcDbEntity
  8
0
100
AcDbSpline
 62
7
  6
BYLAYER
 70
0
 71
3
 72
16
 73
12
 74
0
 42
0.0000001
 43
0.0000001
 44
0.0000000001
 40
0.0
 40
0.0
 40
0.0
 40
0.0
 40
0.1287498631
 40
0.2703965133
 40
0.4176169701
 40
0.562024195
 40
0.6957534275
 40
0.813067195
 40
0.9124731354
 40
0.9571218448
 40
1.0
 40
1.0
 40
1.0
 40
1.0
 10
376.8748958626
 20
388.465920363
 30
0.0
 10
376.6158024284
 20
388.3163335919
 30
0.0
 10
376.0291923832
 20
388.0742964149
 30
0.0
 10
375.073147252
 20
387.8830377919
 30
0.0
 10
374.0618985588
 20
387.8550944648
 30
0.0
 10
373.0782839978
 20
387.9930713925
 30
0.0
 10
372.2009118436
 20
388.2867409357
 30
0.0
 10
371.4979236204
 20
388.7133788794
 30
0.0
 10
371.088458548
 20
389.1836723305
 30
0.0
 10
370.9266548097
 20
389.5908722673
 30
0.0
 10
370.9000499316
 20
389.7951274206
 30
0.0
 10
370.9000324985
 20
389.8947629968
 30
0.0
  0
SPLINE
  5
47F
100
AcDbEntity
  8
0
100
AcDbSpline
 62
7
  6
BYLAYER
 70
0
 71
3
 72
16
 73
12
 74
0
 42
0.0000001
 43
0.0000001
 44
0.0000000001
 40
0.0
 40
0.0
 40
0.0
 40
0.0
 40
0.1287498631
 40
0.2703965133
 40
0.4176169701
 40
0.562024195
 40
0.6957534275
 40
0.813067195
 40
0.9124731354
 40
0.9571218448
 40
1.0
 40
1.0
 40
1.0
 40
1.0
 10
353.8938297953
 20
401.7337448849
 30
0.0
 10
353.6347363611
 20
401.5841581138
 30
0.0
 10
353.048126316
 20
401.3421209368
 30
0.0
 10
352.0920811847
 20
401.1508623138
 30
0.0
 10
351.0808324915
 20
401.1229189867
 30
0.0
 10
350.0972179305
 20
401.2608959144
 30
0.0
 10
349.2198457764
 20
401.5545654576
 30
0.0
 10
348.5168575531
 20
401.9812034013
 30
0.0
 10
348.1073924807
 20
402.4514968524
 30
0.0
 10
347.9455887424
 20
402.8586967892
 30
0.0
 10
347.9189838644
 20
403.0629519425
 30
0.0
 10
347.9189664312
 20
403.1625875187
 30
0.0
  0
SPLINE
  5
480
100
AcDbEntity
  8
0
100
AcDbSpline
 62
7
  6
BYLAYER
 70
0
 71
3
 72
16
 73
12
 74
0
 42
0.0000001
 43
0.0000001
 44
0.0000000001
 40
0.0
 40
0.0
 40
0.0
 40
0.0
 40
0.1287498631
 40
0.2703965133
 40
0.4176169701
 40
0.562024195
 40
0.6957534275
 40
0.813067195
 40
0.9124731354
 40
0.9571218448
 40
1.0
 40
1.0
 40
1.0
 40
1.0
 10
444.7568642351
 20
427.6573591347
 30
0.0
 10
444.4977708009
 20
427.5077723636
 30
0.0
 10
443.9111607558
 20
427.2657351865
 30
0.0
 10
442.9551156245
 20
427.0744765636
 30
0.0
 10
441.9438669313
 20
427.0465332364
 30
0.0
 10
440.9602523704
 20
427.1845101642
 30
0.0
 10
440.0828802162
 20
427.4781797073
 30
0.0
 10
439.3798919929
 20
427.904817651
 30
0.0
 10
438.9704269206
 20
428.3751111022
 30
0.0
 10
438.8086231822
 20
428.782311039
 30
0.0
 10
438.7820183042
 20
428.9865661922
 30
0.0
 10
438.782000871
 20
429.0862017684
 30
0.0
  0
SPLINE
  5
481
100
AcDbEntity
  8
0
100
AcDbSpline
 62
7
  6
BYLAYER
 70
0
 71
3
 72
11
 73
7
 74
0
 42
0.0000001
 43
0.0000001
 44
0.0000000001
 40
0.0
 40
0.0
 40
0.0
 40
0.0
 40
0.2897105726
 40
0.5490861871
 40
0.7822206452
 40
1.0
 40
1.0
 40
1.0
 40
1.0
 10
341.5254985841
 20
407.6567340253
 30
0.0
 10
341.4377392069
 20
407.6060664277
 30
0.0
 10
341.2785258732
 20
407.4964075127
 30
0.0
 10
341.0882324945
 20
407.2964342518
 30
0.0
 10
340.9678828287
 20
407.07520018
 30
0.0
 10
340.939727592
 20
406.9164278929
 30
0.0
 10
340.9397158343
 20
406.8402525164
 30
0.0
  0
SPLINE
  5
482
100
AcDbEntity
  8
0
100
AcDbSpline
 62
7
  6
BYLAYER
 70
0
 71
3
 72
9
 73
5
 74
0
 42
0.0000001
 43
0.0000001
 44
0.0000000001
 40
0.0
 40
0.0
 40
0.0
 40
0.0
 40
0.5265555998
 40
1.0
 40
1.0
 40
1.0
 40
1.0
 10
341.191407526
 20
404.2382281336
 30
0.0
 10
341.1141126113
 20
404.3185534291
 30
0.0
 10
340.9864403997
 20
404.4934955174
 30
0.0
 10
340.938422859
 20
404.7076878523
 30
0.0
 10
340.9397852135
 20
404.8079095562
 30
0.0
  0
SPLINE
  5
483
100
AcDbEntity
  8
0
100
AcDbSpline
 62
7
  6
BYLAYER
 70
0
 71
3
 72
9
 73
5
 74
0
 42
0.0000001
 43
0.0000001
 44
0.0000000001
 40
0.0
 40
0.0
 40
0.0
 40
0.0
 40
0.2647740475
 40
1.0
 40
1.0
 40
1.0
 40
1.0
 10
344.984662273
 20
400.7536647463
 30
0.0
 10
344.823585963
 20
400.8466600934
 30
0.0
 10
344.2260143571
 20
401.2156173175
 30
0.0
 10
343.6722591898
 20
401.6601135981
 30
0.0
 10
343.3141481032
 20
402.0322645861
 30
0.0
  0
SPLINE
  5
484
100
AcDbEntity
  8
0
100
AcDbSpline
 62
7
  6
BYLAYER
 70
0
 71
3
 72
11
 73
7
 74
0
 42
0.0000001
 43
0.0000001
 44
0.0000000001
 40
0.0
 40
0.0
 40
0.0
 40
0.0
 40
0.2372279391
 40
0.4999994739
 40
0.762771295
 40
1.0
 40
1.0
 40
1.0
 40
1.0
 10
376.8749017505
 20
385.1999282032
 30
0.0
 10
376.5235574177
 20
384.9970806689
 30
0.0
 10
375.7064763455
 20
384.7010452877
 30
0.0
 10
374.4000319074
 20
384.5592374636
 30
0.0
 10
373.0935854981
 20
384.7010393258
 30
0.0
 10
372.2765012122
 20
384.9970706499
 30
0.0
 10
371.9251542822
 20
385.1999163055
 30
0.0
  0
SPLINE
  5
485
100
AcDbEntity
  8
0
100
AcDbSpline
 62
7
  6
BYLAYER
 70
0
 71
3
 72
11
 73
7
 74
0
 42
0.0000001
 43
0.0000001
 44
0.0000000001
 40
0.0
 40
0.0
 40
0.0
 40
0.0
 40
0.21777915
 40
0.4509225762
 40
0.7102588847
 40
1.0
 40
1.0
 40
1.0
 40
1.0
 10
377.8999911506
 20
389.8947630109
 30
0.0
 10
377.9000144751
 20
389.7614564091
 30
0.0
 10
377.8507158095
 20
389.4835906051
 30
0.0
 10
377.6401001963
 20
389.0964683015
 30
0.0
 10
377.3071319572
 20
388.7464705661
 30
0.0
 10
377.0284907547
 20
388.554597886
 30
0.0
 10
376.8748958626
 20
388.465920363
 30
0.0
  0
SPLINE
  5
486
100
AcDbEntity
  8
0
100
AcDbSpline
 62
7
  6
BYLAYER
 70
0
 71
3
 72
9
 73
5
 74
0
 42
0.0000001
 43
0.0000001
 44
0.0000000001
 40
0.0
 40
0.0
 40
0.0
 40
0.0
 40
0.2385691752
 40
1.0
 40
1.0
 40
1.0
 40
1.0
 10
375.8060254467
 20
388.0941058966
 30
0.0
 10
375.782266584
 20
388.1112612977
 30
0.0
 10
375.68045833
 20
388.1800839913
 30
0.0
 10
375.5708285908
 20
388.2370113411
 30
0.0
 10
375.4850978004
 20
388.2744072747
 30
0.0
  0
SPLINE
  5
487
100
AcDbEntity
  8
0
100
AcDbSpline
 62
7
  6
BYLAYER
 70
0
 71
3
 72
9
 73
5
 74
0
 42
0.0000001
 43
0.0000001
 44
0.0000000001
 40
0.0
 40
0.0
 40
0.0
 40
0.0
 40
0.2437293847
 40
1.0
 40
1.0
 40
1.0
 40
1.0
 10
375.4850978004
 20
388.2744072747
 30
0.0
 10
375.4633362017
 20
388.2838997253
 30
0.0
 10
375.3733743046
 20
388.3212872439
 30
0.0
 10
375.2809330701
 20
388.3526309773
 30
0.0
 10
375.2102005015
 20
388.3732219311
 30
0.0
  0
SPLINE
  5
488
100
AcDbEntity
  8
0
100
AcDbSpline
 62
7
  6
BYLAYER
 70
0
 71
3
 72
9
 73
5
 74
0
 42
0.0000001
 43
0.0000001
 44
0.0000000001
 40
0.0
 40
0.0
 40
0.0
 40
0.0
 40
0.4996251746
 40
1.0
 40
1.0
 40
1.0
 40
1.0
 10
375.1786981653
 20
388.3821717467
 30
0.0
 10
374.9293528776
 20
388.4512789899
 30
0.0
 10
374.4089110399
 20
388.5161160196
 30
0.0
 10
373.8881827953
 20
388.4542423317
 30
0.0
 10
373.637991881
 20
388.3867557077
 30
0.0
  0
SPLINE
  5
489
100
AcDbEntity
  8
0
100
AcDbSpline
 62
7
  6
BYLAYER
 70
0
 71
3
 72
9
 73
5
 74
0
 42
0.0000001
 43
0.0000001
 44
0.0000000001
 40
0.0
 40
0.0
 40
0.0
 40
0.0
 40
0.2627475056
 40
1.0
 40
1.0
 40
1.0
 40
1.0
 10
373.6184317573
 20
388.3813963641
 30
0.0
 10
373.5735754935
 20
388.3689141206
 30
0.0
 10
373.4042633274
 20
388.3166979082
 30
0.0
 10
373.2403573037
 20
388.2454118531
 30
0.0
 10
373.1272143193
 20
388.1800891106
 30
0.0
  0
SPLINE
  5
48A
100
AcDbEntity
  8
0
100
AcDbSpline
 62
7
  6
BYLAYER
 70
0
 71
3
 72
11
 73
7
 74
0
 42
0.0000001
 43
0.0000001
 44
0.0000000001
 40
0.0
 40
0.0
 40
0.0
 40
0.0
 40
0.21777915
 40
0.4509225762
 40
0.7102588847
 40
1.0
 40
1.0
 40
1.0
 40
1.0
 10
354.9189250833
 20
403.1625875328
 30
0.0
 10
354.9189484078
 20
403.029280931
 30
0.0
 10
354.8696497423
 20
402.751415127
 30
0.0
 10
354.6590341291
 20
402.3642928235
 30
0.0
 10
354.3260658899
 20
402.014295088
 30
0.0
 10
354.0474246874
 20
401.8224224079
 30
0.0
 10
353.8938297953
 20
401.7337448849
 30
0.0
  0
SPLINE
  5
48B
100
AcDbEntity
  8
0
100
AcDbSpline
 62
7
  6
BYLAYER
 70
0
 71
3
 72
11
 73
7
 74
0
 42
0.0000001
 43
0.0000001
 44
0.0000000001
 40
0.0
 40
0.0
 40
0.0
 40
0.0
 40
0.2300091028
 40
0.4925239191
 40
0.7591503793
 40
1.0
 40
1.0
 40
1.0
 40
1.0
 10
352.8249593795
 20
401.3619304185
 30
0.0
 10
352.6512171304
 20
401.4873833074
 30
0.0
 10
352.2215103494
 20
401.6754883734
 30
0.0
 10
351.5159464485
 20
401.7793294328
 30
0.0
 10
350.7951395007
 20
401.7186197917
 30
0.0
 10
350.3404854079
 20
401.560113572
 30
0.0
 10
350.146148252
 20
401.4479136325
 30
0.0
  0
SPLINE
  5
48C
100
AcDbEntity
  8
0
100
AcDbSpline
 62
7
  6
BYLAYER
 70
0
 71
3
 72
11
 73
7
 74
0
 42
0.0000001
 43
0.0000001
 44
0.0000000001
 40
0.0
 40
0.0
 40
0.0
 40
0.0
 40
0.2177753738
 40
0.4509336309
 40
0.7102261693
 40
1.0
 40
1.0
 40
1.0
 40
1.0
 10
447.1961774085
 20
428.6779539663
 30
0.0
 10
447.1961774068
 20
428.8112609343
 30
0.0
 10
447.1469451156
 20
429.0891474691
 30
0.0
 10
446.9362725476
 20
429.4762376252
 30
0.0
 10
446.6033374871
 20
429.8262720003
 30
0.0
 10
446.3246731475
 20
430.0181202967
 30
0.0
 10
446.1710571897
 20
430.1068085048
 30
0.0
  0
SPLINE
  5
48D
100
AcDbEntity
  8
0
100
AcDbSpline
 62
7
  6
BYLAYER
 70
0
 71
3
 72
11
 73
7
 74
0
 42
0.0000001
 43
0.0000001
 44
0.0000000001
 40
0.0
 40
0.0
 40
0.0
 40
0.0
 40
0.2177727701
 40
0.4509280213
 40
0.7102223029
 40
1.0
 40
1.0
 40
1.0
 40
1.0
 10
447.1961680317
 20
426.6366979234
 30
0.0
 10
447.1961680334
 20
426.5033947066
 30
0.0
 10
447.1469385253
 20
426.2255164551
 30
0.0
 10
446.9362786497
 20
425.8384304779
 30
0.0
 10
446.6033521603
 20
425.4883962306
 30
0.0
 10
446.3246926792
 20
425.2965443466
 30
0.0
 10
446.1710777975
 20
425.2078552826
 30
0.0
  0
SPLINE
  5
48E
100
AcDbEntity
  8
0
100
AcDbSpline
 62
7
  6
BYLAYER
 70
0
 71
3
 72
11
 73
7
 74
0
 42
0.0000001
 43
0.0000001
 44
0.0000000001
 40
0.0
 40
0.0
 40
0.0
 40
0.0
 40
0.21777915
 40
0.4509225762
 40
0.7102588847
 40
1.0
 40
1.0
 40
1.0
 40
1.0
 10
445.7819595231
 20
429.0862017826
 30
0.0
 10
445.7819828476
 20
428.9528951807
 30
0.0
 10
445.7326841821
 20
428.6750293768
 30
0.0
 10
445.5220685689
 20
428.2879070732
 30
0.0
 10
445.1891003297
 20
427.9379093377
 30
0.0
 10
444.9104591272
 20
427.7460366576
 30
0.0
 10
444.7568642351
 20
427.6573591347
 30
0.0
  0
SPLINE
  5
48F
100
AcDbEntity
  8
0
100
AcDbSpline
 62
7
  6
BYLAYER
 70
0
 71
3
 72
11
 73
7
 74
0
 42
0.0000001
 43
0.0000001
 44
0.0000000001
 40
0.0
 40
0.0
 40
0.0
 40
0.0
 40
0.2300091028
 40
0.4925239191
 40
0.7591503793
 40
1.0
 40
1.0
 40
1.0
 40
1.0
 10
443.6879938193
 20
427.2855446682
 30
0.0
 10
443.5142515702
 20
427.4109975572
 30
0.0
 10
443.0845447892
 20
427.5991026231
 30
0.0
 10
442.3789808884
 20
427.7029436826
 30
0.0
 10
441.6581739405
 20
427.6422340414
 30
0.0
 10
441.2035198477
 20
427.4837278218
 30
0.0
 10
441.0091826918
 20
427.3715278822
 30
0.0
  0
SPLINE
  5
490
100
AcDbEntity
  8
0
100
AcDbSpline
 62
7
  6
BYLAYER
 70
0
 71
3
 72
9
 73
5
 74
0
 42
0.0000001
 43
0.0000001
 44
0.0000000001
 40
0.0
 40
0.0
 40
0.0
 40
0.0
 40
0.2358367057
 40
1.0
 40
1.0
 40
1.0
 40
1.0
 10
343.3141481033
 20
404.0735206289
 30
0.0
 10
343.4290348888
 20
403.9541296569
 30
0.0
 10
343.9373224588
 20
403.4682722344
 30
0.0
 10
344.5197145003
 20
403.0633524381
 30
0.0
 10
344.984662273
 20
402.7949207891
 30
0.0
  0
SPLINE
  5
491
100
AcDbEntity
  8
0
100
AcDbSpline
 62
7
  6
BYLAYER
 70
0
 71
3
 72
11
 73
7
 74
0
 42
0.0000001
 43
0.0000001
 44
0.0000000001
 40
0.0
 40
0.0
 40
0.0
 40
0.0
 40
0.2372251801
 40
0.5000005261
 40
0.7627755858
 40
1.0
 40
1.0
 40
1.0
 40
1.0
 10
371.9251542822
 20
387.2411723483
 30
0.0
 10
372.2764962004
 20
387.0383295862
 30
0.0
 10
373.0935781478
 20
386.7422921976
 30
0.0
 10
374.4000319074
 20
386.6004862589
 30
0.0
 10
375.7064836958
 20
386.7422981595
 30
0.0
 10
376.5235624295
 20
387.0383396053
 30
0.0
 10
376.8749017505
 20
387.241184246
 30
0.0
  0
SPLINE
  5
492
100
AcDbEntity
  8
0
100
AcDbSpline
 62
7
  6
BYLAYER
 70
0
 71
3
 72
11
 73
7
 74
0
 42
0.0000001
 43
0.0000001
 44
0.0000000001
 40
0.0
 40
0.0
 40
0.0
 40
0.0
 40
0.2897733512
 40
0.5490657165
 40
0.7822241652
 40
1.0
 40
1.0
 40
1.0
 40
1.0
 10
446.1710777975
 20
427.2491113254
 30
0.0
 10
446.3246908826
 20
427.3377993521
 30
0.0
 10
446.6033499338
 20
427.529646916
 30
0.0
 10
446.9362782325
 20
427.8796786967
 30
0.0
 10
447.1469462431
 20
428.2667651048
 30
0.0
 10
447.1961774103
 20
428.5446484333
 30
0.0
 10
447.1961774085
 20
428.6779539663
 30
0.0
  0
SPLINE
  5
493
100
AcDbEntity
  8
0
100
AcDbSpline
 62
7
  6
BYLAYER
 70
0
 71
3
 72
16
 73
12
 74
0
 42
0.0000001
 43
0.0000001
 44
0.0000000001
 40
0.0
 40
0.0
 40
0.0
 40
0.0
 40
0.1287498631
 40
0.2703965133
 40
0.4176169701
 40
0.562024195
 40
0.6957534275
 40
0.813067195
 40
0.9124731354
 40
0.9571218448
 40
1.0
 40
1.0
 40
1.0
 40
1.0
 10
371.9251277866
 20
391.3236056446
 30
0.0
 10
372.1842212208
 20
391.4731924157
 30
0.0
 10
372.7708312659
 20
391.7152295928
 30
0.0
 10
373.7268763971
 20
391.9064882158
 30
0.0
 10
374.7381250903
 20
391.9344315429
 30
0.0
 10
375.7217396513
 20
391.7964546151
 30
0.0
 10
376.5991118055
 20
391.502785072
 30
0.0
 10
377.3021000288
 20
391.0761471283
 30
0.0
 10
377.7115651011
 20
390.6058536771
 30
0.0
 10
377.8733688395
 20
390.1986537403
 30
0.0
 10
377.8999737175
 20
389.9943985871
 30
0.0
 10
377.8999911506
 20
389.8947630109
 30
0.0
  0
SPLINE
  5
494
100
AcDbEntity
  8
0
100
AcDbSpline
 62
7
  6
BYLAYER
 70
0
 71
3
 72
16
 73
12
 74
0
 42
0.0000001
 43
0.0000001
 44
0.0000000001
 40
0.0
 40
0.0
 40
0.0
 40
0.0
 40
0.1287498631
 40
0.2703965133
 40
0.4176169701
 40
0.562024195
 40
0.6957534275
 40
0.813067195
 40
0.9124731354
 40
0.9571218448
 40
1.0
 40
1.0
 40
1.0
 40
1.0
 10
348.9440617193
 20
404.5914301666
 30
0.0
 10
349.2031551535
 20
404.7410169376
 30
0.0
 10
349.7897651986
 20
404.9830541147
 30
0.0
 10
350.7458103298
 20
405.1743127377
 30
0.0
 10
351.7570590231
 20
405.2022560648
 30
0.0
 10
352.740673584
 20
405.064279137
 30
0.0
 10
353.6180457382
 20
404.7706095939
 30
0.0
 10
354.3210339615
 20
404.3439716502
 30
0.0
 10
354.7304990338
 20
403.873678199
 30
0.0
 10
354.8923027722
 20
403.4664782622
 30
0.0
 10
354.9189076502
 20
403.262223109
 30
0.0
 10
354.9189250833
 20
403.1625875328
 30
0.0
  0
SPLINE
  5
495
100
AcDbEntity
  8
0
100
AcDbSpline
 62
7
  6
BYLAYER
 70
0
 71
3
 72
16
 73
12
 74
0
 42
0.0000001
 43
0.0000001
 44
0.0000000001
 40
0.0
 40
0.0
 40
0.0
 40
0.0
 40
0.1287498631
 40
0.2703965133
 40
0.4176169701
 40
0.562024195
 40
0.6957534275
 40
0.813067195
 40
0.9124731354
 40
0.9571218448
 40
1.0
 40
1.0
 40
1.0
 40
1.0
 10
439.8070961591
 20
430.5150444163
 30
0.0
 10
440.0661895933
 20
430.6646311874
 30
0.0
 10
440.6527996384
 20
430.9066683645
 30
0.0
 10
441.6088447697
 20
431.0979269874
 30
0.0
 10
442.6200934629
 20
431.1258703145
 30
0.0
 10
443.6037080238
 20
430.9878933868
 30
0.0
 10
444.481080178
 20
430.6942238436
 30
0.0
 10
445.1840684013
 20
430.2675858999
 30
0.0
 10
445.5935334736
 20
429.7972924488
 30
0.0
 10
445.755337212
 20
429.390092512
 30
0.0
 10
445.78194209
 20
429.1858373588
 30
0.0
 10
445.7819595231
 20
429.0862017826
 30
0.0
  0
SPLINE
  5
496
100
AcDbEntity
  8
0
100
AcDbSpline
 62
7
  6
BYLAYER
 70
0
 71
3
 72
11
 73
7
 74
0
 42
0.0000001
 43
0.0000001
 44
0.0000000001
 40
0.0
 40
0.0
 40
0.0
 40
0.0
 40
0.2372367819
 40
0.4999994738
 40
0.7627624522
 40
1.0
 40
1.0
 40
1.0
 40
1.0
 10
441.0091826918
 20
427.6164786074
 30
0.0
 10
441.1898809229
 20
427.720804157
 30
0.0
 10
441.6100957958
 20
427.8730457968
 30
0.0
 10
442.2819728968
 20
427.9459881235
 30
0.0
 10
442.9538510116
 20
427.8730488629
 30
0.0
 10
443.3740675373
 20
427.7208093096
 30
0.0
 10
443.5547671041
 20
427.6164847262
 30
0.0
  0
SPLINE
  5
497
100
AcDbEntity
  8
0
100
AcDbSpline
 62
7
  6
BYLAYER
 70
0
 71
3
 72
9
 73
5
 74
0
 42
0.0000001
 43
0.0000001
 44
0.0000000001
 40
0.0
 40
0.0
 40
0.0
 40
0.0
 40
0.2750555056
 40
1.0
 40
1.0
 40
1.0
 40
1.0
 10
439.8070961591
 20
429.6985419992
 30
0.0
 10
439.7170147825
 20
429.6465338026
 30
0.0
 10
439.3993072801
 20
429.4427160113
 30
0.0
 10
439.1184535347
 20
429.1692568159
 30
0.0
 10
438.9768323277
 20
428.9345194716
 30
0.0
  0
SPLINE
  5
498
100
AcDbEntity
  8
0
100
AcDbSpline
 62
7
  6
BYLAYER
 70
0
 71
3
 72
9
 73
5
 74
0
 42
0.0000001
 43
0.0000001
 44
0.0000000001
 40
0.0
 40
0.0
 40
0.0
 40
0.0
 40
0.2563881388
 40
1.0
 40
1.0
 40
1.0
 40
1.0
 10
438.9768323277
 20
428.9345194716
 30
0.0
 10
438.9630015271
 20
428.9115949006
 30
0.0
 10
438.91136474
 20
428.8208212767
 30
0.0
 10
438.8693417283
 20
428.7244845303
 30
0.0
 10
438.8448206468
 20
428.6508052897
 30
0.0
  0
SPLINE
  5
499
100
AcDbEntity
  8
0
100
AcDbSpline
 62
7
  6
BYLAYER
 70
0
 71
3
 72
11
 73
7
 74
0
 42
0.0000001
 43
0.0000001
 44
0.0000000001
 40
0.0
 40
0.0
 40
0.0
 40
0.0
 40
0.2372251801
 40
0.5000005261
 40
0.7627755858
 40
1.0
 40
1.0
 40
1.0
 40
1.0
 10
444.7568436273
 20
429.6985538969
 30
0.0
 10
444.4055017092
 20
429.901396659
 30
0.0
 10
443.5884197618
 20
430.1974340476
 30
0.0
 10
442.2819660022
 20
430.3392399864
 30
0.0
 10
440.9755142138
 20
430.1974280857
 30
0.0
 10
440.1584354801
 20
429.9013866399
 30
0.0
 10
439.8070961591
 20
429.6985419992
 30
0.0
  0
SPLINE
  5
49A
100
AcDbEntity
  8
0
100
AcDbSpline
 62
7
  6
BYLAYER
 70
0
 71
3
 72
9
 73
5
 74
0
 42
0.0000001
 43
0.0000001
 44
0.0000000001
 40
0.0
 40
0.0
 40
0.0
 40
0.0
 40
0.2591130008
 40
1.0
 40
1.0
 40
1.0
 40
1.0
 10
445.8175229349
 20
427.8614829113
 30
0.0
 10
445.8500319774
 20
427.8802519037
 30
0.0
 10
445.9740085262
 20
427.9551996502
 30
0.0
 10
446.091915116
 20
428.0404316385
 30
0.0
 10
446.1738852732
 20
428.1097237271
 30
0.0
  0
SPLINE
  5
49B
100
AcDbEntity
  8
0
100
AcDbSpline
 62
7
  6
BYLAYER
 70
0
 71
3
 72
11
 73
7
 74
0
 42
0.0000001
 43
0.0000001
 44
0.0000000001
 40
0.0
 40
0.0
 40
0.0
 40
0.0
 40
0.2672963175
 40
0.5000019485
 40
0.7327063886
 40
1.0
 40
1.0
 40
1.0
 40
1.0
 10
446.1738852732
 20
428.1097237271
 30
0.0
 10
446.3282931205
 20
428.240249794
 30
0.0
 10
446.5880542423
 20
428.5292721558
 30
0.0
 10
446.7464966743
 20
429.0861873828
 30
0.0
 10
446.5880730157
 20
429.6431062218
 30
0.0
 10
446.3283200355
 20
429.9321326604
 30
0.0
 10
446.1739162714
 20
430.0626603868
 30
0.0
  0
SPLINE
  5
49C
100
AcDbEntity
  8
0
100
AcDbSpline
 62
7
  6
BYLAYER
 70
0
 71
3
 72
9
 73
5
 74
0
 42
0.0000001
 43
0.0000001
 44
0.0000000001
 40
0.0
 40
0.0
 40
0.0
 40
0.0
 40
0.2409888154
 40
1.0
 40
1.0
 40
1.0
 40
1.0
 10
446.1739162714
 20
430.0626603868
 30
0.0
 10
446.1472495531
 20
430.0852035297
 30
0.0
 10
446.0342676377
 20
430.1759830499
 30
0.0
 10
445.9127499974
 20
430.2559493121
 30
0.0
 10
445.8175052711
 20
430.3109376365
 30
0.0
  0
SPLINE
  5
49D
100
AcDbEntity
  8
0
100
AcDbSpline
 62
7
  6
BYLAYER
 70
0
 71
3
 72
11
 73
7
 74
0
 42
0.0000001
 43
0.0000001
 44
0.0000000001
 40
0.0
 40
0.0
 40
0.0
 40
0.0
 40
0.2372405738
 40
0.5000004574
 40
0.7627600882
 40
1.0
 40
1.0
 40
1.0
 40
1.0
 10
372.2787062009
 20
387.8535456338
 30
0.0
 10
372.5798756776
 20
387.679669289
 30
0.0
 10
373.280238996
 20
387.4259437187
 30
0.0
 10
374.4000296221
 20
387.3043843884
 30
0.0
 10
375.5198187209
 20
387.425948733
 30
0.0
 10
376.2201795054
 20
387.6796778004
 30
0.0
 10
376.5213468879
 20
387.8535558319
 30
0.0
  0
SPLINE
  5
49E
100
AcDbEntity
  8
0
100
AcDbSpline
 62
7
  6
BYLAYER
 70
0
 71
3
 72
9
 73
5
 74
0
 42
0.0000001
 43
0.0000001
 44
0.0000000001
 40
0.0
 40
0.0
 40
0.0
 40
0.0
 40
0.235836764
 40
1.0
 40
1.0
 40
1.0
 40
1.0
 10
343.7512257304
 20
404.6219639223
 30
0.0
 10
343.8603682017
 20
404.5085424729
 30
0.0
 10
344.3432418549
 20
404.0469784271
 30
0.0
 10
344.896513849
 20
403.6623041172
 30
0.0
 10
345.3382141916
 20
403.4072940746
 30
0.0
  0
SPLINE
  5
49F
100
AcDbEntity
  8
0
100
AcDbSpline
 62
7
  6
BYLAYER
 70
0
 71
3
 72
11
 73
7
 74
0
 42
0.0000001
 43
0.0000001
 44
0.0000000001
 40
0.0
 40
0.0
 40
0.0
 40
0.0
 40
0.2372367819
 40
0.4999994738
 40
0.7627624522
 40
1.0
 40
1.0
 40
1.0
 40
1.0
 10
350.146148252
 20
401.6928643576
 30
0.0
 10
350.3268464831
 20
401.7971899072
 30
0.0
 10
350.747061356
 20
401.949431547
 30
0.0
 10
351.418938457
 20
402.0223738738
 30
0.0
 10
352.0908165718
 20
401.9494346131
 30
0.0
 10
352.5110330975
 20
401.7971950598
 30
0.0
 10
352.6917326643
 20
401.6928704765
 30
0.0
  0
SPLINE
  5
4A0
100
AcDbEntity
  8
0
100
AcDbSpline
 62
7
  6
BYLAYER
 70
0
 71
3
 72
9
 73
5
 74
0
 42
0.0000001
 43
0.0000001
 44
0.0000000001
 40
0.0
 40
0.0
 40
0.0
 40
0.0
 40
0.2750555056
 40
1.0
 40
1.0
 40
1.0
 40
1.0
 10
348.9440617193
 20
403.7749277494
 30
0.0
 10
348.8539803427
 20
403.7229195529
 30
0.0
 10
348.5362728403
 20
403.5191017616
 30
0.0
 10
348.2554190949
 20
403.2456425662
 30
0.0
 10
348.1137978879
 20
403.0109052219
 30
0.0
  0
SPLINE
  5
4A1
100
AcDbEntity
  8
0
100
AcDbSpline
 62
7
  6
BYLAYER
 70
0
 71
3
 72
9
 73
5
 74
0
 42
0.0000001
 43
0.0000001
 44
0.0000000001
 40
0.0
 40
0.0
 40
0.0
 40
0.0
 40
0.2563881388
 40
1.0
 40
1.0
 40
1.0
 40
1.0
 10
348.1137978879
 20
403.0109052219
 30
0.0
 10
348.0999670873
 20
402.9879806509
 30
0.0
 10
348.0483303002
 20
402.8972070269
 30
0.0
 10
348.0063072885
 20
402.8008702805
 30
0.0
 10
347.981786207
 20
402.72719104
 30
0.0
  0
SPLINE
  5
4A2
100
AcDbEntity
  8
0
100
AcDbSpline
 62
7
  6
BYLAYER
 70
0
 71
3
 72
11
 73
7
 74
0
 42
0.0000001
 43
0.0000001
 44
0.0000000001
 40
0.0
 40
0.0
 40
0.0
 40
0.0
 40
0.2372251801
 40
0.5000005261
 40
0.7627755858
 40
1.0
 40
1.0
 40
1.0
 40
1.0
 10
353.8938091875
 20
403.7749396472
 30
0.0
 10
353.5424672694
 20
403.9777824093
 30
0.0
 10
352.725385322
 20
404.2738197979
 30
0.0
 10
351.4189315624
 20
404.4156257366
 30
0.0
 10
350.112479774
 20
404.2738138359
 30
0.0
 10
349.2954010403
 20
403.9777723902
 30
0.0
 10
348.9440617193
 20
403.7749277494
 30
0.0
  0
SPLINE
  5
4A3
100
AcDbEntity
  8
0
100
AcDbSpline
 62
7
  6
BYLAYER
 70
0
 71
3
 72
11
 73
7
 74
0
 42
0.0000001
 43
0.0000001
 44
0.0000000001
 40
0.0
 40
0.0
 40
0.0
 40
0.0
 40
0.21777915
 40
0.4509225762
 40
0.7102588847
 40
1.0
 40
1.0
 40
1.0
 40
1.0
 10
370.9000324985
 20
389.8947629968
 30
0.0
 10
370.900009174
 20
390.0280695986
 30
0.0
 10
370.9493078396
 20
390.3059354025
 30
0.0
 10
371.1599234528
 20
390.6930577061
 30
0.0
 10
371.4928916919
 20
391.0430554416
 30
0.0
 10
371.7715328944
 20
391.2349281217
 30
0.0
 10
371.9251277866
 20
391.3236056446
 30
0.0
  0
SPLINE
  5
4A4
100
AcDbEntity
  8
0
100
AcDbSpline
 62
7
  6
BYLAYER
 70
0
 71
3
 72
9
 73
5
 74
0
 42
0.0000001
 43
0.0000001
 44
0.0000000001
 40
0.0
 40
0.0
 40
0.0
 40
0.0
 40
0.2444669496
 40
1.0
 40
1.0
 40
1.0
 40
1.0
 10
377.8363582799
 20
389.4618016078
 30
0.0
 10
377.8283149743
 20
389.4858108247
 30
0.0
 10
377.7925477068
 20
389.5830497943
 30
0.0
 10
377.7455864426
 20
389.6760729191
 30
0.0
 10
377.7051617124
 20
389.7430773507
 30
0.0
  0
SPLINE
  5
4A5
100
AcDbEntity
  8
0
100
AcDbSpline
 62
7
  6
BYLAYER
 70
0
 71
3
 72
9
 73
5
 74
0
 42
0.0000001
 43
0.0000001
 44
0.0000000001
 40
0.0
 40
0.0
 40
0.0
 40
0.0
 40
0.2274336527
 40
1.0
 40
1.0
 40
1.0
 40
1.0
 10
377.7051617124
 20
389.7430773507
 30
0.0
 10
377.660696696
 20
389.8167786006
 30
0.0
 10
377.4382226815
 20
390.1246931622
 30
0.0
 10
377.1280930916
 20
390.3609230463
 30
0.0
 10
376.8748752548
 20
390.5071151252
 30
0.0
  0
SPLINE
  5
4A6
100
AcDbEntity
  8
0
100
AcDbSpline
 62
7
  6
BYLAYER
 70
0
 71
3
 72
9
 73
5
 74
0
 42
0.0000001
 43
0.0000001
 44
0.0000000001
 40
0.0
 40
0.0
 40
0.0
 40
0.0
 40
0.2665771497
 40
1.0
 40
1.0
 40
1.0
 40
1.0
 10
352.6917326643
 20
401.6928704765
 30
0.0
 10
352.7245476404
 20
401.6739251698
 30
0.0
 10
352.8451184182
 20
401.5987662123
 30
0.0
 10
352.9557363817
 20
401.5061894079
 30
0.0
 10
353.0245083385
 20
401.4278427227
 30
0.0
  0
SPLINE
  5
4A7
100
AcDbEntity
  8
0
100
AcDbSpline
 62
7
  6
BYLAYER
 70
0
 71
3
 72
9
 73
5
 74
0
 42
0.0000001
 43
0.0000001
 44
0.0000000001
 40
0.0
 40
0.0
 40
0.0
 40
0.0
 40
0.236637544
 40
1.0
 40
1.0
 40
1.0
 40
1.0
 10
373.1272143193
 20
388.4250398357
 30
0.0
 10
373.1640666272
 20
388.4463163986
 30
0.0
 10
373.3232039031
 20
388.5302982299
 30
0.0
 10
373.4936152709
 20
388.5920400846
 30
0.0
 10
373.6259749913
 20
388.6284321804
 30
0.0
  0
SPLINE
  5
4A8
100
AcDbEntity
  8
0
100
AcDbSpline
 62
7
  6
BYLAYER
 70
0
 71
3
 72
9
 73
5
 74
0
 42
0.0000001
 43
0.0000001
 44
0.0000000001
 40
0.0
 40
0.0
 40
0.0
 40
0.0
 40
0.2459121518
 40
1.0
 40
1.0
 40
1.0
 40
1.0
 10
373.6259749913
 20
388.6284321804
 30
0.0
 10
373.6508840234
 20
388.6352808794
 30
0.0
 10
373.7525943096
 20
388.6615954292
 30
0.0
 10
373.8558429719
 20
388.6819037595
 30
0.0
 10
373.9341303046
 20
388.6940105718
 30
0.0
  0
SPLINE
  5
4A9
100
AcDbEntity
  8
0
100
AcDbSpline
 62
7
  6
BYLAYER
 70
0
 71
3
 72
9
 73
5
 74
0
 42
0.0000001
 43
0.0000001
 44
0.0000000001
 40
0.0
 40
0.0
 40
0.0
 40
0.0
 40
0.2538975941
 40
1.0
 40
1.0
 40
1.0
 40
1.0
 10
374.865878867
 20
388.6940128114
 30
0.0
 10
374.8922373985
 20
388.6899367093
 30
0.0
 10
374.9958241435
 20
388.6724496458
 30
0.0
 10
375.0984579521
 20
388.6492151554
 30
0.0
 10
375.1740313371
 20
388.6284369433
 30
0.0
  0
SPLINE
  5
4AA
100
AcDbEntity
  8
0
100
AcDbSpline
 62
7
  6
BYLAYER
 70
0
 71
3
 72
9
 73
5
 74
0
 42
0.0000001
 43
0.0000001
 44
0.0000000001
 40
0.0
 40
0.0
 40
0.0
 40
0.0
 40
0.2627871448
 40
1.0
 40
1.0
 40
1.0
 40
1.0
 10
375.1740313371
 20
388.6284369433
 30
0.0
 10
375.2195922624
 20
388.6159103829
 30
0.0
 10
375.3915479784
 20
388.5634420617
 30
0.0
 10
375.5579996838
 20
388.4913237163
 30
0.0
 10
375.6727987316
 20
388.4250459545
 30
0.0
  0
SPLINE
  5
4AB
100
AcDbEntity
  8
0
100
AcDbSpline
 62
7
  6
BYLAYER
 70
0
 71
3
 72
9
 73
5
 74
0
 42
0.0000001
 43
0.0000001
 44
0.0000000001
 40
0.0
 40
0.0
 40
0.0
 40
0.0
 40
0.2703698578
 40
1.0
 40
1.0
 40
1.0
 40
1.0
 10
341.8790534467
 20
407.8608648566
 30
0.0
 10
341.8465196905
 20
407.8420815958
 30
0.0
 10
341.7291727412
 20
407.7679194464
 30
0.0
 10
341.623339101
 20
407.6730042853
 30
0.0
 10
341.5626232059
 20
407.5918177457
 30
0.0
  0
SPLINE
  5
4AC
100
AcDbEntity
  8
0
100
AcDbSpline
 62
7
  6
BYLAYER
 70
0
 71
3
 72
8
 73
4
 74
0
 42
0.0000001
 43
0.0000001
 44
0.0000000001
 40
0.0
 40
0.0
 40
0.0
 40
0.0
 40
1.0
 40
1.0
 40
1.0
 40
1.0
 10
341.5626232059
 20
407.5918177457
 30
0.0
 10
341.5360041439
 20
407.5562239439
 30
0.0
 10
341.512398537
 20
407.5180481351
 30
0.0
 10
341.4933100404
 20
407.4779093449
 30
0.0
  0
SPLINE
  5
4AD
100
AcDbEntity
  8
0
100
AcDbSpline
 62
7
  6
BYLAYER
 70
0
 71
3
 72
10
 73
6
 74
0
 42
0.0000001
 43
0.0000001
 44
0.0000000001
 40
0.0
 40
0.0
 40
0.0
 40
0.0
 40
0.2448707556
 40
0.48301259
 40
1.0
 40
1.0
 40
1.0
 40
1.0
 10
341.4933100404
 20
407.4779093449
 30
0.0
 10
341.4686350733
 20
407.4260234711
 30
0.0
 10
341.4344153892
 20
407.3155693451
 30
0.0
 10
341.4436749203
 20
407.0768603453
 30
0.0
 10
341.5443767404
 20
406.9153333897
 30
0.0
 10
341.6284851531
 20
406.82792747
 30
0.0
  0
SPLINE
  5
4AE
100
AcDbEntity
  8
0
100
AcDbSpline
 62
7
  6
BYLAYER
 70
0
 71
3
 72
9
 73
5
 74
0
 42
0.0000001
 43
0.0000001
 44
0.0000000001
 40
0.0
 40
0.0
 40
0.0
 40
0.0
 40
0.2750555056
 40
1.0
 40
1.0
 40
1.0
 40
1.0
 10
371.9251277866
 20
390.5071032275
 30
0.0
 10
371.83504641
 20
390.455095031
 30
0.0
 10
371.5173389076
 20
390.2512772397
 30
0.0
 10
371.2364851621
 20
389.9778180443
 30
0.0
 10
371.0948639552
 20
389.7430807
 30
0.0
  0
SPLINE
  5
4AF
100
AcDbEntity
  8
0
100
AcDbSpline
 62
7
  6
BYLAYER
 70
0
 71
3
 72
9
 73
5
 74
0
 42
0.0000001
 43
0.0000001
 44
0.0000000001
 40
0.0
 40
0.0
 40
0.0
 40
0.0
 40
0.2563881388
 40
1.0
 40
1.0
 40
1.0
 40
1.0
 10
371.0948639552
 20
389.7430807
 30
0.0
 10
371.0810331546
 20
389.720156129
 30
0.0
 10
371.0293963675
 20
389.629382505
 30
0.0
 10
370.9873733558
 20
389.5330457586
 30
0.0
 10
370.9628522743
 20
389.4593665181
 30
0.0
  0
SPLINE
  5
4B0
100
AcDbEntity
  8
0
100
AcDbSpline
 62
7
  6
BYLAYER
 70
0
 71
3
 72
11
 73
7
 74
0
 42
0.0000001
 43
0.0000001
 44
0.0000000001
 40
0.0
 40
0.0
 40
0.0
 40
0.0
 40
0.2372251801
 40
0.5000005261
 40
0.7627755858
 40
1.0
 40
1.0
 40
1.0
 40
1.0
 10
376.8748752548
 20
390.5071151252
 30
0.0
 10
376.5235333367
 20
390.7099578873
 30
0.0
 10
375.7064513892
 20
391.005995276
 30
0.0
 10
374.3999976296
 20
391.1478012147
 30
0.0
 10
373.0935458412
 20
391.005989314
 30
0.0
 10
372.2764671076
 20
390.7099478683
 30
0.0
 10
371.9251277866
 20
390.5071032275
 30
0.0
  0
SPLINE
  5
4B1
100
AcDbEntity
  8
0
100
AcDbSpline
 62
7
  6
BYLAYER
 70
0
 71
3
 72
9
 73
5
 74
0
 42
0.0000001
 43
0.0000001
 44
0.0000000001
 40
0.0
 40
0.0
 40
0.0
 40
0.0
 40
0.240452187
 40
1.0
 40
1.0
 40
1.0
 40
1.0
 10
372.7955129661
 20
388.1612280573
 30
0.0
 10
372.8078747607
 20
388.1752653464
 30
0.0
 10
372.8609154439
 20
388.2322034579
 30
0.0
 10
372.9200280966
 20
388.2833554887
 30
0.0
 10
372.9670797725
 20
388.3190921919
 30
0.0
  0
SPLINE
  5
4B2
100
AcDbEntity
  8
0
100
AcDbSpline
 62
7
  6
BYLAYER
 70
0
 71
3
 72
9
 73
5
 74
0
 42
0.0000001
 43
0.0000001
 44
0.0000000001
 40
0.0
 40
0.0
 40
0.0
 40
0.0
 40
0.243606757
 40
1.0
 40
1.0
 40
1.0
 40
1.0
 10
372.9670797725
 20
388.3190921919
 30
0.0
 10
372.9795008212
 20
388.3285262305
 30
0.0
 10
373.0311455979
 20
388.3663841876
 30
0.0
 10
373.0852726269
 20
388.4008249329
 30
0.0
 10
373.1272143193
 20
388.4250398357
 30
0.0
  0
SPLINE
  5
4B3
100
AcDbEntity
  8
0
100
AcDbSpline
 62
7
  6
BYLAYER
 70
0
 71
3
 72
11
 73
7
 74
0
 42
0.0000001
 43
0.0000001
 44
0.0000000001
 40
0.0
 40
0.0
 40
0.0
 40
0.0
 40
0.21777915
 40
0.4509225762
 40
0.7102588847
 40
1.0
 40
1.0
 40
1.0
 40
1.0
 10
347.9189664312
 20
403.1625875187
 30
0.0
 10
347.9189431067
 20
403.2958941205
 30
0.0
 10
347.9682417723
 20
403.5737599245
 30
0.0
 10
348.1788573855
 20
403.960882228
 30
0.0
 10
348.5118256246
 20
404.3108799635
 30
0.0
 10
348.7904668272
 20
404.5027526436
 30
0.0
 10
348.9440617193
 20
404.5914301666
 30
0.0
  0
SPLINE
  5
4B4
100
AcDbEntity
  8
0
100
AcDbSpline
 62
7
  6
BYLAYER
 70
0
 71
3
 72
9
 73
5
 74
0
 42
0.0000001
 43
0.0000001
 44
0.0000000001
 40
0.0
 40
0.0
 40
0.0
 40
0.0
 40
0.2665771497
 40
1.0
 40
1.0
 40
1.0
 40
1.0
 10
375.6727987316
 20
388.4250459545
 30
0.0
 10
375.7056137077
 20
388.4061006478
 30
0.0
 10
375.8261844854
 20
388.3309416904
 30
0.0
 10
375.936802449
 20
388.238364886
 30
0.0
 10
376.0055744058
 20
388.1600182008
 30
0.0
  0
SPLINE
  5
4B5
100
AcDbEntity
  8
0
100
AcDbSpline
 62
7
  6
BYLAYER
 70
0
 71
3
 72
9
 73
5
 74
0
 42
0.0000001
 43
0.0000001
 44
0.0000000001
 40
0.0
 40
0.0
 40
0.0
 40
0.0
 40
0.2444669496
 40
1.0
 40
1.0
 40
1.0
 40
1.0
 10
354.8552922126
 20
402.7296261297
 30
0.0
 10
354.847248907
 20
402.7536353466
 30
0.0
 10
354.8114816395
 20
402.8508743162
 30
0.0
 10
354.7645203754
 20
402.943897441
 30
0.0
 10
354.7240956451
 20
403.0109018726
 30
0.0
  0
SPLINE
  5
4B6
100
AcDbEntity
  8
0
100
AcDbSpline
 62
7
  6
BYLAYER
 70
0
 71
3
 72
9
 73
5
 74
0
 42
0.0000001
 43
0.0000001
 44
0.0000000001
 40
0.0
 40
0.0
 40
0.0
 40
0.0
 40
0.2274336527
 40
1.0
 40
1.0
 40
1.0
 40
1.0
 10
354.7240956451
 20
403.0109018726
 30
0.0
 10
354.6796306288
 20
403.0846031225
 30
0.0
 10
354.4571566142
 20
403.3925176841
 30
0.0
 10
354.1470270243
 20
403.6287475682
 30
0.0
 10
353.8938091875
 20
403.7749396472
 30
0.0
  0
SPLINE
  5
4B7
100
AcDbEntity
  8
0
100
AcDbSpline
 62
7
  6
BYLAYER
 70
0
 71
3
 72
9
 73
5
 74
0
 42
0.0000001
 43
0.0000001
 44
0.0000000001
 40
0.0
 40
0.0
 40
0.0
 40
0.0
 40
0.240452187
 40
1.0
 40
1.0
 40
1.0
 40
1.0
 10
349.8144468988
 20
401.4290525792
 30
0.0
 10
349.8268086935
 20
401.4430898683
 30
0.0
 10
349.8798493766
 20
401.5000279798
 30
0.0
 10
349.9389620293
 20
401.5511800106
 30
0.0
 10
349.9860137053
 20
401.5869167138
 30
0.0
  0
SPLINE
  5
4B8
100
AcDbEntity
  8
0
100
AcDbSpline
 62
7
  6
BYLAYER
 70
0
 71
3
 72
9
 73
5
 74
0
 42
0.0000001
 43
0.0000001
 44
0.0000000001
 40
0.0
 40
0.0
 40
0.0
 40
0.0
 40
0.243606757
 40
1.0
 40
1.0
 40
1.0
 40
1.0
 10
349.9860137053
 20
401.5869167138
 30
0.0
 10
349.998434754
 20
401.5963507525
 30
0.0
 10
350.0500795306
 20
401.6342087095
 30
0.0
 10
350.1042065596
 20
401.6686494548
 30
0.0
 10
350.146148252
 20
401.6928643576
 30
0.0
  0
SPLINE
  5
4B9
100
AcDbEntity
  8
0
100
AcDbSpline
 62
7
  6
BYLAYER
 70
0
 71
3
 72
9
 73
5
 74
0
 42
0.0000001
 43
0.0000001
 44
0.0000000001
 40
0.0
 40
0.0
 40
0.0
 40
0.0
 40
0.4735388115
 40
1.0
 40
1.0
 40
1.0
 40
1.0
 10
340.9397158343
 20
406.8402525164
 30
0.0
 10
340.9397005728
 20
406.7413774688
 30
0.0
 10
340.9890696143
 20
406.5308649275
 30
0.0
 10
341.1151871199
 20
406.3586928368
 30
0.0
 10
341.191407526
 20
406.2794841764
 30
0.0
  0
SPLINE
  5
4BA
100
AcDbEntity
  8
0
100
AcDbSpline
 62
7
  6
BYLAYER
 70
0
 71
3
 72
11
 73
7
 74
0
 42
0.0000001
 43
0.0000001
 44
0.0000000001
 40
0.0
 40
0.0
 40
0.0
 40
0.0
 40
0.21777915
 40
0.4509225762
 40
0.7102588847
 40
1.0
 40
1.0
 40
1.0
 40
1.0
 10
438.782000871
 20
429.0862017684
 30
0.0
 10
438.7819775465
 20
429.2195083702
 30
0.0
 10
438.8312762121
 20
429.4973741742
 30
0.0
 10
439.0418918253
 20
429.8844964778
 30
0.0
 10
439.3748600644
 20
430.2344942132
 30
0.0
 10
439.653501267
 20
430.4263668933
 30
0.0
 10
439.8070961591
 20
430.5150444163
 30
0.0
  0
SPLINE
  5
4BB
100
AcDbEntity
  8
0
100
AcDbSpline
 62
7
  6
BYLAYER
 70
0
 71
3
 72
9
 73
5
 74
0
 42
0.0000001
 43
0.0000001
 44
0.0000000001
 40
0.0
 40
0.0
 40
0.0
 40
0.0
 40
0.2444669496
 40
1.0
 40
1.0
 40
1.0
 40
1.0
 10
445.7183266524
 20
428.6532403795
 30
0.0
 10
445.7102833468
 20
428.6772495963
 30
0.0
 10
445.6745160793
 20
428.774488566
 30
0.0
 10
445.6275548152
 20
428.8675116907
 30
0.0
 10
445.5871300849
 20
428.9345161224
 30
0.0
  0
SPLINE
  5
4BC
100
AcDbEntity
  8
0
100
AcDbSpline
 62
7
  6
BYLAYER
 70
0
 71
3
 72
9
 73
5
 74
0
 42
0.0000001
 43
0.0000001
 44
0.0000000001
 40
0.0
 40
0.0
 40
0.0
 40
0.0
 40
0.2274336527
 40
1.0
 40
1.0
 40
1.0
 40
1.0
 10
445.5871300849
 20
428.9345161224
 30
0.0
 10
445.5426650686
 20
429.0082173722
 30
0.0
 10
445.320191054
 20
429.3161319339
 30
0.0
 10
445.0100614641
 20
429.552361818
 30
0.0
 10
444.7568436273
 20
429.6985538969
 30
0.0
  0
SPLINE
  5
4BD
100
AcDbEntity
  8
0
100
AcDbSpline
 62
7
  6
BYLAYER
 70
0
 71
3
 72
9
 73
5
 74
0
 42
0.0000001
 43
0.0000001
 44
0.0000000001
 40
0.0
 40
0.0
 40
0.0
 40
0.0
 40
0.2665771497
 40
1.0
 40
1.0
 40
1.0
 40
1.0
 10
443.5547671041
 20
427.6164847262
 30
0.0
 10
443.5875820802
 20
427.5975394195
 30
0.0
 10
443.708152858
 20
427.522380462
 30
0.0
 10
443.8187708215
 20
427.4298036576
 30
0.0
 10
443.8875427783
 20
427.3514569725
 30
0.0
  0
SPLINE
  5
4BE
100
AcDbEntity
  8
0
100
AcDbSpline
 62
7
  6
BYLAYER
 70
0
 71
3
 72
9
 73
5
 74
0
 42
0.0000001
 43
0.0000001
 44
0.0000000001
 40
0.0
 40
0.0
 40
0.0
 40
0.0
 40
0.240452187
 40
1.0
 40
1.0
 40
1.0
 40
1.0
 10
440.6774813386
 20
427.3526668289
 30
0.0
 10
440.6898431333
 20
427.3667041181
 30
0.0
 10
440.7428838164
 20
427.4236422295
 30
0.0
 10
440.8019964691
 20
427.4747942604
 30
0.0
 10
440.8490481451
 20
427.5105309635
 30
0.0
  0
SPLINE
  5
4BF
100
AcDbEntity
  8
0
100
AcDbSpline
 62
7
  6
BYLAYER
 70
0
 71
3
 72
9
 73
5
 74
0
 42
0.0000001
 43
0.0000001
 44
0.0000000001
 40
0.0
 40
0.0
 40
0.0
 40
0.0
 40
0.243606757
 40
1.0
 40
1.0
 40
1.0
 40
1.0
 10
440.8490481451
 20
427.5105309635
 30
0.0
 10
440.8614691938
 20
427.5199650022
 30
0.0
 10
440.9131139704
 20
427.5578229593
 30
0.0
 10
440.9672409994
 20
427.5922637045
 30
0.0
 10
441.0091826918
 20
427.6164786074
 30
0.0
  0
SPLINE
  5
4C0
100
AcDbEntity
  8
0
100
AcDbSpline
 62
7
  6
BYLAYER
 70
0
 71
3
 72
9
 73
5
 74
0
 42
0.0000001
 43
0.0000001
 44
0.0000000001
 40
0.0
 40
0.0
 40
0.0
 40
0.0
 40
0.5508366897
 40
1.0
 40
1.0
 40
1.0
 40
1.0
 10
58.6755460422
 20
280.2692113977
 30
0.0
 10
58.3860548196
 20
280.4363454519
 30
0.0
 10
57.8886181561
 20
280.8170761618
 30
0.0
 10
57.6506052471
 20
281.4254923748
 30
0.0
 10
57.6506053078
 20
281.6980659349
 30
0.0
  0
SPLINE
  5
4C1
100
AcDbEntity
  8
0
100
AcDbSpline
 62
7
  6
BYLAYER
 70
0
 71
3
 72
9
 73
5
 74
0
 42
0.0000001
 43
0.0000001
 44
0.0000000001
 40
0.0
 40
0.0
 40
0.0
 40
0.0
 40
0.2609166831
 40
1.0
 40
1.0
 40
1.0
 40
1.0
 10
87.8306835064
 20
263.7510155859
 30
0.0
 10
87.6304318955
 20
263.8152447719
 30
0.0
 10
86.8690016283
 20
264.0794131301
 30
0.0
 10
86.1319361654
 20
264.41761578
 30
0.0
 10
85.6160380514
 20
264.7154629569
 30
0.0
  0
SPLINE
  5
4C2
100
AcDbEntity
  8
0
100
AcDbSpline
 62
7
  6
BYLAYER
 70
0
 71
3
 72
9
 73
5
 74
0
 42
0.0000001
 43
0.0000001
 44
0.0000000001
 40
0.0
 40
0.0
 40
0.0
 40
0.0
 40
0.4850428218
 40
1.0
 40
1.0
 40
1.0
 40
1.0
 10
94.0370947827
 20
262.7183829042
 30
0.0
 10
93.6956160102
 20
262.5212312198
 30
0.0
 10
92.8784335069
 20
262.3194523308
 30
0.0
 10
92.0502177567
 20
262.3976319653
 30
0.0
 10
91.651596749
 20
262.5254866314
 30
0.0
  0
SPLINE
  5
4C3
100
AcDbEntity
  8
0
100
AcDbSpline
 62
7
  6
BYLAYER
 70
0
 71
3
 72
9
 73
5
 74
0
 42
0.0000001
 43
0.0000001
 44
0.0000000001
 40
0.0
 40
0.0
 40
0.0
 40
0.0
 40
0.7658014221
 40
1.0
 40
1.0
 40
1.0
 40
1.0
 10
127.5412079086
 20
320.5174654754
 30
0.0
 10
127.3882050759
 20
320.5758968346
 30
0.0
 10
127.1553216306
 20
320.583424916
 30
0.0
 10
126.9544376806
 20
320.5063008636
 30
0.0
 10
126.9110604454
 20
320.4812571547
 30
0.0
  0
SPLINE
  5
4C4
100
AcDbEntity
  8
0
100
AcDbSpline
 62
7
  6
BYLAYER
 70
0
 71
3
 72
9
 73
5
 74
0
 42
0.0000001
 43
0.0000001
 44
0.0000000001
 40
0.0
 40
0.0
 40
0.0
 40
0.0
 40
0.4999975881
 40
1.0
 40
1.0
 40
1.0
 40
1.0
 10
129.633450551
 20
316.4600755246
 30
0.0
 10
129.5285091821
 20
316.3994879587
 30
0.0
 10
129.2798980499
 20
316.3515093091
 30
0.0
 10
129.031286588
 20
316.3994864312
 30
0.0
 10
128.9263437698
 20
316.4600738249
 30
0.0
  0
SPLINE
  5
4C5
100
AcDbEntity
  8
0
100
AcDbSpline
 62
7
  6
BYLAYER
 70
0
 71
3
 72
9
 73
5
 74
0
 42
0.0000001
 43
0.0000001
 44
0.0000000001
 40
0.0
 40
0.0
 40
0.0
 40
0.0
 40
0.499998676
 40
1.0
 40
1.0
 40
1.0
 40
1.0
 10
135.042786957
 20
320.685397928
 30
0.0
 10
134.9378449229
 20
320.745984869
 30
0.0
 10
134.6892337633
 20
320.7939624438
 30
0.0
 10
134.4406223287
 20
320.7459842469
 30
0.0
 10
134.3356801758
 20
320.6853962283
 30
0.0
  0
SPLINE
  5
4C6
100
AcDbEntity
  8
0
100
AcDbSpline
 62
7
  6
BYLAYER
 70
0
 71
3
 72
9
 73
5
 74
0
 42
0.0000001
 43
0.0000001
 44
0.0000000001
 40
0.0
 40
0.0
 40
0.0
 40
0.0
 40
0.2939127527
 40
1.0
 40
1.0
 40
1.0
 40
1.0
 10
135.5024642137
 20
312.6634348079
 30
0.0
 10
135.4806495016
 20
312.6760292528
 30
0.0
 10
135.4104182353
 20
312.7234179428
 30
0.0
 10
135.3559700169
 20
312.80704283
 30
0.0
 10
135.3559699862
 20
312.8675568961
 30
0.0
  0
SPLINE
  5
4C7
100
AcDbEntity
  8
0
100
AcDbSpline
 62
7
  6
BYLAYER
 70
0
 71
3
 72
9
 73
5
 74
0
 42
0.0000001
 43
0.0000001
 44
0.0000000001
 40
0.0
 40
0.0
 40
0.0
 40
0.0
 40
0.4999994563
 40
1.0
 40
1.0
 40
1.0
 40
1.0
 10
138.5783826862
 20
312.1123148883
 30
0.0
 10
138.2635640318
 20
311.9305553384
 30
0.0
 10
137.5177235526
 20
311.7868098401
 30
0.0
 10
136.7718829924
 20
311.9305521143
 30
0.0
 10
136.4570623426
 20
312.1123097893
 30
0.0
  0
SPLINE
  5
4C8
100
AcDbEntity
  8
0
100
AcDbSpline
 62
7
  6
BYLAYER
 70
0
 71
3
 72
9
 73
5
 74
0
 42
0.0000001
 43
0.0000001
 44
0.0000000001
 40
0.0
 40
0.0
 40
0.0
 40
0.0
 40
0.220852704
 40
1.0
 40
1.0
 40
1.0
 40
1.0
 10
130.1334937531
 20
316.8683179675
 30
0.0
 10
130.1334937627
 20
316.8492827322
 30
0.0
 10
130.1180584185
 20
316.7625066769
 30
0.0
 10
130.0451600561
 20
316.6977746993
 30
0.0
 10
129.9870024696
 20
316.6641976015
 30
0.0
  0
SPLINE
  5
4C9
100
AcDbEntity
  8
0
100
AcDbSpline
 62
7
  6
BYLAYER
 70
0
 71
3
 72
9
 73
5
 74
0
 42
0.0000001
 43
0.0000001
 44
0.0000000001
 40
0.0
 40
0.0
 40
0.0
 40
0.0
 40
0.2406614426
 40
1.0
 40
1.0
 40
1.0
 40
1.0
 10
91.651596749
 20
548.3013326267
 30
0.0
 10
91.7440033862
 20
548.2716938984
 30
0.0
 10
92.1345359406
 20
548.1696324438
 30
0.0
 10
92.5439170596
 20
548.1433782953
 30
0.0
 10
92.8494500426
 20
548.1634732031
 30
0.0
  0
SPLINE
  5
4CA
100
AcDbEntity
  8
0
100
AcDbSpline
 62
7
  6
BYLAYER
 70
0
 71
3
 72
9
 73
5
 74
0
 42
0.0000001
 43
0.0000001
 44
0.0000000001
 40
0.0
 40
0.0
 40
0.0
 40
0.0
 40
0.2671323538
 40
1.0
 40
1.0
 40
1.0
 40
1.0
 10
92.9509285878
 20
548.1716788917
 30
0.0
 10
93.0517527414
 20
548.1813642392
 30
0.0
 10
93.4268080175
 20
548.2345875059
 30
0.0
 10
93.796442747
 20
548.3552892114
 30
0.0
 10
94.0370947827
 20
548.4942288996
 30
0.0
  0
SPLINE
  5
4CB
100
AcDbEntity
  8
0
100
AcDbSpline
 62
7
  6
BYLAYER
 70
0
 71
3
 72
9
 73
5
 74
0
 42
0.0000001
 43
0.0000001
 44
0.0000000001
 40
0.0
 40
0.0
 40
0.0
 40
0.0
 40
0.2389121469
 40
1.0
 40
1.0
 40
1.0
 40
1.0
 10
85.6160380514
 20
550.4913089522
 30
0.0
 10
85.7828149102
 20
550.3950224662
 30
0.0
 10
86.4931965105
 20
550.013435094
 30
0.0
 10
87.2465179079
 20
549.7142282682
 30
0.0
 10
87.8306835064
 20
549.5268615812
 30
0.0
  0
SPLINE
  5
4CC
100
AcDbEntity
  8
0
100
AcDbSpline
 62
7
  6
BYLAYER
 70
0
 71
3
 72
8
 73
4
 74
0
 42
0.0000001
 43
0.0000001
 44
0.0000000001
 40
0.0
 40
0.0
 40
0.0
 40
0.0
 40
1.0
 40
1.0
 40
1.0
 40
1.0
 10
61.3679081351
 20
567.996022847
 30
0.0
 10
61.4052235262
 20
568.0245365301
 30
0.0
 10
61.4443519943
 20
568.0507780207
 30
0.0
 10
61.484649012
 20
568.0748947971
 30
0.0
  0
SPLINE
  5
4CD
100
AcDbEntity
  8
0
100
AcDbSpline
 62
7
  6
BYLAYER
 70
0
 71
3
 72
9
 73
5
 74
0
 42
0.0000001
 43
0.0000001
 44
0.0000000001
 40
0.0
 40
0.0
 40
0.0
 40
0.0
 40
0.5043118856
 40
1.0
 40
1.0
 40
1.0
 40
1.0
 10
61.484649012
 20
568.0748947971
 30
0.0
 10
61.8158925836
 20
568.2731359481
 30
0.0
 10
62.6052113729
 20
568.4188553528
 30
0.0
 10
63.3949743395
 20
568.24735415
 30
0.0
 10
63.708647056
 20
568.0338634231
 30
0.0
  0
SPLINE
  5
4CE
100
AcDbEntity
  8
0
100
AcDbSpline
 62
7
  6
BYLAYER
 70
0
 71
3
 72
9
 73
5
 74
0
 42
0.0000001
 43
0.0000001
 44
0.0000000001
 40
0.0
 40
0.0
 40
0.0
 40
0.0
 40
0.4745587938
 40
1.0
 40
1.0
 40
1.0
 40
1.0
 10
84.4452820572
 20
554.7945704383
 30
0.0
 10
84.6508219936
 20
554.9225626055
 30
0.0
 10
85.1511650573
 20
555.0815554931
 30
0.0
 10
85.6689678198
 20
555.0835817699
 30
0.0
 10
85.9339116373
 20
555.0425960872
 30
0.0
  0
SPLINE
  5
4CF
100
AcDbEntity
  8
0
100
AcDbSpline
 62
7
  6
BYLAYER
 70
0
 71
3
 72
8
 73
4
 74
0
 42
0.0000001
 43
0.0000001
 44
0.0000000001
 40
0.0
 40
0.0
 40
0.0
 40
0.0
 40
1.0
 40
1.0
 40
1.0
 40
1.0
 10
129.3253481019
 20
607.2405107991
 30
0.0
 10
129.3724590525
 20
607.271145343
 30
0.0
 10
129.4216175331
 20
607.298776085
 30
0.0
 10
129.4720084707
 20
607.3236491696
 30
0.0
  0
SPLINE
  5
4D0
100
AcDbEntity
  8
0
100
AcDbSpline
 62
7
  6
BYLAYER
 70
0
 71
3
 72
9
 73
5
 74
0
 42
0.0000001
 43
0.0000001
 44
0.0000000001
 40
0.0
 40
0.0
 40
0.0
 40
0.0
 40
0.5048867606
 40
1.0
 40
1.0
 40
1.0
 40
1.0
 10
129.4720084707
 20
607.3236491696
 30
0.0
 10
129.7872350636
 20
607.4792457533
 30
0.0
 10
130.4995088536
 20
607.5972222559
 30
0.0
 10
131.2103276792
 20
607.4496066386
 30
0.0
 10
131.5086745304
 20
607.2768954525
 30
0.0
  0
SPLINE
  5
4D1
100
AcDbEntity
  8
0
100
AcDbSpline
 62
7
  6
BYLAYER
 70
0
 71
3
 72
8
 73
4
 74
0
 42
0.0000001
 43
0.0000001
 44
0.0000000001
 40
0.0
 40
0.0
 40
0.0
 40
0.0
 40
1.0
 40
1.0
 40
1.0
 40
1.0
 10
57.6762465927
 20
567.229187067
 30
0.0
 10
57.6905309083
 20
567.1613641309
 30
0.0
 10
57.7107349327
 20
567.0945742068
 30
0.0
 10
57.735922534
 20
567.0300019444
 30
0.0
  0
SPLINE
  5
4D2
100
AcDbEntity
  8
0
100
AcDbSpline
 62
7
  6
BYLAYER
 70
0
 71
3
 72
9
 73
5
 74
0
 42
0.0000001
 43
0.0000001
 44
0.0000000001
 40
0.0
 40
0.0
 40
0.0
 40
0.0
 40
0.2231487389
 40
1.0
 40
1.0
 40
1.0
 40
1.0
 10
57.735922534
 20
567.0300019444
 30
0.0
 10
57.7731385733
 20
566.9345929438
 30
0.0
 10
57.9896859657
 20
566.5259054095
 30
0.0
 10
58.3667860492
 20
566.2233160253
 30
0.0
 10
58.6755460422
 20
566.045057393
 30
0.0
  0
SPLINE
  5
4D3
100
AcDbEntity
  8
0
100
AcDbSpline
 62
7
  6
BYLAYER
 70
0
 71
3
 72
9
 73
5
 74
0
 42
0.0000001
 43
0.0000001
 44
0.0000000001
 40
0.0
 40
0.0
 40
0.0
 40
0.0
 40
0.4491641734
 40
1.0
 40
1.0
 40
1.0
 40
1.0
 10
447.1959979242
 20
140.8608519294
 30
0.0
 10
447.1959978635
 20
140.5882813246
 30
0.0
 10
446.9579910724
 20
139.9798725809
 30
0.0
 10
446.4605636662
 20
139.5991430338
 30
0.0
 10
446.1710777975
 20
139.4320092873
 30
0.0
  0
SPLINE
  5
4D4
100
AcDbEntity
  8
0
100
AcDbSpline
 62
7
  6
BYLAYER
 70
0
 71
3
 72
9
 73
5
 74
0
 42
0.0000001
 43
0.0000001
 44
0.0000000001
 40
0.0
 40
0.0
 40
0.0
 40
0.0
 40
0.2647740475
 40
1.0
 40
1.0
 40
1.0
 40
1.0
 10
344.9846622731
 20
114.9778187509
 30
0.0
 10
344.823585963
 20
115.0708140981
 30
0.0
 10
344.2260143572
 20
115.4397713221
 30
0.0
 10
343.6722591899
 20
115.8842676027
 30
0.0
 10
343.3141481033
 20
116.2564185907
 30
0.0
  0
SPLINE
  5
4D5
100
AcDbEntity
  8
0
100
AcDbSpline
 62
7
  6
BYLAYER
 70
0
 71
3
 72
11
 73
7
 74
0
 42
0.0000001
 43
0.0000001
 44
0.0000000001
 40
0.0
 40
0.0
 40
0.0
 40
0.0
 40
0.2372524156
 40
0.4999996414
 40
0.7627470637
 40
1.0
 40
1.0
 40
1.0
 40
1.0
 10
376.8749017506
 20
99.4240822078
 30
0.0
 10
376.523522477
 20
99.2212145006
 30
0.0
 10
375.7064439957
 20
98.9251345934
 30
0.0
 10
374.4000311892
 20
98.7835797402
 30
0.0
 10
373.0936168649
 20
98.9251289119
 30
0.0
 10
372.27653579
 20
99.2212046915
 30
0.0
 10
371.9251542823
 20
99.4240703101
 30
0.0
  0
SPLINE
  5
4D6
100
AcDbEntity
  8
0
100
AcDbSpline
 62
7
  6
BYLAYER
 70
0
 71
3
 72
9
 73
5
 74
0
 42
0.0000001
 43
0.0000001
 44
0.0000000001
 40
0.0
 40
0.0
 40
0.0
 40
0.0
 40
0.239715659
 40
1.0
 40
1.0
 40
1.0
 40
1.0
 10
350.3208236995
 20
401.3028137134
 30
0.0
 10
350.3419687304
 20
401.3159278935
 30
0.0
 10
350.4316823168
 20
401.3681954883
 30
0.0
 10
350.5267593854
 20
401.4110446951
 30
0.0
 10
350.6006183369
 20
401.4388365375
 30
0.0
  0
SPLINE
  5
4D7
100
AcDbEntity
  8
0
100
AcDbSpline
 62
7
  6
BYLAYER
 70
0
 71
3
 72
9
 73
5
 74
0
 42
0.0000001
 43
0.0000001
 44
0.0000000001
 40
0.0
 40
0.0
 40
0.0
 40
0.0
 40
0.2390374267
 40
1.0
 40
1.0
 40
1.0
 40
1.0
 10
350.6006183369
 20
401.4388365375
 30
0.0
 10
350.691515954
 20
401.4730397342
 30
0.0
 10
351.0825864119
 20
401.5861474576
 30
0.0
 10
351.5016273525
 20
401.5968514376
 30
0.0
 10
351.8071682927
 20
401.5495855525
 30
0.0
  0
SPLINE
  5
4D8
100
AcDbEntity
  8
0
100
AcDbSpline
 62
7
  6
BYLAYER
 70
0
 71
3
 72
8
 73
4
 74
0
 42
0.0000001
 43
0.0000001
 44
0.0000000001
 40
0.0
 40
0.0
 40
0.0
 40
0.0
 40
1.0
 40
1.0
 40
1.0
 40
1.0
 10
373.2212730279
 20
387.9807592282
 30
0.0
 10
373.2542188293
 20
388.0048690084
 30
0.0
 10
373.2884539611
 20
388.0272810225
 30
0.0
 10
373.3235494935
 20
388.0481379382
 30
0.0
  0
SPLINE
  5
4D9
100
AcDbEntity
  8
0
100
AcDbSpline
 62
7
  6
BYLAYER
 70
0
 71
3
 72
9
 73
5
 74
0
 42
0.0000001
 43
0.0000001
 44
0.0000000001
 40
0.0
 40
0.0
 40
0.0
 40
0.0
 40
0.2396100105
 40
1.0
 40
1.0
 40
1.0
 40
1.0
 10
373.3235494935
 20
388.0481379382
 30
0.0
 10
373.3481615564
 20
388.0627646353
 30
0.0
 10
373.4527416024
 20
388.1206531297
 30
0.0
 10
373.5638120769
 20
388.1665119158
 30
0.0
 10
373.6500064162
 20
388.1952432277
 30
0.0
  0
SPLINE
  5
4DA
100
AcDbEntity
  8
0
100
AcDbSpline
 62
7
  6
BYLAYER
 70
0
 71
3
 72
9
 73
5
 74
0
 42
0.0000001
 43
0.0000001
 44
0.0000000001
 40
0.0
 40
0.0
 40
0.0
 40
0.0
 40
0.2819484192
 40
1.0
 40
1.0
 40
1.0
 40
1.0
 10
446.1710777975
 20
425.2078552826
 30
0.0
 10
446.2830123703
 20
425.2724803526
 30
0.0
 10
446.6646648568
 20
425.5228329974
 30
0.0
 10
446.991585589
 20
425.8868700649
 30
0.0
 10
447.1110025657
 20
426.1936139722
 30
0.0
  0
SPLINE
  5
4DB
100
AcDbEntity
  8
0
100
AcDbSpline
 62
7
  6
BYLAYER
 70
0
 71
3
 72
8
 73
4
 74
0
 42
0.0000001
 43
0.0000001
 44
0.0000000001
 40
0.0
 40
0.0
 40
0.0
 40
0.0
 40
1.0
 40
1.0
 40
1.0
 40
1.0
 10
447.1110025657
 20
426.1936139722
 30
0.0
 10
447.1360078681
 20
426.2578445731
 30
0.0
 10
447.1560807367
 20
426.3242644816
 30
0.0
 10
447.1703008546
 20
426.3917079652
 30
0.0
  0
SPLINE
  5
4DC
100
AcDbEntity
  8
0
100
AcDbSpline
 62
7
  6
BYLAYER
 70
0
 71
3
 72
9
 73
5
 74
0
 42
0.0000001
 43
0.0000001
 44
0.0000000001
 40
0.0
 40
0.0
 40
0.0
 40
0.0
 40
0.2667209978
 40
1.0
 40
1.0
 40
1.0
 40
1.0
 10
375.1679137198
 20
384.6573154887
 30
0.0
 10
375.3263669924
 20
384.6778895474
 30
0.0
 10
375.9162873257
 20
384.7795999479
 30
0.0
 10
376.4944715813
 20
384.9802880537
 30
0.0
 10
376.8749017506
 20
385.1999282032
 30
0.0
  0
SPLINE
  5
4DD
100
AcDbEntity
  8
0
100
AcDbSpline
 62
7
  6
BYLAYER
 70
0
 71
3
 72
9
 73
5
 74
0
 42
0.0000001
 43
0.0000001
 44
0.0000000001
 40
0.0
 40
0.0
 40
0.0
 40
0.0
 40
0.235836764
 40
1.0
 40
1.0
 40
1.0
 40
1.0
 10
343.3141481033
 20
402.032264586
 30
0.0
 10
343.4290349152
 20
401.9128735866
 30
0.0
 10
343.9373229712
 20
401.4270166963
 30
0.0
 10
344.519714544
 20
401.0220963701
 30
0.0
 10
344.9846622731
 20
400.7536647463
 30
0.0
  0
SPLINE
  5
4DE
100
AcDbEntity
  8
0
100
AcDbSpline
 62
7
  6
BYLAYER
 70
0
 71
3
 72
9
 73
5
 74
0
 42
0.0000001
 43
0.0000001
 44
0.0000000001
 40
0.0
 40
0.0
 40
0.0
 40
0.0
 40
0.2635698869
 40
1.0
 40
1.0
 40
1.0
 40
1.0
 10
375.1500064161
 20
388.1952468333
 30
0.0
 10
375.1867508625
 20
388.1829989774
 30
0.0
 10
375.3246608278
 20
388.1323458545
 30
0.0
 10
375.4569136372
 20
388.0648167479
 30
0.0
 10
375.546285489
 20
388.0037912379
 30
0.0
  0
SPLINE
  5
4DF
100
AcDbEntity
  8
0
100
AcDbSpline
 62
7
  6
BYLAYER
 70
0
 71
3
 72
9
 73
5
 74
0
 42
0.0000001
 43
0.0000001
 44
0.0000000001
 40
0.0
 40
0.0
 40
0.0
 40
0.0
 40
0.5045522342
 40
1.0
 40
1.0
 40
1.0
 40
1.0
 10
441.3043304458
 20
427.2934720667
 30
0.0
 10
441.6190300321
 20
427.4496573409
 30
0.0
 10
442.3313125474
 20
427.568626246
 30
0.0
 10
443.0422380348
 20
427.4220266765
 30
0.0
 10
443.3412071851
 20
427.2498848271
 30
0.0
  0
ENDSEC
  0
SECTION
  2
OBJECTS
  0
DICTIONARY
  5
C
100
AcDbDictionary
280
0
281
1
  3
ACAD_GROUP
350
D
  3
ACAD_MLINESTYLE
350
17
  3
ACAD_LAYOUT
350
1A
  3
ACAD_PLOTSETTINGS
350
19
  3
ACAD_PLOTSTYLENAME
350
E
  0
DICTIONARY
  5
D
102
{ACAD_REACTORS
330
C
102
}
100
AcDbDictionary
280
0
281
1
  0
ACDBDICTIONARYWDFLT
  5
E
102
{ACAD_REACTORS
330
C
102
}
100
AcDbDictionary
281
1
  3
Normal
350
F
100
AcDbDictionaryWithDefault
340
F
  0
DICTIONARY
  5
17
102
{ACAD_REACTORS
330
C
102
}
100
AcDbDictionary
280
0
281
1
  3
Standard
350
18
  0
DICTIONARY
  5
19
102
{ACAD_REACTORS
330
C
102
}
100
AcDbDictionary
281
1
  0
DICTIONARY
  5
1A
102
{ACAD_REACTORS
330
C
102
}
100
AcDbDictionary
281
1
  3
Model
350
4E0
  3
Layout1
350
4E1
  0
ACDBPLACEHOLDER
  5
F
102
{ACAD_REACTORS
330
E
102
}
  0
MLINESTYLE
  5
18
102
{ACAD_REACTORS
330
17
102
}
100
AcDbMlineStyle
  2
STANDARD
 70
0
  3

 62
256
 51
90.0
 52
90.0
 71
2
 49
0.5
 62
256
  6
BYLAYER
 49
-0.5
 62
256
  6
BYLAYER
  0
LAYOUT
  5
4E0
102
{ACAD_REACTORS
330
1A
102
}
100
AcDbPlotSettings
  1

  2
none_device
  4

  6

 40
0.0
 41
0.0
 42
0.0
 43
0.0
 44
210.0
 45
297.0
 46
0.0
 47
0.0
 48
0.0
 49
0.0
140
0.0
141
0.0
142
1.0
143
1.0
 70
1024
 72
1
 73
0
 74
0
  7

 75
0
147
1.0
148
0.0
149
0.0
100
AcDbLayout
  1
Model
 70
0
 71
0
 10
0.0
 20
0.0
 11
210.0
 21
297.0
 12
0.0
 22
0.0
 32
0.0
 14
0.0
 24
0.0
 34
0.0
 15
0.0
 25
0.0
 35
0.0
146
0.0
 13
0.0
 23
0.0
 33
0.0
 16
1.0
 26
0.0
 36
0.0
 17
0.0
 27
1.0
 37
0.0
 76
0
330
210
345
0
346
0
  0
LAYOUT
  5
4E1
102
{ACAD_REACTORS
330
1A
102
}
100
AcDbPlotSettings
  1

  2
none_device
  4

  6

 40
0.0
 41
0.0
 42
0.0
 43
0.0
 44
210.0
 45
297.0
 46
0.0
 47
0.0
 48
0.0
 49
0.0
140
0.0
141
0.0
142
1.0
143
1.0
 70
0
 72
1
 73
0
 74
0
  7

 75
0
147
1.0
148
0.0
149
0.0
100
AcDbLayout
  1
Layout1
 70
0
 71
1
 10
0.0
 20
0.0
 11
210.0
 21
297.0
 12
0.0
 22
0.0
 32
0.0
 14
0.0
 24
0.0
 34
0.0
 15
0.0
 25
0.0
 35
0.0
146
0.0
 13
0.0
 23
0.0
 33
0.0
 16
1.0
 26
0.0
 36
0.0
 17
0.0
 27
1.0
 37
0.0
 76
0
330
211
345
0
346
0
  0
ENDSEC
  0
EOF
