999
DXF file: C:\Users\sesa63760\Dev\_Creo\CAD\MCADID0002246_3D-CAD\drw0001_1.dxf
999
Pro/ENGINEER 2019471 by Parametric Technology Corporation
  0
SECTION
  2
HEADER
  9
$ACADVER
  1
AC1024
  9
$DWGCODEPAGE
  3
ANSI_1252
  9
$EXTMAX
 10
97.0836232654
 20
137.3039814754
 30
0.0
  9
$EXTMIN
 10
0.0
 20
0.0
 30
0.0
  9
$LIMMIN
 10
0.0
 20
0.0
  9
$LIMMAX
 10
97.0836232654
 20
137.3039814754
  9
$VIEWCTR
 10
48.5418116327
 20
68.6519907377
  9
$VIEWSIZE
 40
137.3039814754
  9
$CLAYER
  8
0
  9
$LTSCALE
 40
8.9501854591
  9
$CELTYPE
  6
BYLAYER
  9
$DIMSCALE
 40
1.0
  9
$DIMASZ
 40
1.1557574198
  9
$DIMEXO
 40
1.0
  9
$DIMDLI
 40
6.183764499
  9
$DIMEXE
 40
1.0
  9
$DIMCEN
 40
1.4645758024
  9
$DIMLFAC
 40
1.0
  9
$DIMBLK
  1
_FILLED
  9
$DIMALT
 70
0
  9
$DIMALTF
 40
0.0393700787
  9
$DIMTXT
 40
1.6180603878
  9
$DIMTOL
 70
1
  9
$DIMLIM
 70
0
  9
$DIMTFAC
 40
1.0
  9
$DIMTP
 40
0.01
  9
$DIMTM
 40
0.01
  9
$DIMGAP
 40
0.625
  9
$DIMDSEP
 70
46
  9
$AUNITS
 70
0
  9
$PDMODE
 70
3
  9
$PDSIZE
 40
0.3125
  9
$HANDSEED
  5
479
  9
$TILEMODE
 70
1
  9
$MEASUREMENT
 70
1
  9
$INSUNITS
 70
4
  0
ENDSEC
  0
SECTION
  2
CLASSES
  0
CLASS
  1
ACDBDICTIONARYWDFLT
  2
AcDbDictionaryWithDefault
  3
AutoCAD 2000
 90
0
 91
1
280
0
281
0
  0
CLASS
  1
ACDBPLACEHOLDER
  2
AcDbPlaceHolder
  3
AutoCAD 2000
 90
0
 91
1
280
0
281
0
  0
CLASS
  1
LAYOUT
  2
AcDbLayout
  3
AutoCAD 2000
 90
0
 91
0
280
0
281
0
  0
ENDSEC
  0
SECTION
  2
TABLES
  0
TABLE
  2
VPORT
  5
8
100
AcDbSymbolTable
 70
2
  0
VPORT
  5
1F4
100
AcDbSymbolTableRecord
100
AcDbViewportTableRecord
  2
*ACTIVE
 70
0
 10
0.0
 20
0.0
 11
1.0
 21
1.0
 12
48.5418116327
 22
68.6519907377
 13
0.0
 23
0.0
 14
1.0
 24
1.0
 15
0.0
 25
0.0
 16
0.0
 26
0.0
 36
1.0
 17
0.0
 27
0.0
 37
0.0
 40
137.3039814754
 41
0.7070707071
 42
50.0
 43
0.0
 44
0.0
 50
0.0
 51
0.0
 71
0
 72
100
 73
1
 74
1
 75
0
 76
0
 77
0
 78
0
  0
ENDTAB
  0
TABLE
  2
LTYPE
  5
5
100
AcDbSymbolTable
 70
6
  0
LTYPE
  5
14
100
AcDbSymbolTableRecord
100
AcDbLinetypeTableRecord
  2
BYBLOCK
 70
0
  3

 72
65
 73
0
 40
0.0
  0
LTYPE
  5
15
100
AcDbSymbolTableRecord
100
AcDbLinetypeTableRecord
  2
BYLAYER
 70
0
  3

 72
65
 73
0
 40
0.0
  0
LTYPE
  5
16
100
AcDbSymbolTableRecord
100
AcDbLinetypeTableRecord
  2
CONTINUOUS
 70
64
  3
Solid line
 72
65
 73
0
 40
0.0
  0
LTYPE
  5
1F5
100
AcDbSymbolTableRecord
100
AcDbLinetypeTableRecord
  2
CENTER
 70
64
  3
____ _ ____ _ ____ _ ____ _ ____ _ ____ _ ____
 72
65
 73
4
 40
0.6
 49
0.375
 74
0
 49
-0.075
 74
0
 49
0.075
 74
0
 49
-0.075
 74
0
  0
LTYPE
  5
1F6
100
AcDbSymbolTableRecord
100
AcDbLinetypeTableRecord
  2
HIDDEN
 70
64
  3
- - - - - - - - - - - - - - - - - - - -
 72
65
 73
2
 40
0.2
 49
0.1
 74
0
 49
-0.1
 74
0
  0
LTYPE
  5
1F7
100
AcDbSymbolTableRecord
100
AcDbLinetypeTableRecord
  2
PHANTOM
 70
64
  3
_____ _ _ _____ _ _ _____ _ _ _____
 72
65
 73
6
 40
0.8
 49
0.45
 74
0
 49
-0.05
 74
0
 49
0.1
 74
0
 49
-0.05
 74
0
 49
0.1
 74
0
 49
-0.05
 74
0
  0
LTYPE
  5
1F8
100
AcDbSymbolTableRecord
100
AcDbLinetypeTableRecord
  2
DOT
 70
64
  3
. . . . . . . . . . . . . . . . . . . .
 72
65
 73
2
 40
0.2
 49
0.1
 74
0
 49
-0.1
 74
0
  0
LTYPE
  5
1F9
100
AcDbSymbolTableRecord
100
AcDbLinetypeTableRecord
  2
DASHED
 70
64
  3
- - - - - - - - - - - - - - - - - - - -
 72
65
 73
2
 40
0.2
 49
0.1
 74
0
 49
-0.1
 74
0
  0
ENDTAB
  0
TABLE
  2
LAYER
  5
2
100
AcDbSymbolTable
 70
36
  0
LAYER
  5
10
100
AcDbSymbolTableRecord
100
AcDbLayerTableRecord
  2
0
 70
0
 62
7
  6
CONTINUOUS
370
-3
390
F
  0
LAYER
  5
1FA
100
AcDbSymbolTableRecord
100
AcDbLayerTableRecord
  2
DEFAULT_1
 70
0
 62
7
  6
CENTER
370
-3
390
F
  0
LAYER
  5
1FB
100
AcDbSymbolTableRecord
100
AcDbLayerTableRecord
  2
DEFAULT_2
 70
0
 62
8
  6
HIDDEN
370
-3
390
F
  0
LAYER
  5
1FC
100
AcDbSymbolTableRecord
100
AcDbLayerTableRecord
  2
DEFAULT_3
 70
0
 62
7
  6
PHANTOM
370
-3
390
F
  0
LAYER
  5
1FD
100
AcDbSymbolTableRecord
100
AcDbLayerTableRecord
  2
00_COMPONENTS
 70
0
 62
7
  6
CONTINUOUS
370
-3
390
F
  0
LAYER
  5
1FE
100
AcDbSymbolTableRecord
100
AcDbLayerTableRecord
  2
01_1_DEFAULT_DATUMS
 70
0
 62
7
  6
CONTINUOUS
370
-3
390
F
  0
LAYER
  5
1FF
100
AcDbSymbolTableRecord
100
AcDbLayerTableRecord
  2
01_PLANES
 70
0
 62
7
  6
CONTINUOUS
370
-3
390
F
  0
LAYER
  5
200
100
AcDbSymbolTableRecord
100
AcDbLayerTableRecord
  2
02_COORD_SYS
 70
0
 62
7
  6
CONTINUOUS
370
-3
390
F
  0
LAYER
  5
201
100
AcDbSymbolTableRecord
100
AcDbLayerTableRecord
  2
03_AXES
 70
0
 62
7
  6
CONTINUOUS
370
-3
390
F
  0
LAYER
  5
202
100
AcDbSymbolTableRecord
100
AcDbLayerTableRecord
  2
04_POINTS
 70
0
 62
7
  6
CONTINUOUS
370
-3
390
F
  0
LAYER
  5
203
100
AcDbSymbolTableRecord
100
AcDbLayerTableRecord
  2
05_CURVES
 70
0
 62
7
  6
CONTINUOUS
370
-3
390
F
  0
LAYER
  5
204
100
AcDbSymbolTableRecord
100
AcDbLayerTableRecord
  2
06_SURFS
 70
0
 62
7
  6
CONTINUOUS
370
-3
390
F
  0
LAYER
  5
205
100
AcDbSymbolTableRecord
100
AcDbLayerTableRecord
  2
07_COSMETICS
 70
0
 62
7
  6
CONTINUOUS
370
-3
390
F
  0
LAYER
  5
206
100
AcDbSymbolTableRecord
100
AcDbLayerTableRecord
  2
10_NOTES
 70
0
 62
7
  6
CONTINUOUS
370
-3
390
F
  0
LAYER
  5
207
100
AcDbSymbolTableRecord
100
AcDbLayerTableRecord
  2
11_NOTES_PUB
 70
0
 62
7
  6
CONTINUOUS
370
-3
390
F
  0
LAYER
  5
208
100
AcDbSymbolTableRecord
100
AcDbLayerTableRecord
  2
13_REF_GTOL
 70
0
 62
7
  6
CONTINUOUS
370
-3
390
F
  0
LAYER
  5
209
100
AcDbSymbolTableRecord
100
AcDbLayerTableRecord
  2
16_MISC
 70
0
 62
7
  6
CONTINUOUS
370
-3
390
F
  0
LAYER
  5
20A
100
AcDbSymbolTableRecord
100
AcDbLayerTableRecord
  2
17_NO_PRINT
 70
0
 62
7
  6
CONTINUOUS
370
-3
390
F
  0
LAYER
  5
20B
100
AcDbSymbolTableRecord
100
AcDbLayerTableRecord
  2
18_DATUM_CAMS_JOINTS
 70
0
 62
7
  6
CONTINUOUS
370
-3
390
F
  0
LAYER
  5
20C
100
AcDbSymbolTableRecord
100
AcDbLayerTableRecord
  2
19_DATUM_FUNCTIONAL
 70
0
 62
7
  6
CONTINUOUS
370
-3
390
F
  0
LAYER
  5
20D
100
AcDbSymbolTableRecord
100
AcDbLayerTableRecord
  2
20_DATUM_KINEMATIC_SCHEME
 70
0
 62
7
  6
CONTINUOUS
370
-3
390
F
  0
ENDTAB
  0
TABLE
  2
STYLE
  5
3
100
AcDbSymbolTable
 70
1
  0
STYLE
  5
11
100
AcDbSymbolTableRecord
100
AcDbTextStyleTableRecord
  2
STANDARD
 70
0
 40
0.0
 41
0.8
 50
0.0
 71
0
 42
0.2
  3
txt
  4

  0
STYLE
  5
20E
100
AcDbSymbolTableRecord
100
AcDbTextStyleTableRecord
  2
TEXTSTYLE_1
 70
0
 40
0.0
 41
0.8
 50
0.0
 71
0
 42
0.2
  3
gdt
  4

  0
ENDTAB
  0
TABLE
  2
VIEW
  5
6
100
AcDbSymbolTable
 70
0
  0
ENDTAB
  0
TABLE
  2
UCS
  5
7
100
AcDbSymbolTable
 70
0
  0
ENDTAB
  0
TABLE
  2
APPID
  5
9
100
AcDbSymbolTable
 70
1
  0
APPID
  5
20F
100
AcDbSymbolTableRecord
100
AcDbRegAppTableRecord
  2
ACAD
 70
0
  0
ENDTAB
  0
TABLE
  2
BLOCK_RECORD
  5
1
100
AcDbSymbolTable
 70
0
  0
BLOCK_RECORD
  5
210
100
AcDbSymbolTableRecord
100
AcDbBlockTableRecord
  2
*Model_Space
  0
BLOCK_RECORD
  5
211
100
AcDbSymbolTableRecord
100
AcDbBlockTableRecord
  2
*Paper_Space
  0
BLOCK_RECORD
  5
212
100
AcDbSymbolTableRecord
100
AcDbBlockTableRecord
  2
_FILLED
  0
ENDTAB
  0
TABLE
  2
DIMSTYLE
  5
A
100
AcDbSymbolTable
 70
1
100
AcDbDimStyleTable
 71
0
  0
DIMSTYLE
105
213
100
AcDbSymbolTableRecord
100
AcDbDimStyleTableRecord
  2
STANDARD
 70
0
  3

  4

 40
1.0
 41
1.1557574198
 42
1.0
 43
0.38
 44
1.0
 45
0.0
 46
0.0
 47
0.01
 48
0.01
140
1.6180603878
141
0.09
142
0.0
143
25.4
144
1.0
145
0.0
146
1.0
147
0.625
 71
1
 72
0
 73
0
 74
0
 75
0
 76
0
 77
1
 78
8
 79
2
170
0
171
1
172
0
173
0
174
0
175
0
176
0
177
0
178
0
270
2
179
2
271
2
272
2
273
2
274
2
275
0
280
0
281
0
282
0
283
1
284
8
285
0
286
0
287
3
288
0
340
11
278
46
341
212
342
212
343
212
344
212
  0
ENDTAB
  0
ENDSEC
  0
SECTION
  2
BLOCKS
  0
BLOCK
  5
20
100
AcDbEntity
  8
0
100
AcDbBlockBegin
  2
*Model_Space
 70
0
 10
0.0
 20
0.0
 30
0.0
  3
*Model_Space
  1

  0
ENDBLK
  5
21
100
AcDbEntity
  8
0
100
AcDbBlockEnd
  0
BLOCK
  5
1C
100
AcDbEntity
  8
0
100
AcDbBlockBegin
  2
*Paper_Space
 70
0
 10
0.0
 20
0.0
 30
0.0
  3
*Paper_Space
  1

  0
ENDBLK
  5
1D
100
AcDbEntity
  8
0
100
AcDbBlockEnd
  0
BLOCK
  5
214
100
AcDbEntity
  8
0
100
AcDbBlockBegin
  2
_FILLED
 70
64
 10
0.0
 20
0.0
  3
_FILLED
  1

  0
SOLID
  5
215
100
AcDbEntity
  8
0
  6
BYBLOCK
 62
0
100
AcDbTrace
 10
0.0
 20
0.0
 11
-1.0
 21
0.25
 12
-1.0
 22
-0.25
 13
-1.0
 23
-0.25
  0
ENDBLK
  5
216
100
AcDbEntity
  8
0
  6
BYBLOCK
 62
0
100
AcDbBlockEnd
  0
ENDSEC
  0
SECTION
  2
ENTITIES
  0
LWPOLYLINE
  5
217
100
AcDbEntity
  8
0
100
AcDbPolyline
 62
7
  6
CONTINUOUS
 90
5
 70
0
 10
61.6664953692
 20
16.580907559
 10
66.4432938396
 20
17.7466209721
 10
74.955580523
 20
21.1435472451
 10
81.5647963576
 20
25.7404227114
 10
85.7807660401
 20
31.1963181469
  0
LWPOLYLINE
  5
218
100
AcDbEntity
  8
0
100
AcDbPolyline
 62
7
  6
CONTINUOUS
 90
5
 70
0
 10
61.6664953693
 20
16.580907559
 10
56.6592536695
 20
15.8015783743
 10
46.3290975131
 20
15.452674363
 10
36.2189657953
 20
16.7257855527
 10
27.0786807348
 20
19.5264911106
  0
LWPOLYLINE
  5
219
100
AcDbEntity
  8
0
100
AcDbPolyline
 62
7
  6
CONTINUOUS
 90
4
 70
0
 10
27.0786807348
 20
19.5264911106
 10
19.5861354605
 20
23.6470755177
 10
14.2970177793
 20
28.7819338791
 10
12.6086013085
 20
31.6129022554
  0
LINE
  5
21A
100
AcDbEntity
  8
0
100
AcDbLine
 62
7
  6
CONTINUOUS
 10
21.860518132
 20
22.2837016268
 11
22.7797748666
 21
21.7529763285
  0
LINE
  5
21B
100
AcDbEntity
  8
0
100
AcDbLine
 62
7
  6
CONTINUOUS
 10
31.0271037117
 20
117.205672256
 11
30.9602051247
 21
117.1581373082
  0
LINE
  5
21C
100
AcDbEntity
  8
0
100
AcDbLine
 62
7
  6
CONTINUOUS
 10
31.0270739399
 20
117.2056890706
 11
30.9598900253
 21
117.1608776012
  0
LINE
  5
21D
100
AcDbEntity
  8
0
100
AcDbLine
 62
7
  6
CONTINUOUS
 10
26.3500773659
 20
114.5277370461
 11
30.9462523078
 21
117.1813240463
  0
LINE
  5
21E
100
AcDbEntity
  8
0
100
AcDbLine
 62
7
  6
CONTINUOUS
 10
30.2037985779
 20
116.0178312671
 11
28.3653286011
 21
114.9563964671
  0
LINE
  5
21F
100
AcDbEntity
  8
0
100
AcDbLine
 62
7
  6
CONTINUOUS
 10
30.2038003443
 20
115.5279350695
 11
28.7895926698
 21
114.7114467617
  0
LINE
  5
220
100
AcDbEntity
  8
0
100
AcDbLine
 62
7
  6
CONTINUOUS
 10
32.9261595382
 20
116.0382499336
 11
31.5473070557
 21
115.2421738336
  0
LINE
  5
221
100
AcDbEntity
  8
0
100
AcDbLine
 62
7
  6
CONTINUOUS
 10
29.7088370789
 20
114.1807390335
 11
28.3299845963
 21
113.3846629334
  0
LINE
  5
222
100
AcDbEntity
  8
0
100
AcDbLine
 62
7
  6
CONTINUOUS
 10
33.7520277707
 20
115.561445474
 11
29.1558528288
 21
112.9078584739
  0
LINE
  5
223
100
AcDbEntity
  8
0
100
AcDbLine
 62
7
  6
CONTINUOUS
 10
32.254419136
 20
114.5073391157
 11
30.981632229
 21
113.7724996387
  0
LINE
  5
224
100
AcDbEntity
  8
0
100
AcDbLine
 62
7
  6
CONTINUOUS
 10
24.8729319164
 20
113.6510104376
 11
24.8550365353
 21
113.6422829204
  0
LINE
  5
225
100
AcDbEntity
  8
0
100
AcDbLine
 62
7
  6
CONTINUOUS
 10
24.8728825842
 20
113.6501593665
 11
24.8550663653
 21
113.6422658657
  0
LINE
  5
226
100
AcDbEntity
  8
0
100
AcDbLine
 62
7
  6
CONTINUOUS
 10
20.1630883237
 20
27.1829026155
 11
24.4057466745
 21
24.7334580884
  0
LINE
  5
227
100
AcDbEntity
  8
0
100
AcDbLine
 62
7
  6
CONTINUOUS
 10
20.2337628484
 20
27.468673443
 11
24.6178434378
 21
24.9375805955
  0
LINE
  5
228
100
AcDbEntity
  8
0
100
AcDbLine
 62
7
  6
CONTINUOUS
 10
20.268313661
 20
27.5152184636
 11
20.289454188
 21
27.5008275358
  0
LINE
  5
229
100
AcDbEntity
  8
0
100
AcDbLine
 62
7
  6
CONTINUOUS
 10
20.2696612569
 20
27.5158777499
 11
20.289454188
 21
27.5008275358
  0
LINE
  5
22A
100
AcDbEntity
  8
0
100
AcDbLine
 62
7
  6
CONTINUOUS
 10
32.2544209024
 20
114.017442918
 11
31.4058962977
 21
113.5275499334
  0
LINE
  5
22B
100
AcDbEntity
  8
0
100
AcDbLine
 62
7
  6
CONTINUOUS
 10
28.3299845963
 20
111.7516580992
 11
28.966383349
 21
112.1190808971
  0
LINE
  5
22C
100
AcDbEntity
  8
0
100
AcDbLine
 62
7
  6
CONTINUOUS
 10
30.6634466893
 20
112.0374684435
 11
32.3251407068
 21
112.9968422051
  0
LINE
  5
22D
100
AcDbEntity
  8
0
100
AcDbLine
 62
7
  6
CONTINUOUS
 10
33.5979276138
 20
113.7316816821
 11
35.2596216312
 21
114.6910554437
  0
LINE
  5
22E
100
AcDbEntity
  8
0
100
AcDbLine
 62
7
  6
CONTINUOUS
 10
34.6585833696
 20
113.6908459792
 11
33.3857964626
 21
112.9560065022
  0
LINE
  5
22F
100
AcDbEntity
  8
0
100
AcDbLine
 62
7
  6
CONTINUOUS
 10
32.5372718579
 20
112.4661135176
 11
31.264484951
 21
111.7312740406
  0
LINE
  5
230
100
AcDbEntity
  8
0
100
AcDbLine
 62
7
  6
CONTINUOUS
 10
36.0854898637
 20
114.2142509841
 11
31.4893149218
 21
111.560663984
  0
LINE
  5
231
100
AcDbEntity
  8
0
100
AcDbLine
 62
7
  6
CONTINUOUS
 10
34.587881229
 20
113.1601446258
 11
33.315094322
 21
112.4253051488
  0
LINE
  5
232
100
AcDbEntity
  8
0
100
AcDbLine
 62
7
  6
CONTINUOUS
 10
34.5878829953
 20
112.6702484281
 11
33.7393583907
 21
112.1803554435
  0
LINE
  5
233
100
AcDbEntity
  8
0
100
AcDbLine
 62
7
  6
CONTINUOUS
 10
30.6634466893
 20
110.4044636093
 11
31.299845442
 21
110.7718864072
  0
LINE
  5
234
100
AcDbEntity
  8
0
100
AcDbLine
 62
7
  6
CONTINUOUS
 10
32.9969087823
 20
110.6902739536
 11
34.6586027998
 21
111.6496477152
  0
LINE
  5
235
100
AcDbEntity
  8
0
100
AcDbLine
 62
7
  6
CONTINUOUS
 10
35.9313897067
 20
112.3844871922
 11
37.5930837242
 21
113.3438609538
  0
LINE
  5
236
100
AcDbEntity
  8
0
100
AcDbLine
 62
7
  6
CONTINUOUS
 10
36.9920454626
 20
112.3436514893
 11
35.7192585556
 21
111.6088120123
  0
LINE
  5
237
100
AcDbEntity
  8
0
100
AcDbLine
 62
7
  6
CONTINUOUS
 10
34.8707339509
 20
111.1189190277
 11
33.5979470439
 21
110.3840795507
  0
LINE
  5
238
100
AcDbEntity
  8
0
100
AcDbLine
 62
7
  6
CONTINUOUS
 10
38.4189519566
 20
112.8670564942
 11
33.8227770148
 21
110.213469494
  0
LINE
  5
239
100
AcDbEntity
  8
0
100
AcDbLine
 62
7
  6
CONTINUOUS
 10
36.921343322
 20
111.8129501358
 11
35.648556415
 21
111.0781106589
  0
LINE
  5
23A
100
AcDbEntity
  8
0
100
AcDbLine
 62
7
  6
CONTINUOUS
 10
36.9213450883
 20
111.3230539382
 11
36.0728204837
 21
110.8331609535
  0
LINE
  5
23B
100
AcDbEntity
  8
0
100
AcDbLine
 62
7
  6
CONTINUOUS
 10
32.9969087823
 20
109.0572691193
 11
33.6333075349
 21
109.4246919173
  0
LINE
  5
23C
100
AcDbEntity
  8
0
100
AcDbLine
 62
7
  6
CONTINUOUS
 10
35.3303708753
 20
109.3430794637
 11
36.9920648927
 21
110.3024532253
  0
LINE
  5
23D
100
AcDbEntity
  8
0
100
AcDbLine
 62
7
  6
CONTINUOUS
 10
38.2648517997
 20
111.0372927023
 11
39.9265458172
 21
111.9966664639
  0
LINE
  5
23E
100
AcDbEntity
  8
0
100
AcDbLine
 62
7
  6
CONTINUOUS
 10
39.3255075556
 20
110.9964569994
 11
38.0527206486
 21
110.2616175224
  0
LINE
  5
23F
100
AcDbEntity
  8
0
100
AcDbLine
 62
7
  6
CONTINUOUS
 10
37.2041960439
 20
109.7717245377
 11
35.9314091369
 21
109.0368850608
  0
LINE
  5
240
100
AcDbEntity
  8
0
100
AcDbLine
 62
7
  6
CONTINUOUS
 10
40.7524140496
 20
111.5198620043
 11
36.1562391077
 21
108.8662750041
  0
LINE
  5
241
100
AcDbEntity
  8
0
100
AcDbLine
 62
7
  6
CONTINUOUS
 10
39.2548054149
 20
110.4657556459
 11
37.982018508
 21
109.730916169
  0
LINE
  5
242
100
AcDbEntity
  8
0
100
AcDbLine
 62
7
  6
CONTINUOUS
 10
39.2548071813
 20
109.9758594483
 11
38.4062825767
 21
109.4859664636
  0
LINE
  5
243
100
AcDbEntity
  8
0
100
AcDbLine
 62
7
  6
CONTINUOUS
 10
35.3303708753
 20
107.7100746294
 11
35.9667696279
 21
108.0774974274
  0
LINE
  5
244
100
AcDbEntity
  8
0
100
AcDbLine
 62
7
  6
CONTINUOUS
 10
39.5376599033
 20
108.832786509
 11
40.8104468103
 21
109.567625986
  0
LINE
  5
245
100
AcDbEntity
  8
0
100
AcDbLine
 62
7
  6
CONTINUOUS
 10
42.8256956903
 20
110.3228793703
 11
38.2295207484
 21
107.6692923702
  0
LWPOLYLINE
  5
246
100
AcDbEntity
  8
0
100
AcDbPolyline
 62
7
  6
CONTINUOUS
 90
6
 70
0
 10
36.2189657953
 20
31.3916190263
 10
27.0786807348
 20
34.1923245842
 10
19.5861354605
 20
38.3129089913
 10
14.2970177793
 20
43.4477673527
 10
12.6086013085
 20
46.278735729
 10
11.3405157028
 20
50.9620587594
  0
LINE
  5
247
100
AcDbEntity
  8
0
100
AcDbLine
 62
7
  6
CONTINUOUS
 10
20.1630883237
 20
27.1829026155
 11
21.860518132
 21
22.2837016268
  0
LINE
  5
248
100
AcDbEntity
  8
0
100
AcDbLine
 62
7
  6
CONTINUOUS
 10
12.6086013085
 20
31.6129022554
 11
11.3405157028
 21
38.3495913017
  0
LINE
  5
249
100
AcDbEntity
  8
0
100
AcDbLine
 62
7
  6
CONTINUOUS
 10
11.2600002953
 20
47.0144347517
 11
11.2727860846
 21
46.5465706966
  0
LINE
  5
24A
100
AcDbEntity
  8
0
100
AcDbLine
 62
7
  6
CONTINUOUS
 10
11.9087204362
 20
42.2572970614
 11
11.907178198
 21
42.56096453
  0
LINE
  5
24B
100
AcDbEntity
  8
0
100
AcDbLine
 62
7
  6
CONTINUOUS
 10
14.1151468634
 20
39.2578100107
 11
14.1151468634
 21
33.7339694673
  0
LINE
  5
24C
100
AcDbEntity
  8
0
100
AcDbLine
 62
7
  6
CONTINUOUS
 10
14.3207688112
 20
52.7931270446
 11
14.3207688112
 21
88.4051748071
  0
LINE
  5
24D
100
AcDbEntity
  8
0
100
AcDbLine
 62
7
  6
CONTINUOUS
 10
14.3207688112
 20
92.7209306701
 11
14.3207688112
 21
96.58537876
  0
LINE
  5
24E
100
AcDbEntity
  8
0
100
AcDbLine
 62
7
  6
CONTINUOUS
 10
13.7129596113
 20
92.3685165503
 11
13.712703229
 21
89.6558804214
  0
LINE
  5
24F
100
AcDbEntity
  8
0
100
AcDbLine
 62
7
  6
CONTINUOUS
 10
11.2628172724
 20
47.1923113012
 11
11.2605066594
 21
47.014636114
  0
LINE
  5
250
100
AcDbEntity
  8
0
100
AcDbLine
 62
7
  6
CONTINUOUS
 10
31.5473070557
 20
115.2421738336
 11
31.3351759045
 21
114.8747498623
  0
LINE
  5
251
100
AcDbEntity
  8
0
100
AcDbLine
 62
7
  6
CONTINUOUS
 10
33.5979276138
 20
113.7316816821
 11
33.3857964626
 21
113.3642577108
  0
LINE
  5
252
100
AcDbEntity
  8
0
100
AcDbLine
 62
7
  6
CONTINUOUS
 10
38.2720744233
 20
105.345562114
 11
38.229535314
 21
105.3172486337
  0
LINE
  5
253
100
AcDbEntity
  8
0
100
AcDbLine
 62
7
  6
CONTINUOUS
 10
38.2721504932
 20
105.344446157
 11
38.229535314
 21
105.3172486337
  0
LINE
  5
254
100
AcDbEntity
  8
0
100
AcDbLine
 62
7
  6
CONTINUOUS
 10
13.7129596113
 20
92.3685165503
 11
14.8648217427
 21
93.03637824
  0
LWPOLYLINE
  5
255
100
AcDbEntity
  8
0
100
AcDbPolyline
 62
7
  6
CONTINUOUS
 90
4
 70
0
 10
61.6664953692
 20
31.2467410326
 10
56.6592536695
 20
30.4674118479
 10
46.3290975131
 20
30.1185078366
 10
36.2189657953
 20
31.3916190263
  0
LINE
  5
256
100
AcDbEntity
  8
0
100
AcDbLine
 62
7
  6
CONTINUOUS
 10
23.5527633582
 20
43.3976058585
 11
23.5269025692
 21
43.4138211782
  0
LINE
  5
257
100
AcDbEntity
  8
0
100
AcDbLine
 62
7
  6
CONTINUOUS
 10
15.1614902337
 20
87.0649686916
 11
15.161486087
 21
89.412467807
  0
LINE
  5
258
100
AcDbEntity
  8
0
100
AcDbLine
 62
7
  6
CONTINUOUS
 10
16.3457688112
 20
97.9507693638
 11
16.3457688112
 21
103.9339005142
  0
LINE
  5
259
100
AcDbEntity
  8
0
100
AcDbLine
 62
7
  6
CONTINUOUS
 10
16.4300695962
 20
89.6790454475
 11
16.4300696854
 21
87.3315454794
  0
LINE
  5
25A
100
AcDbEntity
  8
0
100
AcDbLine
 62
7
  6
CONTINUOUS
 10
18.8671211136
 20
38.1923042836
 11
18.8671211136
 21
34.2730926814
  0
LWPOLYLINE
  5
25B
100
AcDbEntity
  8
0
100
AcDbPolyline
 62
7
  6
CONTINUOUS
 90
3
 70
0
 10
11.2957688112
 20
52.065584466
 10
12.700290577
 20
58.1861656456
 10
14.3207688112
 20
60.3949746382
  0
LINE
  5
25C
100
AcDbEntity
  8
0
100
AcDbLine
 62
7
  6
CONTINUOUS
 10
29.1558528288
 20
112.9078584739
 11
28.966383349
 21
112.2007438372
  0
LINE
  5
25D
100
AcDbEntity
  8
0
100
AcDbLine
 62
7
  6
CONTINUOUS
 10
35.9313897067
 20
112.3844871922
 11
35.7192585556
 21
112.0170632209
  0
LINE
  5
25E
100
AcDbEntity
  8
0
100
AcDbLine
 62
7
  6
CONTINUOUS
 10
38.2648517997
 20
111.0372927023
 11
38.0527206486
 21
110.669868731
  0
LINE
  5
25F
100
AcDbEntity
  8
0
100
AcDbLine
 62
7
  6
CONTINUOUS
 10
24.6138697159
 20
90.9929409802
 11
24.5570673343
 21
90.9600179571
  0
LINE
  5
260
100
AcDbEntity
  8
0
100
AcDbLine
 62
7
  6
CONTINUOUS
 10
14.3209823813
 20
96.5853787383
 11
14.8653703742
 21
93.0362228323
  0
LINE
  5
261
100
AcDbEntity
  8
0
100
AcDbLine
 62
7
  6
CONTINUOUS
 10
23.2823189094
 20
91.8495878951
 11
23.2823189094
 21
86.2747079532
  0
LINE
  5
262
100
AcDbEntity
  8
0
100
AcDbLine
 62
7
  6
CONTINUOUS
 10
23.3145777193
 20
43.2912361007
 11
23.3145777193
 21
40.8417288493
  0
LINE
  5
263
100
AcDbEntity
  8
0
100
AcDbLine
 62
7
  6
CONTINUOUS
 10
31.4893149218
 20
111.560663984
 11
31.299845442
 21
110.8535493473
  0
LINE
  5
264
100
AcDbEntity
  8
0
100
AcDbLine
 62
7
  6
CONTINUOUS
 10
24.8975913819
 20
84.7053339601
 11
24.9080012592
 21
84.7436085477
  0
LINE
  5
265
100
AcDbEntity
  8
0
100
AcDbLine
 62
7
  6
CONTINUOUS
 10
26.1608827523
 20
30.1559392293
 11
26.1576832777
 21
30.2901806432
  0
LINE
  5
266
100
AcDbEntity
  8
0
100
AcDbLine
 62
7
  6
CONTINUOUS
 10
23.5527633582
 20
44.0819586946
 11
23.5527633582
 21
43.1429809149
  0
LINE
  5
267
100
AcDbEntity
  8
0
100
AcDbLine
 62
7
  6
CONTINUOUS
 10
23.8279870844
 20
42.9752851357
 11
23.8279870844
 21
43.9142629154
  0
LINE
  5
268
100
AcDbEntity
  8
0
100
AcDbLine
 62
7
  6
CONTINUOUS
 10
24.0401666105
 20
44.0367640907
 11
24.0401666105
 21
43.097786311
  0
LINE
  5
269
100
AcDbEntity
  8
0
100
AcDbLine
 62
7
  6
CONTINUOUS
 10
24.5570673343
 20
90.9600179571
 11
24.5570673343
 21
85.3851336131
  0
LINE
  5
26A
100
AcDbEntity
  8
0
100
AcDbLine
 62
7
  6
CONTINUOUS
 10
24.8886516721
 20
43.3019017836
 11
24.8886516721
 21
42.3629240039
  0
LINE
  5
26B
100
AcDbEntity
  8
0
100
AcDbLine
 62
7
  6
CONTINUOUS
 10
25.179115726
 20
42.2040271795
 11
25.179115726
 21
43.1430049592
  0
LINE
  5
26C
100
AcDbEntity
  8
0
100
AcDbLine
 62
7
  6
CONTINUOUS
 10
25.3913606647
 20
43.2655439002
 11
25.3913606647
 21
42.3265661205
  0
LINE
  5
26D
100
AcDbEntity
  8
0
100
AcDbLine
 62
7
  6
CONTINUOUS
 10
25.4359068947
 20
39.6170065858
 11
25.4359068947
 21
42.0665138371
  0
LINE
  5
26E
100
AcDbEntity
  8
0
100
AcDbLine
 62
7
  6
CONTINUOUS
 10
25.6482317446
 20
42.1890989146
 11
25.6482317446
 21
39.7395916633
  0
LINE
  5
26F
100
AcDbEntity
  8
0
100
AcDbLine
 62
7
  6
CONTINUOUS
 10
25.938218365
 20
30.1906851362
 11
25.938218365
 21
34.1098967384
  0
LINE
  5
270
100
AcDbEntity
  8
0
100
AcDbLine
 62
7
  6
CONTINUOUS
 10
26.3500773659
 20
114.5277370461
 11
26.3500773659
 21
111.6058088536
  0
LINE
  5
271
100
AcDbEntity
  8
0
100
AcDbLine
 62
7
  6
CONTINUOUS
 10
27.5313438043
 20
89.2428526939
 11
27.5313438043
 21
83.6679734424
  0
LINE
  5
272
100
AcDbEntity
  8
0
100
AcDbLine
 62
7
  6
CONTINUOUS
 10
33.8227770148
 20
110.213469494
 11
33.6333075349
 21
109.5063548574
  0
LINE
  5
273
100
AcDbEntity
  8
0
100
AcDbLine
 62
7
  6
CONTINUOUS
 10
36.1562391077
 20
108.8662750041
 11
35.9667696279
 21
108.1591603675
  0
LINE
  5
274
100
AcDbEntity
  8
0
100
AcDbLine
 62
7
  6
CONTINUOUS
 10
29.292081555
 20
82.4047292955
 11
29.2371937355
 21
82.2797975931
  0
LINE
  5
275
100
AcDbEntity
  8
0
100
AcDbLine
 62
7
  6
CONTINUOUS
 10
28.3299845963
 20
113.3846629334
 11
28.3299845963
 21
111.7516580992
  0
LINE
  5
276
100
AcDbEntity
  8
0
100
AcDbLine
 62
7
  6
CONTINUOUS
 10
28.966383349
 20
111.3842414201
 11
28.966383349
 21
112.2007438372
  0
LINE
  5
277
100
AcDbEntity
  8
0
100
AcDbLine
 62
7
  6
CONTINUOUS
 10
29.072164708
 20
88.5068953275
 11
29.072164708
 21
82.9320145447
  0
LINE
  5
278
100
AcDbEntity
  8
0
100
AcDbLine
 62
7
  6
CONTINUOUS
 10
29.9209682301
 20
114.0582615545
 11
29.9209682301
 21
113.34959542
  0
LINE
  5
279
100
AcDbEntity
  8
0
100
AcDbLine
 62
7
  6
CONTINUOUS
 10
30.2037985779
 20
116.0178312671
 11
30.2038003443
 21
113.5128876425
  0
LINE
  5
27A
100
AcDbEntity
  8
0
100
AcDbLine
 62
7
  6
CONTINUOUS
 10
30.6634466893
 20
112.0374684435
 11
30.6634466893
 21
110.4044636093
  0
LINE
  5
27B
100
AcDbEntity
  8
0
100
AcDbLine
 62
7
  6
CONTINUOUS
 10
31.264484951
 20
111.7312740406
 11
31.264484951
 21
110.7514711401
  0
LINE
  5
27C
100
AcDbEntity
  8
0
100
AcDbLine
 62
7
  6
CONTINUOUS
 10
31.299845442
 20
110.0370469302
 11
31.299845442
 21
110.8535493473
  0
LINE
  5
27D
100
AcDbEntity
  8
0
100
AcDbLine
 62
7
  6
CONTINUOUS
 10
31.3351759045
 20
114.8747498623
 11
31.3351759045
 21
114.1660837277
  0
LINE
  5
27E
100
AcDbEntity
  8
0
100
AcDbLine
 62
7
  6
CONTINUOUS
 10
20.1630883237
 20
27.1829026155
 11
20.2337645074
 21
27.4686689937
  0
LINE
  5
27F
100
AcDbEntity
  8
0
100
AcDbLine
 62
7
  6
CONTINUOUS
 10
18.9593211939
 20
90.0874000589
 11
18.6014206756
 21
91.0339575375
  0
LINE
  5
280
100
AcDbEntity
  8
0
100
AcDbLine
 62
7
  6
CONTINUOUS
 10
17.4055810923
 20
93.3983836534
 11
18.8425060422
 21
89.5828274532
  0
LINE
  5
281
100
AcDbEntity
  8
0
100
AcDbLine
 62
7
  6
CONTINUOUS
 10
32.254419136
 20
114.5073391157
 11
32.2544209024
 21
113.6091917095
  0
LINE
  5
282
100
AcDbEntity
  8
0
100
AcDbLine
 62
7
  6
CONTINUOUS
 10
32.5372718579
 20
112.8743647261
 11
32.5372718579
 21
112.4661135176
  0
LINE
  5
283
100
AcDbEntity
  8
0
100
AcDbLine
 62
7
  6
CONTINUOUS
 10
32.7513439394
 20
81.4992112838
 11
32.7513439394
 21
86.6658400171
  0
LINE
  5
284
100
AcDbEntity
  8
0
100
AcDbLine
 62
7
  6
CONTINUOUS
 10
32.9261595382
 20
116.0382499336
 11
32.9261595382
 21
115.0846330739
  0
LINE
  5
285
100
AcDbEntity
  8
0
100
AcDbLine
 62
7
  6
CONTINUOUS
 10
32.9458867147
 20
86.6209512363
 11
32.9458867147
 21
80.9704253725
  0
LINE
  5
286
100
AcDbEntity
  8
0
100
AcDbLine
 62
7
  6
CONTINUOUS
 10
32.9969087823
 20
110.6902739536
 11
32.9969087823
 21
109.0572691193
  0
LINE
  5
287
100
AcDbEntity
  8
0
100
AcDbLine
 62
7
  6
CONTINUOUS
 10
33.3857964626
 20
113.3642577108
 11
33.3857964626
 21
112.9560065022
  0
LINE
  5
288
100
AcDbEntity
  8
0
100
AcDbLine
 62
7
  6
CONTINUOUS
 10
33.5272078093
 20
113.037649894
 11
33.5272078093
 21
112.737234968
  0
LINE
  5
289
100
AcDbEntity
  8
0
100
AcDbLine
 62
7
  6
CONTINUOUS
 10
33.5979470439
 20
110.3840795507
 11
33.5979470439
 21
109.4042766501
  0
LINE
  5
28A
100
AcDbEntity
  8
0
100
AcDbLine
 62
7
  6
CONTINUOUS
 10
33.6333075349
 20
108.6898524403
 11
33.6333075349
 21
109.5063548574
  0
LINE
  5
28B
100
AcDbEntity
  8
0
100
AcDbLine
 62
7
  6
CONTINUOUS
 10
34.587881229
 20
113.1601446258
 11
34.5878829953
 21
112.2619972195
  0
LINE
  5
28C
100
AcDbEntity
  8
0
100
AcDbLine
 62
7
  6
CONTINUOUS
 10
34.6585833696
 20
113.6908459792
 11
34.6585833696
 21
113.3904310532
  0
LINE
  5
28D
100
AcDbEntity
  8
0
100
AcDbLine
 62
7
  6
CONTINUOUS
 10
34.8707339509
 20
111.5271702362
 11
34.8707339509
 21
111.1189190277
  0
LINE
  5
28E
100
AcDbEntity
  8
0
100
AcDbLine
 62
7
  6
CONTINUOUS
 10
35.2596216312
 20
114.6910554437
 11
35.2596216312
 21
113.737438584
  0
LINE
  5
28F
100
AcDbEntity
  8
0
100
AcDbLine
 62
7
  6
CONTINUOUS
 10
35.3303708753
 20
109.3430794637
 11
35.3303708753
 21
107.7100746294
  0
LINE
  5
290
100
AcDbEntity
  8
0
100
AcDbLine
 62
7
  6
CONTINUOUS
 10
35.7192585556
 20
112.0170632209
 11
35.7192585556
 21
111.6088120123
  0
LINE
  5
291
100
AcDbEntity
  8
0
100
AcDbLine
 62
7
  6
CONTINUOUS
 10
35.8606699023
 20
111.6904554041
 11
35.8606699023
 21
111.3900404781
  0
LINE
  5
292
100
AcDbEntity
  8
0
100
AcDbLine
 62
7
  6
CONTINUOUS
 10
35.9314091369
 20
109.0368850608
 11
35.9314091369
 21
108.0570821602
  0
LINE
  5
293
100
AcDbEntity
  8
0
100
AcDbLine
 62
7
  6
CONTINUOUS
 10
35.9667696279
 20
107.3426579504
 11
35.9667696279
 21
108.1591603675
  0
LINE
  5
294
100
AcDbEntity
  8
0
100
AcDbLine
 62
7
  6
CONTINUOUS
 10
36.2501875383
 20
38.1448249769
 11
36.2501875383
 21
35.6953177255
  0
LINE
  5
295
100
AcDbEntity
  8
0
100
AcDbLine
 62
7
  6
CONTINUOUS
 10
61.2812977882
 20
94.3606437728
 11
65.8774727301
 21
97.014230773
  0
LINE
  5
296
100
AcDbEntity
  8
0
100
AcDbLine
 62
7
  6
CONTINUOUS
 10
64.7107555202
 20
95.7690884832
 11
63.4379686132
 21
95.0342490062
  0
LINE
  5
297
100
AcDbEntity
  8
0
100
AcDbLine
 62
7
  6
CONTINUOUS
 10
64.7107572866
 20
95.2791922855
 11
63.862232682
 21
94.7892993009
  0
LINE
  5
298
100
AcDbEntity
  8
0
100
AcDbLine
 62
7
  6
CONTINUOUS
 10
64.9936100086
 20
94.1361193463
 11
66.2663969156
 21
94.8709588233
  0
LINE
  5
299
100
AcDbEntity
  8
0
100
AcDbLine
 62
7
  6
CONTINUOUS
 10
68.4230677406
 20
95.5445640567
 11
63.8268927987
 21
92.8909770565
  0
LINE
  5
29A
100
AcDbEntity
  8
0
100
AcDbLine
 62
7
  6
CONTINUOUS
 10
36.921343322
 20
111.8129501358
 11
36.9213450883
 21
110.9148027296
  0
LINE
  5
29B
100
AcDbEntity
  8
0
100
AcDbLine
 62
7
  6
CONTINUOUS
 10
36.9920454626
 20
112.3436514893
 11
36.9920454626
 21
112.0432365633
  0
LINE
  5
29C
100
AcDbEntity
  8
0
100
AcDbLine
 62
7
  6
CONTINUOUS
 10
37.2041960439
 20
110.1799757463
 11
37.2041960439
 21
109.7717245377
  0
LINE
  5
29D
100
AcDbEntity
  8
0
100
AcDbLine
 62
7
  6
CONTINUOUS
 10
37.5930837242
 20
113.3438609538
 11
37.5930837242
 21
112.3902440941
  0
LINE
  5
29E
100
AcDbEntity
  8
0
100
AcDbLine
 62
7
  6
CONTINUOUS
 10
38.0527206486
 20
110.669868731
 11
38.0527206486
 21
110.2616175224
  0
LINE
  5
29F
100
AcDbEntity
  8
0
100
AcDbLine
 62
7
  6
CONTINUOUS
 10
38.1941319953
 20
110.3432609142
 11
38.1941319953
 21
110.0428459882
  0
LINE
  5
2A0
100
AcDbEntity
  8
0
100
AcDbLine
 62
7
  6
CONTINUOUS
 10
38.2295207484
 20
107.6692923702
 11
38.229535314
 21
105.3172486337
  0
LINE
  5
2A1
100
AcDbEntity
  8
0
100
AcDbLine
 62
7
  6
CONTINUOUS
 10
38.3265299277
 20
38.7312460645
 11
38.3265299277
 21
37.710618043
  0
LINE
  5
2A2
100
AcDbEntity
  8
0
100
AcDbLine
 62
7
  6
CONTINUOUS
 10
38.7550333845
 20
37.6314178294
 11
38.7550333845
 21
38.6520458508
  0
LINE
  5
2A3
100
AcDbEntity
  8
0
100
AcDbLine
 62
7
  6
CONTINUOUS
 10
38.9947146172
 20
38.790425049
 11
38.9947146172
 21
37.7697970275
  0
LINE
  5
2A4
100
AcDbEntity
  8
0
100
AcDbLine
 62
7
  6
CONTINUOUS
 10
39.0794314105
 20
35.1242542553
 11
39.0794314105
 21
37.5737615067
  0
LINE
  5
2A5
100
AcDbEntity
  8
0
100
AcDbLine
 62
7
  6
CONTINUOUS
 10
39.2548054149
 20
110.4657556459
 11
39.2548071813
 21
109.5676082397
  0
LINE
  5
2A6
100
AcDbEntity
  8
0
100
AcDbLine
 62
7
  6
CONTINUOUS
 10
39.3203498186
 20
37.7128549841
 11
39.3203498186
 21
35.2633477328
  0
LINE
  5
2A7
100
AcDbEntity
  8
0
100
AcDbLine
 62
7
  6
CONTINUOUS
 10
39.3255075556
 20
110.9964569994
 11
39.3255075556
 21
110.6960420734
  0
LINE
  5
2A8
100
AcDbEntity
  8
0
100
AcDbLine
 62
7
  6
CONTINUOUS
 10
39.9265458172
 20
111.9966664639
 11
39.9265458172
 21
111.0430496042
  0
LINE
  5
2A9
100
AcDbEntity
  8
0
100
AcDbLine
 62
7
  6
CONTINUOUS
 10
40.1800132204
 20
38.4133186316
 11
40.1800132204
 21
37.3926906102
  0
LINE
  5
2AA
100
AcDbEntity
  8
0
100
AcDbLine
 62
7
  6
CONTINUOUS
 10
40.6287998113
 20
37.3252007995
 11
40.6287998113
 21
38.3458288209
  0
LINE
  5
2AB
100
AcDbEntity
  8
0
100
AcDbLine
 62
7
  6
CONTINUOUS
 10
40.8760795921
 20
38.4885950167
 11
40.8760795921
 21
37.4679669953
  0
LINE
  5
2AC
100
AcDbEntity
  8
0
100
AcDbLine
 62
7
  6
CONTINUOUS
 10
71.4642195562
 20
91.1352285188
 11
68.7027639922
 21
89.7186775034
  0
LWPOLYLINE
  5
2AD
100
AcDbEntity
  8
0
100
AcDbPolyline
 62
7
  6
CONTINUOUS
 90
4
 70
0
 10
22.0009759474
 20
84.784375107
 10
17.3493913583
 20
89.6997952487
 10
15.2846270945
 20
95.1651429727
 10
15.1960672045
 20
96.5853787647
  0
LINE
  5
2AE
100
AcDbEntity
  8
0
100
AcDbLine
 62
7
  6
CONTINUOUS
 10
16.4300692027
 20
89.6790453648
 11
21.1574263805
 21
84.5927191765
  0
LINE
  5
2AF
100
AcDbEntity
  8
0
100
AcDbLine
 62
7
  6
CONTINUOUS
 10
19.9924863134
 20
89.1829070886
 11
19.2165426958
 21
90.1846574478
  0
LINE
  5
2B0
100
AcDbEntity
  8
0
100
AcDbLine
 62
7
  6
CONTINUOUS
 10
42.8256956903
 20
110.3228793703
 11
42.8256980031
 21
107.9708298221
  0
LINE
  5
2B1
100
AcDbEntity
  8
0
100
AcDbLine
 62
7
  6
CONTINUOUS
 10
77.0297118438
 20
95.4940276481
 11
72.1599816559
 21
91.6801375902
  0
LWPOLYLINE
  5
2B2
100
AcDbEntity
  8
0
100
AcDbPolyline
 62
7
  6
CONTINUOUS
 90
3
 70
0
 10
72.0647019609
 20
82.990950135
 10
64.7231209697
 20
79.8184815657
 10
56.1453816884
 20
77.971371942
  0
LINE
  5
2B3
100
AcDbEntity
  8
0
100
AcDbLine
 62
7
  6
CONTINUOUS
 10
69.1140919561
 20
82.4078492406
 11
71.9939909884
 21
83.6441510233
  0
LWPOLYLINE
  5
2B4
100
AcDbEntity
  8
0
100
AcDbPolyline
 62
7
  6
CONTINUOUS
 90
4
 70
0
 10
68.2830202249
 20
81.9497735443
 10
60.0234719286
 20
79.4860113237
 10
50.8824152806
 20
78.4633889334
 10
50.3533848431
 20
78.4922334345
  0
LINE
  5
2B5
100
AcDbEntity
  8
0
100
AcDbLine
 62
7
  6
CONTINUOUS
 10
19.9924863134
 20
89.1829070886
 11
24.234739417
 21
85.1679006029
  0
LINE
  5
2B6
100
AcDbEntity
  8
0
100
AcDbLine
 62
7
  6
CONTINUOUS
 10
23.2823189094
 20
86.2747079532
 11
19.2165426958
 21
90.1846574478
  0
LINE
  5
2B7
100
AcDbEntity
  8
0
100
AcDbLine
 62
7
  6
CONTINUOUS
 10
23.5256633139
 20
84.9898550719
 11
19.7620713789
 21
88.9647403416
  0
LINE
  5
2B8
100
AcDbEntity
  8
0
100
AcDbLine
 62
7
  6
CONTINUOUS
 10
18.8425060422
 20
89.5828274532
 11
23.2713458034
 21
84.8969753484
  0
LINE
  5
2B9
100
AcDbEntity
  8
0
100
AcDbLine
 62
7
  6
CONTINUOUS
 10
38.996864245
 20
96.5332897952
 11
38.9640746844
 21
96.8052463222
  0
LINE
  5
2BA
100
AcDbEntity
  8
0
100
AcDbLine
 62
7
  6
CONTINUOUS
 10
22.7090498022
 20
21.7938127214
 11
24.4057466745
 21
24.7334580884
  0
LINE
  5
2BB
100
AcDbEntity
  8
0
100
AcDbLine
 62
7
  6
CONTINUOUS
 10
64.9488261763
 20
94.1631932194
 11
65.20439822
 21
94.5859437987
  0
LINE
  5
2BC
100
AcDbEntity
  8
0
100
AcDbLine
 62
7
  6
CONTINUOUS
 10
11.5467330711
 20
47.3562291212
 11
11.2628172724
 21
47.1923113012
  0
LINE
  5
2BD
100
AcDbEntity
  8
0
100
AcDbLine
 62
7
  6
CONTINUOUS
 10
73.1698061363
 20
82.5613528205
 11
65.6323559614
 21
79.3043664941
  0
LINE
  5
2BE
100
AcDbEntity
  8
0
100
AcDbLine
 62
7
  6
CONTINUOUS
 10
64.8467900567
 20
79.6601348817
 11
72.2768348784
 21
82.8684779087
  0
LINE
  5
2BF
100
AcDbEntity
  8
0
100
AcDbLine
 62
7
  6
CONTINUOUS
 10
66.0189803372
 20
78.8506903375
 11
73.8246094063
 21
82.2198302064
  0
LINE
  5
2C0
100
AcDbEntity
  8
0
100
AcDbLine
 62
7
  6
CONTINUOUS
 10
28.8699821607
 20
80.8207067169
 11
22.0009759474
 21
84.784375107
  0
LWPOLYLINE
  5
2C1
100
AcDbEntity
  8
0
100
AcDbPolyline
 62
7
  6
CONTINUOUS
 90
5
 70
0
 10
26.8935317651
 20
81.9924734771
 10
22.8835824171
 20
84.3060837361
 10
18.3814504357
 20
89.0622165745
 10
16.3818420793
 20
94.3529802428
 10
16.5898467007
 20
96.0550411614
  0
LINE
  5
2C2
100
AcDbEntity
  8
0
100
AcDbLine
 62
7
  6
CONTINUOUS
 10
21.1574263805
 20
84.5927191765
 11
28.1765541973
 21
80.4897654575
  0
LINE
  5
2C3
100
AcDbEntity
  8
0
100
AcDbLine
 62
7
  6
CONTINUOUS
 10
71.9939909884
 20
83.6441510233
 11
73.5522726933
 21
84.854115496
  0
LINE
  5
2C4
100
AcDbEntity
  8
0
100
AcDbLine
 62
7
  6
CONTINUOUS
 10
72.2768348784
 20
82.8684779087
 11
77.8229121933
 21
87.1465856412
  0
LINE
  5
2C5
100
AcDbEntity
  8
0
100
AcDbLine
 62
7
  6
CONTINUOUS
 10
11.8109498783
 20
46.2840713535
 11
11.5440852266
 21
46.1299982044
  0
LINE
  5
2C6
100
AcDbEntity
  8
0
100
AcDbLine
 62
7
  6
CONTINUOUS
 10
11.8640542684
 20
44.8858586905
 11
11.5970619684
 21
44.7317115349
  0
LINE
  5
2C7
100
AcDbEntity
  8
0
100
AcDbLine
 62
7
  6
CONTINUOUS
 10
11.9096401284
 20
42.2567195706
 11
11.6423656002
 21
42.104212479
  0
LWPOLYLINE
  5
2C8
100
AcDbEntity
  8
0
100
AcDbPolyline
 62
7
  6
CONTINUOUS
 90
5
 70
0
 10
28.1765541973
 20
80.4897654575
 10
36.9420423138
 20
77.694426932
 10
46.7053406825
 20
76.448312793
 10
56.6717705313
 20
76.8469985699
 10
66.0189803372
 20
78.8506903375
  0
LINE
  5
2C9
100
AcDbEntity
  8
0
100
AcDbLine
 62
7
  6
CONTINUOUS
 10
30.0082615807
 20
81.2499336583
 11
23.5256633139
 21
84.9898550719
  0
LWPOLYLINE
  5
2CA
100
AcDbEntity
  8
0
100
AcDbPolyline
 62
7
  6
CONTINUOUS
 90
4
 70
0
 10
23.2713458034
 20
84.8969753484
 10
29.8105331169
 20
81.1190336441
 10
37.9228501483
 20
78.5590520276
 10
46.9494561361
 20
77.4216558229
  0
LINE
  5
2CB
100
AcDbEntity
  8
0
100
AcDbLine
 62
7
  6
CONTINUOUS
 10
57.8058237434
 20
105.7715832057
 11
57.8058276138
 21
107.3925984287
  0
LINE
  5
2CC
100
AcDbEntity
  8
0
100
AcDbLine
 62
7
  6
CONTINUOUS
 10
68.895449643
 20
97.0454854371
 11
68.8900956328
 21
97.032366334
  0
LWPOLYLINE
  5
2CD
100
AcDbEntity
  8
0
100
AcDbPolyline
 62
7
  6
CONTINUOUS
 90
3
 70
0
 10
79.13855656
 20
89.7937444669
 10
75.0103338554
 20
85.6577794364
 10
68.2830202249
 20
81.9497735443
  0
LINE
  5
2CE
100
AcDbEntity
  8
0
100
AcDbLine
 62
7
  6
CONTINUOUS
 10
13.4402374176
 20
40.8969331937
 11
13.2028018038
 21
40.7598504964
  0
LINE
  5
2CF
100
AcDbEntity
  8
0
100
AcDbLine
 62
7
  6
CONTINUOUS
 10
13.9483462397
 20
40.3329804229
 11
13.7154913742
 21
40.1985424061
  0
LINE
  5
2D0
100
AcDbEntity
  8
0
100
AcDbLine
 62
7
  6
CONTINUOUS
 10
13.4664541586
 20
39.687315718
 11
13.2290241206
 21
39.55023624
  0
LINE
  5
2D1
100
AcDbEntity
  8
0
100
AcDbLine
 62
7
  6
CONTINUOUS
 10
23.9964998473
 20
44.7270906304
 11
23.7843118262
 21
44.6045845505
  0
LINE
  5
2D2
100
AcDbEntity
  8
0
100
AcDbLine
 62
7
  6
CONTINUOUS
 10
23.8279870844
 20
43.9142629154
 11
24.0401666105
 21
44.0367640907
  0
LINE
  5
2D3
100
AcDbEntity
  8
0
100
AcDbLine
 62
7
  6
CONTINUOUS
 10
23.5269025692
 20
43.4138211782
 11
23.3145777193
 21
43.2912361007
  0
LWPOLYLINE
  5
2D4
100
AcDbEntity
  8
0
100
AcDbPolyline
 62
7
  6
CONTINUOUS
 90
5
 70
0
 10
65.6323559614
 20
79.3043664941
 10
56.5451833621
 20
77.3480557687
 10
46.864030393
 20
76.9481457814
 10
37.3901264253
 20
78.1369335717
 10
28.8699821607
 20
80.8207067169
  0
LWPOLYLINE
  5
2D5
100
AcDbEntity
  8
0
100
AcDbPolyline
 62
7
  6
CONTINUOUS
 90
3
 70
0
 10
55.7124195566
 20
78.5900420936
 10
64.4970028698
 20
80.4257952157
 10
67.5096420313
 20
81.7190805442
  0
LWPOLYLINE
  5
2D6
100
AcDbEntity
  8
0
100
AcDbPolyline
 62
7
  6
CONTINUOUS
 90
4
 70
0
 10
56.1453816884
 20
77.971371942
 10
46.9984862195
 20
77.5932689526
 10
38.0486364815
 20
78.7168209652
 10
30.0082615807
 20
81.2499336583
  0
LWPOLYLINE
  5
2D7
100
AcDbEntity
  8
0
100
AcDbPolyline
 62
7
  6
CONTINUOUS
 90
3
 70
0
 10
46.9494561361
 20
77.4216558229
 10
56.1706361896
 20
77.7973013747
 10
64.8467900567
 20
79.6601348817
  0
LWPOLYLINE
  5
2D8
100
AcDbEntity
  8
0
100
AcDbPolyline
 62
7
  6
CONTINUOUS
 90
3
 70
0
 10
29.2371937355
 20
82.2797975931
 10
37.302838552
 20
79.5580395896
 10
46.384324537
 20
78.2923860657
  0
LINE
  5
2D9
100
AcDbEntity
  8
0
100
AcDbLine
 62
7
  6
CONTINUOUS
 10
59.5946720784
 20
106.3598319598
 11
59.5946726401
 21
106.1245832295
  0
LINE
  5
2DA
100
AcDbEntity
  8
0
100
AcDbLine
 62
7
  6
CONTINUOUS
 10
61.2812977882
 20
94.3606437728
 11
61.2812977882
 21
88.8036570435
  0
LINE
  5
2DB
100
AcDbEntity
  8
0
100
AcDbLine
 62
7
  6
CONTINUOUS
 10
68.895449643
 20
97.0454854371
 11
68.8915513493
 21
97.0322231971
  0
LWPOLYLINE
  5
2DC
100
AcDbEntity
  8
0
100
AcDbPolyline
 62
7
  6
CONTINUOUS
 90
3
 70
0
 10
79.8712412915
 20
90.8130075481
 10
77.5704939684
 20
87.2411170002
 10
72.0647019609
 20
82.990950135
  0
LWPOLYLINE
  5
2DD
100
AcDbEntity
  8
0
100
AcDbPolyline
 62
7
  6
CONTINUOUS
 90
4
 70
0
 10
77.9029204664
 20
84.9682947457
 10
82.3810073322
 20
90.0377685669
 10
84.2308937608
 20
95.6215848922
 10
84.270434947
 20
96.585378729
  0
LINE
  5
2DE
100
AcDbEntity
  8
0
100
AcDbLine
 62
7
  6
CONTINUOUS
 10
24.0401666105
 20
43.097786311
 11
23.8279870844
 21
42.9752851357
  0
LINE
  5
2DF
100
AcDbEntity
  8
0
100
AcDbLine
 62
7
  6
CONTINUOUS
 10
25.179115726
 20
43.1430049592
 11
25.3913606647
 21
43.2655439002
  0
LINE
  5
2E0
100
AcDbEntity
  8
0
100
AcDbLine
 62
7
  6
CONTINUOUS
 10
25.3913606647
 20
42.3265661205
 11
25.179115726
 21
42.2040271795
  0
LINE
  5
2E1
100
AcDbEntity
  8
0
100
AcDbLine
 62
7
  6
CONTINUOUS
 10
19.0097652098
 20
38.4379598828
 11
19.1345627967
 21
38.5100113731
  0
LINE
  5
2E2
100
AcDbEntity
  8
0
100
AcDbLine
 62
7
  6
CONTINUOUS
 10
25.6482317446
 20
42.1890989146
 11
25.4359068947
 21
42.0665138371
  0
LINE
  5
2E3
100
AcDbEntity
  8
0
100
AcDbLine
 62
7
  6
CONTINUOUS
 10
14.1151468634
 20
33.7339694673
 11
13.9241579232
 21
33.6237026094
  0
LINE
  5
2E4
100
AcDbEntity
  8
0
100
AcDbLine
 62
7
  6
CONTINUOUS
 10
25.6482317446
 20
39.7395916633
 11
25.4359068947
 21
39.6170065858
  0
LINE
  5
2E5
100
AcDbEntity
  8
0
100
AcDbLine
 62
7
  6
CONTINUOUS
 10
46.384324537
 20
78.2923860657
 11
55.7124195566
 21
78.5900420936
  0
LWPOLYLINE
  5
2E6
100
AcDbEntity
  8
0
100
AcDbPolyline
 62
7
  6
CONTINUOUS
 90
3
 70
0
 10
49.989774724
 20
78.5120586689
 10
41.6226643933
 20
78.9682613861
 10
32.9458867147
 20
80.9704253725
  0
LINE
  5
2E7
100
AcDbEntity
  8
0
100
AcDbLine
 62
7
  6
CONTINUOUS
 10
32.9499079798
 20
86.62002337
 11
32.9316487281
 21
86.624236508
  0
LINE
  5
2E8
100
AcDbEntity
  8
0
100
AcDbLine
 62
7
  6
CONTINUOUS
 10
32.9348191131
 20
86.6047939272
 11
32.9179048515
 21
86.6103836562
  0
LINE
  5
2E9
100
AcDbEntity
  8
0
100
AcDbLine
 62
7
  6
CONTINUOUS
 10
63.8268927987
 20
92.8909770565
 11
63.8268927987
 21
88.5569299924
  0
LINE
  5
2EA
100
AcDbEntity
  8
0
100
AcDbLine
 62
7
  6
CONTINUOUS
 10
64.7107555202
 20
95.7690884832
 11
64.7107572866
 21
94.870941077
  0
LINE
  5
2EB
100
AcDbEntity
  8
0
100
AcDbLine
 62
7
  6
CONTINUOUS
 10
77.8229121933
 20
87.1465856412
 11
81.0520911134
 21
92.1453034631
  0
LINE
  5
2EC
100
AcDbEntity
  8
0
100
AcDbLine
 62
7
  6
CONTINUOUS
 10
24.4057466745
 20
24.7334580884
 11
24.6178514381
 21
24.9375715269
  0
LINE
  5
2ED
100
AcDbEntity
  8
0
100
AcDbLine
 62
7
  6
CONTINUOUS
 10
32.3934201534
 20
104.9932640552
 11
32.4237090907
 21
104.9671979429
  0
LINE
  5
2EE
100
AcDbEntity
  8
0
100
AcDbLine
 62
7
  6
CONTINUOUS
 10
32.3962311582
 20
105.0048277531
 11
32.4260131256
 21
104.9767515661
  0
LINE
  5
2EF
100
AcDbEntity
  8
0
100
AcDbLine
 62
7
  6
CONTINUOUS
 10
59.5946798768
 20
106.3598306302
 11
59.6274629386
 21
106.1948375125
  0
LINE
  5
2F0
100
AcDbEntity
  8
0
100
AcDbLine
 62
7
  6
CONTINUOUS
 10
68.4230677406
 20
95.5445640567
 11
68.4230677406
 21
90.9192619067
  0
LINE
  5
2F1
100
AcDbEntity
  8
0
100
AcDbLine
 62
7
  6
CONTINUOUS
 10
26.0808624612
 20
34.3555523375
 11
26.205660127
 21
34.4276038704
  0
LINE
  5
2F2
100
AcDbEntity
  8
0
100
AcDbLine
 62
7
  6
CONTINUOUS
 10
36.4813300342
 20
38.2782743625
 11
36.2501875383
 21
38.1448249769
  0
LINE
  5
2F3
100
AcDbEntity
  8
0
100
AcDbLine
 62
7
  6
CONTINUOUS
 10
38.8948913704
 20
39.4145087705
 11
38.6555831134
 21
39.2763449087
  0
LINE
  5
2F4
100
AcDbEntity
  8
0
100
AcDbLine
 62
7
  6
CONTINUOUS
 10
38.7550333845
 20
38.6520458508
 11
38.9947146172
 21
38.790425049
  0
LINE
  5
2F5
100
AcDbEntity
  8
0
100
AcDbLine
 62
7
  6
CONTINUOUS
 10
20.2337645074
 20
27.4686689937
 11
20.2894658266
 21
27.5008340412
  0
LINE
  5
2F6
100
AcDbEntity
  8
0
100
AcDbLine
 62
7
  6
CONTINUOUS
 10
26.1508114399
 20
30.5583757976
 11
26.3648898887
 21
30.6819733099
  0
LINE
  5
2F7
100
AcDbEntity
  8
0
100
AcDbLine
 62
7
  6
CONTINUOUS
 10
38.9947146172
 20
37.7697970275
 11
38.7550333845
 21
37.6314178294
  0
LINE
  5
2F8
100
AcDbEntity
  8
0
100
AcDbLine
 62
7
  6
CONTINUOUS
 10
26.0808624612
 20
30.1097397685
 11
26.1608827523
 21
30.1559392293
  0
LINE
  5
2F9
100
AcDbEntity
  8
0
100
AcDbLine
 62
7
  6
CONTINUOUS
 10
39.3203498186
 20
37.7128549841
 11
39.0794314105
 21
37.5737615067
  0
LINE
  5
2FA
100
AcDbEntity
  8
0
100
AcDbLine
 62
7
  6
CONTINUOUS
 10
40.6287998113
 20
38.3458288209
 11
40.8760795921
 21
38.4885950167
  0
LINE
  5
2FB
100
AcDbEntity
  8
0
100
AcDbLine
 62
7
  6
CONTINUOUS
 10
53.5981878353
 20
87.754644529
 11
53.571302158
 21
87.7512145962
  0
LINE
  5
2FC
100
AcDbEntity
  8
0
100
AcDbLine
 62
7
  6
CONTINUOUS
 10
52.8398235309
 20
87.6664811019
 11
52.8243543142
 21
87.6648665092
  0
LINE
  5
2FD
100
AcDbEntity
  8
0
100
AcDbLine
 62
7
  6
CONTINUOUS
 10
53.5981878353
 20
87.754644529
 11
53.5707944297
 21
87.7525455517
  0
LINE
  5
2FE
100
AcDbEntity
  8
0
100
AcDbLine
 62
7
  6
CONTINUOUS
 10
52.8306125969
 20
87.6958302664
 11
52.8150529267
 21
87.6946380308
  0
LINE
  5
2FF
100
AcDbEntity
  8
0
100
AcDbLine
 62
7
  6
CONTINUOUS
 10
51.3462601223
 20
87.5820940594
 11
51.3221275765
 21
87.5802449405
  0
LINE
  5
300
100
AcDbEntity
  8
0
100
AcDbLine
 62
7
  6
CONTINUOUS
 10
51.3530832954
 20
87.5442351755
 11
51.3287983235
 21
87.5427849869
  0
LINE
  5
301
100
AcDbEntity
  8
0
100
AcDbLine
 62
7
  6
CONTINUOUS
 10
40.2633965087
 20
96.1053253122
 11
41.1574817727
 21
95.5891346825
  0
LINE
  5
302
100
AcDbEntity
  8
0
100
AcDbLine
 62
7
  6
CONTINUOUS
 10
40.2539734406
 20
96.212210567
 11
41.2818556246
 21
95.6187759366
  0
LINE
  5
303
100
AcDbEntity
  8
0
100
AcDbLine
 62
7
  6
CONTINUOUS
 10
74.0269314482
 20
79.5310501524
 11
74.9815295771
 21
78.9799251338
  0
LINE
  5
304
100
AcDbEntity
  8
0
100
AcDbLine
 62
7
  6
CONTINUOUS
 10
59.5488714903
 20
89.5075342967
 11
59.8528868972
 21
89.1529048723
  0
LINE
  5
305
100
AcDbEntity
  8
0
100
AcDbLine
 62
7
  6
CONTINUOUS
 10
74.0269314482
 20
79.5310501524
 11
74.0269314482
 21
82.3071583707
  0
LINE
  5
306
100
AcDbEntity
  8
0
100
AcDbLine
 62
7
  6
CONTINUOUS
 10
74.0344702893
 20
116.0912860355
 11
74.0344702893
 21
115.3010841126
  0
LINE
  5
307
100
AcDbEntity
  8
0
100
AcDbLine
 62
7
  6
CONTINUOUS
 10
74.9815295771
 20
81.7560333521
 11
74.9815295771
 21
78.9799251338
  0
LINE
  5
308
100
AcDbEntity
  8
0
100
AcDbLine
 62
7
  6
CONTINUOUS
 10
40.8760795921
 20
37.4679669953
 11
40.6287998113
 21
37.3252007995
  0
LINE
  5
309
100
AcDbEntity
  8
0
100
AcDbLine
 62
7
  6
CONTINUOUS
 10
39.3203498186
 20
35.2633477328
 11
39.0794314105
 21
35.1242542553
  0
LINE
  5
30A
100
AcDbEntity
  8
0
100
AcDbLine
 62
7
  6
CONTINUOUS
 10
24.6178434378
 20
24.9375805955
 11
24.6735362034
 21
24.9697337619
  0
LINE
  5
30B
100
AcDbEntity
  8
0
100
AcDbLine
 62
7
  6
CONTINUOUS
 10
16.4300696854
 20
87.3315454794
 11
15.1614902337
 21
87.0649686916
  0
LINE
  5
30C
100
AcDbEntity
  8
0
100
AcDbLine
 62
7
  6
CONTINUOUS
 10
74.0269314482
 20
82.3071583707
 11
74.9815295771
 21
81.7560333521
  0
LINE
  5
30D
100
AcDbEntity
  8
0
100
AcDbLine
 62
7
  6
CONTINUOUS
 10
28.3299845963
 20
111.7516580992
 11
28.966383349
 21
111.3842414201
  0
LINE
  5
30E
100
AcDbEntity
  8
0
100
AcDbLine
 62
7
  6
CONTINUOUS
 10
30.6634466893
 20
110.4044636093
 11
31.299845442
 21
110.0370469302
  0
LINE
  5
30F
100
AcDbEntity
  8
0
100
AcDbLine
 62
7
  6
CONTINUOUS
 10
32.9969087823
 20
109.0572691193
 11
33.6333075349
 21
108.6898524403
  0
LINE
  5
310
100
AcDbEntity
  8
0
100
AcDbLine
 62
7
  6
CONTINUOUS
 10
35.3303708753
 20
107.7100746294
 11
35.9667696279
 21
107.3426579504
  0
LINE
  5
311
100
AcDbEntity
  8
0
100
AcDbLine
 62
7
  6
CONTINUOUS
 10
59.5277034461
 20
89.5198770451
 11
59.548866792
 21
89.5075158185
  0
LWPOLYLINE
  5
312
100
AcDbEntity
  8
0
100
AcDbPolyline
 62
7
  6
CONTINUOUS
 90
3
 70
0
 10
84.2707688112
 20
60.4056934163
 10
85.9408134474
 20
58.0794051537
 10
87.2628500022
 20
52.2116909873
  0
LINE
  5
313
100
AcDbEntity
  8
0
100
AcDbLine
 62
7
  6
CONTINUOUS
 10
78.227869209
 20
81.480179305
 11
78.227869209
 21
83.904350964
  0
LINE
  5
314
100
AcDbEntity
  8
0
100
AcDbLine
 62
7
  6
CONTINUOUS
 10
81.0520911134
 20
92.1453034631
 11
81.3164846982
 21
94.2775069952
  0
LINE
  5
315
100
AcDbEntity
  8
0
100
AcDbLine
 62
7
  6
CONTINUOUS
 10
22.7797748666
 20
21.7529763285
 11
22.7926908731
 21
21.760433327
  0
LINE
  5
316
100
AcDbEntity
  8
0
100
AcDbLine
 62
7
  6
CONTINUOUS
 10
36.0101698121
 20
27.5958689672
 11
35.7773147988
 21
27.4614308651
  0
LINE
  5
317
100
AcDbEntity
  8
0
100
AcDbLine
 62
7
  6
CONTINUOUS
 10
37.4819680977
 20
27.0167475523
 11
37.2445324831
 21
26.8796648547
  0
LINE
  5
318
100
AcDbEntity
  8
0
100
AcDbLine
 62
7
  6
CONTINUOUS
 10
15.161486087
 20
89.412467807
 11
16.4300692027
 21
89.6790453648
  0
LINE
  5
319
100
AcDbEntity
  8
0
100
AcDbLine
 62
7
  6
CONTINUOUS
 10
40.2540390818
 20
96.2121726663
 11
40.253989318
 21
96.2121738934
  0
LINE
  5
31A
100
AcDbEntity
  8
0
100
AcDbLine
 62
7
  6
CONTINUOUS
 10
63.8268927987
 20
92.8909770565
 11
61.2812977882
 21
94.3606437728
  0
LINE
  5
31B
100
AcDbEntity
  8
0
100
AcDbLine
 62
7
  6
CONTINUOUS
 10
38.2295207484
 20
107.6692923702
 11
36.1562391077
 21
108.8662750041
  0
LINE
  5
31C
100
AcDbEntity
  8
0
100
AcDbLine
 62
7
  6
CONTINUOUS
 10
35.3303708753
 20
109.3430794637
 11
33.8227770148
 21
110.213469494
  0
LINE
  5
31D
100
AcDbEntity
  8
0
100
AcDbLine
 62
7
  6
CONTINUOUS
 10
32.9969087823
 20
110.6902739536
 11
31.4893149218
 21
111.560663984
  0
LINE
  5
31E
100
AcDbEntity
  8
0
100
AcDbLine
 62
7
  6
CONTINUOUS
 10
30.6634466893
 20
112.0374684435
 11
29.1558528288
 21
112.9078584739
  0
LINE
  5
31F
100
AcDbEntity
  8
0
100
AcDbLine
 62
7
  6
CONTINUOUS
 10
28.3299845963
 20
113.3846629334
 11
26.3500773659
 21
114.5277370461
  0
LINE
  5
320
100
AcDbEntity
  8
0
100
AcDbLine
 62
7
  6
CONTINUOUS
 10
28.3653286011
 20
114.9563964671
 11
29.9209682301
 21
114.0582615545
  0
LINE
  5
321
100
AcDbEntity
  8
0
100
AcDbLine
 62
7
  6
CONTINUOUS
 10
30.981632229
 20
113.7724996387
 11
32.5372718579
 21
112.8743647261
  0
LINE
  5
322
100
AcDbEntity
  8
0
100
AcDbLine
 62
7
  6
CONTINUOUS
 10
33.315094322
 20
112.4253051488
 11
34.8707339509
 21
111.5271702362
  0
LINE
  5
323
100
AcDbEntity
  8
0
100
AcDbLine
 62
7
  6
CONTINUOUS
 10
35.648556415
 20
111.0781106589
 11
37.2041960439
 21
110.1799757463
  0
LINE
  5
324
100
AcDbEntity
  8
0
100
AcDbLine
 62
7
  6
CONTINUOUS
 10
37.982018508
 20
109.730916169
 11
39.5376599033
 21
108.832786509
  0
LINE
  5
325
100
AcDbEntity
  8
0
100
AcDbLine
 62
7
  6
CONTINUOUS
 10
63.4379686132
 20
95.0342490062
 11
64.9936100086
 21
94.1361193463
  0
LINE
  5
326
100
AcDbEntity
  8
0
100
AcDbLine
 62
7
  6
CONTINUOUS
 10
65.4885682089
 20
94.4218818907
 11
64.7107572866
 21
94.870941077
  0
LINE
  5
327
100
AcDbEntity
  8
0
100
AcDbLine
 62
7
  6
CONTINUOUS
 10
40.0326181036
 20
109.1185490534
 11
39.2548071813
 21
109.5676082397
  0
LINE
  5
328
100
AcDbEntity
  8
0
100
AcDbLine
 62
7
  6
CONTINUOUS
 10
38.0527206486
 20
110.2616175224
 11
36.9213450883
 21
110.9148027296
  0
LINE
  5
329
100
AcDbEntity
  8
0
100
AcDbLine
 62
7
  6
CONTINUOUS
 10
35.7192585556
 20
111.6088120123
 11
34.5878829953
 21
112.2619972195
  0
LINE
  5
32A
100
AcDbEntity
  8
0
100
AcDbLine
 62
7
  6
CONTINUOUS
 10
33.3857964626
 20
112.9560065022
 11
32.2544209024
 21
113.6091917095
  0
LINE
  5
32B
100
AcDbEntity
  8
0
100
AcDbLine
 62
7
  6
CONTINUOUS
 10
65.8421328468
 20
94.6260070783
 11
64.7107572866
 21
95.2791922855
  0
LINE
  5
32C
100
AcDbEntity
  8
0
100
AcDbLine
 62
7
  6
CONTINUOUS
 10
40.3861827416
 20
109.322674241
 11
39.2548071813
 21
109.9758594483
  0
LINE
  5
32D
100
AcDbEntity
  8
0
100
AcDbLine
 62
7
  6
CONTINUOUS
 10
38.0527206486
 20
110.669868731
 11
36.9213450883
 21
111.3230539382
  0
LINE
  5
32E
100
AcDbEntity
  8
0
100
AcDbLine
 62
7
  6
CONTINUOUS
 10
35.7192585556
 20
112.0170632209
 11
34.5878829953
 21
112.6702484281
  0
LINE
  5
32F
100
AcDbEntity
  8
0
100
AcDbLine
 62
7
  6
CONTINUOUS
 10
33.3857964626
 20
113.3642577108
 11
32.2544209024
 21
114.017442918
  0
LINE
  5
330
100
AcDbEntity
  8
0
100
AcDbLine
 62
7
  6
CONTINUOUS
 10
30.2038003443
 20
115.5279350695
 11
31.3351759045
 21
114.8747498623
  0
LINE
  5
331
100
AcDbEntity
  8
0
100
AcDbLine
 62
7
  6
CONTINUOUS
 10
66.2663969156
 20
94.8709588233
 11
64.7107555202
 21
95.7690884832
  0
LINE
  5
332
100
AcDbEntity
  8
0
100
AcDbLine
 62
7
  6
CONTINUOUS
 10
40.8104468103
 20
109.567625986
 11
39.2548054149
 21
110.4657556459
  0
LINE
  5
333
100
AcDbEntity
  8
0
100
AcDbLine
 62
7
  6
CONTINUOUS
 10
38.2648517997
 20
111.0372927023
 11
36.921343322
 21
111.8129501358
  0
LINE
  5
334
100
AcDbEntity
  8
0
100
AcDbLine
 62
7
  6
CONTINUOUS
 10
35.9313897067
 20
112.3844871922
 11
34.587881229
 21
113.1601446258
  0
LINE
  5
335
100
AcDbEntity
  8
0
100
AcDbLine
 62
7
  6
CONTINUOUS
 10
33.5979276138
 20
113.7316816821
 11
32.254419136
 21
114.5073391157
  0
LINE
  5
336
100
AcDbEntity
  8
0
100
AcDbLine
 62
7
  6
CONTINUOUS
 10
30.2037985779
 20
116.0178312671
 11
31.5473070557
 21
115.2421738336
  0
LINE
  5
337
100
AcDbEntity
  8
0
100
AcDbLine
 62
7
  6
CONTINUOUS
 10
83.3427861395
 20
96.5821348813
 11
83.3089200484
 21
97.1321594967
  0
LINE
  5
338
100
AcDbEntity
  8
0
100
AcDbLine
 62
7
  6
CONTINUOUS
 10
81.9957688112
 20
101.6977026533
 11
81.9957688112
 21
97.3202309354
  0
LINE
  5
339
100
AcDbEntity
  8
0
100
AcDbLine
 62
7
  6
CONTINUOUS
 10
84.2707688112
 20
52.2503588735
 11
84.2707688112
 21
96.58537876
  0
LINE
  5
33A
100
AcDbEntity
  8
0
100
AcDbLine
 62
7
  6
CONTINUOUS
 10
44.3380475816
 20
27.5050542348
 11
44.0712345466
 21
27.3510095971
  0
LINE
  5
33B
100
AcDbEntity
  8
0
100
AcDbLine
 62
7
  6
CONTINUOUS
 10
36.0101696642
 20
20.9005490614
 11
35.7773147988
 21
20.7661110446
  0
LINE
  5
33C
100
AcDbEntity
  8
0
100
AcDbLine
 62
7
  6
CONTINUOUS
 10
30.9462523078
 20
117.1813240463
 11
32.9261595382
 21
116.0382499336
  0
LINE
  5
33D
100
AcDbEntity
  8
0
100
AcDbLine
 62
7
  6
CONTINUOUS
 10
33.7520277707
 20
115.561445474
 11
35.2596216312
 21
114.6910554437
  0
LINE
  5
33E
100
AcDbEntity
  8
0
100
AcDbLine
 62
7
  6
CONTINUOUS
 10
36.0854898637
 20
114.2142509841
 11
37.5930837242
 21
113.3438609538
  0
LINE
  5
33F
100
AcDbEntity
  8
0
100
AcDbLine
 62
7
  6
CONTINUOUS
 10
38.4189519566
 20
112.8670564942
 11
39.9265458172
 21
111.9966664639
  0
LINE
  5
340
100
AcDbEntity
  8
0
100
AcDbLine
 62
7
  6
CONTINUOUS
 10
40.7524140496
 20
111.5198620043
 11
42.8256956903
 21
110.3228793703
  0
LINE
  5
341
100
AcDbEntity
  8
0
100
AcDbLine
 62
7
  6
CONTINUOUS
 10
65.8774727301
 20
97.014230773
 11
68.4230677406
 21
95.5445640567
  0
LINE
  5
342
100
AcDbEntity
  8
0
100
AcDbLine
 62
7
  6
CONTINUOUS
 10
78.227869209
 20
83.904350964
 11
77.9029204664
 21
84.9682947457
  0
LWPOLYLINE
  5
343
100
AcDbEntity
  8
0
100
AcDbPolyline
 62
7
  6
CONTINUOUS
 90
3
 70
0
 10
85.8688902552
 20
53.0159647764
 10
84.6083532523
 20
58.7290447357
 10
84.2707688112
 20
59.2946792346
  0
LINE
  5
344
100
AcDbEntity
  8
0
100
AcDbLine
 62
7
  6
CONTINUOUS
 10
87.2874994263
 20
37.2100295276
 11
87.2863555528
 21
37.2457642756
  0
LINE
  5
345
100
AcDbEntity
  8
0
100
AcDbLine
 62
7
  6
CONTINUOUS
 10
87.2921539161
 20
37.2100157162
 11
87.2924215691
 21
37.2457519879
  0
LINE
  5
346
100
AcDbEntity
  8
0
100
AcDbLine
 62
7
  6
CONTINUOUS
 10
87.0242462039
 20
46.7644875936
 11
87.0264268003
 21
46.8437065452
  0
LINE
  5
347
100
AcDbEntity
  8
0
100
AcDbLine
 62
7
  6
CONTINUOUS
 10
87.0242462039
 20
46.7644875936
 11
87.0274535084
 21
46.8436256229
  0
LINE
  5
348
100
AcDbEntity
  8
0
100
AcDbLine
 62
7
  6
CONTINUOUS
 10
84.4753127738
 20
47.5684689699
 11
85.8688902552
 21
53.0159647764
  0
LINE
  5
349
100
AcDbEntity
  8
0
100
AcDbLine
 62
7
  6
CONTINUOUS
 10
87.0261625223
 20
46.8436779439
 11
87.3287203716
 21
47.0183584594
  0
LINE
  5
34A
100
AcDbEntity
  8
0
100
AcDbLine
 62
7
  6
CONTINUOUS
 10
49.7492906588
 20
25.3219893241
 11
49.4467381572
 21
25.1473115161
  0
LINE
  5
34B
100
AcDbEntity
  8
0
100
AcDbLine
 62
7
  6
CONTINUOUS
 10
43.2793735865
 20
108.137879929
 11
42.8254157398
 21
108.2443135082
  0
LINE
  5
34C
100
AcDbEntity
  8
0
100
AcDbLine
 62
7
  6
CONTINUOUS
 10
43.2796420051
 20
108.1379435727
 11
43.1512202457
 21
108.168696193
  0
LINE
  5
34D
100
AcDbEntity
  8
0
100
AcDbLine
 62
7
  6
CONTINUOUS
 10
82.1709253388
 20
97.3836172176
 11
82.1734423618
 21
97.3668754529
  0
LWPOLYLINE
  5
34E
100
AcDbEntity
  8
0
100
AcDbPolyline
 62
7
  6
CONTINUOUS
 90
5
 70
0
 10
87.2957688112
 20
37.2460655951
 10
85.8912470453
 20
31.1254844156
 10
81.6847154941
 20
25.3917296991
 10
78.6073421517
 20
22.8399001169
 10
70.8434031549
 20
18.6416531369
  0
LINE
  5
34F
100
AcDbEntity
  8
0
100
AcDbLine
 62
7
  6
CONTINUOUS
 10
85.7807660401
 20
31.1963181469
 11
87.2908103859
 21
37.1065947464
  0
LINE
  5
350
100
AcDbEntity
  8
0
100
AcDbLine
 62
7
  6
CONTINUOUS
 10
81.8029625838
 20
98.1792969216
 11
81.9957688112
 21
97.6691509324
  0
LINE
  5
351
100
AcDbEntity
  8
0
100
AcDbLine
 62
7
  6
CONTINUOUS
 10
82.1049405005
 20
97.3802935641
 11
82.1111848975
 21
97.3637715143
  0
LWPOLYLINE
  5
352
100
AcDbEntity
  8
0
100
AcDbPolyline
 62
7
  6
CONTINUOUS
 90
3
 70
0
 10
81.9691818496
 20
101.5465284012
 10
83.3069105278
 20
98.0056145473
 10
83.3954704178
 20
96.5853787553
  0
LINE
  5
353
100
AcDbEntity
  8
0
100
AcDbLine
 62
7
  6
CONTINUOUS
 10
83.3089200484
 20
97.1321594967
 11
81.8666141124
 21
100.9633252044
  0
LWPOLYLINE
  5
354
100
AcDbEntity
  8
0
100
AcDbPolyline
 62
7
  6
CONTINUOUS
 90
5
 70
0
 10
73.4407520728
 20
115.3874877296
 10
78.021087967
 20
111.1847075759
 10
80.4455921081
 20
105.9799937271
 10
80.1069911663
 20
100.5902835515
 10
77.0297118438
 20
95.4940276481
  0
LINE
  5
355
100
AcDbEntity
  8
0
100
AcDbLine
 62
7
  6
CONTINUOUS
 10
70.8434031549
 20
18.6416531369
 11
61.481417296
 21
15.8826055059
  0
ARC
  5
356
100
AcDbEntity
  8
0
100
AcDbCircle
 62
7
  6
CONTINUOUS
 10
-85.0819267289
 20
24.2715043249
 40
120.3976011347
100
AcDbArc
 50
358.5832927759
 51
359.992377965
  0
ARC
  5
357
100
AcDbEntity
  8
0
100
AcDbCircle
 62
7
  6
CONTINUOUS
 10
-106.3159565506
 20
36.8995468114
 40
120.0794882949
100
AcDbArc
 50
358.3792319442
 51
359.9900135561
  0
ARC
  5
358
100
AcDbEntity
  8
0
100
AcDbCircle
 62
7
  6
CONTINUOUS
 10
-105.5788678642
 20
36.5897127773
 40
119.5398276252
100
AcDbArc
 50
358.5782369817
 51
359.9974337592
  0
ARC
  5
359
100
AcDbEntity
  8
0
100
AcDbCircle
 62
7
  6
CONTINUOUS
 10
-83.1098131576
 20
24.2829251571
 40
119.1679933571
100
AcDbArc
 50
358.3735404227
 51
359.9966355777
  0
ARC
  5
35A
100
AcDbEntity
  8
0
100
AcDbCircle
 62
7
  6
CONTINUOUS
 10
-83.2754235325
 20
24.1485062966
 40
119.1007770831
100
AcDbArc
 50
358.3726132
 51
359.9966323003
  0
ARC
  5
35B
100
AcDbEntity
  8
0
100
AcDbCircle
 62
7
  6
CONTINUOUS
 10
-92.2366121775
 20
27.5163285954
 40
118.64374235
100
AcDbArc
 50
1.528943762
 51
3.3395035639
  0
ARC
  5
35C
100
AcDbEntity
  8
0
100
AcDbCircle
 62
7
  6
CONTINUOUS
 10
-79.9814729304
 20
24.2607572783
 40
115.2971463913
100
AcDbArc
 50
359.9973814242
 51
1.4476869513
  0
ARC
  5
35D
100
AcDbEntity
  8
0
100
AcDbCircle
 62
7
  6
CONTINUOUS
 10
-100.4974190156
 20
36.6002059889
 40
114.4583797537
100
AcDbArc
 50
359.9920671189
 51
1.4530012567
  0
ARC
  5
35E
100
AcDbEntity
  8
0
100
AcDbCircle
 62
7
  6
CONTINUOUS
 10
-100.5052798652
 20
36.8854842359
 40
114.2688099919
100
AcDbArc
 50
359.9965568834
 51
1.6614407353
  0
ARC
  5
35F
100
AcDbEntity
  8
0
100
AcDbCircle
 62
7
  6
CONTINUOUS
 10
-77.3463439379
 20
24.2962851858
 40
113.4045257593
100
AcDbArc
 50
359.9897146546
 51
1.6672959719
  0
ARC
  5
360
100
AcDbEntity
  8
0
100
AcDbCircle
 62
7
  6
CONTINUOUS
 10
-77.490165097
 20
24.1621665999
 40
113.3155203255
100
AcDbArc
 50
359.9895532988
 51
1.6684443199
  0
ARC
  5
361
100
AcDbEntity
  8
0
100
AcDbCircle
 62
7
  6
CONTINUOUS
 10
-73.1802020548
 20
23.8807594006
 40
110.4654490432
100
AcDbArc
 50
0.9281030259
 51
1.5556514767
  0
ARC
  5
362
100
AcDbEntity
  8
0
100
AcDbCircle
 62
7
  6
CONTINUOUS
 10
-96.8718854069
 20
37.7685334494
 40
110.1153247383
100
AcDbArc
 50
0.9271053347
 51
1.5566491679
  0
ARC
  5
363
100
AcDbEntity
  8
0
100
AcDbCircle
 62
7
  6
CONTINUOUS
 10
-82.9928358601
 20
27.6276540181
 40
109.1829880343
100
AcDbArc
 50
1.3973482954
 51
1.5381348583
  0
ARC
  5
364
100
AcDbEntity
  8
0
100
AcDbCircle
 62
7
  6
CONTINUOUS
 10
-55.4832136932
 20
22.9307959102
 40
99.6532857753
100
AcDbArc
 50
0.2267046397
 51
1.0430708391
  0
ARC
  5
365
100
AcDbEntity
  8
0
100
AcDbCircle
 62
7
  6
CONTINUOUS
 10
-53.1008295396
 20
22.9768285031
 40
97.2704661556
100
AcDbArc
 50
1.7531299567
 51
2.5774226891
  0
ARC
  5
366
100
AcDbEntity
  8
0
100
AcDbCircle
 62
7
  6
CONTINUOUS
 10
24.9429651881
 20
37.2453551604
 40
13.6471963954
100
AcDbArc
 50
175.358950806
 51
179.9970173424
  0
ARC
  5
367
100
AcDbEntity
  8
0
100
AcDbCircle
 62
7
  6
CONTINUOUS
 10
-25.2342497911
 20
232.8826945379
 40
220.7515329961
100
AcDbArc
 50
288.3244000847
 51
289.7735399824
  0
ARC
  5
368
100
AcDbEntity
  8
0
100
AcDbCircle
 62
7
  6
CONTINUOUS
 10
-59.4522264732
 20
239.8661546123
 40
175.3459244045
100
AcDbArc
 50
300.3217745486
 51
300.4721505161
  0
ARC
  5
369
100
AcDbEntity
  8
0
100
AcDbCircle
 62
7
  6
CONTINUOUS
 10
-97.0041854232
 20
37.8981149122
 40
110.4851277219
100
AcDbArc
 50
0.9278908218
 51
1.5553291043
  0
ARC
  5
36A
100
AcDbEntity
  8
0
100
AcDbCircle
 62
7
  6
CONTINUOUS
 10
-89.305143801
 20
41.6884973384
 40
100.9483428296
100
AcDbArc
 50
0.2359381823
 51
1.0418207809
  0
ARC
  5
36B
100
AcDbEntity
  8
0
100
AcDbCircle
 62
7
  6
CONTINUOUS
 10
-83.4735139511
 20
41.8301331987
 40
95.1148410742
100
AcDbArc
 50
1.7481382564
 51
2.5910584166
  0
ARC
  5
36C
100
AcDbEntity
  8
0
100
AcDbCircle
 62
7
  6
CONTINUOUS
 10
-82.9172120375
 20
41.9863604621
 40
94.8256029712
100
AcDbArc
 50
1.7522146998
 51
2.5976642042
  0
ARC
  5
36D
100
AcDbEntity
  8
0
100
AcDbCircle
 62
7
  6
CONTINUOUS
 10
4.9155675122
 20
79.5748263502
 40
78.1720829265
100
AcDbArc
 50
27.8481050942
 51
28.3661638463
  0
ARC
  5
36E
100
AcDbEntity
  8
0
100
AcDbCircle
 62
7
  6
CONTINUOUS
 10
-66.4365696531
 20
44.6546738733
 40
78.0323262802
100
AcDbArc
 50
358.1294475802
 51
358.5767493846
  0
ARC
  5
36F
100
AcDbEntity
  8
0
100
AcDbCircle
 62
7
  6
CONTINUOUS
 10
-66.3299523413
 20
44.6505908965
 40
77.9256325101
100
AcDbArc
 50
355.3620491985
 51
358.1298892171
  0
ARC
  5
370
100
AcDbEntity
  8
0
100
AcDbCircle
 62
7
  6
CONTINUOUS
 10
-66.2780444693
 20
44.6639662839
 40
77.873659552
100
AcDbArc
 50
1.805170801
 51
4.6389070051
  0
ARC
  5
371
100
AcDbEntity
  8
0
100
AcDbCircle
 62
7
  6
CONTINUOUS
 10
-43.2038275222
 20
117.8574593702
 40
74.2337893841
100
AcDbArc
 50
359.4969524796
 51
359.973771288
  0
ARC
  5
372
100
AcDbEntity
  8
0
100
AcDbCircle
 62
7
  6
CONTINUOUS
 10
27.8489381866
 20
43.4650390881
 40
66.8798026301
100
AcDbArc
 50
76.1577491486
 51
77.059757741
  0
ARC
  5
373
100
AcDbEntity
  8
0
100
AcDbCircle
 62
7
  6
CONTINUOUS
 10
19.3352946204
 20
60.411958514
 40
41.1257680011
100
AcDbArc
 50
58.5616402508
 51
61.4395678858
  0
ARC
  5
374
100
AcDbEntity
  8
0
100
AcDbCircle
 62
7
  6
CONTINUOUS
 10
8.7183323136
 20
148.6204337309
 40
38.0296835558
100
AcDbArc
 50
300.0777116169
 51
305.9223425637
  0
ARC
  5
375
100
AcDbEntity
  8
0
100
AcDbCircle
 62
7
  6
CONTINUOUS
 10
11.4283841821
 20
143.950160151
 40
32.6297903136
100
AcDbArc
 50
296.8873748905
 51
300.0690883857
  0
ARC
  5
376
100
AcDbEntity
  8
0
100
AcDbCircle
 62
7
  6
CONTINUOUS
 10
12.2202910128
 20
142.133797968
 40
31.1673826532
100
AcDbArc
 50
293.9510601239
 51
296.9570716326
  0
ARC
  5
377
100
AcDbEntity
  8
0
100
AcDbCircle
 62
7
  6
CONTINUOUS
 10
28.825173235
 20
50.1437956923
 40
18.0889620725
100
AcDbArc
 50
213.3530730481
 51
215.4692647988
  0
ARC
  5
378
100
AcDbEntity
  8
0
100
AcDbCircle
 62
7
  6
CONTINUOUS
 10
27.7849958296
 20
54.1866646472
 40
15.2378268083
100
AcDbArc
 50
205.9359897397
 51
208.709519399
  0
ARC
  5
379
100
AcDbEntity
  8
0
100
AcDbCircle
 62
7
  6
CONTINUOUS
 10
27.4856536099
 20
54.0395575872
 40
14.9042936964
100
AcDbArc
 50
205.5989337252
 51
205.9307285875
  0
ARC
  5
37A
100
AcDbEntity
  8
0
100
AcDbCircle
 62
7
  6
CONTINUOUS
 10
27.3895548773
 20
53.9935914834
 40
14.7977674341
100
AcDbArc
 50
205.0454160168
 51
205.599193852
  0
ARC
  5
37B
100
AcDbEntity
  8
0
100
AcDbCircle
 62
7
  6
CONTINUOUS
 10
24.9429651887
 20
52.0662949008
 40
13.647196396
100
AcDbArc
 50
180.0029826577
 51
184.6410491939
  0
ARC
  5
37C
100
AcDbEntity
  8
0
100
AcDbCircle
 62
7
  6
CONTINUOUS
 10
24.8684230348
 20
47.8876669389
 40
13.6414471031
100
AcDbArc
 50
193.3765934856
 51
198.2743222214
  0
ARC
  5
37D
100
AcDbEntity
  8
0
100
AcDbCircle
 62
7
  6
CONTINUOUS
 10
25.9115114065
 20
53.2291485528
 40
11.6907252861
100
AcDbArc
 50
177.1112317892
 51
180.0002359071
  0
ARC
  5
37E
100
AcDbEntity
  8
0
100
AcDbCircle
 62
7
  6
CONTINUOUS
 10
26.5961312094
 20
95.7273558966
 40
11.4003245385
100
AcDbArc
 50
175.8131782167
 51
178.9159831717
  0
ARC
  5
37F
100
AcDbEntity
  8
0
100
AcDbCircle
 62
7
  6
CONTINUOUS
 10
20.1086825602
 20
82.1270262789
 40
5.5139269668
100
AcDbArc
 50
35.1864573638
 51
36.2199705749
  0
ARC
  5
380
100
AcDbEntity
  8
0
100
AcDbCircle
 62
7
  6
CONTINUOUS
 10
24.2302424085
 20
92.4748813255
 40
1.4775295415
100
AcDbArc
 50
296.5311496768
 51
299.9847173086
  0
ARC
  5
381
100
AcDbEntity
  8
0
100
AcDbCircle
 62
7
  6
CONTINUOUS
 10
27.8937375556
 20
88.7392202699
 40
1.3266704498
100
AcDbArc
 50
119.9494141675
 51
123.6608402276
  0
ARC
  5
382
100
AcDbEntity
  8
0
100
AcDbCircle
 62
7
  6
CONTINUOUS
 10
28.02328597
 20
88.5152699306
 40
0.878284562
100
AcDbArc
 50
119.9376373302
 51
124.0638935243
  0
ARC
  5
383
100
AcDbEntity
  8
0
100
AcDbCircle
 62
7
  6
CONTINUOUS
 10
28.842396394
 20
82.0431023215
 40
0.4603146669
100
AcDbArc
 50
30.9442101808
 51
34.9293235974
  0
ARC
  5
384
100
AcDbEntity
  8
0
100
AcDbCircle
 62
7
  6
CONTINUOUS
 10
35.4788193463
 20
-164.2228679814
 40
269.2170616711
100
AcDbArc
 50
89.9157440412
 51
90.6617993209
  0
ARC
  5
385
100
AcDbEntity
  8
0
100
AcDbCircle
 62
7
  6
CONTINUOUS
 10
73.6485724337
 20
37.2453551603
 40
13.647196396
100
AcDbArc
 50
0.0029826577
 51
4.6410491939
  0
ARC
  5
386
100
AcDbEntity
  8
0
100
AcDbCircle
 62
7
  6
CONTINUOUS
 10
74.5952421031
 20
37.3218640221
 40
12.6974075871
100
AcDbArc
 50
359.6565500151
 51
4.6425909759
  0
ARC
  5
387
100
AcDbEntity
  8
0
100
AcDbCircle
 62
7
  6
CONTINUOUS
 10
74.6428667012
 20
37.3226219702
 40
12.6497884256
100
AcDbArc
 50
359.0214816661
 51
359.4899560294
  0
ARC
  5
388
100
AcDbEntity
  8
0
100
AcDbCircle
 62
7
  6
CONTINUOUS
 10
48.6968190588
 20
92.6265395478
 40
55.8865146097
100
AcDbArc
 50
259.7529784915
 51
260.0907692894
  0
ARC
  5
389
100
AcDbEntity
  8
0
100
AcDbCircle
 62
7
  6
CONTINUOUS
 10
48.7278483717
 20
92.4712169958
 40
55.5605907027
100
AcDbArc
 50
259.9108359646
 51
260.2517368384
  0
ARC
  5
38A
100
AcDbEntity
  8
0
100
AcDbCircle
 62
7
  6
CONTINUOUS
 10
50.424578282
 20
87.5203069306
 40
55.3173616503
100
AcDbArc
 50
281.2363854918
 51
284.3891488572
  0
ARC
  5
38B
100
AcDbEntity
  8
0
100
AcDbCircle
 62
7
  6
CONTINUOUS
 10
67.5277804362
 20
76.9042436362
 40
54.8244117624
100
AcDbArc
 50
244.6689721484
 51
250.743340515
  0
ARC
  5
38C
100
AcDbEntity
  8
0
100
AcDbCircle
 62
7
  6
CONTINUOUS
 10
48.5047251058
 20
89.1144378859
 40
54.8067157355
100
AcDbArc
 50
257.0796950021
 51
260.0974272064
  0
ARC
  5
38D
100
AcDbEntity
  8
0
100
AcDbCircle
 62
7
  6
CONTINUOUS
 10
48.3283464387
 20
90.7200485452
 40
53.9447500289
100
AcDbArc
 50
257.0618743279
 51
259.3150488045
  0
ARC
  5
38E
100
AcDbEntity
  8
0
100
AcDbCircle
 62
7
  6
CONTINUOUS
 10
48.4149041957
 20
90.8123332356
 40
53.8724190468
100
AcDbArc
 50
257.2019406295
 51
259.20623938
  0
ARC
  5
38F
100
AcDbEntity
  8
0
100
AcDbCircle
 62
7
  6
CONTINUOUS
 10
65.4385393477
 20
64.6158250087
 40
48.9052495001
100
AcDbArc
 50
123.7049112561
 51
125.0583827254
  0
ARC
  5
390
100
AcDbEntity
  8
0
100
AcDbCircle
 62
7
  6
CONTINUOUS
 10
53.0905348447
 20
47.902039244
 40
41.8517087933
100
AcDbArc
 50
186.0284506514
 51
187.9629440387
  0
ARC
  5
391
100
AcDbEntity
  8
0
100
AcDbCircle
 62
7
  6
CONTINUOUS
 10
38.4408603231
 20
71.7851293617
 40
40.5326265066
100
AcDbArc
 50
58.5404888728
 51
61.4606336535
  0
ARC
  5
392
100
AcDbEntity
  8
0
100
AcDbCircle
 62
7
  6
CONTINUOUS
 10
82.5434099687
 20
57.4965478567
 40
39.9265855643
100
AcDbArc
 50
122.1765979448
 51
125.8697475075
  0
ARC
  5
393
100
AcDbEntity
  8
0
100
AcDbCircle
 62
7
  6
CONTINUOUS
 10
82.5007959354
 20
57.4174598395
 40
39.4747278939
100
AcDbArc
 50
122.5169478534
 51
125.5884146793
  0
ARC
  5
394
100
AcDbEntity
  8
0
100
AcDbCircle
 62
7
  6
CONTINUOUS
 10
49.5531292999
 20
47.5067207207
 40
38.2923544178
100
AcDbArc
 50
181.4368041367
 51
185.9960923647
  0
ARC
  5
395
100
AcDbEntity
  8
0
100
AcDbCircle
 62
7
  6
CONTINUOUS
 10
59.1863941524
 20
74.5611738159
 40
37.1543350781
100
AcDbArc
 50
114.3796202278
 51
116.0044594649
  0
ARC
  5
396
100
AcDbEntity
  8
0
100
AcDbCircle
 62
7
  6
CONTINUOUS
 10
40.3222449652
 20
63.5376246301
 40
36.3027574991
100
AcDbArc
 50
239.9994547239
 51
240.2547164937
  0
ARC
  5
397
100
AcDbEntity
  8
0
100
AcDbCircle
 62
7
  6
CONTINUOUS
 10
41.9704479312
 20
72.9975034551
 40
34.8650617606
100
AcDbArc
 50
241.6066882336
 51
242.0854683462
  0
ARC
  5
398
100
AcDbEntity
  8
0
100
AcDbCircle
 62
7
  6
CONTINUOUS
 10
41.1657820669
 20
69.3120935926
 40
33.6039754386
100
AcDbArc
 50
237.9118752887
 51
242.0892472376
  0
ARC
  5
399
100
AcDbEntity
  8
0
100
AcDbCircle
 62
7
  6
CONTINUOUS
 10
40.8948632131
 20
71.311886645
 40
33.0793174943
100
AcDbArc
 50
238.9398287363
 51
241.0612937901
  0
ARC
  5
39A
100
AcDbEntity
  8
0
100
AcDbCircle
 62
7
  6
CONTINUOUS
 10
41.0196871229
 20
71.2851426064
 40
32.9064001641
100
AcDbArc
 50
238.9360500632
 51
240.6444328239
  0
ARC
  5
39B
100
AcDbEntity
  8
0
100
AcDbCircle
 62
7
  6
CONTINUOUS
 10
37.8229813188
 20
52.8841099034
 40
31.1974462149
100
AcDbArc
 50
235.2702606833
 51
235.4881635037
  0
ARC
  5
39C
100
AcDbEntity
  8
0
100
AcDbCircle
 62
7
  6
CONTINUOUS
 10
70.7455955701
 20
54.2177044427
 40
15.3062048898
100
AcDbArc
 50
331.4307227965
 51
334.2167258662
  0
ARC
  5
39D
100
AcDbEntity
  8
0
100
AcDbCircle
 62
7
  6
CONTINUOUS
 10
73.6485724343
 20
52.0662949008
 40
13.6471963954
100
AcDbArc
 50
355.358950806
 51
359.9970173424
  0
ARC
  5
39E
100
AcDbEntity
  8
0
100
AcDbCircle
 62
7
  6
CONTINUOUS
 10
73.6995502063
 20
52.0655762509
 40
13.5962186048
100
AcDbArc
 50
0.0000346196
 51
0.6196546148
  0
ARC
  5
39F
100
AcDbEntity
  8
0
100
AcDbCircle
 62
7
  6
CONTINUOUS
 10
72.6721832205
 20
53.2294837776
 40
11.6985595383
100
AcDbArc
 50
359.9981224259
 51
3.4745498978
  0
ARC
  5
3A0
100
AcDbEntity
  8
0
100
AcDbCircle
 62
7
  6
CONTINUOUS
 10
30.5382740465
 20
85.6721106094
 40
3.6136124952
100
AcDbArc
 50
213.6836955704
 51
215.1874221058
  0
ARC
  5
3A1
100
AcDbEntity
  8
0
100
AcDbCircle
 62
7
  6
CONTINUOUS
 10
48.9191705835
 20
93.9795213912
 40
57.2576832334
100
AcDbArc
 50
261.220714067
 51
261.6748500877
  0
ARC
  5
3A2
100
AcDbEntity
  8
0
100
AcDbCircle
 62
7
  6
CONTINUOUS
 10
43.6994288269
 20
113.588344122
 40
34.4874082759
100
AcDbArc
 50
243.7313813786
 51
245.2065519378
  0
ARC
  5
3A3
100
AcDbEntity
  8
0
100
AcDbCircle
 62
7
  6
CONTINUOUS
 10
43.2858208735
 20
112.7478861343
 40
33.5506906137
100
AcDbArc
 50
243.1287020467
 51
243.7295442699
  0
ARC
  5
3A4
100
AcDbEntity
  8
0
100
AcDbCircle
 62
7
  6
CONTINUOUS
 10
57.50035869
 20
110.932590629
 40
33.0536379103
100
AcDbArc
 50
299.6446536363
 51
299.9995072185
  0
ARC
  5
3A5
100
AcDbEntity
  8
0
100
AcDbCircle
 62
7
  6
CONTINUOUS
 10
42.7969334844
 20
111.7907738988
 40
32.4759524675
100
AcDbArc
 50
241.7559322137
 51
243.1348701472
  0
ARC
  5
3A6
100
AcDbEntity
  8
0
100
AcDbCircle
 62
7
  6
CONTINUOUS
 10
57.2749427407
 20
110.6087414398
 40
32.26717025
100
AcDbArc
 50
299.5705687225
 51
299.999349161
  0
ARC
  5
3A7
100
AcDbEntity
  8
0
100
AcDbCircle
 62
7
  6
CONTINUOUS
 10
42.1582081275
 20
110.6075209259
 40
31.1313150044
100
AcDbArc
 50
240.3526104609
 51
241.7609558587
  0
ARC
  5
3A8
100
AcDbEntity
  8
0
100
AcDbCircle
 62
7
  6
CONTINUOUS
 10
57.5470214571
 20
108.3946854511
 40
30.1783253077
100
AcDbArc
 50
300.5305820205
 51
301.2836519144
  0
ARC
  5
3A9
100
AcDbEntity
  8
0
100
AcDbCircle
 62
7
  6
CONTINUOUS
 10
49.9487880779
 20
117.442118582
 40
29.9056637219
100
AcDbArc
 50
282.1897543261
 51
283.2638068474
  0
ARC
  5
3AA
100
AcDbEntity
  8
0
100
AcDbCircle
 62
7
  6
CONTINUOUS
 10
57.7866854457
 20
108.0000829401
 40
29.7166436413
100
AcDbArc
 50
301.2838231349
 51
301.7416264386
  0
ARC
  5
3AB
100
AcDbEntity
  8
0
100
AcDbCircle
 62
7
  6
CONTINUOUS
 10
50.0439155771
 20
117.0368795415
 40
29.4894092686
100
AcDbArc
 50
283.264557048
 51
283.6775722692
  0
ARC
  5
3AC
100
AcDbEntity
  8
0
100
AcDbCircle
 62
7
  6
CONTINUOUS
 10
50.0838546096
 20
116.8721966421
 40
29.319952591
100
AcDbArc
 50
283.6778343783
 51
283.8149999499
  0
ARC
  5
3AD
100
AcDbEntity
  8
0
100
AcDbCircle
 62
7
  6
CONTINUOUS
 10
56.8149802802
 20
116.5085415799
 40
29.2985533271
100
AcDbArc
 50
299.9999155747
 51
300.379626191
  0
ARC
  5
3AE
100
AcDbEntity
  8
0
100
AcDbCircle
 62
7
  6
CONTINUOUS
 10
40.381974143
 20
109.5077146783
 40
28.8500811661
100
AcDbArc
 50
236.9153749809
 51
237.9965216745
  0
ARC
  5
3AF
100
AcDbEntity
  8
0
100
AcDbCircle
 62
7
  6
CONTINUOUS
 10
50.2488732221
 20
116.2178250303
 40
28.645106637
100
AcDbArc
 50
283.8070211053
 51
285.5007167651
  0
ARC
  5
3B0
100
AcDbEntity
  8
0
100
AcDbCircle
 62
7
  6
CONTINUOUS
 10
57.2523416916
 20
115.7699194575
 40
28.4401635439
100
AcDbArc
 50
300.3720357564
 51
301.8798117139
  0
ARC
  5
3B1
100
AcDbEntity
  8
0
100
AcDbCircle
 62
7
  6
CONTINUOUS
 10
40.7531771722
 20
108.207824824
 40
28.350779135
100
AcDbArc
 50
235.9950481437
 51
240.421438549
  0
ARC
  5
3B2
100
AcDbEntity
  8
0
100
AcDbCircle
 62
7
  6
CONTINUOUS
 10
40.0378589744
 20
108.9755652458
 40
28.2163671372
100
AcDbArc
 50
236.7258405165
 51
236.910976572
  0
ARC
  5
3B3
100
AcDbEntity
  8
0
100
AcDbCircle
 62
7
  6
CONTINUOUS
 10
50.5102459679
 20
115.279249893
 40
27.6708182302
100
AcDbArc
 50
285.4985814292
 51
286.7713584481
  0
ARC
  5
3B4
100
AcDbEntity
  8
0
100
AcDbCircle
 62
7
  6
CONTINUOUS
 10
39.7688507006
 20
106.728765761
 40
26.5741585382
100
AcDbArc
 50
235.3865880872
 51
235.9709233226
  0
ARC
  5
3B5
100
AcDbEntity
  8
0
100
AcDbCircle
 62
7
  6
CONTINUOUS
 10
50.937351945
 20
113.8994665605
 40
26.2264849755
100
AcDbArc
 50
286.7477693626
 51
289.5608681416
  0
ARC
  5
3B6
100
AcDbEntity
  8
0
100
AcDbCircle
 62
7
  6
CONTINUOUS
 10
39.3323977662
 20
106.0998773098
 40
25.8086601064
100
AcDbArc
 50
234.1981262771
 51
235.3909631293
  0
ARC
  5
3B7
100
AcDbEntity
  8
0
100
AcDbCircle
 62
7
  6
CONTINUOUS
 10
46.5456530895
 20
110.9734267471
 40
23.0968016545
100
AcDbArc
 50
246.9170138122
 51
247.1488475466
  0
ARC
  5
3B8
100
AcDbEntity
  8
0
100
AcDbCircle
 62
7
  6
CONTINUOUS
 10
48.4242069894
 20
113.5753979257
 40
21.2050126985
100
AcDbArc
 50
253.8656180111
 51
254.3227458234
  0
ARC
  5
3B9
100
AcDbEntity
  8
0
100
AcDbCircle
 62
7
  6
CONTINUOUS
 10
48.1815325845
 20
112.7601506826
 40
20.354439939
100
AcDbArc
 50
251.4338587179
 51
253.8841009274
  0
ARC
  5
3BA
100
AcDbEntity
  8
0
100
AcDbCircle
 62
7
  6
CONTINUOUS
 10
31.9119595493
 20
97.8958806873
 40
15.2197442756
100
AcDbArc
 50
210.9542002396
 51
216.0981961057
  0
ARC
  5
3BB
100
AcDbEntity
  8
0
100
AcDbCircle
 62
7
  6
CONTINUOUS
 10
52.6052387955
 20
107.6036730043
 40
14.7415245043
100
AcDbArc
 50
297.9930043656
 51
299.9853041636
  0
ARC
  5
3BC
100
AcDbEntity
  8
0
100
AcDbCircle
 62
7
  6
CONTINUOUS
 10
40.7571684922
 20
95.4847649208
 40
0.7930359204
100
AcDbArc
 50
128.5088183386
 51
130.363663892
  0
ARC
  5
3BD
100
AcDbEntity
  8
0
100
AcDbCircle
 62
7
  6
CONTINUOUS
 10
49.2970934449
 20
135.0165114384
 40
56.5753418529
100
AcDbArc
 50
270.7040069408
 51
271.0721453172
  0
ARC
  5
3BE
100
AcDbEntity
  8
0
100
AcDbCircle
 62
7
  6
CONTINUOUS
 10
42.2539055114
 20
133.5716459994
 40
50.0403039169
100
AcDbArc
 50
300.0403045087
 51
304.4422816592
  0
ARC
  5
3BF
100
AcDbEntity
  8
0
100
AcDbCircle
 62
7
  6
CONTINUOUS
 10
46.5131887344
 20
127.7211204603
 40
43.300397509
100
AcDbArc
 50
251.4687042144
 51
251.7009954839
  0
ARC
  5
3C0
100
AcDbEntity
  8
0
100
AcDbCircle
 62
7
  6
CONTINUOUS
 10
56.7233269105
 20
138.5467282761
 40
40.4453037207
100
AcDbArc
 50
217.2442309654
 51
218.007139312
  0
ARC
  5
3C1
100
AcDbEntity
  8
0
100
AcDbCircle
 62
7
  6
CONTINUOUS
 10
49.2957272047
 20
121.8383181805
 40
34.3557472561
100
AcDbArc
 50
267.9039627364
 51
273.2477992881
  0
ARC
  5
3C2
100
AcDbEntity
  8
0
100
AcDbCircle
 62
7
  6
CONTINUOUS
 10
49.2915390202
 20
121.7493622817
 40
34.2666977069
100
AcDbArc
 50
267.4339256383
 51
267.9055208511
  0
ARC
  5
3C3
100
AcDbEntity
  8
0
100
AcDbCircle
 62
7
  6
CONTINUOUS
 10
49.2877913629
 20
121.6667997255
 40
34.1840501519
100
AcDbArc
 50
266.8423406258
 51
267.4340051724
  0
ARC
  5
3C4
100
AcDbEntity
  8
0
100
AcDbCircle
 62
7
  6
CONTINUOUS
 10
49.3086675275
 20
121.5763445849
 40
34.0934613576
100
AcDbArc
 50
273.2510300262
 51
273.3969212627
  0
ARC
  5
3C5
100
AcDbEntity
  8
0
100
AcDbCircle
 62
7
  6
CONTINUOUS
 10
49.2739328431
 20
121.4250485521
 40
33.941902645
100
AcDbArc
 50
265.004348971
 51
266.8432200006
  0
ARC
  5
3C6
100
AcDbEntity
  8
0
100
AcDbCircle
 62
7
  6
CONTINUOUS
 10
49.3370587468
 20
121.1649664798
 40
33.6811212464
100
AcDbArc
 50
273.4315598545
 51
275.9429746037
  0
ARC
  5
3C7
100
AcDbEntity
  8
0
100
AcDbCircle
 62
7
  6
CONTINUOUS
 10
49.4013900421
 20
120.5491210179
 40
33.0619242136
100
AcDbArc
 50
275.969543799
 51
277.2456874325
  0
ARC
  5
3C8
100
AcDbEntity
  8
0
100
AcDbCircle
 62
7
  6
CONTINUOUS
 10
49.5017495436
 20
119.7914254749
 40
32.2976181793
100
AcDbArc
 50
277.2866832378
 51
279.3406418326
  0
ARC
  5
3C9
100
AcDbEntity
  8
0
100
AcDbCircle
 62
7
  6
CONTINUOUS
 10
49.7233506192
 20
118.4940432105
 40
30.9814724801
100
AcDbArc
 50
279.3256754148
 51
282.1865008907
  0
ARC
  5
3CA
100
AcDbEntity
  8
0
100
AcDbCircle
 62
7
  6
CONTINUOUS
 10
49.3098126847
 20
118.1062895358
 40
25.8240400771
100
AcDbArc
 50
273.0982551947
 51
274.4210659312
  0
ARC
  5
3CB
100
AcDbEntity
  8
0
100
AcDbCircle
 62
7
  6
CONTINUOUS
 10
71.9781622143
 20
95.7262175289
 40
11.4176040415
100
AcDbArc
 50
3.2395913908
 51
4.3018206704
  0
ARC
  5
3CC
100
AcDbEntity
  8
0
100
AcDbCircle
 62
7
  6
CONTINUOUS
 10
71.0041956455
 20
95.6959256287
 40
11.2935448351
100
AcDbArc
 50
8.5943943248
 51
10.1012820171
  0
ARC
  5
3CD
100
AcDbEntity
  8
0
100
AcDbCircle
 62
7
  6
CONTINUOUS
 10
71.1026430994
 20
95.7108134878
 40
11.1939777353
100
AcDbArc
 50
7.1449620763
 51
8.5076942259
  0
ARC
  5
3CE
100
AcDbEntity
  8
0
100
AcDbCircle
 62
7
  6
CONTINUOUS
 10
71.2342206702
 20
103.9342772254
 40
11.0114946188
100
AcDbArc
 50
355.8716491828
 51
359.9980398678
  0
ARC
  5
3CF
100
AcDbEntity
  8
0
100
AcDbCircle
 62
7
  6
CONTINUOUS
 10
71.2550880234
 20
103.1171963717
 40
10.990635541
100
AcDbArc
 50
359.3657019327
 51
0.0010515294
  0
ARC
  5
3D0
100
AcDbEntity
  8
0
100
AcDbCircle
 62
7
  6
CONTINUOUS
 10
72.8721013727
 20
93.8176150328
 40
7.9387726034
100
AcDbArc
 50
119.6914243687
 51
120.1962410587
  0
ARC
  5
3D1
100
AcDbEntity
  8
0
100
AcDbCircle
 62
7
  6
CONTINUOUS
 10
72.1603379415
 20
102.9648696776
 40
6.7600744372
100
AcDbArc
 50
240.6688781314
 51
240.8619402947
  0
ARC
  5
3D2
100
AcDbEntity
  8
0
100
AcDbCircle
 62
7
  6
CONTINUOUS
 10
72.1563671736
 20
102.9577427953
 40
6.75191604
100
AcDbArc
 50
240.8619239363
 51
241.1209787563
  0
ARC
  5
3D3
100
AcDbEntity
  8
0
100
AcDbCircle
 62
7
  6
CONTINUOUS
 10
68.4886301248
 20
101.568157117
 40
4.5274264474
100
AcDbArc
 50
274.8066154996
 51
275.0569934935
  0
ARC
  5
3D4
100
AcDbEntity
  8
0
100
AcDbCircle
 62
7
  6
CONTINUOUS
 10
74.3612478672
 20
115.3930016515
 40
1.4774348987
100
AcDbArc
 50
116.5315736426
 51
119.9847152024
  0
ARC
  5
3D5
100
AcDbEntity
  8
0
100
AcDbCircle
 62
7
  6
CONTINUOUS
 10
74.2937198701
 20
116.6113545268
 40
1.3429227407
100
AcDbArc
 50
236.1750190703
 51
240.0302755962
  0
ARC
  5
3D6
100
AcDbEntity
  8
0
100
AcDbCircle
 62
7
  6
CONTINUOUS
 10
74.4709051098
 20
115.2032194775
 40
0.9895129222
100
AcDbArc
 50
116.1715490748
 51
119.9814152029
  0
ARC
  5
3D7
100
AcDbEntity
  8
0
100
AcDbCircle
 62
7
  6
CONTINUOUS
 10
71.3063118768
 20
98.8327526792
 40
0.9127122609
100
AcDbArc
 50
356.577259224
 51
359.9847705745
  0
ARC
  5
3D8
100
AcDbEntity
  8
0
100
AcDbCircle
 62
7
  6
CONTINUOUS
 10
91.7743404637
 20
124.8830299111
 40
76.0418586268
100
AcDbArc
 50
205.215814534
 51
205.7478261343
  0
ARC
  5
3D9
100
AcDbEntity
  8
0
100
AcDbCircle
 62
7
  6
CONTINUOUS
 10
64.2196818623
 20
139.7563053691
 40
47.2801324083
100
AcDbArc
 50
212.9091055203
 51
213.6432976745
  0
ARC
  5
3DA
100
AcDbEntity
  8
0
100
AcDbCircle
 62
7
  6
CONTINUOUS
 10
68.4203444095
 20
141.9326754475
 40
44.4892892404
100
AcDbArc
 50
212.8139079576
 51
214.6758636782
  0
ARC
  5
3DB
100
AcDbEntity
  8
0
100
AcDbCircle
 62
7
  6
CONTINUOUS
 10
165.0744177498
 20
44.6558999743
 40
78.0786489387
100
AcDbArc
 50
178.4524852434
 51
180.0000549953
  0
ARC
  5
3DC
100
AcDbEntity
  8
0
100
AcDbCircle
 62
7
  6
CONTINUOUS
 10
164.9404730166
 20
44.652456781
 40
77.9447042782
100
AcDbArc
 50
179.997524059
 51
184.638189572
  0
ARC
  5
3DD
100
AcDbEntity
  8
0
100
AcDbCircle
 62
7
  6
CONTINUOUS
 10
164.9378150508
 20
44.660094484
 40
77.9419821454
100
AcDbArc
 50
175.3623127426
 51
178.3945991107
  0
ARC
  5
3DE
100
AcDbEntity
  8
0
100
AcDbCircle
 62
7
  6
CONTINUOUS
 10
98.2503700775
 20
133.5700093578
 40
83.4630318331
100
AcDbArc
 50
211.5944553235
 51
212.079761446
  0
SPLINE
  5
3DF
100
AcDbEntity
  8
0
100
AcDbSpline
 62
7
  6
CONTINUOUS
 70
0
 71
3
 72
9
 73
5
 74
0
 42
0.0000001
 43
0.0000001
 44
0.0000000001
 40
0.0
 40
0.0
 40
0.0
 40
0.0
 40
0.5117764799
 40
1.0
 40
1.0
 40
1.0
 40
1.0
 10
35.2788716226
 20
27.1736492263
 30
0.0
 10
33.6816926061
 20
27.5390608649
 30
0.0
 10
30.5896339059
 20
28.3871476958
 30
0.0
 10
27.5901811279
 20
29.5239386789
 30
0.0
 10
26.1606627224
 20
30.1560596438
 30
0.0
  0
SPLINE
  5
3E0
100
AcDbEntity
  8
0
100
AcDbSpline
 62
7
  6
CONTINUOUS
 70
0
 71
3
 72
25
 73
21
 74
0
 42
0.0000001
 43
0.0000001
 44
0.0000000001
 40
0.0
 40
0.0
 40
0.0
 40
0.0
 40
0.0720311797
 40
0.1452392569
 40
0.2189589204
 40
0.2925297437
 40
0.3652833624
 40
0.4365843383
 40
0.5058465289
 40
0.5725600511
 40
0.6363174713
 40
0.696843119
 40
0.7540236284
 40
0.8079378355
 40
0.8588778939
 40
0.9073571677
 40
0.9309152917
 40
0.9541308076
 40
0.9771164119
 40
1.0
 40
1.0
 40
1.0
 40
1.0
 10
61.481417296
 20
15.8826055059
 30
0.0
 10
60.0542346961
 20
15.5988851916
 30
0.0
 10
57.1541521073
 20
15.1343961617
 30
0.0
 10
52.744669363
 20
14.7453529607
 30
0.0
 10
48.2875655212
 20
14.6614502006
 30
0.0
 10
43.844451781
 20
14.8836268634
 30
0.0
 10
39.4759958823
 20
15.4091255836
 30
0.0
 10
35.2419018767
 20
16.231101256
 30
0.0
 10
31.1995278787
 20
17.3392002694
 30
0.0
 10
27.4031230451
 20
18.7198172915
 30
0.0
 10
23.903064217
 20
20.3567302409
 30
0.0
 10
20.7454611236
 20
22.2318535901
 30
0.0
 10
17.9723129103
 20
24.3258671679
 30
0.0
 10
15.6224752149
 20
26.6190479921
 30
0.0
 10
13.7335830936
 20
29.0889499355
 30
0.0
 10
12.5633679494
 20
31.2963852166
 30
0.0
 10
11.9068946514
 20
33.1078197564
 30
0.0
 10
11.5552162203
 20
34.4748670788
 30
0.0
 10
11.3431849402
 20
35.8565003261
 30
0.0
 10
11.2957688112
 20
36.7837913986
 30
0.0
 10
11.2957688112
 20
37.2460655951
 30
0.0
  0
SPLINE
  5
3E1
100
AcDbEntity
  8
0
100
AcDbSpline
 62
7
  6
CONTINUOUS
 70
0
 71
3
 72
9
 73
5
 74
0
 42
0.0000001
 43
0.0000001
 44
0.0000000001
 40
0.0
 40
0.0
 40
0.0
 40
0.0
 40
0.5191095631
 40
1.0
 40
1.0
 40
1.0
 40
1.0
 10
18.8543423724
 20
34.4177657616
 30
0.0
 10
17.8803757265
 20
35.1677532108
 30
0.0
 10
16.0936608422
 20
36.7350425113
 30
0.0
 10
14.5685930958
 20
38.5636483645
 30
0.0
 10
13.9241579232
 20
39.5025200128
 30
0.0
  0
LINE
  5
3E2
100
AcDbEntity
  8
0
100
AcDbLine
 62
7
  6
CONTINUOUS
 10
19.0097652098
 20
38.4379598828
 11
18.8671211136
 21
38.1923042836
  0
SPLINE
  5
3E3
100
AcDbEntity
  8
0
100
AcDbSpline
 62
7
  6
CONTINUOUS
 70
0
 71
3
 72
19
 73
15
 74
0
 42
0.0000001
 43
0.0000001
 44
0.0000000001
 40
0.0
 40
0.0
 40
0.0
 40
0.0
 40
0.0479845866
 40
0.0965372717
 40
0.1461920916
 40
0.1974250291
 40
0.2506329242
 40
0.3061268893
 40
0.424663074
 40
0.4880194089
 40
0.5540785855
 40
0.6939170238
 40
0.8431348565
 40
1.0
 40
1.0
 40
1.0
 40
1.0
 10
84.3707427524
 20
53.2291004176
 30
0.0
 10
84.3707148708
 20
52.7056611745
 30
0.0
 10
84.2995763341
 20
51.6512501317
 30
0.0
 10
83.9809230377
 20
50.0842371219
 30
0.0
 10
83.4526624599
 20
48.5374558445
 30
0.0
 10
82.7187304859
 20
47.0209405746
 30
0.0
 10
81.7843644583
 20
45.5434146527
 30
0.0
 10
80.2460220005
 20
43.5950360443
 30
0.0
 10
78.3511512831
 20
41.8067534058
 30
0.0
 10
76.17991009
 20
40.1914387031
 30
0.0
 10
73.6989975812
 20
38.6144740419
 30
0.0
 10
70.2233837312
 20
36.8783501526
 30
0.0
 10
65.6405892014
 20
35.2211946226
 30
0.0
 10
62.3935286914
 20
34.4157658431
 30
0.0
 10
60.7152099038
 20
34.0821202859
 30
0.0
  0
SPLINE
  5
3E4
100
AcDbEntity
  8
0
100
AcDbSpline
 62
7
  6
CONTINUOUS
 70
0
 71
3
 72
9
 73
5
 74
0
 42
0.0000001
 43
0.0000001
 44
0.0000000001
 40
0.0
 40
0.0
 40
0.0
 40
0.0
 40
0.2565267483
 40
1.0
 40
1.0
 40
1.0
 40
1.0
 10
22.1705670148
 20
32.0986871541
 30
0.0
 10
21.8776024675
 20
32.2678351508
 30
0.0
 10
20.7449110809
 20
32.943182081
 30
0.0
 10
19.6506757958
 20
33.6837700496
 30
0.0
 10
18.8671211136
 20
34.2730926814
 30
0.0
  0
SPLINE
  5
3E5
100
AcDbEntity
  8
0
100
AcDbSpline
 62
7
  6
CONTINUOUS
 70
0
 71
3
 72
25
 73
21
 74
0
 42
0.0000001
 43
0.0000001
 44
0.0000000001
 40
0.0
 40
0.0
 40
0.0
 40
0.0
 40
0.072996112
 40
0.147240068
 40
0.2220319258
 40
0.2966777626
 40
0.3704754653
 40
0.4427526066
 40
0.5128797353
 40
0.5802957763
 40
0.6445319507
 40
0.7052402283
 40
0.7622257882
 40
0.815484594
 40
0.8652445972
 40
0.9120027156
 40
0.9345148378
 40
0.956592526
 40
0.9783720504
 40
1.0
 40
1.0
 40
1.0
 40
1.0
 10
60.7152099038
 20
34.0821202859
 30
0.0
 10
59.3858225936
 20
33.8178414294
 30
0.0
 10
56.6835493441
 20
33.3845809378
 30
0.0
 10
52.573859603
 20
33.0197693075
 30
0.0
 10
48.4180220782
 20
32.9377242158
 30
0.0
 10
44.2746141741
 20
33.13944745
 30
0.0
 10
40.2013750272
 20
33.6222456083
 30
0.0
 10
36.2552829526
 20
34.3793071916
 30
0.0
 10
32.4913622997
 20
35.4001488419
 30
0.0
 10
28.9619983505
 20
36.6706610881
 30
0.0
 10
25.7161441314
 20
38.1734703969
 30
0.0
 10
22.7986718005
 20
39.8883443209
 30
0.0
 10
20.2499404073
 20
41.7926016606
 30
0.0
 10
18.1055430406
 20
43.8620091964
 30
0.0
 10
16.3968864003
 20
46.0698018388
 30
0.0
 10
15.3453145142
 20
48.0282474537
 30
0.0
 10
14.7604535149
 20
49.622795454
 30
0.0
 10
14.4494829287
 20
50.8174274324
 30
0.0
 10
14.2625186848
 20
52.0209072151
 30
0.0
 10
14.2207949621
 20
52.8275097003
 30
0.0
 10
14.2207861205
 20
53.2291004179
 30
0.0
  0
SPLINE
  5
3E6
100
AcDbEntity
  8
0
100
AcDbSpline
 62
7
  6
CONTINUOUS
 70
0
 71
3
 72
9
 73
5
 74
0
 42
0.0000001
 43
0.0000001
 44
0.0000000001
 40
0.0
 40
0.0
 40
0.0
 40
0.0
 40
0.5092770386
 40
1.0
 40
1.0
 40
1.0
 40
1.0
 10
13.2290241206
 20
39.55023624
 30
0.0
 10
12.8642965843
 20
40.1817927616
 30
0.0
 10
12.2286721075
 20
41.4708370655
 30
0.0
 10
11.7882236389
 20
42.8400834174
 30
0.0
 10
11.6265142786
 20
43.5239621039
 30
0.0
  0
SPLINE
  5
3E7
100
AcDbEntity
  8
0
100
AcDbSpline
 62
7
  6
CONTINUOUS
 70
0
 71
3
 72
9
 73
5
 74
0
 42
0.0000001
 43
0.0000001
 44
0.0000000001
 40
0.0
 40
0.0
 40
0.0
 40
0.0
 40
0.25252993
 40
1.0
 40
1.0
 40
1.0
 40
1.0
 10
44.153561638
 20
24.7448874116
 30
0.0
 10
43.5706184237
 20
24.7908306568
 30
0.0
 10
41.2648121583
 20
25.004080302
 30
0.0
 10
38.9703730282
 20
25.3428892388
 30
0.0
 10
37.2707547858
 20
25.6700505859
 30
0.0
  0
SPLINE
  5
3E8
100
AcDbEntity
  8
0
100
AcDbSpline
 62
7
  6
CONTINUOUS
 70
0
 71
3
 72
10
 73
6
 74
0
 42
0.0000001
 43
0.0000001
 44
0.0000000001
 40
0.0
 40
0.0
 40
0.0
 40
0.0
 40
0.5152566437
 40
0.7619431339
 40
1.0
 40
1.0
 40
1.0
 40
1.0
 10
35.7773147988
 20
20.7661110446
 30
0.0
 10
33.7678193927
 20
21.2069058882
 30
0.0
 10
30.8262144046
 20
22.0175357871
 30
0.0
 10
27.0887615134
 20
23.4274036762
 30
0.0
 10
25.3241414014
 20
24.2268907284
 30
0.0
 10
24.4728697948
 20
24.6497074824
 30
0.0
  0
SPLINE
  5
3E9
100
AcDbEntity
  8
0
100
AcDbSpline
 62
7
  6
CONTINUOUS
 70
0
 71
3
 72
10
 73
6
 74
0
 42
0.0000001
 43
0.0000001
 44
0.0000000001
 40
0.0
 40
0.0
 40
0.0
 40
0.0
 40
0.2681414775
 40
0.5239958948
 40
1.0
 40
1.0
 40
1.0
 40
1.0
 10
20.0496034173
 20
27.2445372022
 30
0.0
 10
19.39220329
 20
27.7002495292
 30
0.0
 10
18.1407405349
 20
28.6410477722
 30
0.0
 10
15.9180550037
 20
30.6329695521
 30
0.0
 10
14.4961140209
 20
32.3170521543
 30
0.0
 10
13.7154913742
 20
33.5032225857
 30
0.0
  0
SPLINE
  5
3EA
100
AcDbEntity
  8
0
100
AcDbSpline
 62
7
  6
CONTINUOUS
 70
0
 71
3
 72
9
 73
5
 74
0
 42
0.0000001
 43
0.0000001
 44
0.0000000001
 40
0.0
 40
0.0
 40
0.0
 40
0.0
 40
0.4975830823
 40
1.0
 40
1.0
 40
1.0
 40
1.0
 10
87.3287203716
 20
47.0183584594
 30
0.0
 10
87.33703455
 20
47.5888459163
 30
0.0
 10
87.3246474641
 20
48.7358939537
 30
0.0
 10
87.2618146625
 20
49.881220202
 30
0.0
 10
87.2172198829
 20
50.4555822844
 30
0.0
  0
SPLINE
  5
3EB
100
AcDbEntity
  8
0
100
AcDbSpline
 62
7
  6
CONTINUOUS
 70
0
 71
3
 72
9
 73
5
 74
0
 42
0.0000001
 43
0.0000001
 44
0.0000000001
 40
0.0
 40
0.0
 40
0.0
 40
0.0
 40
0.2554199851
 40
1.0
 40
1.0
 40
1.0
 40
1.0
 10
25.938218365
 20
30.1906851362
 30
0.0
 10
25.6219835816
 20
30.3308324147
 30
0.0
 10
24.3905275412
 20
30.8943172528
 30
0.0
 10
23.1862875494
 20
31.5178476911
 30
0.0
 10
22.3108121368
 20
32.0181308286
 30
0.0
  0
LINE
  5
3EC
100
AcDbEntity
  8
0
100
AcDbLine
 62
7
  6
CONTINUOUS
 10
24.6735466935
 20
24.9697411393
 11
24.4728697948
 21
24.6497074824
  0
SPLINE
  5
3ED
100
AcDbEntity
  8
0
100
AcDbSpline
 62
7
  6
CONTINUOUS
 70
0
 71
3
 72
9
 73
5
 74
0
 42
0.0000001
 43
0.0000001
 44
0.0000000001
 40
0.0
 40
0.0
 40
0.0
 40
0.0
 40
0.4877824726
 40
1.0
 40
1.0
 40
1.0
 40
1.0
 10
26.1510468624
 20
30.5582516611
 30
0.0
 10
27.6566209446
 20
29.8924517953
 30
0.0
 10
30.8224966598
 20
28.7026952004
 30
0.0
 10
34.088774519
 20
27.8318222817
 30
0.0
 10
35.7773147988
 20
27.4614308651
 30
0.0
  0
SPLINE
  5
3EE
100
AcDbEntity
  8
0
100
AcDbSpline
 62
7
  6
CONTINUOUS
 70
0
 71
3
 72
9
 73
5
 74
0
 42
0.0000001
 43
0.0000001
 44
0.0000000001
 40
0.0
 40
0.0
 40
0.0
 40
0.0
 40
0.5122694284
 40
1.0
 40
1.0
 40
1.0
 40
1.0
 10
36.0101696642
 20
27.5958688819
 30
0.0
 10
34.3181207546
 20
27.9630396585
 30
0.0
 10
31.0452322135
 20
28.8288629228
 30
0.0
 10
27.8730714257
 20
30.0164628129
 30
0.0
 10
26.3648898234
 20
30.6819732607
 30
0.0
  0
SPLINE
  5
3EF
100
AcDbEntity
  8
0
100
AcDbSpline
 62
7
  6
CONTINUOUS
 70
0
 71
3
 72
9
 73
5
 74
0
 42
0.0000001
 43
0.0000001
 44
0.0000000001
 40
0.0
 40
0.0
 40
0.0
 40
0.0
 40
0.4927496778
 40
1.0
 40
1.0
 40
1.0
 40
1.0
 10
11.9149672875
 20
43.610160274
 30
0.0
 10
12.0760199933
 20
43.1216073863
 30
0.0
 10
12.4577224196
 20
42.1475168136
 30
0.0
 10
12.937683886
 20
41.2182587628
 30
0.0
 10
13.2028018288
 20
40.7598505025
 30
0.0
  0
SPLINE
  5
3F0
100
AcDbEntity
  8
0
100
AcDbSpline
 62
7
  6
CONTINUOUS
 70
0
 71
3
 72
9
 73
5
 74
0
 42
0.0000001
 43
0.0000001
 44
0.0000000001
 40
0.0
 40
0.0
 40
0.0
 40
0.0
 40
0.5092303532
 40
1.0
 40
1.0
 40
1.0
 40
1.0
 10
13.4402374432
 20
40.8969331999
 30
0.0
 10
13.0783847424
 20
41.5309788516
 30
0.0
 10
12.4497587428
 20
42.8253517111
 30
0.0
 10
12.0197813053
 20
44.19973954
 30
0.0
 10
11.8640542684
 20
44.8858586905
 30
0.0
  0
LINE
  5
3F1
100
AcDbEntity
  8
0
100
AcDbLine
 62
7
  6
CONTINUOUS
 10
25.938218365
 20
34.1098967384
 11
26.0808624612
 21
34.3555523375
  0
SPLINE
  5
3F2
100
AcDbEntity
  8
0
100
AcDbSpline
 62
7
  6
CONTINUOUS
 70
0
 71
3
 72
9
 73
5
 74
0
 42
0.0000001
 43
0.0000001
 44
0.0000000001
 40
0.0
 40
0.0
 40
0.0
 40
0.0
 40
0.4836890834
 40
1.0
 40
1.0
 40
1.0
 40
1.0
 10
18.8671211136
 20
38.1923042836
 30
0.0
 10
19.9208894286
 20
37.3997501317
 30
0.0
 10
22.2105950768
 20
35.9061789354
 30
0.0
 10
24.6514446693
 20
34.6801623797
 30
0.0
 10
25.938218365
 20
34.1098967384
 30
0.0
  0
SPLINE
  5
3F3
100
AcDbEntity
  8
0
100
AcDbSpline
 62
7
  6
CONTINUOUS
 70
0
 71
3
 72
9
 73
5
 74
0
 42
0.0000001
 43
0.0000001
 44
0.0000000001
 40
0.0
 40
0.0
 40
0.0
 40
0.0
 40
0.2472083233
 40
1.0
 40
1.0
 40
1.0
 40
1.0
 10
37.2445324831
 20
26.8796648547
 30
0.0
 10
37.806375481
 20
26.7713579989
 30
0.0
 10
40.0853649824
 20
26.3660981828
 30
0.0
 10
42.3871415574
 20
26.0902082223
 30
0.0
 10
44.1241094144
 20
25.9526368314
 30
0.0
  0
SPLINE
  5
3F4
100
AcDbEntity
  8
0
100
AcDbSpline
 62
7
  6
CONTINUOUS
 70
0
 71
3
 72
9
 73
5
 74
0
 42
0.0000001
 43
0.0000001
 44
0.0000000001
 40
0.0
 40
0.0
 40
0.0
 40
0.0
 40
0.2524554365
 40
1.0
 40
1.0
 40
1.0
 40
1.0
 10
44.1171190325
 20
26.1281002485
 30
0.0
 10
43.5554130694
 20
26.173011932
 30
0.0
 10
41.3329092168
 20
26.3802113636
 30
0.0
 10
39.1211475215
 20
26.704936185
 30
0.0
 10
37.4819680977
 20
27.0167475523
 30
0.0
  0
SPLINE
  5
3F5
100
AcDbEntity
  8
0
100
AcDbSpline
 62
7
  6
CONTINUOUS
 70
0
 71
3
 72
9
 73
5
 74
0
 42
0.0000001
 43
0.0000001
 44
0.0000000001
 40
0.0
 40
0.0
 40
0.0
 40
0.0
 40
0.4836034967
 40
1.0
 40
1.0
 40
1.0
 40
1.0
 10
19.0097652098
 20
38.4379598828
 30
0.0
 10
20.0628214685
 20
37.6448103851
 30
0.0
 10
22.3522333052
 20
36.1505417405
 30
0.0
 10
24.7935524523
 20
34.9252422171
 30
0.0
 10
26.0808624612
 20
34.3555523375
 30
0.0
  0
SPLINE
  5
3F6
100
AcDbEntity
  8
0
100
AcDbSpline
 62
7
  6
CONTINUOUS
 70
0
 71
3
 72
9
 73
5
 74
0
 42
0.0000001
 43
0.0000001
 44
0.0000000001
 40
0.0
 40
0.0
 40
0.0
 40
0.0
 40
0.5164721927
 40
1.0
 40
1.0
 40
1.0
 40
1.0
 10
26.205660127
 20
34.4276038704
 30
0.0
 10
24.9178763272
 20
34.9967851766
 30
0.0
 10
22.4761410646
 20
36.2214492402
 30
0.0
 10
20.1869893412
 20
37.7163360046
 30
0.0
 10
19.1345628814
 20
38.5100114108
 30
0.0
  0
SPLINE
  5
3F7
100
AcDbEntity
  8
0
100
AcDbSpline
 62
7
  6
CONTINUOUS
 70
0
 71
3
 72
9
 73
5
 74
0
 42
0.0000001
 43
0.0000001
 44
0.0000000001
 40
0.0
 40
0.0
 40
0.0
 40
0.0
 40
0.5062113185
 40
1.0
 40
1.0
 40
1.0
 40
1.0
 10
11.5569885965
 20
47.1170646681
 30
0.0
 10
11.5616866482
 20
46.9688213423
 30
0.0
 10
11.607055839
 20
46.675215653
 30
0.0
 10
11.7334337229
 20
46.4062241714
 30
0.0
 10
11.8112028039
 20
46.2842254602
 30
0.0
  0
SPLINE
  5
3F8
100
AcDbEntity
  8
0
100
AcDbSpline
 62
7
  6
CONTINUOUS
 70
0
 71
3
 72
9
 73
5
 74
0
 42
0.0000001
 43
0.0000001
 44
0.0000000001
 40
0.0
 40
0.0
 40
0.0
 40
0.0
 40
0.2502653186
 40
1.0
 40
1.0
 40
1.0
 40
1.0
 10
22.7926908731
 20
21.760433327
 30
0.0
 10
22.9411766722
 20
21.9962458576
 30
0.0
 10
23.5342587484
 20
22.9386417166
 30
0.0
 10
24.126606204
 20
23.8814998763
 30
0.0
 10
24.5703023826
 20
24.5886487294
 30
0.0
  0
SPLINE
  5
3F9
100
AcDbEntity
  8
0
100
AcDbSpline
 62
7
  6
CONTINUOUS
 70
0
 71
3
 72
14
 73
10
 74
0
 42
0.0000001
 43
0.0000001
 44
0.0000000001
 40
0.0
 40
0.0
 40
0.0
 40
0.0
 40
0.1450398752
 40
0.2854480397
 40
0.4204292938
 40
0.5494165201
 40
0.6719750626
 40
0.787895828
 40
1.0
 40
1.0
 40
1.0
 40
1.0
 10
35.2717302958
 20
21.450426902
 30
0.0
 10
34.0947780511
 20
21.7219146663
 30
0.0
 10
31.794684659
 20
22.3303531765
 30
0.0
 10
28.4764265697
 20
23.4561340795
 30
0.0
 10
25.3725243475
 20
24.77110213
 30
0.0
 10
22.5153777204
 20
26.2612499882
 30
0.0
 10
19.9329963809
 20
27.9132301986
 30
0.0
 10
16.9831745877
 20
30.2360497514
 30
0.0
 10
15.1091008307
 20
32.2738107141
 30
0.0
 10
14.1151468634
 20
33.7339694673
 30
0.0
  0
SPLINE
  5
3FA
100
AcDbEntity
  8
0
100
AcDbSpline
 62
7
  6
CONTINUOUS
 70
0
 71
3
 72
9
 73
5
 74
0
 42
0.0000001
 43
0.0000001
 44
0.0000000001
 40
0.0
 40
0.0
 40
0.0
 40
0.0
 40
0.5020034476
 40
1.0
 40
1.0
 40
1.0
 40
1.0
 10
44.3380475816
 20
27.5050542348
 30
0.0
 10
45.2233153666
 20
27.0924293556
 30
0.0
 10
47.0079755039
 20
26.3151350055
 30
0.0
 10
48.8317841598
 20
25.6342404862
 30
0.0
 10
49.7489495455
 20
25.3218334621
 30
0.0
  0
SPLINE
  5
3FB
100
AcDbEntity
  8
0
100
AcDbSpline
 62
7
  6
CONTINUOUS
 70
0
 71
3
 72
10
 73
6
 74
0
 42
0.0000001
 43
0.0000001
 44
0.0000000001
 40
0.0
 40
0.0
 40
0.0
 40
0.0
 40
0.2329173679
 40
0.6030903284
 40
1.0
 40
1.0
 40
1.0
 40
1.0
 10
13.9241579232
 20
33.6237026094
 30
0.0
 10
14.3130546298
 20
33.0571225905
 30
0.0
 10
15.4038349159
 20
31.6464823314
 30
0.0
 10
17.4983510794
 20
29.5542862771
 30
0.0
 10
19.3005319246
 20
28.1745887674
 30
0.0
 10
20.268313661
 20
27.5152184636
 30
0.0
  0
SPLINE
  5
3FC
100
AcDbEntity
  8
0
100
AcDbSpline
 62
7
  6
CONTINUOUS
 70
0
 71
3
 72
9
 73
5
 74
0
 42
0.0000001
 43
0.0000001
 44
0.0000000001
 40
0.0
 40
0.0
 40
0.0
 40
0.0
 40
0.4854338222
 40
1.0
 40
1.0
 40
1.0
 40
1.0
 10
24.6735362034
 20
24.9697337619
 30
0.0
 10
26.3070714949
 20
24.169174533
 30
0.0
 10
29.7850813822
 20
22.7451910111
 30
0.0
 10
33.3991099816
 20
21.7248943113
 30
0.0
 10
35.2788716226
 20
21.2948318229
 30
0.0
  0
SPLINE
  5
3FD
100
AcDbEntity
  8
0
100
AcDbSpline
 62
7
  6
CONTINUOUS
 70
0
 71
3
 72
19
 73
15
 74
0
 42
0.0000001
 43
0.0000001
 44
0.0000000001
 40
0.0
 40
0.0
 40
0.0
 40
0.0
 40
0.1555665201
 40
0.3039129454
 40
0.4434214086
 40
0.5095280078
 40
0.5730690674
 40
0.6923260685
 40
0.7482784753
 40
0.801952606
 40
0.8535992071
 40
0.9035445933
 40
0.952190414
 40
1.0
 40
1.0
 40
1.0
 40
1.0
 10
61.6664953693
 20
31.2467410326
 30
0.0
 10
63.4174452835
 20
31.5948254753
 30
0.0
 10
66.8100143174
 20
32.4301753265
 30
0.0
 10
71.6135141651
 20
34.1349003844
 30
0.0
 10
75.2772742012
 20
35.9133931694
 30
0.0
 10
77.9137572227
 20
37.5269802461
 30
0.0
 10
80.242337238
 20
39.1834985037
 30
0.0
 10
82.298655228
 20
41.0161977579
 30
0.0
 10
84.0071741043
 20
43.0155186747
 30
0.0
 10
85.0694662722
 20
44.5349212749
 30
0.0
 10
85.933427719
 20
46.0972109601
 30
0.0
 10
86.5934697315
 20
47.6942422071
 30
0.0
 10
87.045422319
 20
49.3165369111
 30
0.0
 10
87.206604739
 20
50.4152164758
 30
0.0
 10
87.2510003748
 20
50.9620593425
 30
0.0
  0
SPLINE
  5
3FE
100
AcDbEntity
  8
0
100
AcDbSpline
 62
7
  6
CONTINUOUS
 70
0
 71
3
 72
9
 73
5
 74
0
 42
0.0000001
 43
0.0000001
 44
0.0000000001
 40
0.0
 40
0.0
 40
0.0
 40
0.0
 40
0.2368783835
 40
1.0
 40
1.0
 40
1.0
 40
1.0
 10
14.0930357861
 20
39.6473832076
 30
0.0
 10
14.4045024628
 20
39.2100336856
 30
0.0
 10
15.799314089
 20
37.420772258
 30
0.0
 10
17.4831149574
 20
35.8671920632
 30
0.0
 10
18.8541339363
 20
34.8125364839
 30
0.0
  0
SPLINE
  5
3FF
100
AcDbEntity
  8
0
100
AcDbSpline
 62
7
  6
CONTINUOUS
 70
0
 71
3
 72
9
 73
5
 74
0
 42
0.0000001
 43
0.0000001
 44
0.0000000001
 40
0.0
 40
0.0
 40
0.0
 40
0.0
 40
0.5195837548
 40
1.0
 40
1.0
 40
1.0
 40
1.0
 10
18.8435582275
 20
35.1115857353
 30
0.0
 10
17.8663944834
 20
35.8809857521
 30
0.0
 10
16.0807900725
 20
37.489374387
 30
0.0
 10
14.5757575749
 20
39.369256813
 30
0.0
 10
13.9483462397
 20
40.3329804229
 30
0.0
  0
SPLINE
  5
400
100
AcDbEntity
  8
0
100
AcDbSpline
 62
7
  6
CONTINUOUS
 70
0
 71
3
 72
15
 73
11
 74
0
 42
0.0000001
 43
0.0000001
 44
0.0000000001
 40
0.0
 40
0.0
 40
0.0
 40
0.0
 40
0.1296856359
 40
0.2558841044
 40
0.3795786283
 40
0.5018660808
 40
0.6239063393
 40
0.7468714858
 40
0.8718912745
 40
1.0
 40
1.0
 40
1.0
 40
1.0
 10
14.2765262599
 20
59.3222397884
 30
0.0
 10
14.0358230298
 20
58.8611393394
 30
0.0
 10
13.6068422784
 20
57.926279272
 30
0.0
 10
13.1263690628
 20
56.4783973786
 30
0.0
 10
12.8219001984
 20
55.0134857335
 30
0.0
 10
12.6950281985
 20
53.5393074981
 30
0.0
 10
12.7469014454
 20
52.0634948068
 30
0.0
 10
12.9768365362
 20
50.5937328248
 30
0.0
 10
13.3836959296
 20
49.13788064
 30
0.0
 10
13.7656684877
 20
48.1946654562
 30
0.0
 10
13.98318437
 20
47.7291560852
 30
0.0
  0
SPLINE
  5
401
100
AcDbEntity
  8
0
100
AcDbSpline
 62
7
  6
CONTINUOUS
 70
0
 71
3
 72
23
 73
19
 74
0
 42
0.0000001
 43
0.0000001
 44
0.0000000001
 40
0.0
 40
0.0
 40
0.0
 40
0.0
 40
0.0456406847
 40
0.0938622173
 40
0.144933566
 40
0.1989774376
 40
0.2559892432
 40
0.3158559044
 40
0.3783734138
 40
0.4432639773
 40
0.510190066
 40
0.5787662542
 40
0.648570118
 40
0.7191553688
 40
0.7900588236
 40
0.8608057247
 40
0.9309476215
 40
1.0
 40
1.0
 40
1.0
 40
1.0
 10
14.4204104613
 20
46.8668816058
 30
0.0
 10
14.7961520248
 20
46.180383336
 30
0.0
 10
15.6757209284
 20
44.8251208914
 30
0.0
 10
17.2947784804
 20
42.9318683455
 30
0.0
 10
19.2296488303
 20
41.1435452524
 30
0.0
 10
21.4604852183
 20
39.4772300961
 30
0.0
 10
23.9653701267
 20
37.9482704381
 30
0.0
 10
26.7197339356
 20
36.5712250529
 30
0.0
 10
29.6965657915
 20
35.3592200309
 30
0.0
 10
32.8666616006
 20
34.3239867961
 30
0.0
 10
36.1988814348
 20
33.4756625895
 30
0.0
 10
39.6604031644
 20
32.8225861414
 30
0.0
 10
43.2170815321
 20
32.3711113187
 30
0.0
 10
46.8338268126
 20
32.1257184399
 30
0.0
 10
50.474831994
 20
32.0888938388
 30
0.0
 10
54.1044030059
 20
32.2608745782
 30
0.0
 10
57.6861877743
 20
32.6401507636
 30
0.0
 10
60.0422547253
 20
33.032423891
 30
0.0
 10
61.2035680404
 20
33.2632900596
 30
0.0
  0
SPLINE
  5
402
100
AcDbEntity
  8
0
100
AcDbSpline
 62
7
  6
CONTINUOUS
 70
0
 71
3
 72
15
 73
11
 74
0
 42
0.0000001
 43
0.0000001
 44
0.0000000001
 40
0.0
 40
0.0
 40
0.0
 40
0.0
 40
0.1469757326
 40
0.2886135764
 40
0.4241955254
 40
0.5531337252
 40
0.6750813673
 40
0.7899698026
 40
0.8980601601
 40
1.0
 40
1.0
 40
1.0
 40
1.0
 10
64.1712991456
 20
33.9382374908
 30
0.0
 10
65.3324198727
 20
34.2366649948
 30
0.0
 10
67.5936509147
 20
34.8998727452
 30
0.0
 10
70.8367702118
 20
36.1150158169
 30
0.0
 10
73.8408538386
 20
37.5209227693
 30
0.0
 10
76.5727758129
 20
39.1026312671
 30
0.0
 10
79.0023957384
 20
40.8431788277
 30
0.0
 10
81.1028930149
 20
42.7246026366
 30
0.0
 10
82.8500730129
 20
44.7268004014
 30
0.0
 10
83.7905368224
 20
46.1676544667
 30
0.0
 10
84.1881097654
 20
46.8979557971
 30
0.0
  0
LINE
  5
403
100
AcDbEntity
  8
0
100
AcDbLine
 62
7
  6
CONTINUOUS
 10
26.0808624612
 20
30.1097397685
 11
25.938218365
 21
30.1906851362
  0
SPLINE
  5
404
100
AcDbEntity
  8
0
100
AcDbSpline
 62
7
  6
CONTINUOUS
 70
0
 71
3
 72
9
 73
5
 74
0
 42
0.0000001
 43
0.0000001
 44
0.0000000001
 40
0.0
 40
0.0
 40
0.0
 40
0.0
 40
0.257323111
 40
1.0
 40
1.0
 40
1.0
 40
1.0
 10
11.2601763786
 20
47.014504763
 30
0.0
 10
11.261786126
 20
46.9652291998
 30
0.0
 10
11.2757309674
 20
46.7741141335
 30
0.0
 10
11.3208358874
 20
46.5848889369
 30
0.0
 10
11.3728277618
 20
46.4524343516
 30
0.0
  0
SPLINE
  5
405
100
AcDbEntity
  8
0
100
AcDbSpline
 62
7
  6
CONTINUOUS
 70
0
 71
3
 72
9
 73
5
 74
0
 42
0.0000001
 43
0.0000001
 44
0.0000000001
 40
0.0
 40
0.0
 40
0.0
 40
0.0
 40
0.248600996
 40
1.0
 40
1.0
 40
1.0
 40
1.0
 10
11.3728277618
 20
46.4524343516
 30
0.0
 10
11.3838952248
 20
46.4242388646
 30
0.0
 10
11.4317436467
 20
46.3121429512
 30
0.0
 10
11.4926413121
 20
46.205734907
 30
0.0
 10
11.5441040974
 20
46.130016819
 30
0.0
  0
SPLINE
  5
406
100
AcDbEntity
  8
0
100
AcDbSpline
 62
7
  6
CONTINUOUS
 70
0
 71
3
 72
9
 73
5
 74
0
 42
0.0000001
 43
0.0000001
 44
0.0000000001
 40
0.0
 40
0.0
 40
0.0
 40
0.0
 40
0.4877755814
 40
1.0
 40
1.0
 40
1.0
 40
1.0
 10
58.2541623048
 20
105.6441616309
 30
0.0
 10
58.086561371
 20
105.7223558165
 30
0.0
 10
57.7139277893
 20
105.821790588
 30
0.0
 10
57.3302998805
 20
105.8217494966
 30
0.0
 10
57.1377796634
 20
105.7961532932
 30
0.0
  0
SPLINE
  5
407
100
AcDbEntity
  8
0
100
AcDbSpline
 62
7
  6
CONTINUOUS
 70
0
 71
3
 72
11
 73
7
 74
0
 42
0.0000001
 43
0.0000001
 44
0.0000000001
 40
0.0
 40
0.0
 40
0.0
 40
0.0
 40
0.238363474
 40
0.481662911
 40
0.7343405452
 40
1.0
 40
1.0
 40
1.0
 40
1.0
 10
81.9957403209
 20
97.3202309461
 30
0.0
 10
81.9957221993
 20
96.6708590772
 30
0.0
 10
81.877255524
 20
95.3557909233
 30
0.0
 10
81.3487066955
 20
93.4165787216
 30
0.0
 10
80.4775919765
 20
91.5240255886
 30
0.0
 10
79.6980756749
 20
90.3398983602
 30
0.0
 10
79.2613698021
 20
89.7627683551
 30
0.0
  0
SPLINE
  5
408
100
AcDbEntity
  8
0
100
AcDbSpline
 62
7
  6
CONTINUOUS
 70
0
 71
3
 72
11
 73
7
 74
0
 42
0.0000001
 43
0.0000001
 44
0.0000000001
 40
0.0
 40
0.0
 40
0.0
 40
0.0
 40
0.223845754
 40
0.4598367677
 40
0.7173079833
 40
1.0
 40
1.0
 40
1.0
 40
1.0
 10
29.2920810822
 20
88.8681234461
 30
0.0
 10
29.2920938725
 20
88.8354194774
 30
0.0
 10
29.2818866553
 20
88.7678820808
 30
0.0
 10
29.2375681698
 20
88.6716419936
 30
0.0
 10
29.166281814
 20
88.5823183623
 30
0.0
 10
29.1056849283
 20
88.5310233827
 30
0.0
 10
29.072164708
 20
88.5068944865
 30
0.0
  0
SPLINE
  5
409
100
AcDbEntity
  8
0
100
AcDbSpline
 62
7
  6
CONTINUOUS
 70
0
 71
3
 72
15
 73
11
 74
0
 42
0.0000001
 43
0.0000001
 44
0.0000000001
 40
0.0
 40
0.0
 40
0.0
 40
0.0
 40
0.1121822506
 40
0.2258043368
 40
0.3422171329
 40
0.4626071403
 40
0.587940235
 40
0.7189799883
 40
0.8562710636
 40
1.0
 40
1.0
 40
1.0
 40
1.0
 10
82.2457152825
 20
103.9339005138
 30
0.0
 10
82.245713832
 20
104.4463627062
 30
0.0
 10
82.1731105154
 20
105.4792901798
 30
0.0
 10
81.8477217524
 20
107.0130588214
 30
0.0
 10
81.3087613367
 20
108.5252213569
 30
0.0
 10
80.5605059232
 20
110.0051250446
 30
0.0
 10
79.6088289174
 20
111.44344769
 30
0.0
 10
78.460292579
 20
112.8312824883
 30
0.0
 10
77.122894336
 20
114.1595779612
 30
0.0
 10
76.1342981473
 20
114.9813142282
 30
0.0
 10
75.6131555721
 20
115.3806840882
 30
0.0
  0
SPLINE
  5
40A
100
AcDbEntity
  8
0
100
AcDbSpline
 62
7
  6
CONTINUOUS
 70
0
 71
3
 72
15
 73
11
 74
0
 42
0.0000001
 43
0.0000001
 44
0.0000000001
 40
0.0
 40
0.0
 40
0.0
 40
0.0
 40
0.1079552901
 40
0.2180396201
 40
0.3320596209
 40
0.4515057536
 40
0.577479418
 40
0.7106959646
 40
0.8515558809
 40
1.0
 40
1.0
 40
1.0
 40
1.0
 10
82.2450500764
 20
102.9955260402
 30
0.0
 10
82.2381966131
 20
102.3764838897
 30
0.0
 10
82.1175327811
 20
101.1249284478
 30
0.0
 10
81.6214558908
 20
99.2782411176
 30
0.0
 10
80.8162284146
 20
97.4718922876
 30
0.0
 10
79.7119511167
 20
95.7238227866
 30
0.0
 10
78.3208498171
 20
94.0495433018
 30
0.0
 10
76.6567210865
 20
92.4636774352
 30
0.0
 10
74.7359331049
 20
90.9805810291
 30
0.0
 10
73.3322543808
 20
90.0914969331
 30
0.0
 10
72.5950342548
 20
89.6658652356
 30
0.0
  0
SPLINE
  5
40B
100
AcDbEntity
  8
0
100
AcDbSpline
 62
7
  6
CONTINUOUS
 70
0
 71
3
 72
10
 73
6
 74
0
 42
0.0000001
 43
0.0000001
 44
0.0000000001
 40
0.0
 40
0.0
 40
0.0
 40
0.0
 40
0.5295637135
 40
0.7691287319
 40
1.0
 40
1.0
 40
1.0
 40
1.0
 10
73.8374779186
 20
115.3443071461
 30
0.0
 10
73.791540513
 20
115.3863963471
 30
0.0
 10
73.7323094233
 20
115.4584710759
 30
0.0
 10
73.6904716175
 20
115.5693427976
 30
0.0
 10
73.6835900861
 20
115.6249202798
 30
0.0
 10
73.6835768282
 20
115.6520824946
 30
0.0
  0
SPLINE
  5
40C
100
AcDbEntity
  8
0
100
AcDbSpline
 62
7
  6
CONTINUOUS
 70
0
 71
3
 72
11
 73
7
 74
0
 42
0.0000001
 43
0.0000001
 44
0.0000000001
 40
0.0
 40
0.0
 40
0.0
 40
0.0
 40
0.266043556
 40
0.5285186825
 40
0.7770811523
 40
1.0
 40
1.0
 40
1.0
 40
1.0
 10
68.8488744494
 20
97.0714143298
 30
0.0
 10
68.5988018605
 20
97.211927099
 30
0.0
 10
68.1192065
 20
97.5229530303
 30
0.0
 10
67.4782674116
 20
98.0663375073
 30
0.0
 10
66.9491332395
 20
98.6581043172
 30
0.0
 10
66.67555682
 20
99.0913997503
 30
0.0
 10
66.5731216863
 20
99.3088267053
 30
0.0
  0
SPLINE
  5
40D
100
AcDbEntity
  8
0
100
AcDbSpline
 62
7
  6
CONTINUOUS
 70
0
 71
3
 72
12
 73
8
 74
0
 42
0.0000001
 43
0.0000001
 44
0.0000000001
 40
0.0
 40
0.0
 40
0.0
 40
0.0
 40
0.32914202
 40
0.6034490208
 40
0.7197785875
 40
0.8233205587
 40
1.0
 40
1.0
 40
1.0
 40
1.0
 10
55.8718344973
 20
106.2143197331
 30
0.0
 10
55.7764061879
 20
106.2694140468
 30
0.0
 10
55.6063994942
 20
106.3794544321
 30
0.0
 10
55.4241708574
 20
106.5394602583
 30
0.0
 10
55.3207345058
 20
106.6693408937
 30
0.0
 10
55.2534798608
 20
106.7838671896
 30
0.0
 10
55.2274574232
 20
106.8779519137
 30
0.0
 10
55.2274631653
 20
106.9371008347
 30
0.0
  0
SPLINE
  5
40E
100
AcDbEntity
  8
0
100
AcDbSpline
 62
7
  6
CONTINUOUS
 70
0
 71
3
 72
9
 73
5
 74
0
 42
0.0000001
 43
0.0000001
 44
0.0000000001
 40
0.0
 40
0.0
 40
0.0
 40
0.0
 40
0.5015186236
 40
1.0
 40
1.0
 40
1.0
 40
1.0
 10
37.3469015006
 20
104.648015675
 30
0.0
 10
37.1013987566
 20
104.7082974199
 30
0.0
 10
36.6111211045
 20
104.8253927234
 30
0.0
 10
36.1200195691
 20
104.9389959935
 30
0.0
 10
35.8748094112
 20
104.9938209171
 30
0.0
  0
LINE
  5
40F
100
AcDbEntity
  8
0
100
AcDbLine
 62
7
  6
CONTINUOUS
 10
42.8964268122
 20
107.9539850041
 11
42.8256980031
 21
107.9708298221
  0
SPLINE
  5
410
100
AcDbEntity
  8
0
100
AcDbSpline
 62
7
  6
CONTINUOUS
 70
0
 71
3
 72
11
 73
7
 74
0
 42
0.0000001
 43
0.0000001
 44
0.0000000001
 40
0.0
 40
0.0
 40
0.0
 40
0.0
 40
0.2662048825
 40
0.5190025357
 40
0.7620654851
 40
1.0
 40
1.0
 40
1.0
 40
1.0
 10
19.2165425058
 20
90.1846573988
 30
0.0
 10
18.7587477306
 20
90.7756686325
 30
0.0
 10
17.9411370872
 20
91.9893543058
 30
0.0
 10
17.0259572375
 20
93.9338925846
 30
0.0
 10
16.4704117345
 20
95.9287307684
 30
0.0
 10
16.3458170851
 20
97.2825840017
 30
0.0
 10
16.3458063006
 20
97.950769364
 30
0.0
  0
SPLINE
  5
411
100
AcDbEntity
  8
0
100
AcDbSpline
 62
7
  6
CONTINUOUS
 70
0
 71
3
 72
9
 73
5
 74
0
 42
0.0000001
 43
0.0000001
 44
0.0000000001
 40
0.0
 40
0.0
 40
0.0
 40
0.0
 40
0.2473553945
 40
1.0
 40
1.0
 40
1.0
 40
1.0
 10
24.9079607941
 20
91.3992161166
 30
0.0
 10
24.907965594
 20
91.3893822789
 30
0.0
 10
24.9062502059
 20
91.3496352067
 30
0.0
 10
24.8973225914
 20
91.3102743336
 30
0.0
 10
24.8872140283
 20
91.2821114624
 30
0.0
  0
SPLINE
  5
412
100
AcDbEntity
  8
0
100
AcDbSpline
 62
7
  6
CONTINUOUS
 70
0
 71
3
 72
9
 73
5
 74
0
 42
0.0000001
 43
0.0000001
 44
0.0000000001
 40
0.0
 40
0.0
 40
0.0
 40
0.0
 40
0.2450612234
 40
1.0
 40
1.0
 40
1.0
 40
1.0
 10
24.8872140283
 20
91.2821114624
 30
0.0
 10
24.8850911648
 20
91.2761970774
 30
0.0
 10
24.8758244311
 20
91.2522819179
 30
0.0
 10
24.8641959822
 20
91.2292981371
 30
0.0
 10
24.854343777
 20
91.2126347677
 30
0.0
  0
SPLINE
  5
413
100
AcDbEntity
  8
0
100
AcDbSpline
 62
7
  6
CONTINUOUS
 70
0
 71
3
 72
9
 73
5
 74
0
 42
0.0000001
 43
0.0000001
 44
0.0000000001
 40
0.0
 40
0.0
 40
0.0
 40
0.0
 40
0.2272887839
 40
1.0
 40
1.0
 40
1.0
 40
1.0
 10
24.854343777
 20
91.2126347677
 30
0.0
 10
24.8416865902
 20
91.1912272374
 30
0.0
 10
24.7779826118
 20
91.1017411393
 30
0.0
 10
24.6883319891
 20
91.0332492831
 30
0.0
 10
24.6151109844
 20
90.9909753687
 30
0.0
  0
SPLINE
  5
414
100
AcDbEntity
  8
0
100
AcDbSpline
 62
7
  6
CONTINUOUS
 70
0
 71
3
 72
12
 73
8
 74
0
 42
0.0000001
 43
0.0000001
 44
0.0000000001
 40
0.0
 40
0.0
 40
0.0
 40
0.0
 40
0.0733412107
 40
0.1650323564
 40
0.3950414836
 40
0.6762187817
 40
1.0
 40
1.0
 40
1.0
 40
1.0
 10
24.9080014054
 20
84.7436136399
 30
0.0
 10
24.9080039826
 20
84.7592071352
 30
0.0
 10
24.901827073
 20
84.794160007
 30
0.0
 10
24.8751446047
 20
84.8738407919
 30
0.0
 10
24.8180492447
 20
84.9891602885
 30
0.0
 10
24.7269126879
 20
85.1415037163
 30
0.0
 10
24.6547744699
 20
85.2481008264
 30
0.0
 10
24.6151109844
 20
85.3043670571
 30
0.0
  0
SPLINE
  5
415
100
AcDbEntity
  8
0
100
AcDbSpline
 62
7
  6
CONTINUOUS
 70
0
 71
3
 72
19
 73
15
 74
0
 42
0.0000001
 43
0.0000001
 44
0.0000000001
 40
0.0
 40
0.0
 40
0.0
 40
0.0
 40
0.0328096438
 40
0.0669015511
 40
0.1051390678
 40
0.1492133659
 40
0.1998131607
 40
0.2569686483
 40
0.3202991783
 40
0.3891278674
 40
0.5395262009
 40
0.6992962203
 40
0.8570774178
 40
1.0
 40
1.0
 40
1.0
 40
1.0
 10
59.6274001092
 20
106.1946053745
 30
0.0
 10
59.627419902
 20
106.1494705337
 30
0.0
 10
59.6107558305
 20
106.0564456402
 30
0.0
 10
59.5340829559
 20
105.9306744843
 30
0.0
 10
59.4129301979
 20
105.8232897632
 30
0.0
 10
59.2519779645
 20
105.7343253414
 30
0.0
 10
59.0544491212
 20
105.6643041399
 30
0.0
 10
58.8240185149
 20
105.6140704774
 30
0.0
 10
58.5648858544
 20
105.5845918315
 30
0.0
 10
58.1759789517
 20
105.5733852382
 30
0.0
 10
57.6547012977
 20
105.6165753557
 30
0.0
 10
57.0226083864
 20
105.7454053682
 30
0.0
 10
56.4188440615
 20
105.941018443
 30
0.0
 10
56.0421069466
 20
106.1160151126
 30
0.0
 10
55.8718344973
 20
106.2143197331
 30
0.0
  0
SPLINE
  5
416
100
AcDbEntity
  8
0
100
AcDbSpline
 62
7
  6
CONTINUOUS
 70
0
 71
3
 72
14
 73
10
 74
0
 42
0.0000001
 43
0.0000001
 44
0.0000000001
 40
0.0
 40
0.0
 40
0.0
 40
0.0
 40
0.1046394556
 40
0.2155545975
 40
0.3338631477
 40
0.4594669939
 40
0.5912645663
 40
0.7272435955
 40
1.0
 40
1.0
 40
1.0
 40
1.0
 10
43.3640755585
 20
97.5474843772
 30
0.0
 10
43.3640693535
 20
97.4221618633
 30
0.0
 10
43.3257230148
 20
97.1630269958
 30
0.0
 10
43.1680150871
 20
96.7918059462
 30
0.0
 10
42.9189054613
 20
96.4437590655
 30
0.0
 10
42.5900949768
 20
96.1330463663
 30
0.0
 10
42.1950900523
 20
95.8719640193
 30
0.0
 10
41.6035206648
 20
95.6049716862
 30
0.0
 10
41.1122787179
 20
95.5089060646
 30
0.0
 10
40.7857165162
 20
95.5005341586
 30
0.0
  0
SPLINE
  5
417
100
AcDbEntity
  8
0
100
AcDbSpline
 62
7
  6
CONTINUOUS
 70
0
 71
3
 72
9
 73
5
 74
0
 42
0.0000001
 43
0.0000001
 44
0.0000000001
 40
0.0
 40
0.0
 40
0.0
 40
0.0
 40
0.2387068466
 40
1.0
 40
1.0
 40
1.0
 40
1.0
 10
66.8190267741
 20
99.066225365
 30
0.0
 10
66.819025451
 20
99.0501265546
 30
0.0
 10
66.8207987497
 20
98.98268683
 30
0.0
 10
66.8293250873
 20
98.9155049775
 30
0.0
 10
66.838680367
 20
98.8650215397
 30
0.0
  0
SPLINE
  5
418
100
AcDbEntity
  8
0
100
AcDbSpline
 62
7
  6
CONTINUOUS
 70
0
 71
3
 72
14
 73
10
 74
0
 42
0.0000001
 43
0.0000001
 44
0.0000000001
 40
0.0
 40
0.0
 40
0.0
 40
0.0
 40
0.101537014
 40
0.2140108157
 40
0.3357786215
 40
0.4646184172
 40
0.7331494464
 40
0.86814908
 40
1.0
 40
1.0
 40
1.0
 40
1.0
 10
72.5106320562
 20
99.1509234174
 30
0.0
 10
72.4442530169
 20
99.0201158011
 30
0.0
 10
72.2748504435
 20
98.7590107404
 30
0.0
 10
71.9475109892
 20
98.3989507888
 30
0.0
 10
71.5450831291
 20
98.0602543071
 30
0.0
 10
70.9174033059
 20
97.6475456838
 30
0.0
 10
70.2079142176
 20
97.3327419503
 30
0.0
 10
69.4596960864
 20
97.133052814
 30
0.0
 10
69.0774454173
 20
97.0751432706
 30
0.0
 10
68.8877075465
 20
97.0583536349
 30
0.0
  0
SPLINE
  5
419
100
AcDbEntity
  8
0
100
AcDbSpline
 62
7
  6
CONTINUOUS
 70
0
 71
3
 72
15
 73
11
 74
0
 42
0.0000001
 43
0.0000001
 44
0.0000000001
 40
0.0
 40
0.0
 40
0.0
 40
0.0
 40
0.1170755189
 40
0.2408004914
 40
0.369198999
 40
0.5000040781
 40
0.6308087396
 40
0.7592072952
 40
0.8829321907
 40
1.0
 40
1.0
 40
1.0
 40
1.0
 10
68.7027832364
 20
89.7186634093
 30
0.0
 10
67.2870807699
 20
89.07434658
 30
0.0
 10
64.2850441012
 20
87.941916814
 30
0.0
 10
59.5216447255
 20
86.7357660504
 30
0.0
 10
54.479157481
 20
85.9985524953
 30
0.0
 10
49.295613353
 20
85.750631649
 30
0.0
 10
44.1120693052
 20
85.9985995377
 30
0.0
 10
39.0695995695
 20
86.7358657581
 30
0.0
 10
34.3062922898
 20
87.9419956937
 30
0.0
 10
31.3043990793
 20
89.0744792704
 30
0.0
 10
29.888746062
 20
89.7186574747
 30
0.0
  0
SPLINE
  5
41A
100
AcDbEntity
  8
0
100
AcDbSpline
 62
7
  6
CONTINUOUS
 70
0
 71
3
 72
9
 73
5
 74
0
 42
0.0000001
 43
0.0000001
 44
0.0000000001
 40
0.0
 40
0.0
 40
0.0
 40
0.0
 40
0.2555528367
 40
1.0
 40
1.0
 40
1.0
 40
1.0
 10
40.2539208446
 20
96.2122108895
 30
0.0
 10
40.2353963241
 20
96.2020600686
 30
0.0
 10
40.1638296384
 20
96.1607028874
 30
0.0
 10
40.0961282592
 20
96.1124841358
 30
0.0
 10
40.0492476555
 20
96.072626064
 30
0.0
  0
SPLINE
  5
41B
100
AcDbEntity
  8
0
100
AcDbSpline
 62
7
  6
CONTINUOUS
 70
0
 71
3
 72
9
 73
5
 74
0
 42
0.0000001
 43
0.0000001
 44
0.0000000001
 40
0.0
 40
0.0
 40
0.0
 40
0.0
 40
0.2523891004
 40
1.0
 40
1.0
 40
1.0
 40
1.0
 10
40.0492476555
 20
96.072626064
 30
0.0
 10
40.0415470911
 20
96.0660790142
 30
0.0
 10
40.0114021117
 20
96.0397131525
 30
0.0
 10
39.982773404
 20
96.0116016414
 30
0.0
 10
39.9624374666
 20
95.9896278036
 30
0.0
  0
SPLINE
  5
41C
100
AcDbEntity
  8
0
100
AcDbSpline
 62
7
  6
CONTINUOUS
 70
0
 71
3
 72
15
 73
11
 74
0
 42
0.0000001
 43
0.0000001
 44
0.0000000001
 40
0.0
 40
0.0
 40
0.0
 40
0.0
 40
0.1080117435
 40
0.2180601085
 40
0.3319968604
 40
0.4513558309
 40
0.5772754073
 40
0.7104908837
 40
0.8514144422
 40
1.0
 40
1.0
 40
1.0
 40
1.0
 10
83.3957214044
 20
96.5853787555
 30
0.0
 10
83.3957230038
 20
95.9398283496
 30
0.0
 10
83.283630629
 20
94.6339344764
 30
0.0
 10
82.7832668421
 20
92.7050804834
 30
0.0
 10
81.9572822108
 20
90.8177856485
 30
0.0
 10
80.8162019708
 20
88.9911557106
 30
0.0
 10
79.3729043031
 20
87.2417347848
 30
0.0
 10
77.6420752033
 20
85.5849936463
 30
0.0
 10
75.6409944152
 20
84.0361515565
 30
0.0
 10
74.1772825464
 20
83.1083903688
 30
0.0
 10
73.4082104387
 20
82.6643690309
 30
0.0
  0
SPLINE
  5
41D
100
AcDbEntity
  8
0
100
AcDbSpline
 62
7
  6
CONTINUOUS
 70
0
 71
3
 72
11
 73
7
 74
0
 42
0.0000001
 43
0.0000001
 44
0.0000000001
 40
0.0
 40
0.0
 40
0.0
 40
0.0
 40
0.242124804
 40
0.4875248777
 40
0.7392579495
 40
1.0
 40
1.0
 40
1.0
 40
1.0
 10
84.2707234595
 20
96.585378732
 30
0.0
 10
84.2707059159
 20
97.144092503
 30
0.0
 10
84.1893568419
 20
98.2707059652
 30
0.0
 10
83.8247920614
 20
99.9426369112
 30
0.0
 10
83.2214175338
 20
101.5894258082
 30
0.0
 10
82.673992035
 20
102.6415997747
 30
0.0
 10
82.3658558464
 20
103.1583817089
 30
0.0
  0
SPLINE
  5
41E
100
AcDbEntity
  8
0
100
AcDbSpline
 62
7
  6
CONTINUOUS
 70
0
 71
3
 72
11
 73
7
 74
0
 42
0.0000001
 43
0.0000001
 44
0.0000000001
 40
0.0
 40
0.0
 40
0.0
 40
0.0
 40
0.2610459106
 40
0.512839995
 40
0.7581094114
 40
1.0
 40
1.0
 40
1.0
 40
1.0
 10
16.2851615833
 20
103.2573320784
 30
0.0
 10
15.9676482275
 20
102.7336711451
 30
0.0
 10
15.4033902297
 20
101.6669736898
 30
0.0
 10
14.7809726031
 20
99.9953653148
 30
0.0
 10
14.4047861476
 20
98.297399382
 30
0.0
 10
14.3207554837
 20
97.152842679
 30
0.0
 10
14.3207509039
 20
96.5853787389
 30
0.0
  0
SPLINE
  5
41F
100
AcDbEntity
  8
0
100
AcDbSpline
 62
7
  6
CONTINUOUS
 70
0
 71
3
 72
9
 73
5
 74
0
 42
0.0000001
 43
0.0000001
 44
0.0000000001
 40
0.0
 40
0.0
 40
0.0
 40
0.0
 40
0.4892801212
 40
1.0
 40
1.0
 40
1.0
 40
1.0
 10
13.7117716624
 20
89.6557715695
 30
0.0
 10
13.8935543223
 20
89.2060941663
 30
0.0
 10
14.3266954866
 20
88.3110639015
 30
0.0
 10
14.8642283071
 20
87.4752792313
 30
0.0
 10
15.1605505254
 20
87.0647712503
 30
0.0
  0
SPLINE
  5
420
100
AcDbEntity
  8
0
100
AcDbSpline
 62
7
  6
CONTINUOUS
 70
0
 71
3
 72
11
 73
7
 74
0
 42
0.0000001
 43
0.0000001
 44
0.0000000001
 40
0.0
 40
0.0
 40
0.0
 40
0.0
 40
0.2522621855
 40
0.4980859182
 40
0.7451812261
 40
1.0
 40
1.0
 40
1.0
 40
1.0
 10
38.3265299277
 20
38.7312460645
 30
0.0
 10
38.3265299277
 20
38.7872923403
 30
0.0
 10
38.3409531816
 20
38.8986683065
 30
0.0
 10
38.4082806247
 20
39.0522955035
 30
0.0
 10
38.5154046977
 20
39.1817919712
 30
0.0
 10
38.6065546251
 20
39.2480362403
 30
0.0
 10
38.6555832308
 20
39.2763447743
 30
0.0
  0
SPLINE
  5
421
100
AcDbEntity
  8
0
100
AcDbSpline
 62
7
  6
CONTINUOUS
 70
0
 71
3
 72
14
 73
10
 74
0
 42
0.0000001
 43
0.0000001
 44
0.0000000001
 40
0.0
 40
0.0
 40
0.0
 40
0.0
 40
0.1134998281
 40
0.2368351509
 40
0.3675267886
 40
0.5014257613
 40
0.6347075693
 40
0.7641703897
 40
1.0
 40
1.0
 40
1.0
 40
1.0
 10
40.1800132204
 20
38.4133186316
 30
0.0
 10
40.1800132204
 20
38.4718978467
 30
0.0
 10
40.1514081496
 20
38.594758802
 30
0.0
 10
40.0457220086
 20
38.7554839203
 30
0.0
 10
39.894655794
 20
38.8897475525
 30
0.0
 10
39.7144325805
 20
38.9908631594
 30
0.0
 10
39.5184157862
 20
39.0551503406
 30
0.0
 10
39.2630668603
 20
39.087554536
 30
0.0
 10
39.0660099124
 20
39.0514184733
 30
0.0
 10
38.9605992081
 20
38.9905637258
 30
0.0
  0
SPLINE
  5
422
100
AcDbEntity
  8
0
100
AcDbSpline
 62
7
  6
CONTINUOUS
 70
0
 71
3
 72
16
 73
12
 74
0
 42
0.0000001
 43
0.0000001
 44
0.0000000001
 40
0.0
 40
0.0
 40
0.0
 40
0.0
 40
0.1288046635
 40
0.2705934987
 40
0.4180175482
 40
0.5628502272
 40
0.6970282294
 40
0.8145052725
 40
0.9134810565
 40
0.9576685065
 40
1.0
 40
1.0
 40
1.0
 40
1.0
 10
24.8886516721
 20
43.3019017836
 30
0.0
 10
24.8886516721
 20
43.3659180941
 30
0.0
 10
24.8703129355
 20
43.500560887
 30
0.0
 10
24.8020424605
 20
43.6978540228
 30
0.0
 10
24.6971194777
 20
43.8875360573
 30
0.0
 10
24.5647195987
 20
44.0543177131
 30
0.0
 10
24.4155407341
 20
44.1850541544
 30
0.0
 10
24.2614373499
 20
44.2697768989
 30
0.0
 10
24.1310974372
 20
44.2961447951
 30
0.0
 10
24.0390030282
 20
44.2830973092
 30
0.0
 10
23.9987437337
 20
44.2664634846
 30
0.0
 10
23.9805158724
 20
44.2559573151
 30
0.0
  0
SPLINE
  5
423
100
AcDbEntity
  8
0
100
AcDbSpline
 62
7
  6
CONTINUOUS
 70
0
 71
3
 72
11
 73
7
 74
0
 42
0.0000001
 43
0.0000001
 44
0.0000000001
 40
0.0
 40
0.0
 40
0.0
 40
0.0
 40
0.2922068937
 40
0.5526375416
 40
0.7846968528
 40
1.0
 40
1.0
 40
1.0
 40
1.0
 10
23.5527633582
 20
44.0819586946
 30
0.0
 10
23.5527633582
 20
44.1400850495
 30
0.0
 10
23.5612816886
 20
44.2503647559
 30
0.0
 10
23.6045127775
 20
44.4017395395
 30
0.0
 10
23.6777680827
 20
44.5242676558
 30
0.0
 10
23.7472465943
 20
44.5831384653
 30
0.0
 10
23.7843360769
 20
44.6045546257
 30
0.0
  0
SPLINE
  5
424
100
AcDbEntity
  8
0
100
AcDbSpline
 62
7
  6
CONTINUOUS
 70
0
 71
3
 72
10
 73
6
 74
0
 42
0.0000001
 43
0.0000001
 44
0.0000000001
 40
0.0
 40
0.0
 40
0.0
 40
0.0
 40
0.511667281
 40
0.7596838622
 40
1.0
 40
1.0
 40
1.0
 40
1.0
 10
24.9004998936
 20
113.5944835412
 30
0.0
 10
25.9802790846
 20
111.9699595769
 30
0.0
 10
27.7355928241
 20
109.6526106095
 30
0.0
 10
30.335406099
 20
106.8614917723
 30
0.0
 10
31.6993371362
 20
105.5912633675
 30
0.0
 10
32.3934201534
 20
104.9932640552
 30
0.0
  0
SPLINE
  5
425
100
AcDbEntity
  8
0
100
AcDbSpline
 62
7
  6
CONTINUOUS
 70
0
 71
3
 72
9
 73
5
 74
0
 42
0.0000001
 43
0.0000001
 44
0.0000000001
 40
0.0
 40
0.0
 40
0.0
 40
0.0
 40
0.4833293841
 40
1.0
 40
1.0
 40
1.0
 40
1.0
 10
64.0513090323
 20
88.5484285288
 30
0.0
 10
63.3436342326
 20
88.5349907393
 30
0.0
 10
61.8751025802
 20
88.6396582855
 30
0.0
 10
60.4429131362
 20
88.9701601805
 30
0.0
 10
59.7178917761
 20
89.1865635109
 30
0.0
  0
SPLINE
  5
426
100
AcDbEntity
  8
0
100
AcDbSpline
 62
7
  6
CONTINUOUS
 70
0
 71
3
 72
9
 73
5
 74
0
 42
0.0000001
 43
0.0000001
 44
0.0000000001
 40
0.0
 40
0.0
 40
0.0
 40
0.0
 40
0.2544942705
 40
1.0
 40
1.0
 40
1.0
 40
1.0
 10
67.3043740507
 20
90.2530107285
 30
0.0
 10
67.0345169578
 20
90.0972102906
 30
0.0
 10
65.9681532812
 20
89.4955025608
 30
0.0
 10
64.8774916957
 20
88.9365313603
 30
0.0
 10
64.0513090323
 20
88.5484285288
 30
0.0
  0
SPLINE
  5
427
100
AcDbEntity
  8
0
100
AcDbSpline
 62
7
  6
CONTINUOUS
 70
0
 71
3
 72
11
 73
7
 74
0
 42
0.0000001
 43
0.0000001
 44
0.0000000001
 40
0.0
 40
0.0
 40
0.0
 40
0.0
 40
0.3027157468
 40
0.5720113856
 40
0.8054377379
 40
1.0
 40
1.0
 40
1.0
 40
1.0
 10
29.072164708
 20
82.9320145447
 30
0.0
 10
29.1038750506
 20
82.883173256
 30
0.0
 10
29.1610073354
 20
82.7890283609
 30
0.0
 10
29.2305505803
 20
82.6502482813
 30
0.0
 10
29.2770263648
 20
82.5242450179
 30
0.0
 10
29.2920922444
 20
82.4421750172
 30
0.0
 10
29.2920831989
 20
82.4047477098
 30
0.0
  0
SPLINE
  5
428
100
AcDbEntity
  8
0
100
AcDbSpline
 62
7
  6
CONTINUOUS
 70
0
 71
3
 72
13
 73
9
 74
0
 42
0.0000001
 43
0.0000001
 44
0.0000000001
 40
0.0
 40
0.0
 40
0.0
 40
0.0
 40
0.1118888965
 40
0.2286635397
 40
0.349814156
 40
0.4748341791
 40
0.733802701
 40
1.0
 40
1.0
 40
1.0
 40
1.0
 10
72.5950342548
 20
89.6658652356
 30
0.0
 10
71.8448803313
 20
89.2327662512
 30
0.0
 10
70.274301764
 20
88.4114215108
 30
0.0
 10
67.7858966276
 20
87.3374606879
 30
0.0
 10
65.133585401
 20
86.4034912414
 30
0.0
 10
61.3669592624
 20
85.3437897135
 30
0.0
 10
56.4052887824
 20
84.4277074267
 30
0.0
 10
52.3407305819
 20
84.1380215971
 30
0.0
 10
50.28023737
 20
84.1024874621
 30
0.0
  0
SPLINE
  5
429
100
AcDbEntity
  8
0
100
AcDbSpline
 62
7
  6
CONTINUOUS
 70
0
 71
3
 72
11
 73
7
 74
0
 42
0.0000001
 43
0.0000001
 44
0.0000000001
 40
0.0
 40
0.0
 40
0.0
 40
0.0
 40
0.2568374725
 40
0.5111567396
 40
0.7598430135
 40
1.0
 40
1.0
 40
1.0
 40
1.0
 10
50.28023737
 20
84.1024874621
 30
0.0
 10
48.7736123352
 20
84.0765050337
 30
0.0
 10
45.7717443681
 20
84.1433168612
 30
0.0
 10
41.3322013451
 20
84.596728127
 30
0.0
 10
37.0407822762
 20
85.394648843
 30
0.0
 10
34.2727339166
 20
86.16295152
 30
0.0
 10
32.9348191131
 20
86.6047939272
 30
0.0
  0
LINE
  5
42A
100
AcDbEntity
  8
0
100
AcDbLine
 62
7
  6
CONTINUOUS
 10
24.8901901209
 20
91.152974401
 11
24.6138697159
 21
90.9929409802
  0
SPLINE
  5
42B
100
AcDbEntity
  8
0
100
AcDbSpline
 62
7
  6
CONTINUOUS
 70
0
 71
3
 72
15
 73
11
 74
0
 42
0.0000001
 43
0.0000001
 44
0.0000000001
 40
0.0
 40
0.0
 40
0.0
 40
0.0
 40
0.1485857411
 40
0.2895095186
 40
0.4227244114
 40
0.548643442
 40
0.668002464
 40
0.7819395645
 40
0.891987996
 40
1.0
 40
1.0
 40
1.0
 40
1.0
 10
25.9965033676
 20
117.3854333756
 30
0.0
 10
25.253367031
 20
116.9563859727
 30
0.0
 10
23.8390176595
 20
116.0599099966
 30
0.0
 10
21.9054228265
 20
114.5633034248
 30
0.0
 10
20.2329715584
 20
112.9624364947
 30
0.0
 10
18.8383517016
 20
111.2720196709
 30
0.0
 10
17.7357568857
 20
109.5069914742
 30
0.0
 10
16.9376237196
 20
107.6833442225
 30
0.0
 10
16.4541321797
 20
105.8195365069
 30
0.0
 10
16.3458205723
 20
104.5576814631
 30
0.0
 10
16.345822337
 20
103.9339005146
 30
0.0
  0
SPLINE
  5
42C
100
AcDbEntity
  8
0
100
AcDbSpline
 62
7
  6
CONTINUOUS
 70
0
 71
3
 72
11
 73
7
 74
0
 42
0.0000001
 43
0.0000001
 44
0.0000000001
 40
0.0
 40
0.0
 40
0.0
 40
0.0
 40
0.2441465027
 40
0.5068999474
 40
0.7659827033
 40
1.0
 40
1.0
 40
1.0
 40
1.0
 10
75.6131555721
 20
115.3806840882
 30
0.0
 10
75.461143757
 20
115.311382932
 30
0.0
 10
75.1240597161
 20
115.2134347371
 30
0.0
 10
74.5977374539
 20
115.1776552845
 30
0.0
 10
74.0817949113
 20
115.2471850683
 30
0.0
 10
73.7615664494
 20
115.3679537157
 30
0.0
 10
73.6228731356
 20
115.4479946743
 30
0.0
  0
SPLINE
  5
42D
100
AcDbEntity
  8
0
100
AcDbSpline
 62
7
  6
CONTINUOUS
 70
0
 71
3
 72
21
 73
17
 74
0
 42
0.0000001
 43
0.0000001
 44
0.0000000001
 40
0.0
 40
0.0
 40
0.0
 40
0.0
 40
0.0547968001
 40
0.1122942045
 40
0.1722358771
 40
0.2343471651
 40
0.2982778382
 40
0.363636532
 40
0.4968763923
 40
0.6305546765
 40
0.6964521862
 40
0.7611210848
 40
0.8241534394
 40
0.8851770403
 40
0.9438898021
 40
1.0
 40
1.0
 40
1.0
 40
1.0
 10
73.7012911257
 20
116.7148454317
 30
0.0
 10
72.9352357078
 20
117.2024393491
 30
0.0
 10
71.317572749
 20
118.1279917501
 30
0.0
 10
68.7288605926
 20
119.3366938403
 30
0.0
 10
65.9426386101
 20
120.3884544747
 30
0.0
 10
62.9877334063
 20
121.2726851864
 30
0.0
 10
59.8936388962
 20
121.9806482801
 30
0.0
 10
55.5979882814
 20
122.6841612258
 30
0.0
 10
50.092248227
 20
123.0797434996
 30
0.0
 10
44.5689152496
 20
122.8376068106
 30
0.0
 10
40.2264404996
 20
122.2561682985
 30
0.0
 10
37.0765602708
 20
121.6356903229
 30
0.0
 10
34.0509493241
 20
120.8352747769
 30
0.0
 10
31.1798380275
 20
119.8628510618
 30
0.0
 10
28.4929218718
 20
118.7282207146
 30
0.0
 10
26.801764208
 20
117.8503481634
 30
0.0
 10
25.9965033676
 20
117.3854333756
 30
0.0
  0
SPLINE
  5
42E
100
AcDbEntity
  8
0
100
AcDbSpline
 62
7
  6
CONTINUOUS
 70
0
 71
3
 72
9
 73
5
 74
0
 42
0.0000001
 43
0.0000001
 44
0.0000000001
 40
0.0
 40
0.0
 40
0.0
 40
0.0
 40
0.2457931523
 40
1.0
 40
1.0
 40
1.0
 40
1.0
 10
69.9479230743
 20
91.8864800365
 30
0.0
 10
69.8228816095
 20
91.8894721418
 30
0.0
 10
69.3143583122
 20
91.909377554
 30
0.0
 10
68.8071165811
 20
91.9596656986
 30
0.0
 10
68.4270364113
 20
92.012933751
 30
0.0
  0
SPLINE
  5
42F
100
AcDbEntity
  8
0
100
AcDbSpline
 62
7
  6
CONTINUOUS
 70
0
 71
3
 72
11
 73
7
 74
0
 42
0.0000001
 43
0.0000001
 44
0.0000000001
 40
0.0
 40
0.0
 40
0.0
 40
0.0
 40
0.2177140813
 40
0.4508834882
 40
0.710551504
 40
1.0
 40
1.0
 40
1.0
 40
1.0
 10
73.6835768282
 20
115.6520824946
 30
0.0
 10
73.6835582436
 20
115.6901580382
 30
0.0
 10
73.6975860377
 20
115.7695486119
 30
0.0
 10
73.7577897362
 20
115.8802145639
 30
0.0
 10
73.8530266059
 20
115.9801216088
 30
0.0
 10
73.932587478
 20
116.0350128428
 30
0.0
 10
73.9764266379
 20
116.0603232425
 30
0.0
  0
LINE
  5
430
100
AcDbEntity
  8
0
100
AcDbLine
 62
7
  6
CONTINUOUS
 10
59.5276288777
 20
89.5198225161
 11
59.1488526251
 21
89.8512597746
  0
LINE
  5
431
100
AcDbEntity
  8
0
100
AcDbLine
 62
7
  6
CONTINUOUS
 10
59.7185640114
 20
89.1868753454
 11
59.1488526251
 21
89.8512597746
  0
SPLINE
  5
432
100
AcDbEntity
  8
0
100
AcDbSpline
 62
7
  6
CONTINUOUS
 70
0
 71
3
 72
14
 73
10
 74
0
 42
0.0000001
 43
0.0000001
 44
0.0000000001
 40
0.0
 40
0.0
 40
0.0
 40
0.0
 40
0.2354440622
 40
0.3650544603
 40
0.4985253156
 40
0.6325405644
 40
0.7632400132
 40
0.8865150285
 40
1.0
 40
1.0
 40
1.0
 40
1.0
 10
38.6555832308
 20
39.2763447743
 30
0.0
 10
38.8254861931
 20
39.3744447244
 30
0.0
 10
39.1438706801
 20
39.4314189658
 30
0.0
 10
39.5558589279
 20
39.3782870405
 30
0.0
 10
39.8727124955
 20
39.2745908913
 30
0.0
 10
40.1644517567
 20
39.1123155937
 30
0.0
 10
40.4096871231
 20
38.8970533916
 30
0.0
 10
40.5820315213
 20
38.6387124067
 30
0.0
 10
40.6287998113
 20
38.4403933024
 30
0.0
 10
40.6287998113
 20
38.3458288209
 30
0.0
  0
SPLINE
  5
433
100
AcDbEntity
  8
0
100
AcDbSpline
 62
7
  6
CONTINUOUS
 70
0
 71
3
 72
9
 73
5
 74
0
 42
0.0000001
 43
0.0000001
 44
0.0000000001
 40
0.0
 40
0.0
 40
0.0
 40
0.0
 40
0.5034624621
 40
1.0
 40
1.0
 40
1.0
 40
1.0
 10
38.9947146172
 20
38.790425049
 30
0.0
 10
38.9947146172
 20
38.8394619827
 30
0.0
 10
39.0133698112
 20
38.9381433274
 30
0.0
 10
39.0700485127
 20
39.020797002
 30
0.0
 10
39.1040341615
 20
39.0552048831
 30
0.0
  0
SPLINE
  5
434
100
AcDbEntity
  8
0
100
AcDbSpline
 62
7
  6
CONTINUOUS
 70
0
 71
3
 72
28
 73
24
 74
0
 42
0.0000001
 43
0.0000001
 44
0.0000000001
 40
0.0
 40
0.0
 40
0.0
 40
0.0
 40
0.0614162225
 40
0.0899791112
 40
0.1171315866
 40
0.1675894685
 40
0.1913639487
 40
0.2144849403
 40
0.2372720763
 40
0.2600691049
 40
0.2832183932
 40
0.3070376641
 40
0.3576284177
 40
0.384865693
 40
0.4135121304
 40
0.475096627
 40
0.5422635054
 40
0.6142695614
 40
0.689974884
 40
0.7679682284
 40
0.8466911643
 40
0.9245425348
 40
1.0
 40
1.0
 40
1.0
 40
1.0
 10
59.9727498458
 20
94.8352203766
 30
0.0
 10
60.567346025
 20
95.1784957234
 30
0.0
 10
61.4054906769
 20
95.7457524085
 30
0.0
 10
62.3786057028
 20
96.6247901576
 30
0.0
 10
63.1757717164
 20
97.5058162734
 30
0.0
 10
63.7962603793
 20
98.4706555798
 30
0.0
 10
64.1867969698
 20
99.4898529841
 30
0.0
 10
64.3593006333
 20
100.2524640486
 30
0.0
 10
64.4146067752
 20
101.021482937
 30
0.0
 10
64.352568433
 20
101.7903004609
 30
0.0
 10
64.1734312749
 20
102.5523212953
 30
0.0
 10
63.7739602512
 20
103.5705026878
 30
0.0
 10
63.145133737
 20
104.5333340285
 30
0.0
 10
62.340380796
 20
105.4119265239
 30
0.0
 10
61.3594925593
 20
106.2882264581
 30
0.0
 10
59.8903988083
 20
107.2726506154
 30
0.0
 10
57.8553247217
 20
108.2343759644
 30
0.0
 10
55.5652104015
 20
108.9784208085
 30
0.0
 10
53.0880273389
 20
109.4830565064
 30
0.0
 10
50.4973504713
 20
109.7335425205
 30
0.0
 10
47.8706635211
 20
109.722278538
 30
0.0
 10
45.2868401651
 20
109.4498750633
 30
0.0
 10
43.6067310244
 20
109.0912454182
 30
0.0
 10
42.7934703976
 20
108.8672643469
 30
0.0
  0
SPLINE
  5
435
100
AcDbEntity
  8
0
100
AcDbSpline
 62
7
  6
CONTINUOUS
 70
0
 71
3
 72
14
 73
10
 74
0
 42
0.0000001
 43
0.0000001
 44
0.0000000001
 40
0.0
 40
0.0
 40
0.0
 40
0.0
 40
0.2358307198
 40
0.3655084387
 40
0.4989589925
 40
0.6328899015
 40
0.7634711289
 40
0.8866184233
 40
1.0
 40
1.0
 40
1.0
 40
1.0
 10
38.8948914865
 20
39.4145086536
 30
0.0
 10
39.0654564159
 20
39.5129905462
 30
0.0
 10
39.3847038731
 20
39.5706106738
 30
0.0
 10
39.7981338261
 20
39.5185596823
 30
0.0
 10
40.1160343304
 20
39.4158119332
 30
0.0
 10
40.4089340689
 20
39.2544810024
 30
0.0
 10
40.6554198561
 20
39.0399527469
 30
0.0
 10
40.8289410032
 20
38.7818689663
 30
0.0
 10
40.8760795921
 20
38.5832858725
 30
0.0
 10
40.8760795921
 20
38.4885950167
 30
0.0
  0
LINE
  5
436
100
AcDbEntity
  8
0
100
AcDbLine
 62
7
  6
CONTINUOUS
 10
38.229546815
 20
105.3172383511
 11
38.3002605361
 21
105.3004005111
  0
SPLINE
  5
437
100
AcDbEntity
  8
0
100
AcDbSpline
 62
7
  6
CONTINUOUS
 70
0
 71
3
 72
9
 73
5
 74
0
 42
0.0000001
 43
0.0000001
 44
0.0000000001
 40
0.0
 40
0.0
 40
0.0
 40
0.0
 40
0.4903501826
 40
1.0
 40
1.0
 40
1.0
 40
1.0
 10
42.8256943163
 20
107.9708273066
 30
0.0
 10
42.0532644219
 20
107.5936366503
 30
0.0
 10
40.5045617324
 20
106.7688069926
 30
0.0
 10
39.0161020012
 20
105.8401877921
 30
0.0
 10
38.2720744233
 20
105.345562114
 30
0.0
  0
SPLINE
  5
438
100
AcDbEntity
  8
0
100
AcDbSpline
 62
7
  6
CONTINUOUS
 70
0
 71
3
 72
12
 73
8
 74
0
 42
0.0000001
 43
0.0000001
 44
0.0000000001
 40
0.0
 40
0.0
 40
0.0
 40
0.0
 40
0.2475237749
 40
0.4365447851
 40
0.6284210405
 40
0.8150330652
 40
1.0
 40
1.0
 40
1.0
 40
1.0
 10
23.5527633582
 20
43.1429809149
 30
0.0
 10
23.5330515713
 20
43.1551287115
 30
0.0
 10
23.499406445
 20
43.1783196304
 30
0.0
 10
23.4489722472
 20
43.2085657259
 30
0.0
 10
23.4022994715
 20
43.2339063552
 30
0.0
 10
23.3579762634
 20
43.2624881561
 30
0.0
 10
23.3292260455
 20
43.2820271879
 30
0.0
 10
23.3145777193
 20
43.2912361007
 30
0.0
  0
SPLINE
  5
439
100
AcDbEntity
  8
0
100
AcDbSpline
 62
7
  6
CONTINUOUS
 70
0
 71
3
 72
12
 73
8
 74
0
 42
0.0000001
 43
0.0000001
 44
0.0000000001
 40
0.0
 40
0.0
 40
0.0
 40
0.0
 40
0.2532886635
 40
0.439526545
 40
0.622951796
 40
0.8107880914
 40
1.0
 40
1.0
 40
1.0
 40
1.0
 10
25.4359068947
 20
42.0665138371
 30
0.0
 10
25.4141732109
 20
42.0780370094
 30
0.0
 10
25.3755868822
 20
42.0963449005
 30
0.0
 10
25.3225687557
 20
42.1255458348
 30
0.0
 10
25.2763845619
 20
42.1538448988
 30
0.0
 10
25.2280547256
 20
42.1789480837
 30
0.0
 10
25.1952793427
 20
42.1952848714
 30
0.0
 10
25.179115726
 20
42.2040271795
 30
0.0
  0
SPLINE
  5
43A
100
AcDbEntity
  8
0
100
AcDbSpline
 62
7
  6
CONTINUOUS
 70
0
 71
3
 72
17
 73
13
 74
0
 42
0.0000001
 43
0.0000001
 44
0.0000000001
 40
0.0
 40
0.0
 40
0.0
 40
0.0
 40
0.0507424001
 40
0.1036579459
 40
0.159288565
 40
0.2178703463
 40
0.3432199815
 40
0.477295253
 40
0.6153689872
 40
0.7519369249
 40
0.8814467236
 40
1.0
 40
1.0
 40
1.0
 40
1.0
 10
38.9641719132
 20
96.804995905
 30
0.0
 10
38.9641579764
 20
96.8860499403
 30
0.0
 10
38.9812471547
 20
97.0520130414
 30
0.0
 10
39.0543807553
 20
97.2970046519
 30
0.0
 10
39.1721816573
 20
97.5378070957
 30
0.0
 10
39.3894442429
 20
97.854172372
 30
0.0
 10
39.7574379292
 20
98.2119882953
 30
0.0
 10
40.2996948333
 20
98.5500375998
 30
0.0
 10
40.9139836859
 20
98.7831686505
 30
0.0
 10
41.555778655
 20
98.8887308063
 30
0.0
 10
42.174740973
 20
98.8507205758
 30
0.0
 10
42.5557009512
 20
98.7156603237
 30
0.0
 10
42.7197031251
 20
98.6209751674
 30
0.0
  0
SPLINE
  5
43B
100
AcDbEntity
  8
0
100
AcDbSpline
 62
7
  6
CONTINUOUS
 70
0
 71
3
 72
19
 73
15
 74
0
 42
0.0000001
 43
0.0000001
 44
0.0000000001
 40
0.0
 40
0.0
 40
0.0
 40
0.0
 40
0.1253349377
 40
0.1842950703
 40
0.2413523977
 40
0.2971135478
 40
0.3522626056
 40
0.4075244065
 40
0.4636157002
 40
0.5211987419
 40
0.580850828
 40
0.7079357348
 40
0.8474380325
 40
1.0
 40
1.0
 40
1.0
 40
1.0
 10
35.8747147102
 20
104.9939025989
 30
0.0
 10
35.5164552323
 20
104.5926800156
 30
0.0
 10
35.0426687806
 20
103.9488345897
 30
0.0
 10
34.5884570916
 20
103.015547657
 30
0.0
 10
34.3522070707
 20
102.3148646582
 30
0.0
 10
34.2159048106
 20
101.6046893009
 30
0.0
 10
34.1806850541
 20
100.8900172727
 30
0.0
 10
34.2469282673
 20
100.1761469394
 30
0.0
 10
34.4139846083
 20
99.4683287595
 30
0.0
 10
34.6804157294
 20
98.7715613831
 30
0.0
 10
35.1753100898
 20
97.8445053406
 30
0.0
 10
36.0491095958
 20
96.7354043115
 30
0.0
 10
37.4177868774
 20
95.5554388556
 30
0.0
 10
38.4888654919
 20
94.8943140525
 30
0.0
 10
39.0669721806
 20
94.5869377559
 30
0.0
  0
SPLINE
  5
43C
100
AcDbEntity
  8
0
100
AcDbSpline
 62
7
  6
CONTINUOUS
 70
0
 71
3
 72
9
 73
5
 74
0
 42
0.0000001
 43
0.0000001
 44
0.0000000001
 40
0.0
 40
0.0
 40
0.0
 40
0.0
 40
0.2414792759
 40
1.0
 40
1.0
 40
1.0
 40
1.0
 10
39.0669721806
 20
94.5869377559
 30
0.0
 10
39.2705620313
 20
94.4786900992
 30
0.0
 10
40.1238679956
 20
94.0497299906
 30
0.0
 10
41.0141368981
 20
93.6957118023
 30
0.0
 10
41.7006957291
 20
93.4650223107
 30
0.0
  0
SPLINE
  5
43D
100
AcDbEntity
  8
0
100
AcDbSpline
 62
7
  6
CONTINUOUS
 70
0
 71
3
 72
10
 73
6
 74
0
 42
0.0000001
 43
0.0000001
 44
0.0000000001
 40
0.0
 40
0.0
 40
0.0
 40
0.0
 40
0.2424978608
 40
0.4920595412
 40
1.0
 40
1.0
 40
1.0
 40
1.0
 10
42.6942256487
 20
93.1592308668
 30
0.0
 10
43.323452726
 20
92.9826277782
 30
0.0
 10
44.6173876406
 20
92.6826239293
 30
0.0
 10
47.2863677502
 20
92.2954758879
 30
0.0
 10
49.3386448489
 20
92.2459850934
 30
0.0
 10
50.7055608596
 20
92.3199960267
 30
0.0
  0
SPLINE
  5
43E
100
AcDbEntity
  8
0
100
AcDbSpline
 62
7
  6
CONTINUOUS
 70
0
 71
3
 72
11
 73
7
 74
0
 42
0.0000001
 43
0.0000001
 44
0.0000000001
 40
0.0
 40
0.0
 40
0.0
 40
0.0
 40
0.264835865
 40
0.5220835507
 40
0.7681353508
 40
1.0
 40
1.0
 40
1.0
 40
1.0
 10
51.3004745455
 20
92.3590894694
 30
0.0
 10
52.0552096195
 20
92.4174557212
 30
0.0
 10
53.5389141153
 20
92.5981557978
 30
0.0
 10
55.6877636906
 20
93.0644836766
 30
0.0
 10
57.690314926
 20
93.7128399217
 30
0.0
 10
58.9391960852
 20
94.2757131724
 30
0.0
 10
59.5243760789
 20
94.5868345263
 30
0.0
  0
SPLINE
  5
43F
100
AcDbEntity
  8
0
100
AcDbSpline
 62
7
  6
CONTINUOUS
 70
0
 71
3
 72
11
 73
7
 74
0
 42
0.0000001
 43
0.0000001
 44
0.0000000001
 40
0.0
 40
0.0
 40
0.0
 40
0.0
 40
0.2628890092
 40
0.5125200015
 40
0.7556425101
 40
1.0
 40
1.0
 40
1.0
 40
1.0
 10
42.7197031251
 20
98.6209751674
 30
0.0
 10
42.8191366342
 20
98.5635681396
 30
0.0
 10
43.0014203652
 20
98.4291848797
 30
0.0
 10
43.210329579
 20
98.1686326963
 30
0.0
 10
43.3370448513
 20
97.8683209902
 30
0.0
 10
43.3640808426
 20
97.6542062876
 30
0.0
 10
43.3640755585
 20
97.5474843772
 30
0.0
  0
SPLINE
  5
440
100
AcDbEntity
  8
0
100
AcDbSpline
 62
7
  6
CONTINUOUS
 70
0
 71
3
 72
11
 73
7
 74
0
 42
0.0000001
 43
0.0000001
 44
0.0000000001
 40
0.0
 40
0.0
 40
0.0
 40
0.0
 40
0.2552507692
 40
0.5026780022
 40
0.748398408
 40
1.0
 40
1.0
 40
1.0
 40
1.0
 10
38.9605992081
 20
38.9905637258
 30
0.0
 10
38.9300523948
 20
38.9729287179
 30
0.0
 10
38.8732463396
 20
38.9317258012
 30
0.0
 10
38.8063200577
 20
38.851329781
 30
0.0
 10
38.7641139384
 20
38.7559844359
 30
0.0
 10
38.7550333845
 20
38.6868134096
 30
0.0
 10
38.7550333845
 20
38.6520458508
 30
0.0
  0
SPLINE
  5
441
100
AcDbEntity
  8
0
100
AcDbSpline
 62
7
  6
CONTINUOUS
 70
0
 71
3
 72
11
 73
7
 74
0
 42
0.0000001
 43
0.0000001
 44
0.0000000001
 40
0.0
 40
0.0
 40
0.0
 40
0.0
 40
0.2161301959
 40
0.448629332
 40
0.7089074505
 40
1.0
 40
1.0
 40
1.0
 40
1.0
 10
23.9805158724
 20
44.2559573151
 30
0.0
 10
23.9561297617
 20
44.2419016555
 30
0.0
 10
23.9104943892
 20
44.2033004242
 30
0.0
 10
23.8621470133
 20
44.1231551306
 30
0.0
 10
23.8336592468
 20
44.0242012538
 30
0.0
 10
23.8279870844
 20
43.9521721582
 30
0.0
 10
23.8279870844
 20
43.9142629154
 30
0.0
  0
SPLINE
  5
442
100
AcDbEntity
  8
0
100
AcDbSpline
 62
7
  6
CONTINUOUS
 70
0
 71
3
 72
16
 73
12
 74
0
 42
0.0000001
 43
0.0000001
 44
0.0000000001
 40
0.0
 40
0.0
 40
0.0
 40
0.0
 40
0.0064647541
 40
0.0221743986
 40
0.0467739335
 40
0.0798703713
 40
0.1699108926
 40
0.2889866133
 40
0.4339012758
 40
0.6021842399
 40
1.0
 40
1.0
 40
1.0
 40
1.0
 10
40.2539313394
 20
96.2122292784
 30
0.0
 10
40.2537367456
 20
96.2121037211
 30
0.0
 10
40.2537761325
 20
96.2111334862
 30
0.0
 10
40.2535685882
 20
96.2096119887
 30
0.0
 10
40.2536252279
 20
96.2069024796
 30
0.0
 10
40.253697855
 20
96.2016559515
 30
0.0
 10
40.2541378937
 20
96.1929562266
 30
0.0
 10
40.2549934844
 20
96.180317278
 30
0.0
 10
40.2563470376
 20
96.1648849917
 30
0.0
 10
40.2589572483
 20
96.1395505349
 30
0.0
 10
40.2614760442
 20
96.1194239725
 30
0.0
 10
40.263410014
 20
96.1053050048
 30
0.0
  0
SPLINE
  5
443
100
AcDbEntity
  8
0
100
AcDbSpline
 62
7
  6
CONTINUOUS
 70
0
 71
3
 72
9
 73
5
 74
0
 42
0.0000001
 43
0.0000001
 44
0.0000000001
 40
0.0
 40
0.0
 40
0.0
 40
0.0
 40
0.2441640849
 40
1.0
 40
1.0
 40
1.0
 40
1.0
 10
24.1011724438
 20
44.2879867703
 30
0.0
 10
24.098813902
 20
44.2841931964
 30
0.0
 10
24.0894882028
 20
44.2684498868
 30
0.0
 10
24.0814951972
 20
44.251926648
 30
0.0
 10
24.0761731814
 20
44.2391638042
 30
0.0
  0
SPLINE
  5
444
100
AcDbEntity
  8
0
100
AcDbSpline
 62
7
  6
CONTINUOUS
 70
0
 71
3
 72
9
 73
5
 74
0
 42
0.0000001
 43
0.0000001
 44
0.0000000001
 40
0.0
 40
0.0
 40
0.0
 40
0.0
 40
0.2306713301
 40
1.0
 40
1.0
 40
1.0
 40
1.0
 10
24.0761731814
 20
44.2391638042
 30
0.0
 10
24.0700665004
 20
44.2245192375
 30
0.0
 10
24.0476702012
 20
44.1593330424
 30
0.0
 10
24.0401666105
 20
44.0896825573
 30
0.0
 10
24.0401666105
 20
44.0367640907
 30
0.0
  0
SPLINE
  5
445
100
AcDbEntity
  8
0
100
AcDbSpline
 62
7
  6
CONTINUOUS
 70
0
 71
3
 72
15
 73
11
 74
0
 42
0.0000001
 43
0.0000001
 44
0.0000000001
 40
0.0
 40
0.0
 40
0.0
 40
0.0
 40
0.1121822512
 40
0.225804338
 40
0.3422171351
 40
0.4626071434
 40
0.5879402411
 40
0.7189799955
 40
0.8562710539
 40
1.0
 40
1.0
 40
1.0
 40
1.0
 10
16.345822337
 20
103.9339005146
 30
0.0
 10
16.3458237867
 20
103.4214383165
 30
0.0
 10
16.4184271063
 20
102.3885108305
 30
0.0
 10
16.7438158996
 20
100.8547421761
 30
0.0
 10
17.2827762981
 20
99.3425796175
 30
0.0
 10
18.0310316657
 20
97.8626758657
 30
0.0
 10
18.9827088756
 20
96.4243533023
 30
0.0
 10
20.1312452951
 20
95.0365186682
 30
0.0
 10
21.4686428493
 20
93.7082225532
 30
0.0
 10
22.4572390229
 20
92.8864862328
 30
0.0
 10
22.9783819175
 20
92.4871167101
 30
0.0
  0
SPLINE
  5
446
100
AcDbEntity
  8
0
100
AcDbSpline
 62
7
  6
CONTINUOUS
 70
0
 71
3
 72
10
 73
6
 74
0
 42
0.0000001
 43
0.0000001
 44
0.0000000001
 40
0.0
 40
0.0
 40
0.0
 40
0.0
 40
0.2292374223
 40
0.4679856422
 40
1.0
 40
1.0
 40
1.0
 40
1.0
 10
23.7843360769
 20
44.6045546257
 30
0.0
 10
23.810690802
 20
44.6197723364
 30
0.0
 10
23.8686702741
 20
44.6441534929
 30
0.0
 10
24.0008104371
 20
44.664825526
 30
0.0
 10
24.1046953222
 20
44.6467528233
 30
0.0
 10
24.1719655343
 20
44.6252337396
 30
0.0
  0
SPLINE
  5
447
100
AcDbEntity
  8
0
100
AcDbSpline
 62
7
  6
CONTINUOUS
 70
0
 71
3
 72
14
 73
10
 74
0
 42
0.0000001
 43
0.0000001
 44
0.0000000001
 40
0.0
 40
0.0
 40
0.0
 40
0.0
 40
0.1048583753
 40
0.2225641135
 40
0.3505660579
 40
0.4850724036
 40
0.7551382634
 40
0.8826631178
 40
1.0
 40
1.0
 40
1.0
 40
1.0
 10
24.1719655343
 20
44.6252337396
 30
0.0
 10
24.2347553094
 20
44.6051479039
 30
0.0
 10
24.3627321386
 20
44.5454839974
 30
0.0
 10
24.5426978633
 20
44.4167578135
 30
0.0
 10
24.7146623284
 20
44.2494467379
 30
0.0
 10
24.9215841505
 20
43.9854511875
 30
0.0
 10
25.0775621736
 20
43.6841000356
 30
0.0
 10
25.1630001676
 20
43.3709195236
 30
0.0
 10
25.179115726
 20
43.2167743358
 30
0.0
 10
25.179115726
 20
43.1430049592
 30
0.0
  0
SPLINE
  5
448
100
AcDbEntity
  8
0
100
AcDbSpline
 62
7
  6
CONTINUOUS
 70
0
 71
3
 72
17
 73
13
 74
0
 42
0.0000001
 43
0.0000001
 44
0.0000000001
 40
0.0
 40
0.0
 40
0.0
 40
0.0
 40
0.042003102
 40
0.0859250091
 40
0.1332852749
 40
0.1850415209
 40
0.3025343886
 40
0.4368938589
 40
0.5818974799
 40
0.7294203864
 40
0.8711570021
 40
1.0
 40
1.0
 40
1.0
 40
1.0
 10
23.9965342948
 20
44.7270295818
 30
0.0
 10
24.0242309015
 20
44.7430381103
 30
0.0
 10
24.0855233
 20
44.7683739122
 30
0.0
 10
24.1870010298
 20
44.7822902837
 30
0.0
 10
24.2963153203
 20
44.7732490078
 30
0.0
 10
24.4561331157
 20
44.7294197165
 30
0.0
 10
24.6614718319
 20
44.6167825925
 30
0.0
 10
24.89039787
 20
44.4169322951
 30
0.0
 10
25.0947850807
 20
44.1620239
 30
0.0
 10
25.2570161917
 20
43.8719840781
 30
0.0
 10
25.3629657845
 20
43.5700081384
 30
0.0
 10
25.3913606647
 20
43.363672784
 30
0.0
 10
25.3913606647
 20
43.2655439002
 30
0.0
  0
SPLINE
  5
449
100
AcDbEntity
  8
0
100
AcDbSpline
 62
7
  6
CONTINUOUS
 70
0
 71
3
 72
15
 73
11
 74
0
 42
0.0000001
 43
0.0000001
 44
0.0000000001
 40
0.0
 40
0.0
 40
0.0
 40
0.0
 40
0.1100872319
 40
0.2208648088
 40
0.3345664979
 40
0.453146212
 40
0.5781409481
 40
0.7106000653
 40
0.8511533823
 40
1.0
 40
1.0
 40
1.0
 40
1.0
 10
82.2096955431
 20
97.1031222012
 30
0.0
 10
82.2909621985
 20
96.4547435624
 30
0.0
 10
82.3390143296
 20
95.1363636538
 30
0.0
 10
82.0542869648
 20
93.1609359803
 30
0.0
 10
81.4177226104
 20
91.216482923
 30
0.0
 10
80.4389572083
 20
89.3257644123
 30
0.0
 10
79.1311562028
 20
87.5082639631
 30
0.0
 10
77.5100211224
 20
85.7816099495
 30
0.0
 10
75.5933794431
 20
84.1627596573
 30
0.0
 10
74.1716694393
 20
83.1930001818
 30
0.0
 10
73.4203038685
 20
82.7281838363
 30
0.0
  0
SPLINE
  5
44A
100
AcDbEntity
  8
0
100
AcDbSpline
 62
7
  6
CONTINUOUS
 70
0
 71
3
 72
11
 73
7
 74
0
 42
0.0000001
 43
0.0000001
 44
0.0000000001
 40
0.0
 40
0.0
 40
0.0
 40
0.0
 40
0.2455409173
 40
0.4929057818
 40
0.7438488307
 40
1.0
 40
1.0
 40
1.0
 40
1.0
 10
15.1958162179
 20
96.5853787645
 30
0.0
 10
15.1958152223
 20
96.9872385455
 30
0.0
 10
15.2386935795
 20
97.7945883337
 30
0.0
 10
15.4314888528
 20
98.9987916496
 30
0.0
 10
15.7516120477
 20
100.1934736349
 30
0.0
 10
16.0456134381
 20
100.9712204917
 30
0.0
 10
16.212076451
 20
101.3559795531
 30
0.0
  0
SPLINE
  5
44B
100
AcDbEntity
  8
0
100
AcDbSpline
 62
7
  6
CONTINUOUS
 70
0
 71
3
 72
17
 73
13
 74
0
 42
0.0000001
 43
0.0000001
 44
0.0000000001
 40
0.0
 40
0.0
 40
0.0
 40
0.0
 40
0.0327061967
 40
0.0661036474
 40
0.1022887753
 40
0.1427635043
 40
0.2394662798
 40
0.3587796697
 40
0.4990341049
 40
0.656341652
 40
0.8255682342
 40
1.0
 40
1.0
 40
1.0
 40
1.0
 10
55.2274631653
 20
106.9371008347
 30
0.0
 10
55.2274661598
 20
106.9679472953
 30
0.0
 10
55.2363589505
 20
107.030712935
 30
0.0
 10
55.277517692
 20
107.1192801504
 30
0.0
 10
55.3441858592
 20
107.2000388447
 30
0.0
 10
55.4724358303
 20
107.3028407046
 30
0.0
 10
55.6948615274
 20
107.4052779224
 30
0.0
 10
56.0219844012
 20
107.4862518786
 30
0.0
 10
56.4138772015
 20
107.5287785485
 30
0.0
 10
56.8547972803
 20
107.5296021349
 30
0.0
 10
57.3259279215
 20
107.4866234132
 30
0.0
 10
57.6454001486
 20
107.4290563783
 30
0.0
 10
57.8058239951
 20
107.3926036993
 30
0.0
  0
SPLINE
  5
44C
100
AcDbEntity
  8
0
100
AcDbSpline
 62
7
  6
CONTINUOUS
 70
0
 71
3
 72
24
 73
20
 74
0
 42
0.0000001
 43
0.0000001
 44
0.0000000001
 40
0.0
 40
0.0
 40
0.0
 40
0.0
 40
0.1353405073
 40
0.1942241436
 40
0.2477409953
 40
0.2971536229
 40
0.3443047714
 40
0.3915255903
 40
0.4409385056
 40
0.5510720022
 40
0.6142968374
 40
0.6475064366
 40
0.6822791833
 40
0.7182626152
 40
0.7552337317
 40
0.7934066004
 40
0.8327948977
 40
0.914617323
 40
1.0
 40
1.0
 40
1.0
 40
1.0
 10
66.5731216863
 20
99.3088267053
 30
0.0
 10
66.4985665795
 20
99.4670760212
 30
0.0
 10
66.4107983118
 20
99.7059974611
 30
0.0
 10
66.3703394587
 20
100.0249204896
 30
0.0
 10
66.3816204494
 20
100.235123434
 30
0.0
 10
66.4330359834
 20
100.4239093268
 30
0.0
 10
66.5250671086
 20
100.5877970485
 30
0.0
 10
66.6570742957
 20
100.721551339
 30
0.0
 10
66.8849919325
 20
100.8641898123
 30
0.0
 10
67.1673774986
 20
100.9467051169
 30
0.0
 10
67.4338969045
 20
100.964215344
 30
0.0
 10
67.6035155857
 20
100.9683380746
 30
0.0
 10
67.7378360484
 20
100.9620925254
 30
0.0
 10
67.8766087622
 20
100.9505769013
 30
0.0
 10
68.0193622634
 20
100.934392103
 30
0.0
 10
68.1657228053
 20
100.9119084757
 30
0.0
 10
68.3680470697
 20
100.8729179544
 30
0.0
 10
68.6277412882
 20
100.810131833
 30
0.0
 10
68.8349948455
 20
100.7484678612
 30
0.0
 10
68.9398671646
 20
100.7141001113
 30
0.0
  0
SPLINE
  5
44D
100
AcDbEntity
  8
0
100
AcDbSpline
 62
7
  6
CONTINUOUS
 70
0
 71
3
 72
23
 73
19
 74
0
 42
0.0000001
 43
0.0000001
 44
0.0000000001
 40
0.0
 40
0.0
 40
0.0
 40
0.0
 40
0.0772597945
 40
0.1506004079
 40
0.2198718478
 40
0.2850946967
 40
0.3464917315
 40
0.4045141993
 40
0.459857937
 40
0.5134504946
 40
0.5663912268
 40
0.6198485645
 40
0.674935205
 40
0.7326035108
 40
0.7935778633
 40
0.8583333853
 40
0.9271411348
 40
1.0
 40
1.0
 40
1.0
 40
1.0
 10
29.888746062
 20
89.7186574747
 30
0.0
 10
29.0432682742
 20
90.1033833619
 30
0.0
 10
27.4240644253
 20
90.9195090032
 30
0.0
 10
25.1764826297
 20
92.3183363857
 30
0.0
 10
23.1941084645
 20
93.8473476982
 30
0.0
 10
21.499093577
 20
95.4906565739
 30
0.0
 10
20.1106505845
 20
97.2315345675
 30
0.0
 10
19.0457312797
 20
99.0522768679
 30
0.0
 10
18.3189689315
 20
100.9335746741
 30
0.0
 10
17.9417064541
 20
102.8535957305
 30
0.0
 10
17.9207071698
 20
104.7879757198
 30
0.0
 10
18.2565320609
 20
106.7109871003
 30
0.0
 10
18.9429442584
 20
108.5979776092
 30
0.0
 10
19.9689371914
 20
110.4268786527
 30
0.0
 10
21.3202841559
 20
112.1780226121
 30
0.0
 10
22.9804761903
 20
113.8337866997
 30
0.0
 10
24.9302327996
 20
115.3767857277
 30
0.0
 10
26.3686954979
 20
116.294577214
 30
0.0
 10
27.1273171398
 20
116.7325719746
 30
0.0
  0
SPLINE
  5
44E
100
AcDbEntity
  8
0
100
AcDbSpline
 62
7
  6
CONTINUOUS
 70
0
 71
3
 72
9
 73
5
 74
0
 42
0.0000001
 43
0.0000001
 44
0.0000000001
 40
0.0
 40
0.0
 40
0.0
 40
0.0
 40
0.4822114429
 40
1.0
 40
1.0
 40
1.0
 40
1.0
 10
58.1223306042
 20
105.6194585776
 30
0.0
 10
57.9920231406
 20
105.6796472658
 30
0.0
 10
57.7004074597
 20
105.7587472242
 30
0.0
 10
57.3999434925
 20
105.7661849563
 30
0.0
 10
57.2465096747
 20
105.7515896533
 30
0.0
  0
SPLINE
  5
44F
100
AcDbEntity
  8
0
100
AcDbSpline
 62
7
  6
CONTINUOUS
 70
0
 71
3
 72
9
 73
5
 74
0
 42
0.0000001
 43
0.0000001
 44
0.0000000001
 40
0.0
 40
0.0
 40
0.0
 40
0.0
 40
0.2576447079
 40
1.0
 40
1.0
 40
1.0
 40
1.0
 10
40.2435692347
 20
96.0890179918
 30
0.0
 10
40.2360143164
 20
96.0825947708
 30
0.0
 10
40.2071838772
 20
96.0570952818
 30
0.0
 10
40.1803801156
 20
96.0292685588
 30
0.0
 10
40.1620589814
 20
96.0073435364
 30
0.0
  0
SPLINE
  5
450
100
AcDbEntity
  8
0
100
AcDbSpline
 62
7
  6
CONTINUOUS
 70
0
 71
3
 72
9
 73
5
 74
0
 42
0.0000001
 43
0.0000001
 44
0.0000000001
 40
0.0
 40
0.0
 40
0.0
 40
0.0
 40
0.2596673043
 40
1.0
 40
1.0
 40
1.0
 40
1.0
 10
40.1620589814
 20
96.0073435364
 30
0.0
 10
40.1545785059
 20
95.9983916018
 30
0.0
 10
40.1267773245
 20
95.9631028177
 30
0.0
 10
40.1032049131
 20
95.9243703033
 30
0.0
 10
40.0892118541
 20
95.8941964349
 30
0.0
  0
SPLINE
  5
451
100
AcDbEntity
  8
0
100
AcDbSpline
 62
7
  6
CONTINUOUS
 70
0
 71
3
 72
15
 73
11
 74
0
 42
0.0000001
 43
0.0000001
 44
0.0000000001
 40
0.0
 40
0.0
 40
0.0
 40
0.0
 40
0.1407054868
 40
0.2671243539
 40
0.3821747108
 40
0.4914386926
 40
0.6021855361
 40
0.7212685407
 40
0.8534124264
 40
1.0
 40
1.0
 40
1.0
 40
1.0
 10
73.5461713557
 20
115.4957324106
 30
0.0
 10
73.4883852737
 20
115.5345423727
 30
0.0
 10
73.3843306215
 20
115.6175187603
 30
0.0
 10
73.2637799216
 20
115.7654091269
 30
0.0
 10
73.1923663956
 20
115.9263076918
 30
0.0
 10
73.1755916123
 20
116.0942497312
 30
0.0
 10
73.2147722709
 20
116.2603039585
 30
0.0
 10
73.3066317149
 20
116.4166186824
 30
0.0
 10
73.4455994905
 20
116.558090025
 30
0.0
 10
73.5600682226
 20
116.6364353967
 30
0.0
 10
73.6228717754
 20
116.6726948284
 30
0.0
  0
LINE
  5
452
100
AcDbEntity
  8
0
100
AcDbLine
 62
7
  6
CONTINUOUS
 10
24.9004932828
 20
113.5942963609
 11
24.8550365353
 21
113.6422829204
  0
SPLINE
  5
453
100
AcDbEntity
  8
0
100
AcDbSpline
 62
7
  6
CONTINUOUS
 70
0
 71
3
 72
10
 73
6
 74
0
 42
0.0000001
 43
0.0000001
 44
0.0000000001
 40
0.0
 40
0.0
 40
0.0
 40
0.0
 40
0.51536054
 40
0.7625932287
 40
1.0
 40
1.0
 40
1.0
 40
1.0
 10
46.3182676342
 20
87.6120806502
 30
0.0
 10
44.7753631921
 20
87.7470372541
 30
0.0
 10
42.5003880739
 20
88.1035677855
 30
0.0
 10
39.6026080761
 20
88.9081346211
 30
0.0
 10
38.2337512973
 20
89.4122660177
 30
0.0
 10
37.5762768952
 20
89.6893355673
 30
0.0
  0
SPLINE
  5
454
100
AcDbEntity
  8
0
100
AcDbSpline
 62
7
  6
CONTINUOUS
 70
0
 71
3
 72
22
 73
18
 74
0
 42
0.0000001
 43
0.0000001
 44
0.0000000001
 40
0.0
 40
0.0
 40
0.0
 40
0.0
 40
0.1559259493
 40
0.2286620117
 40
0.29775058
 40
0.3632495333
 40
0.425361117
 40
0.4844484407
 40
0.5410452192
 40
0.5958472876
 40
0.6496851871
 40
0.7034670529
 40
0.7581061776
 40
0.8144457232
 40
0.8732007526
 40
0.9349238504
 40
1.0
 40
1.0
 40
1.0
 40
1.0
 10
37.4902295455
 20
89.725802148
 30
0.0
 10
36.5408795039
 20
90.1304037157
 30
0.0
 10
35.1839718478
 20
90.8183084354
 30
0.0
 10
33.5516768914
 20
91.9259903867
 30
0.0
 10
32.4901468482
 20
92.7989440308
 30
0.0
 10
31.5725146901
 20
93.7258796436
 30
0.0
 10
30.806797654
 20
94.6994393802
 30
0.0
 10
30.2001321827
 20
95.7117525677
 30
0.0
 10
29.7586166424
 20
96.7544334088
 30
0.0
 10
29.4871863934
 20
97.8183492863
 30
0.0
 10
29.389205476
 20
98.8935176793
 30
0.0
 10
29.4659786214
 20
99.9693424996
 30
0.0
 10
29.7164838762
 20
101.0351867036
 30
0.0
 10
30.1375775785
 20
102.0809702105
 30
0.0
 10
30.7245265808
 20
103.0974768707
 30
0.0
 10
31.4712276554
 20
104.0761260699
 30
0.0
 10
32.0550882901
 20
104.6816406083
 30
0.0
 10
32.3692760539
 20
104.9762349802
 30
0.0
  0
SPLINE
  5
455
100
AcDbEntity
  8
0
100
AcDbSpline
 62
7
  6
CONTINUOUS
 70
0
 71
3
 72
9
 73
5
 74
0
 42
0.0000001
 43
0.0000001
 44
0.0000000001
 40
0.0
 40
0.0
 40
0.0
 40
0.0
 40
0.4955715429
 40
1.0
 40
1.0
 40
1.0
 40
1.0
 10
24.5264253111
 20
114.068637026
 30
0.0
 10
24.8044978644
 20
114.188264728
 30
0.0
 10
25.3611645307
 20
114.4400609542
 30
0.0
 10
25.9099807086
 20
114.7084491383
 30
0.0
 10
26.1848215258
 20
114.8477414743
 30
0.0
  0
SPLINE
  5
456
100
AcDbEntity
  8
0
100
AcDbSpline
 62
7
  6
CONTINUOUS
 70
0
 71
3
 72
11
 73
7
 74
0
 42
0.0000001
 43
0.0000001
 44
0.0000000001
 40
0.0
 40
0.0
 40
0.0
 40
0.0
 40
0.2400826386
 40
0.4879610491
 40
0.7418977882
 40
1.0
 40
1.0
 40
1.0
 40
1.0
 10
32.3693935214
 20
104.9759988516
 30
0.0
 10
31.6732898771
 20
105.5707798214
 30
0.0
 10
30.3063804804
 20
106.8366050693
 30
0.0
 10
28.3710394653
 20
108.9034414183
 30
0.0
 10
26.5370453861
 20
111.1501685736
 30
0.0
 10
25.4041797129
 20
112.7426812146
 30
0.0
 10
24.8588386742
 20
113.5621276942
 30
0.0
  0
SPLINE
  5
457
100
AcDbEntity
  8
0
100
AcDbSpline
 62
7
  6
CONTINUOUS
 70
0
 71
3
 72
21
 73
17
 74
0
 42
0.0000001
 43
0.0000001
 44
0.0000000001
 40
0.0
 40
0.0
 40
0.0
 40
0.0
 40
0.1665274298
 40
0.3258114193
 40
0.4005835699
 40
0.4710957024
 40
0.5367752565
 40
0.5973114224
 40
0.6527669467
 40
0.7037493786
 40
0.7513315034
 40
0.7970960313
 40
0.8430529628
 40
0.891220965
 40
0.9432462797
 40
1.0
 40
1.0
 40
1.0
 40
1.0
 10
68.8791905505
 20
100.6791581257
 30
0.0
 10
69.1484259875
 20
100.7684566783
 30
0.0
 10
69.6882538146
 20
100.9047480745
 30
0.0
 10
70.3672307408
 20
100.991106301
 30
0.0
 10
70.8865108244
 20
100.9977730905
 30
0.0
 10
71.2454301589
 20
100.9716948563
 30
0.0
 10
71.5761618784
 20
100.9137933608
 30
0.0
 10
71.8732696061
 20
100.8240266598
 30
0.0
 10
72.131503229
 20
100.7018951707
 30
0.0
 10
72.3466157828
 20
100.5489214173
 30
0.0
 10
72.5144066511
 20
100.3663835745
 30
0.0
 10
72.629727161
 20
100.1561096157
 30
0.0
 10
72.6876733816
 20
99.922278996
 30
0.0
 10
72.6862739128
 20
99.671030694
 30
0.0
 10
72.6267561734
 20
99.4086907645
 30
0.0
 10
72.5543788134
 20
99.2371314898
 30
0.0
 10
72.5106320562
 20
99.1509234174
 30
0.0
  0
SPLINE
  5
458
100
AcDbEntity
  8
0
100
AcDbSpline
 62
7
  6
CONTINUOUS
 70
0
 71
3
 72
20
 73
16
 74
0
 42
0.0000001
 43
0.0000001
 44
0.0000000001
 40
0.0
 40
0.0
 40
0.0
 40
0.0
 40
0.1431814551
 40
0.2887587342
 40
0.4321281839
 40
0.5016353584
 40
0.5689885621
 40
0.6337535394
 40
0.6955716468
 40
0.754182298
 40
0.8094460994
 40
0.8613715883
 40
0.9101438067
 40
0.9561512992
 40
1.0
 40
1.0
 40
1.0
 40
1.0
 10
42.8060924514
 20
109.806482443
 30
0.0
 10
44.2012109327
 20
110.0846948221
 30
0.0
 10
47.0562970184
 20
110.4528186782
 30
0.0
 10
51.3597766473
 20
110.4636730731
 30
0.0
 10
54.9054685984
 20
110.0256522474
 30
0.0
 10
57.6216544617
 20
109.4052311725
 30
0.0
 10
59.5396706199
 20
108.8206128499
 30
0.0
 10
61.3364233561
 20
108.1189894243
 30
0.0
 10
62.9908873672
 20
107.308441473
 30
0.0
 10
64.4836287623
 20
106.3982604647
 30
0.0
 10
65.7971247048
 20
105.3986609401
 30
0.0
 10
66.9157800301
 20
104.3207147225
 30
0.0
 10
67.8259170457
 20
103.175919733
 30
0.0
 10
68.5154295846
 20
101.977313859
 30
0.0
 10
68.8270700952
 20
101.1349062338
 30
0.0
 10
68.9398671646
 20
100.7141001113
 30
0.0
  0
SPLINE
  5
459
100
AcDbEntity
  8
0
100
AcDbSpline
 62
7
  6
CONTINUOUS
 70
0
 71
3
 72
9
 73
5
 74
0
 42
0.0000001
 43
0.0000001
 44
0.0000000001
 40
0.0
 40
0.0
 40
0.0
 40
0.0
 40
0.2562951659
 40
1.0
 40
1.0
 40
1.0
 40
1.0
 10
68.4284981374
 20
92.4459246421
 30
0.0
 10
68.6087653165
 20
92.419218549
 30
0.0
 10
69.3140021201
 20
92.3285120112
 30
0.0
 10
70.0267892631
 20
92.2932436153
 30
0.0
 10
70.5554877032
 20
92.3035898114
 30
0.0
  0
SPLINE
  5
45A
100
AcDbEntity
  8
0
100
AcDbSpline
 62
7
  6
CONTINUOUS
 70
0
 71
3
 72
9
 73
5
 74
0
 42
0.0000001
 43
0.0000001
 44
0.0000000001
 40
0.0
 40
0.0
 40
0.0
 40
0.0
 40
0.2454497588
 40
1.0
 40
1.0
 40
1.0
 40
1.0
 10
68.8915513493
 20
97.0322231971
 30
0.0
 10
68.8561777091
 20
96.9123071829
 30
0.0
 10
68.6993220916
 20
96.4275595498
 30
0.0
 10
68.4925229705
 20
95.9592964338
 30
0.0
 10
68.313391007
 20
95.6192484634
 30
0.0
  0
SPLINE
  5
45B
100
AcDbEntity
  8
0
100
AcDbSpline
 62
7
  6
CONTINUOUS
 70
0
 71
3
 72
9
 73
5
 74
0
 42
0.0000001
 43
0.0000001
 44
0.0000000001
 40
0.0
 40
0.0
 40
0.0
 40
0.0
 40
0.4997141682
 40
1.0
 40
1.0
 40
1.0
 40
1.0
 10
68.8793023616
 20
100.6791604202
 30
0.0
 10
68.8890752959
 20
100.489242759
 30
0.0
 10
68.901621951
 20
100.1088633457
 30
0.0
 10
68.8910571721
 20
99.7277336005
 30
0.0
 10
68.8732632442
 20
99.5381804572
 30
0.0
  0
SPLINE
  5
45C
100
AcDbEntity
  8
0
100
AcDbSpline
 62
7
  6
CONTINUOUS
 70
0
 71
3
 72
19
 73
15
 74
0
 42
0.0000001
 43
0.0000001
 44
0.0000000001
 40
0.0
 40
0.0
 40
0.0
 40
0.0
 40
0.1616697054
 40
0.3191863792
 40
0.4674211783
 40
0.5366927858
 40
0.6019338148
 40
0.7193368156
 40
0.7717733562
 40
0.8204064609
 40
0.8660817996
 40
0.9101915736
 40
0.9543939382
 40
1.0
 40
1.0
 40
1.0
 40
1.0
 10
68.8732632442
 20
99.5381804572
 30
0.0
 10
69.0750044484
 20
99.58884525
 30
0.0
 10
69.4717355336
 20
99.6953790793
 30
0.0
 10
70.0652571787
 20
99.7998309514
 30
0.0
 10
70.548772716
 20
99.8229739929
 30
0.0
 10
70.9123142228
 20
99.8023461229
 30
0.0
 10
71.2337435736
 20
99.7604342982
 30
0.0
 10
71.52918022
 20
99.6830267447
 30
0.0
 10
71.7822023342
 20
99.5585117126
 30
0.0
 10
71.9372672483
 20
99.4491750245
 30
0.0
 10
72.0619356628
 20
99.3202956397
 30
0.0
 10
72.1530080662
 20
99.1721487089
 30
0.0
 10
72.2074880457
 20
99.007165806
 30
0.0
 10
72.2190232242
 20
98.8911872902
 30
0.0
 10
72.2190241055
 20
98.8325100769
 30
0.0
  0
SPLINE
  5
45D
100
AcDbEntity
  8
0
100
AcDbSpline
 62
7
  6
CONTINUOUS
 70
0
 71
3
 72
15
 73
11
 74
0
 42
0.0000001
 43
0.0000001
 44
0.0000000001
 40
0.0
 40
0.0
 40
0.0
 40
0.0
 40
0.0748463566
 40
0.1476314947
 40
0.2176120483
 40
0.2840880407
 40
0.4080635361
 40
0.5251849209
 40
0.7510724809
 40
1.0
 40
1.0
 40
1.0
 40
1.0
 10
67.6098270838
 20
99.7318737011
 30
0.0
 10
67.5809140844
 20
99.731069709
 30
0.0
 10
67.5238988707
 20
99.7273813369
 30
0.0
 10
67.4407024394
 20
99.7146039762
 30
0.0
 10
67.3616065081
 20
99.6976210857
 30
0.0
 10
67.2641249077
 20
99.6727114702
 30
0.0
 10
67.1511829268
 20
99.63356947
 30
0.0
 10
66.9963716666
 20
99.5382443386
 30
0.0
 10
66.84904222
 20
99.3506182428
 30
0.0
 10
66.8190346799
 20
99.1624227434
 30
0.0
 10
66.8190267741
 20
99.066225365
 30
0.0
  0
SPLINE
  5
45E
100
AcDbEntity
  8
0
100
AcDbSpline
 62
7
  6
CONTINUOUS
 70
0
 71
3
 72
11
 73
7
 74
0
 42
0.0000001
 43
0.0000001
 44
0.0000000001
 40
0.0
 40
0.0
 40
0.0
 40
0.0
 40
0.2798520727
 40
0.5409126438
 40
0.7819361542
 40
1.0
 40
1.0
 40
1.0
 40
1.0
 10
68.8732632442
 20
99.5381804572
 30
0.0
 10
68.7577797408
 20
99.5697532429
 30
0.0
 10
68.534195515
 20
99.6295424046
 30
0.0
 10
68.2064581925
 20
99.6980823998
 30
0.0
 10
67.8997752276
 20
99.7329147843
 30
0.0
 10
67.7030795001
 20
99.7344667979
 30
0.0
 10
67.6098270838
 20
99.7318737011
 30
0.0
  0
SPLINE
  5
45F
100
AcDbEntity
  8
0
100
AcDbSpline
 62
7
  6
CONTINUOUS
 70
0
 71
3
 72
9
 73
5
 74
0
 42
0.0000001
 43
0.0000001
 44
0.0000000001
 40
0.0
 40
0.0
 40
0.0
 40
0.0
 40
0.2568121719
 40
1.0
 40
1.0
 40
1.0
 40
1.0
 10
74.9815295771
 20
81.7560333521
 30
0.0
 10
75.2702310014
 20
81.9227142022
 30
0.0
 10
76.3848205591
 20
82.5881042245
 30
0.0
 10
77.4599769876
 20
83.3203788551
 30
0.0
 10
78.227869209
 20
83.904350964
 30
0.0
  0
SPLINE
  5
460
100
AcDbEntity
  8
0
100
AcDbSpline
 62
7
  6
CONTINUOUS
 70
0
 71
3
 72
9
 73
5
 74
0
 42
0.0000001
 43
0.0000001
 44
0.0000000001
 40
0.0
 40
0.0
 40
0.0
 40
0.0
 40
0.4916559501
 40
1.0
 40
1.0
 40
1.0
 40
1.0
 10
13.712591207
 20
92.3687764888
 30
0.0
 10
13.8936040046
 20
91.8596147988
 30
0.0
 10
14.3238541999
 20
90.8452413787
 30
0.0
 10
14.8635197064
 20
89.885106133
 30
0.0
 10
15.161486087
 20
89.412467807
 30
0.0
  0
SPLINE
  5
461
100
AcDbEntity
  8
0
100
AcDbSpline
 62
7
  6
CONTINUOUS
 70
0
 71
3
 72
19
 73
15
 74
0
 42
0.0000001
 43
0.0000001
 44
0.0000000001
 40
0.0
 40
0.0
 40
0.0
 40
0.0
 40
0.0603670551
 40
0.1145460157
 40
0.1631875484
 40
0.208595744
 40
0.254020432
 40
0.3026601232
 40
0.3567353391
 40
0.4171934262
 40
0.555434601
 40
0.7085782828
 40
0.8617198616
 40
1.0
 40
1.0
 40
1.0
 40
1.0
 10
49.7983415755
 20
103.8560375224
 30
0.0
 10
49.8294933546
 20
103.8740231427
 30
0.0
 10
49.8860308987
 20
103.9130533029
 30
0.0
 10
49.9537356027
 20
103.9840244889
 30
0.0
 10
49.9965190102
 20
104.0627608523
 30
0.0
 10
50.0112926622
 20
104.1461930118
 30
0.0
 10
49.9965097132
 20
104.2296348204
 30
0.0
 10
49.9537005103
 20
104.3082733714
 30
0.0
 10
49.886123306
 20
104.3793952605
 30
0.0
 10
49.7612997325
 20
104.4651681076
 30
0.0
 10
49.561129243
 20
104.5375799217
 30
0.0
 10
49.2957875488
 20
104.566443235
 30
0.0
 10
49.0304919537
 20
104.5376649317
 30
0.0
 10
48.8645548676
 20
104.477543551
 30
0.0
 10
48.7931966298
 20
104.4363450991
 30
0.0
  0
SPLINE
  5
462
100
AcDbEntity
  8
0
100
AcDbSpline
 62
7
  6
CONTINUOUS
 70
0
 71
3
 72
11
 73
7
 74
0
 42
0.0000001
 43
0.0000001
 44
0.0000000001
 40
0.0
 40
0.0
 40
0.0
 40
0.0
 40
0.2068746868
 40
0.4456873803
 40
0.7131228184
 40
1.0
 40
1.0
 40
1.0
 40
1.0
 10
29.2197894925
 20
82.3066626404
 30
0.0
 10
29.1848956882
 20
82.3566813785
 30
0.0
 10
29.08935489
 20
82.4504154312
 30
0.0
 10
28.9053654924
 20
82.5551940802
 30
0.0
 10
28.6824157209
 20
82.6296529075
 30
0.0
 10
28.5202636308
 20
82.6554104858
 30
0.0
 10
28.435987835
 20
82.6624860308
 30
0.0
  0
SPLINE
  5
463
100
AcDbEntity
  8
0
100
AcDbSpline
 62
7
  6
CONTINUOUS
 70
0
 71
3
 72
16
 73
12
 74
0
 42
0.0000001
 43
0.0000001
 44
0.0000000001
 40
0.0
 40
0.0
 40
0.0
 40
0.0
 40
0.1287146898
 40
0.2704100302
 40
0.4176106922
 40
0.5620231824
 40
0.6957482955
 40
0.8130665273
 40
0.9124764009
 40
0.9571240488
 40
1.0
 40
1.0
 40
1.0
 40
1.0
 10
27.58497183
 20
89.2763641997
 30
0.0
 10
27.6589774979
 20
89.319091137
 30
0.0
 10
27.8265953189
 20
89.3882183254
 30
0.0
 10
28.0997313088
 20
89.4429322394
 30
0.0
 10
28.3886835424
 20
89.450850203
 30
0.0
 10
28.6697000781
 20
89.4114591967
 30
0.0
 10
28.9203829494
 20
89.3275414585
 30
0.0
 10
29.1212218144
 20
89.2056587147
 30
0.0
 10
29.2382900178
 20
89.0713129702
 30
0.0
 10
29.284396968
 20
88.9549307708
 30
0.0
 10
29.2920699495
 20
88.8965889793
 30
0.0
 10
29.2920810822
 20
88.8681234461
 30
0.0
  0
LINE
  5
464
100
AcDbEntity
  8
0
100
AcDbLine
 62
7
  6
CONTINUOUS
 10
32.9458853006
 20
81.2355633496
 11
32.7513439394
 21
81.4992112838
  0
SPLINE
  5
465
100
AcDbEntity
  8
0
100
AcDbSpline
 62
7
  6
CONTINUOUS
 70
0
 71
3
 72
9
 73
5
 74
0
 42
0.0000001
 43
0.0000001
 44
0.0000000001
 40
0.0
 40
0.0
 40
0.0
 40
0.0
 40
0.2549011492
 40
1.0
 40
1.0
 40
1.0
 40
1.0
 10
32.7513439394
 20
81.4992112838
 30
0.0
 10
32.4331897726
 20
81.605858269
 30
0.0
 10
31.1899719484
 20
82.0387324299
 30
0.0
 10
29.9670118069
 20
82.5303719261
 30
0.0
 10
29.072164708
 20
82.9320145447
 30
0.0
  0
SPLINE
  5
466
100
AcDbEntity
  8
0
100
AcDbSpline
 62
7
  6
CONTINUOUS
 70
0
 71
3
 72
19
 73
15
 74
0
 42
0.0000001
 43
0.0000001
 44
0.0000000001
 40
0.0
 40
0.0
 40
0.0
 40
0.0
 40
0.0603670478
 40
0.1145460405
 40
0.1631875917
 40
0.2085957962
 40
0.2540204782
 40
0.3026601591
 40
0.356735368
 40
0.4171934513
 40
0.5554346358
 40
0.7085783096
 40
0.8617199036
 40
1.0
 40
1.0
 40
1.0
 40
1.0
 10
48.7931966298
 20
104.4363450991
 30
0.0
 10
48.7620448758
 20
104.4183594039
 30
0.0
 10
48.7055073065
 20
104.3793292225
 30
0.0
 10
48.6378023851
 20
104.3083581313
 30
0.0
 10
48.5950188499
 20
104.2296217308
 30
0.0
 10
48.5802451068
 20
104.1461895282
 30
0.0
 10
48.5950279815
 20
104.0627476607
 30
0.0
 10
48.6378371616
 20
103.9841090524
 30
0.0
 10
48.7054143791
 20
103.9129871152
 30
0.0
 10
48.8302380162
 20
103.8272142168
 30
0.0
 10
49.0304086441
 20
103.7548023516
 30
0.0
 10
49.2957504347
 20
103.7259392478
 30
0.0
 10
49.5610464144
 20
103.7547171603
 30
0.0
 10
49.7269829491
 20
103.8148397022
 30
0.0
 10
49.7983415755
 20
103.8560375224
 30
0.0
  0
SPLINE
  5
467
100
AcDbEntity
  8
0
100
AcDbSpline
 62
7
  6
CONTINUOUS
 70
0
 71
3
 72
10
 73
6
 74
0
 42
0.0000001
 43
0.0000001
 44
0.0000000001
 40
0.0
 40
0.0
 40
0.0
 40
0.0
 40
0.2880183883
 40
0.5498823403
 40
1.0
 40
1.0
 40
1.0
 40
1.0
 10
24.234739417
 20
85.1679006029
 30
0.0
 10
24.1354536108
 20
85.2670065259
 30
0.0
 10
23.9512559746
 20
85.4616253923
 30
0.0
 10
23.6301552421
 20
85.8278910206
 30
0.0
 10
23.4128372049
 20
86.0985546162
 30
0.0
 10
23.2823189094
 20
86.2747079532
 30
0.0
  0
SPLINE
  5
468
100
AcDbEntity
  8
0
100
AcDbSpline
 62
7
  6
CONTINUOUS
 70
0
 71
3
 72
9
 73
5
 74
0
 42
0.0000001
 43
0.0000001
 44
0.0000000001
 40
0.0
 40
0.0
 40
0.0
 40
0.0
 40
0.46283632
 40
1.0
 40
1.0
 40
1.0
 40
1.0
 10
24.8975913819
 20
84.7053339601
 30
0.0
 10
24.883829188
 20
84.7599690392
 30
0.0
 10
24.8248054729
 20
84.8710168845
 30
0.0
 10
24.7321146433
 20
84.952848605
 30
0.0
 10
24.6784910324
 20
84.9902694697
 30
0.0
  0
SPLINE
  5
469
100
AcDbEntity
  8
0
100
AcDbSpline
 62
7
  6
CONTINUOUS
 70
0
 71
3
 72
9
 73
5
 74
0
 42
0.0000001
 43
0.0000001
 44
0.0000000001
 40
0.0
 40
0.0
 40
0.0
 40
0.0
 40
0.4728694866
 40
1.0
 40
1.0
 40
1.0
 40
1.0
 10
24.6784910324
 20
84.9902694697
 30
0.0
 10
24.6163890726
 20
85.0336068913
 30
0.0
 10
24.4724017543
 20
85.1073471635
 30
0.0
 10
24.3175246027
 20
85.1513771413
 30
0.0
 10
24.234739417
 20
85.1679006029
 30
0.0
  0
SPLINE
  5
46A
100
AcDbEntity
  8
0
100
AcDbSpline
 62
7
  6
CONTINUOUS
 70
0
 71
3
 72
10
 73
6
 74
0
 42
0.0000001
 43
0.0000001
 44
0.0000000001
 40
0.0
 40
0.0
 40
0.0
 40
0.0
 40
0.2921352133
 40
0.5540263014
 40
1.0
 40
1.0
 40
1.0
 40
1.0
 10
28.435987835
 20
82.6624860308
 30
0.0
 10
28.3422543803
 20
82.7418462703
 30
0.0
 10
28.1709569935
 20
82.9001236548
 30
0.0
 10
27.8812914501
 20
83.2049232334
 30
0.0
 10
27.6929976412
 20
83.436511534
 30
0.0
 10
27.58497183
 20
83.5897558881
 30
0.0
  0
SPLINE
  5
46B
100
AcDbEntity
  8
0
100
AcDbSpline
 62
7
  6
CONTINUOUS
 70
0
 71
3
 72
9
 73
5
 74
0
 42
0.0000001
 43
0.0000001
 44
0.0000000001
 40
0.0
 40
0.0
 40
0.0
 40
0.0
 40
0.2547925009
 40
1.0
 40
1.0
 40
1.0
 40
1.0
 10
27.5313441191
 20
83.6679729586
 30
0.0
 10
27.3193077207
 20
83.7756717253
 30
0.0
 10
26.4915753098
 20
84.2070582656
 30
0.0
 10
25.6821180326
 20
84.6737407923
 30
0.0
 10
25.0922750834
 20
85.0423864369
 30
0.0
  0
SPLINE
  5
46C
100
AcDbEntity
  8
0
100
AcDbSpline
 62
7
  6
CONTINUOUS
 70
0
 71
3
 72
16
 73
12
 74
0
 42
0.0000001
 43
0.0000001
 44
0.0000000001
 40
0.0
 40
0.0
 40
0.0
 40
0.0
 40
0.1338542127
 40
0.2780450764
 40
0.4252645426
 40
0.5680007982
 40
0.6993223072
 40
0.814492547
 40
0.9127223978
 40
0.9571661999
 40
1.0
 40
1.0
 40
1.0
 40
1.0
 10
23.2823189094
 20
91.8495878951
 30
0.0
 10
23.3592685297
 20
91.8852208492
 30
0.0
 10
23.5277357013
 20
91.9411246158
 30
0.0
 10
23.7954059413
 20
91.9803254334
 30
0.0
 10
24.0716131414
 20
91.9762031944
 30
0.0
 10
24.3356097333
 20
91.9292769002
 30
0.0
 10
24.5682087621
 20
91.8425662973
 30
0.0
 10
24.752943121
 20
91.7221319938
 30
0.0
 10
24.8592772898
 20
91.5927077232
 30
0.0
 10
24.9010883616
 20
91.4818614189
 30
0.0
 10
24.907947549
 20
91.4263522327
 30
0.0
 10
24.9079607941
 20
91.3992161166
 30
0.0
  0
SPLINE
  5
46D
100
AcDbEntity
  8
0
100
AcDbSpline
 62
7
  6
CONTINUOUS
 70
0
 71
3
 72
22
 73
18
 74
0
 42
0.0000001
 43
0.0000001
 44
0.0000000001
 40
0.0
 40
0.0
 40
0.0
 40
0.0
 40
0.0564060484
 40
0.1154973819
 40
0.1769621474
 40
0.2404730163
 40
0.3056279527
 40
0.3719882788
 40
0.506390644
 40
0.5735237112
 40
0.639946325
 40
0.7051914024
 40
0.7688194698
 40
0.8304298021
 40
0.8896721307
 40
0.9462626908
 40
1.0
 40
1.0
 40
1.0
 40
1.0
 10
27.1273171398
 20
116.7325719746
 30
0.0
 10
27.9171948399
 20
117.1885898941
 30
0.0
 10
29.5783350326
 20
118.0479951613
 30
0.0
 10
32.2207420983
 20
119.1528732246
 30
0.0
 10
35.0473210767
 20
120.0933296549
 30
0.0
 10
38.0270492628
 20
120.8593546328
 30
0.0
 10
41.1284252482
 20
121.44285677
 30
0.0
 10
45.3977467059
 20
121.9710252765
 30
0.0
 10
49.7400152884
 20
122.1081975422
 30
0.0
 10
54.0673873356
 20
121.8562003635
 30
0.0
 10
57.2612935967
 20
121.4738326119
 30
0.0
 10
60.3691411055
 20
120.9022624853
 30
0.0
 10
63.3577223703
 20
120.1476662122
 30
0.0
 10
66.194849295
 20
119.2181541797
 30
0.0
 10
68.8501700122
 20
118.1234543188
 30
0.0
 10
71.2949491837
 20
116.8753636959
 30
0.0
 10
72.8078834327
 20
115.9240957522
 30
0.0
 10
73.5188175783
 20
115.4245175308
 30
0.0
  0
SPLINE
  5
46E
100
AcDbEntity
  8
0
100
AcDbSpline
 62
7
  6
CONTINUOUS
 70
0
 71
3
 72
20
 73
16
 74
0
 42
0.0000001
 43
0.0000001
 44
0.0000000001
 40
0.0
 40
0.0
 40
0.0
 40
0.0
 40
0.1436611034
 40
0.2982618974
 40
0.4505869744
 40
0.52194521
 40
0.5882912156
 40
0.6488311487
 40
0.7034339164
 40
0.7528109008
 40
0.7987304696
 40
0.8438477461
 40
0.8910411594
 40
0.9426594128
 40
1.0
 40
1.0
 40
1.0
 40
1.0
 10
22.9783819175
 20
92.4871167101
 30
0.0
 10
23.1310292451
 20
92.5567070821
 30
0.0
 10
23.4696680258
 20
92.6548670865
 30
0.0
 10
23.9977558459
 20
92.6901835819
 30
0.0
 10
24.439362857
 20
92.6297448871
 30
0.0
 10
24.7622776057
 20
92.5250670628
 30
0.0
 10
24.9718099725
 20
92.4247314747
 30
0.0
 10
25.1471561492
 20
92.3038598701
 30
0.0
 10
25.2828134387
 20
92.1657892891
 30
0.0
 10
25.3736157201
 20
92.0137668595
 30
0.0
 10
25.4146821
 20
91.8523025783
 30
0.0
 10
25.4025191461
 20
91.6885199212
 30
0.0
 10
25.3382563623
 20
91.5306307258
 30
0.0
 10
25.226453631
 20
91.3844278282
 30
0.0
 10
25.1285782215
 20
91.3017019087
 30
0.0
 10
25.0740880645
 20
91.2627856272
 30
0.0
  0
SPLINE
  5
46F
100
AcDbEntity
  8
0
100
AcDbSpline
 62
7
  6
CONTINUOUS
 70
0
 71
3
 72
9
 73
5
 74
0
 42
0.0000001
 43
0.0000001
 44
0.0000000001
 40
0.0
 40
0.0
 40
0.0
 40
0.0
 40
0.245164136
 40
1.0
 40
1.0
 40
1.0
 40
1.0
 10
25.0740880645
 20
91.2627856272
 30
0.0
 10
25.0657549909
 20
91.2568342359
 30
0.0
 10
25.0314562921
 20
91.2329934986
 30
0.0
 10
24.9959700864
 20
91.2108702159
 30
0.0
 10
24.968665847
 20
91.1951062
 30
0.0
  0
SPLINE
  5
470
100
AcDbEntity
  8
0
100
AcDbSpline
 62
7
  6
CONTINUOUS
 70
0
 71
3
 72
9
 73
5
 74
0
 42
0.0000001
 43
0.0000001
 44
0.0000000001
 40
0.0
 40
0.0
 40
0.0
 40
0.0
 40
0.2454449631
 40
1.0
 40
1.0
 40
1.0
 40
1.0
 10
24.8902316444
 20
91.1529479858
 30
0.0
 10
25.0710283959
 20
91.0378722563
 30
0.0
 10
25.8128522314
 20
90.5772527582
 30
0.0
 10
26.5747381232
 20
90.149102595
 30
0.0
 10
27.1583963836
 20
89.8434520585
 30
0.0
  0
SPLINE
  5
471
100
AcDbEntity
  8
0
100
AcDbSpline
 62
7
  6
CONTINUOUS
 70
0
 71
3
 72
22
 73
18
 74
0
 42
0.0000001
 43
0.0000001
 44
0.0000000001
 40
0.0
 40
0.0
 40
0.0
 40
0.0
 40
0.1377391398
 40
0.2130654455
 40
0.2904905028
 40
0.3682122188
 40
0.4443800371
 40
0.5172729081
 40
0.585438803
 40
0.6478263348
 40
0.7040361262
 40
0.7545421039
 40
0.8009285278
 40
0.845859254
 40
0.8924574238
 40
0.9433949111
 40
1.0
 40
1.0
 40
1.0
 40
1.0
 10
27.2314169674
 20
89.8887357856
 30
0.0
 10
27.376062953
 20
89.9722466858
 30
0.0
 10
27.6225036633
 20
90.0633400672
 30
0.0
 10
27.9690923644
 20
90.127297671
 30
0.0
 10
28.2485490569
 20
90.1470654855
 30
0.0
 10
28.5293624978
 20
90.1366432157
 30
0.0
 10
28.8019727638
 20
90.0962111894
 30
0.0
 10
29.0568724528
 20
90.0272400206
 30
0.0
 10
29.2853666921
 20
89.9321067773
 30
0.0
 10
29.4796552609
 20
89.8137101003
 30
0.0
 10
29.6332117785
 20
89.6756551222
 30
0.0
 10
29.7403330033
 20
89.521488789
 30
0.0
 10
29.7951292439
 20
89.3555145102
 30
0.0
 10
29.7931646762
 20
89.1851402311
 30
0.0
 10
29.7343409224
 20
89.0197317891
 30
0.0
 10
29.6236525853
 20
88.8666980445
 30
0.0
 10
29.5247020994
 20
88.7801848366
 30
0.0
 10
29.4692937927
 20
88.7396721093
 30
0.0
  0
SPLINE
  5
472
100
AcDbEntity
  8
0
100
AcDbSpline
 62
7
  6
CONTINUOUS
 70
0
 71
3
 72
17
 73
13
 74
0
 42
0.0000001
 43
0.0000001
 44
0.0000000001
 40
0.0
 40
0.0
 40
0.0
 40
0.0
 40
0.1192792249
 40
0.2453409447
 40
0.3758066682
 40
0.507978064
 40
0.6390525923
 40
0.766298889
 40
0.8277230732
 40
0.8872951894
 40
0.9447962103
 40
1.0
 40
1.0
 40
1.0
 40
1.0
 10
29.4692937927
 20
88.7396721093
 30
0.0
 10
31.0928409471
 20
88.0335099498
 30
0.0
 10
34.5364075201
 20
86.8134859747
 30
0.0
 10
39.9877690193
 20
85.5808810541
 30
0.0
 10
45.73035456
 20
84.9212928748
 30
0.0
 10
51.5841676821
 20
84.8559082746
 30
0.0
 10
57.3660821506
 20
85.3865051275
 30
0.0
 10
62.0299030988
 20
86.3226748241
 30
0.0
 10
65.5667743897
 20
87.3626029132
 30
0.0
 10
68.0596066795
 20
88.2655465091
 30
0.0
 10
70.4031192965
 20
89.2932640656
 30
0.0
 10
71.8854166589
 20
90.0726721883
 30
0.0
 10
72.5950342548
 20
90.4823676527
 30
0.0
  0
SPLINE
  5
473
100
AcDbEntity
  8
0
100
AcDbSpline
 62
7
  6
CONTINUOUS
 70
0
 71
3
 72
15
 73
11
 74
0
 42
0.0000001
 43
0.0000001
 44
0.0000000001
 40
0.0
 40
0.0
 40
0.0
 40
0.0
 40
0.1476372613
 40
0.288089812
 40
0.4212749963
 40
0.5475220939
 40
0.6674285762
 40
0.7819161356
 40
0.8922522705
 40
1.0
 40
1.0
 40
1.0
 40
1.0
 10
72.5950342548
 20
90.4823676527
 30
0.0
 10
73.2997190389
 20
90.889215174
 30
0.0
 10
74.6444575723
 20
91.7375913725
 30
0.0
 10
76.4938368343
 20
93.1467495558
 30
0.0
 10
78.1104595918
 20
94.6505497761
 30
0.0
 10
79.4798613682
 20
96.2364783179
 30
0.0
 10
80.5899232326
 20
97.8917863376
 30
0.0
 10
81.4297041477
 20
99.6031952928
 30
0.0
 10
81.9900699294
 20
101.3554095342
 30
0.0
 10
82.1743999294
 20
102.54924054
 30
0.0
 10
82.2171435746
 20
103.1415488889
 30
0.0
  0
LINE
  5
474
100
AcDbEntity
  8
0
100
AcDbLine
 62
7
  6
CONTINUOUS
 10
31.0270739399
 20
117.2056890706
 11
30.9967173038
 21
117.1384940532
  0
SPLINE
  5
475
100
AcDbEntity
  8
0
100
AcDbSpline
 62
7
  6
CONTINUOUS
 70
0
 71
3
 72
9
 73
5
 74
0
 42
0.0000001
 43
0.0000001
 44
0.0000000001
 40
0.0
 40
0.0
 40
0.0
 40
0.0
 40
0.5068598584
 40
1.0
 40
1.0
 40
1.0
 40
1.0
 10
16.2152096788
 20
100.5058925932
 30
0.0
 10
15.9409399777
 20
99.8729719119
 30
0.0
 10
15.4955517183
 20
98.5798532989
 30
0.0
 10
15.2752192792
 20
97.2290099494
 30
0.0
 10
15.2262307641
 20
96.5596800202
 30
0.0
  0
ELLIPSE
  5
476
100
AcDbEntity
  8
0
100
AcDbEllipse
 62
7
  6
CONTINUOUS
 10
49.2957688112
 20
93.8092705418
 30
0.0
 11
36.276006325
 21
3.0164967366
 31
0.0
 40
0.6252280718
 41
-0.8373374774
 42
-0.7012901393
  0
ENDSEC
  0
SECTION
  2
OBJECTS
  0
DICTIONARY
  5
C
100
AcDbDictionary
280
0
281
1
  3
ACAD_GROUP
350
D
  3
ACAD_MLINESTYLE
350
17
  3
ACAD_LAYOUT
350
1A
  3
ACAD_PLOTSETTINGS
350
19
  3
ACAD_PLOTSTYLENAME
350
E
  0
DICTIONARY
  5
D
102
{ACAD_REACTORS
330
C
102
}
100
AcDbDictionary
280
0
281
1
  0
ACDBDICTIONARYWDFLT
  5
E
102
{ACAD_REACTORS
330
C
102
}
100
AcDbDictionary
281
1
  3
Normal
350
F
100
AcDbDictionaryWithDefault
340
F
  0
DICTIONARY
  5
17
102
{ACAD_REACTORS
330
C
102
}
100
AcDbDictionary
280
0
281
1
  3
Standard
350
18
  0
DICTIONARY
  5
19
102
{ACAD_REACTORS
330
C
102
}
100
AcDbDictionary
281
1
  0
DICTIONARY
  5
1A
102
{ACAD_REACTORS
330
C
102
}
100
AcDbDictionary
281
1
  3
Model
350
477
  3
Layout1
350
478
  0
ACDBPLACEHOLDER
  5
F
102
{ACAD_REACTORS
330
E
102
}
  0
MLINESTYLE
  5
18
102
{ACAD_REACTORS
330
17
102
}
100
AcDbMlineStyle
  2
STANDARD
 70
0
  3

 62
256
 51
90.0
 52
90.0
 71
2
 49
0.5
 62
256
  6
BYLAYER
 49
-0.5
 62
256
  6
BYLAYER
  0
LAYOUT
  5
477
102
{ACAD_REACTORS
330
1A
102
}
100
AcDbPlotSettings
  1

  2
none_device
  4

  6

 40
0.0
 41
0.0
 42
0.0
 43
0.0
 44
210.0
 45
297.0
 46
0.0
 47
0.0
 48
0.0
 49
0.0
140
0.0
141
0.0
142
1.0
143
1.0
 70
1024
 72
1
 73
0
 74
0
  7

 75
0
147
1.0
148
0.0
149
0.0
100
AcDbLayout
  1
Model
 70
0
 71
0
 10
0.0
 20
0.0
 11
210.0
 21
297.0
 12
0.0
 22
0.0
 32
0.0
 14
0.0
 24
0.0
 34
0.0
 15
0.0
 25
0.0
 35
0.0
146
0.0
 13
0.0
 23
0.0
 33
0.0
 16
1.0
 26
0.0
 36
0.0
 17
0.0
 27
1.0
 37
0.0
 76
0
330
210
345
0
346
0
  0
LAYOUT
  5
478
102
{ACAD_REACTORS
330
1A
102
}
100
AcDbPlotSettings
  1

  2
none_device
  4

  6

 40
0.0
 41
0.0
 42
0.0
 43
0.0
 44
210.0
 45
297.0
 46
0.0
 47
0.0
 48
0.0
 49
0.0
140
0.0
141
0.0
142
1.0
143
1.0
 70
0
 72
1
 73
0
 74
0
  7

 75
0
147
1.0
148
0.0
149
0.0
100
AcDbLayout
  1
Layout1
 70
0
 71
1
 10
0.0
 20
0.0
 11
210.0
 21
297.0
 12
0.0
 22
0.0
 32
0.0
 14
0.0
 24
0.0
 34
0.0
 15
0.0
 25
0.0
 35
0.0
146
0.0
 13
0.0
 23
0.0
 33
0.0
 16
1.0
 26
0.0
 36
0.0
 17
0.0
 27
1.0
 37
0.0
 76
0
330
211
345
0
346
0
  0
ENDSEC
  0
EOF
