999
DXF file: C:\Users\sesa63760\Dev\_Creo\CAD\MCADID0005528_3D-CAD\drw0001_3.dxf
999
Pro/ENGINEER 2019471 by Parametric Technology Corporation
  0
SECTION
  2
HEADER
  9
$ACADVER
  1
AC1024
  9
$DWGCODEPAGE
  3
ANSI_1252
  9
$EXTMAX
 10
38.8323735844
 20
54.9200712122
 30
0.0
  9
$EXTMIN
 10
0.0
 20
0.0
 30
0.0
  9
$LIMMIN
 10
0.0
 20
0.0
  9
$LIMMAX
 10
38.8323735844
 20
54.9200712122
  9
$VIEWCTR
 10
19.4161867922
 20
27.4600356061
  9
$VIEWSIZE
 40
54.9200712122
  9
$CLAYER
  8
0
  9
$LTSCALE
 40
3.5799750124
  9
$CELTYPE
  6
BYLAYER
  9
$DIMSCALE
 40
1.0
  9
$DIMASZ
 40
0.4622901617
  9
$DIMEXO
 40
1.0
  9
$DIMDLI
 40
2.4734372813
  9
$DIMEXE
 40
1.0
  9
$DIMCEN
 40
0.5858140929
  9
$DIMLFAC
 40
1.0
  9
$DIMBLK
  1
_FILLED
  9
$DIMALT
 70
0
  9
$DIMALTF
 40
0.0393700787
  9
$DIMTXT
 40
0.6472062264
  9
$DIMTOL
 70
1
  9
$DIMLIM
 70
0
  9
$DIMTFAC
 40
1.0
  9
$DIMTP
 40
0.01
  9
$DIMTM
 40
0.01
  9
$DIMGAP
 40
0.625
  9
$DIMDSEP
 70
46
  9
$AUNITS
 70
0
  9
$PDMODE
 70
3
  9
$PDSIZE
 40
0.3125
  9
$HANDSEED
  5
2BC
  9
$TILEMODE
 70
1
  9
$MEASUREMENT
 70
1
  9
$INSUNITS
 70
4
  0
ENDSEC
  0
SECTION
  2
CLASSES
  0
CLASS
  1
ACDBDICTIONARYWDFLT
  2
AcDbDictionaryWithDefault
  3
AutoCAD 2000
 90
0
 91
1
280
0
281
0
  0
CLASS
  1
ACDBPLACEHOLDER
  2
AcDbPlaceHolder
  3
AutoCAD 2000
 90
0
 91
1
280
0
281
0
  0
CLASS
  1
LAYOUT
  2
AcDbLayout
  3
AutoCAD 2000
 90
0
 91
0
280
0
281
0
  0
ENDSEC
  0
SECTION
  2
TABLES
  0
TABLE
  2
VPORT
  5
8
100
AcDbSymbolTable
 70
2
  0
VPORT
  5
1F4
100
AcDbSymbolTableRecord
100
AcDbViewportTableRecord
  2
*ACTIVE
 70
0
 10
0.0
 20
0.0
 11
1.0
 21
1.0
 12
19.4161867922
 22
27.4600356061
 13
0.0
 23
0.0
 14
1.0
 24
1.0
 15
0.0
 25
0.0
 16
0.0
 26
0.0
 36
1.0
 17
0.0
 27
0.0
 37
0.0
 40
54.9200712122
 41
0.7070707071
 42
50.0
 43
0.0
 44
0.0
 50
0.0
 51
0.0
 71
0
 72
100
 73
1
 74
1
 75
0
 76
0
 77
0
 78
0
  0
ENDTAB
  0
TABLE
  2
LTYPE
  5
5
100
AcDbSymbolTable
 70
6
  0
LTYPE
  5
14
100
AcDbSymbolTableRecord
100
AcDbLinetypeTableRecord
  2
BYBLOCK
 70
0
  3

 72
65
 73
0
 40
0.0
  0
LTYPE
  5
15
100
AcDbSymbolTableRecord
100
AcDbLinetypeTableRecord
  2
BYLAYER
 70
0
  3

 72
65
 73
0
 40
0.0
  0
LTYPE
  5
16
100
AcDbSymbolTableRecord
100
AcDbLinetypeTableRecord
  2
CONTINUOUS
 70
64
  3
Solid line
 72
65
 73
0
 40
0.0
  0
LTYPE
  5
1F5
100
AcDbSymbolTableRecord
100
AcDbLinetypeTableRecord
  2
CENTER
 70
64
  3
____ _ ____ _ ____ _ ____ _ ____ _ ____ _ ____
 72
65
 73
4
 40
0.6
 49
0.375
 74
0
 49
-0.075
 74
0
 49
0.075
 74
0
 49
-0.075
 74
0
  0
LTYPE
  5
1F6
100
AcDbSymbolTableRecord
100
AcDbLinetypeTableRecord
  2
HIDDEN
 70
64
  3
- - - - - - - - - - - - - - - - - - - -
 72
65
 73
2
 40
0.2
 49
0.1
 74
0
 49
-0.1
 74
0
  0
LTYPE
  5
1F7
100
AcDbSymbolTableRecord
100
AcDbLinetypeTableRecord
  2
PHANTOM
 70
64
  3
_____ _ _ _____ _ _ _____ _ _ _____
 72
65
 73
6
 40
0.8
 49
0.45
 74
0
 49
-0.05
 74
0
 49
0.1
 74
0
 49
-0.05
 74
0
 49
0.1
 74
0
 49
-0.05
 74
0
  0
LTYPE
  5
1F8
100
AcDbSymbolTableRecord
100
AcDbLinetypeTableRecord
  2
DOT
 70
64
  3
. . . . . . . . . . . . . . . . . . . .
 72
65
 73
2
 40
0.2
 49
0.1
 74
0
 49
-0.1
 74
0
  0
LTYPE
  5
1F9
100
AcDbSymbolTableRecord
100
AcDbLinetypeTableRecord
  2
DASHED
 70
64
  3
- - - - - - - - - - - - - - - - - - - -
 72
65
 73
2
 40
0.2
 49
0.1
 74
0
 49
-0.1
 74
0
  0
ENDTAB
  0
TABLE
  2
LAYER
  5
2
100
AcDbSymbolTable
 70
36
  0
LAYER
  5
10
100
AcDbSymbolTableRecord
100
AcDbLayerTableRecord
  2
0
 70
0
 62
7
  6
CONTINUOUS
370
-3
390
F
  0
LAYER
  5
1FA
100
AcDbSymbolTableRecord
100
AcDbLayerTableRecord
  2
DEFAULT_1
 70
0
 62
7
  6
CENTER
370
-3
390
F
  0
LAYER
  5
1FB
100
AcDbSymbolTableRecord
100
AcDbLayerTableRecord
  2
DEFAULT_2
 70
0
 62
7
  6
HIDDEN
370
-3
390
F
  0
LAYER
  5
1FC
100
AcDbSymbolTableRecord
100
AcDbLayerTableRecord
  2
DEFAULT_3
 70
0
 62
7
  6
PHANTOM
370
-3
390
F
  0
LAYER
  5
1FD
100
AcDbSymbolTableRecord
100
AcDbLayerTableRecord
  2
00_COMPONENTS
 70
0
 62
7
  6
CONTINUOUS
370
-3
390
F
  0
LAYER
  5
1FE
100
AcDbSymbolTableRecord
100
AcDbLayerTableRecord
  2
01_1_DEFAULT_DATUMS
 70
0
 62
7
  6
CONTINUOUS
370
-3
390
F
  0
LAYER
  5
1FF
100
AcDbSymbolTableRecord
100
AcDbLayerTableRecord
  2
01_PLANES
 70
0
 62
7
  6
CONTINUOUS
370
-3
390
F
  0
LAYER
  5
200
100
AcDbSymbolTableRecord
100
AcDbLayerTableRecord
  2
02_COORD_SYS
 70
0
 62
7
  6
CONTINUOUS
370
-3
390
F
  0
LAYER
  5
201
100
AcDbSymbolTableRecord
100
AcDbLayerTableRecord
  2
03_AXES
 70
0
 62
7
  6
CONTINUOUS
370
-3
390
F
  0
LAYER
  5
202
100
AcDbSymbolTableRecord
100
AcDbLayerTableRecord
  2
04_POINTS
 70
0
 62
7
  6
CONTINUOUS
370
-3
390
F
  0
LAYER
  5
203
100
AcDbSymbolTableRecord
100
AcDbLayerTableRecord
  2
05_CURVES
 70
0
 62
7
  6
CONTINUOUS
370
-3
390
F
  0
LAYER
  5
204
100
AcDbSymbolTableRecord
100
AcDbLayerTableRecord
  2
06_SURFS
 70
0
 62
7
  6
CONTINUOUS
370
-3
390
F
  0
LAYER
  5
205
100
AcDbSymbolTableRecord
100
AcDbLayerTableRecord
  2
07_COSMETICS
 70
0
 62
7
  6
CONTINUOUS
370
-3
390
F
  0
LAYER
  5
206
100
AcDbSymbolTableRecord
100
AcDbLayerTableRecord
  2
10_NOTES
 70
0
 62
7
  6
CONTINUOUS
370
-3
390
F
  0
LAYER
  5
207
100
AcDbSymbolTableRecord
100
AcDbLayerTableRecord
  2
11_NOTES_PUB
 70
0
 62
7
  6
CONTINUOUS
370
-3
390
F
  0
LAYER
  5
208
100
AcDbSymbolTableRecord
100
AcDbLayerTableRecord
  2
13_REF_GTOL
 70
0
 62
7
  6
CONTINUOUS
370
-3
390
F
  0
LAYER
  5
209
100
AcDbSymbolTableRecord
100
AcDbLayerTableRecord
  2
16_MISC
 70
0
 62
7
  6
CONTINUOUS
370
-3
390
F
  0
LAYER
  5
20A
100
AcDbSymbolTableRecord
100
AcDbLayerTableRecord
  2
17_NO_PRINT
 70
0
 62
7
  6
CONTINUOUS
370
-3
390
F
  0
LAYER
  5
20B
100
AcDbSymbolTableRecord
100
AcDbLayerTableRecord
  2
18_DATUM_CAMS_JOINTS
 70
0
 62
7
  6
CONTINUOUS
370
-3
390
F
  0
LAYER
  5
20C
100
AcDbSymbolTableRecord
100
AcDbLayerTableRecord
  2
19_DATUM_FUNCTIONAL
 70
0
 62
7
  6
CONTINUOUS
370
-3
390
F
  0
LAYER
  5
20D
100
AcDbSymbolTableRecord
100
AcDbLayerTableRecord
  2
20_DATUM_KINEMATIC_SCHEME
 70
0
 62
7
  6
CONTINUOUS
370
-3
390
F
  0
ENDTAB
  0
TABLE
  2
STYLE
  5
3
100
AcDbSymbolTable
 70
1
  0
STYLE
  5
11
100
AcDbSymbolTableRecord
100
AcDbTextStyleTableRecord
  2
STANDARD
 70
0
 40
0.0
 41
1.0
 50
0.0
 71
0
 42
0.2
  3
ARIAL.TTF
  4

  0
STYLE
  5
20E
100
AcDbSymbolTableRecord
100
AcDbTextStyleTableRecord
  2
TEXTSTYLE_1
 70
0
 40
0.0
 41
0.8
 50
0.0
 71
0
 42
0.2
  3
gdt
  4

  0
ENDTAB
  0
TABLE
  2
VIEW
  5
6
100
AcDbSymbolTable
 70
0
  0
ENDTAB
  0
TABLE
  2
UCS
  5
7
100
AcDbSymbolTable
 70
0
  0
ENDTAB
  0
TABLE
  2
APPID
  5
9
100
AcDbSymbolTable
 70
1
  0
APPID
  5
20F
100
AcDbSymbolTableRecord
100
AcDbRegAppTableRecord
  2
ACAD
 70
0
  0
ENDTAB
  0
TABLE
  2
BLOCK_RECORD
  5
1
100
AcDbSymbolTable
 70
0
  0
BLOCK_RECORD
  5
210
100
AcDbSymbolTableRecord
100
AcDbBlockTableRecord
  2
*Model_Space
  0
BLOCK_RECORD
  5
211
100
AcDbSymbolTableRecord
100
AcDbBlockTableRecord
  2
*Paper_Space
  0
BLOCK_RECORD
  5
212
100
AcDbSymbolTableRecord
100
AcDbBlockTableRecord
  2
_FILLED
  0
ENDTAB
  0
TABLE
  2
DIMSTYLE
  5
A
100
AcDbSymbolTable
 70
1
100
AcDbDimStyleTable
 71
0
  0
DIMSTYLE
105
213
100
AcDbSymbolTableRecord
100
AcDbDimStyleTableRecord
  2
STANDARD
 70
0
  3

  4

 40
1.0
 41
0.4622901617
 42
1.0
 43
0.38
 44
1.0
 45
0.0
 46
0.0
 47
0.01
 48
0.01
140
0.6472062264
141
0.09
142
0.0
143
25.4
144
1.0
145
0.0
146
1.0
147
0.625
 71
1
 72
0
 73
0
 74
0
 75
0
 76
0
 77
1
 78
8
 79
2
170
0
171
1
172
0
173
0
174
0
175
0
176
0
177
0
178
0
270
2
179
2
271
2
272
2
273
2
274
2
275
0
280
0
281
0
282
0
283
1
284
8
285
0
286
0
287
3
288
0
340
11
278
46
341
212
342
212
343
212
344
212
  0
ENDTAB
  0
ENDSEC
  0
SECTION
  2
BLOCKS
  0
BLOCK
  5
20
100
AcDbEntity
  8
0
100
AcDbBlockBegin
  2
*Model_Space
 70
0
 10
0.0
 20
0.0
 30
0.0
  3
*Model_Space
  1

  0
ENDBLK
  5
21
100
AcDbEntity
  8
0
100
AcDbBlockEnd
  0
BLOCK
  5
1C
100
AcDbEntity
  8
0
100
AcDbBlockBegin
  2
*Paper_Space
 70
0
 10
0.0
 20
0.0
 30
0.0
  3
*Paper_Space
  1

  0
ENDBLK
  5
1D
100
AcDbEntity
  8
0
100
AcDbBlockEnd
  0
BLOCK
  5
214
100
AcDbEntity
  8
0
100
AcDbBlockBegin
  2
_FILLED
 70
64
 10
0.0
 20
0.0
  3
_FILLED
  1

  0
SOLID
  5
215
100
AcDbEntity
  8
0
  6
BYBLOCK
 62
0
100
AcDbTrace
 10
0.0
 20
0.0
 11
-1.0
 21
0.25
 12
-1.0
 22
-0.25
 13
-1.0
 23
-0.25
  0
ENDBLK
  5
216
100
AcDbEntity
  8
0
  6
BYBLOCK
 62
0
100
AcDbBlockEnd
  0
ENDSEC
  0
SECTION
  2
ENTITIES
  0
LINE
  5
217
100
AcDbEntity
  8
0
100
AcDbLine
 62
7
  6
BYLAYER
 10
27.9920174951
 20
4.4030167251
 11
25.6925470751
 21
4.4030167251
  0
LINE
  5
218
100
AcDbEntity
  8
0
100
AcDbLine
 62
7
  6
BYLAYER
 10
14.215371673
 20
4.4030167251
 11
11.9159021596
 21
4.4030167251
  0
LINE
  5
219
100
AcDbEntity
  8
0
100
AcDbLine
 62
7
  6
BYLAYER
 10
10.8676856857
 20
5.6030167251
 11
15.6539598273
 21
5.6030167251
  0
LINE
  5
21A
100
AcDbEntity
  8
0
100
AcDbLine
 62
7
  6
BYLAYER
 10
24.2539598273
 20
5.6030167251
 11
29.0351265144
 21
5.6030167251
  0
LINE
  5
21B
100
AcDbEntity
  8
0
100
AcDbLine
 62
7
  6
BYLAYER
 10
24.2539598273
 20
5.9030167251
 11
15.6539598273
 21
5.9030167251
  0
LINE
  5
21C
100
AcDbEntity
  8
0
100
AcDbLine
 62
7
  6
BYLAYER
 10
23.4539601012
 20
8.8040167251
 11
16.4539601012
 21
8.8040167251
  0
LINE
  5
21D
100
AcDbEntity
  8
0
100
AcDbLine
 62
7
  6
BYLAYER
 10
9.62747618
 20
9.0030167251
 11
11.2539598273
 21
9.0030167251
  0
LINE
  5
21E
100
AcDbEntity
  8
0
100
AcDbLine
 62
7
  6
BYLAYER
 10
28.6539598273
 20
9.0030167251
 11
30.2804665562
 21
9.0030167251
  0
LINE
  5
21F
100
AcDbEntity
  8
0
100
AcDbLine
 62
7
  6
BYLAYER
 10
30.478217232
 20
11.6920167251
 11
28.6539598273
 21
11.6920167251
  0
LINE
  5
220
100
AcDbEntity
  8
0
100
AcDbLine
 62
7
  6
BYLAYER
 10
11.2539598273
 20
11.6920167251
 11
9.4297024226
 21
11.6920167251
  0
LINE
  5
221
100
AcDbEntity
  8
0
100
AcDbLine
 62
7
  6
BYLAYER
 10
11.9533348586
 20
11.6920167251
 11
27.9545847961
 21
11.6920167251
  0
LINE
  5
222
100
AcDbEntity
  8
0
100
AcDbLine
 62
7
  6
BYLAYER
 10
5.7039598236
 20
34.3880925472
 11
5.7039598236
 21
25.7020167251
  0
LINE
  5
223
100
AcDbEntity
  8
0
100
AcDbLine
 62
7
  6
BYLAYER
 10
7.3539598273
 20
24.5020167251
 11
7.3539598273
 21
23.2520167251
  0
LINE
  5
224
100
AcDbEntity
  8
0
100
AcDbLine
 62
7
  6
BYLAYER
 10
7.4789598273
 20
35.0320169325
 11
7.4789598273
 21
34.8020166625
  0
LINE
  5
225
100
AcDbEntity
  8
0
100
AcDbLine
 62
7
  6
BYLAYER
 10
8.6995256616
 20
35.5359409988
 11
8.6996388858
 21
35.2137587262
  0
LINE
  5
226
100
AcDbEntity
  8
0
100
AcDbLine
 62
7
  6
BYLAYER
 10
7.8304016592
 20
35.5359410047
 11
7.8304016592
 21
45.850954141
  0
LINE
  5
227
100
AcDbEntity
  8
0
100
AcDbLine
 62
7
  6
BYLAYER
 10
8.5650395789
 20
49.1618737209
 11
8.5650395789
 21
35.5359409988
  0
LINE
  5
228
100
AcDbEntity
  8
0
100
AcDbLine
 62
7
  6
BYLAYER
 10
9.0789598273
 20
20.5530167251
 11
9.0789598273
 21
23.2520167251
  0
LINE
  5
229
100
AcDbEntity
  8
0
100
AcDbLine
 62
7
  6
BYLAYER
 10
9.9824993024
 20
21.2306529105
 11
9.5335137209
 21
22.2683140349
  0
LINE
  5
22A
100
AcDbEntity
  8
0
100
AcDbLine
 62
7
  6
BYLAYER
 10
9.4968774162
 20
22.4568439526
 11
9.5335137209
 21
22.2683140349
  0
LINE
  5
22B
100
AcDbEntity
  8
0
100
AcDbLine
 62
7
  6
BYLAYER
 10
9.4969873982
 20
22.4673662491
 11
9.4968594825
 21
23.2520167251
  0
LINE
  5
22C
100
AcDbEntity
  8
0
100
AcDbLine
 62
7
  6
BYLAYER
 10
9.4297024226
 20
19.8920167251
 11
9.4297024226
 21
11.6920167251
  0
LINE
  5
22D
100
AcDbEntity
  8
0
100
AcDbLine
 62
7
  6
BYLAYER
 10
9.4539598273
 20
19.8920167251
 11
9.4539598273
 21
20.3030167251
  0
LINE
  5
22E
100
AcDbEntity
  8
0
100
AcDbLine
 62
7
  6
BYLAYER
 10
9.62747618
 20
8.1029916702
 11
9.62747618
 21
9.0030167251
  0
LINE
  5
22F
100
AcDbEntity
  8
0
100
AcDbLine
 62
7
  6
BYLAYER
 10
9.6595493868
 20
9.0030167251
 11
9.6595493868
 21
7.9267925683
  0
LINE
  5
230
100
AcDbEntity
  8
0
100
AcDbLine
 62
7
  6
BYLAYER
 10
9.4969873982
 20
22.4673662491
 11
9.4968774162
 21
22.4568439526
  0
LINE
  5
231
100
AcDbEntity
  8
0
100
AcDbLine
 62
7
  6
BYLAYER
 10
7.0939596938
 20
34.8020166625
 11
5.7039598273
 21
34.3880925483
  0
LINE
  5
232
100
AcDbEntity
  8
0
100
AcDbLine
 62
7
  6
BYLAYER
 10
11.1852454154
 20
19.8920167251
 11
11.1852454154
 21
11.6920167251
  0
LINE
  5
233
100
AcDbEntity
  8
0
100
AcDbLine
 62
7
  6
BYLAYER
 10
11.185696119
 20
9.0030167251
 11
11.185696119
 21
5.6030167251
  0
LINE
  5
234
100
AcDbEntity
  8
0
100
AcDbLine
 62
7
  6
BYLAYER
 10
11.2539598273
 20
11.6920167251
 11
11.2539598273
 21
9.0030167251
  0
LINE
  5
235
100
AcDbEntity
  8
0
100
AcDbLine
 62
7
  6
BYLAYER
 10
11.5041077576
 20
5.6030167251
 11
11.5041077576
 21
19.8920167251
  0
LINE
  5
236
100
AcDbEntity
  8
0
100
AcDbLine
 62
7
  6
BYLAYER
 10
11.8157544745
 20
22.4673662491
 11
11.8157903467
 21
23.2520167251
  0
LINE
  5
237
100
AcDbEntity
  8
0
100
AcDbLine
 62
7
  6
BYLAYER
 10
11.9533348517
 20
19.8920167251
 11
11.9533348517
 21
11.6920167251
  0
LINE
  5
238
100
AcDbEntity
  8
0
100
AcDbLine
 62
7
  6
BYLAYER
 10
9.4297024226
 20
19.8920167251
 11
11.9533348098
 21
19.8920167251
  0
LINE
  5
239
100
AcDbEntity
  8
0
100
AcDbLine
 62
7
  6
BYLAYER
 10
27.9545848449
 20
19.8920167251
 11
30.478217232
 21
19.8920167251
  0
LINE
  5
23A
100
AcDbEntity
  8
0
100
AcDbLine
 62
7
  6
BYLAYER
 10
22.6798358333
 20
20.2920167251
 11
17.2280838213
 21
20.2920167251
  0
LINE
  5
23B
100
AcDbEntity
  8
0
100
AcDbLine
 62
7
  6
BYLAYER
 10
30.5789598273
 20
20.3030167251
 11
9.3289598273
 21
20.3030167251
  0
LINE
  5
23C
100
AcDbEntity
  8
0
100
AcDbLine
 62
7
  6
BYLAYER
 10
30.8289598273
 20
20.5530167251
 11
9.0789598273
 21
20.5530167251
  0
LINE
  5
23D
100
AcDbEntity
  8
0
100
AcDbLine
 62
7
  6
BYLAYER
 10
13.9066463742
 20
11.6920167251
 11
13.9066463742
 21
5.6030167251
  0
LINE
  5
23E
100
AcDbEntity
  8
0
100
AcDbLine
 62
7
  6
BYLAYER
 10
14.1334065432
 20
4.4030167251
 11
14.1334065432
 21
5.6030167251
  0
LINE
  5
23F
100
AcDbEntity
  8
0
100
AcDbLine
 62
7
  6
BYLAYER
 10
14.1543524536
 20
5.6030167251
 11
14.1543524536
 21
4.4030167251
  0
LINE
  5
240
100
AcDbEntity
  8
0
100
AcDbLine
 62
7
  6
BYLAYER
 10
14.6414616348
 20
5.9040191789
 11
14.6414616348
 21
5.6030167251
  0
LINE
  5
241
100
AcDbEntity
  8
0
100
AcDbLine
 62
7
  6
BYLAYER
 10
10.4528862906
 20
20.6430167256
 11
10.6212387675
 21
20.6430167256
  0
LINE
  5
242
100
AcDbEntity
  8
0
100
AcDbLine
 62
7
  6
BYLAYER
 10
29.2866816626
 20
20.6430167256
 11
29.455034099
 21
20.6430167256
  0
LINE
  5
243
100
AcDbEntity
  8
0
100
AcDbLine
 62
7
  6
BYLAYER
 10
9.5335137209
 20
22.2683140349
 11
11.774573359
 21
22.2683140349
  0
LINE
  5
244
100
AcDbEntity
  8
0
100
AcDbLine
 62
7
  6
BYLAYER
 10
28.1333462971
 20
22.2683140349
 11
30.3744059338
 21
22.2683140349
  0
LINE
  5
245
100
AcDbEntity
  8
0
100
AcDbLine
 62
7
  6
BYLAYER
 10
23.4539601012
 20
8.8040167251
 11
25.2664580198
 21
5.9040200553
  0
LINE
  5
246
100
AcDbEntity
  8
0
100
AcDbLine
 62
7
  6
BYLAYER
 10
15.6539598273
 20
5.6030167251
 11
15.6539598273
 21
5.9030167251
  0
LINE
  5
247
100
AcDbEntity
  8
0
100
AcDbLine
 62
7
  6
BYLAYER
 10
16.2470035451
 20
8.4728862353
 11
16.2470035451
 21
5.9030167251
  0
LINE
  5
248
100
AcDbEntity
  8
0
100
AcDbLine
 62
7
  6
BYLAYER
 10
30.4109322565
 20
22.4673662491
 11
28.0922010526
 21
22.4673662491
  0
LINE
  5
249
100
AcDbEntity
  8
0
100
AcDbLine
 62
7
  6
BYLAYER
 10
11.815718602
 20
22.4673662491
 11
9.4969873982
 21
22.4673662491
  0
LINE
  5
24A
100
AcDbEntity
  8
0
100
AcDbLine
 62
7
  6
BYLAYER
 10
32.5539598273
 20
23.2520167251
 11
7.3539598273
 21
23.2520167251
  0
LINE
  5
24B
100
AcDbEntity
  8
0
100
AcDbLine
 62
7
  6
BYLAYER
 10
16.7650468378
 20
8.8040167251
 11
16.7650468378
 21
5.9030167251
  0
LINE
  5
24C
100
AcDbEntity
  8
0
100
AcDbLine
 62
7
  6
BYLAYER
 10
16.910698005
 20
8.8040167251
 11
16.910698005
 21
5.9030167251
  0
LINE
  5
24D
100
AcDbEntity
  8
0
100
AcDbLine
 62
7
  6
BYLAYER
 10
17.2280838213
 20
11.6920167251
 11
17.2280838213
 21
20.2920167251
  0
LINE
  5
24E
100
AcDbEntity
  8
0
100
AcDbLine
 62
7
  6
BYLAYER
 10
34.1570748101
 20
24.50201693
 11
5.7508448432
 21
24.50201693
  0
LINE
  5
24F
100
AcDbEntity
  8
0
100
AcDbLine
 62
7
  6
BYLAYER
 10
34.2039577756
 20
25.7020167251
 11
34.1652229699
 21
25.7020167251
  0
LINE
  5
250
100
AcDbEntity
  8
0
100
AcDbLine
 62
7
  6
BYLAYER
 10
5.7426966848
 20
25.7020167251
 11
5.703961879
 21
25.7020167251
  0
LINE
  5
251
100
AcDbEntity
  8
0
100
AcDbLine
 62
7
  6
BYLAYER
 10
22.6798358333
 20
20.2920167251
 11
22.6798358333
 21
11.6920167251
  0
LINE
  5
252
100
AcDbEntity
  8
0
100
AcDbLine
 62
7
  6
BYLAYER
 10
22.9972216496
 20
8.8040167251
 11
22.9972216496
 21
5.9030167251
  0
LINE
  5
253
100
AcDbEntity
  8
0
100
AcDbLine
 62
7
  6
BYLAYER
 10
23.1428728169
 20
5.9030167251
 11
23.1428728169
 21
8.8040167251
  0
LINE
  5
254
100
AcDbEntity
  8
0
100
AcDbLine
 62
7
  6
BYLAYER
 10
23.6609158768
 20
8.4728874842
 11
23.6609158768
 21
5.9030167251
  0
LINE
  5
255
100
AcDbEntity
  8
0
100
AcDbLine
 62
7
  6
BYLAYER
 10
24.2539598273
 20
5.9030167251
 11
24.2539598273
 21
5.6030167251
  0
LINE
  5
256
100
AcDbEntity
  8
0
100
AcDbLine
 62
7
  6
BYLAYER
 10
25.2664580198
 20
5.6030167251
 11
25.2664580198
 21
5.9040200553
  0
LINE
  5
257
100
AcDbEntity
  8
0
100
AcDbLine
 62
7
  6
BYLAYER
 10
25.3356337011
 20
35.0322916305
 11
25.3356337011
 21
35.5359410004
  0
LINE
  5
258
100
AcDbEntity
  8
0
100
AcDbLine
 62
7
  6
BYLAYER
 10
25.5644986285
 20
49.1045040185
 11
25.5644986285
 21
35.535941005
  0
LINE
  5
259
100
AcDbEntity
  8
0
100
AcDbLine
 62
7
  6
BYLAYER
 10
25.7535672011
 20
4.4030167251
 11
25.7535672011
 21
5.6030167251
  0
LINE
  5
25A
100
AcDbEntity
  8
0
100
AcDbLine
 62
7
  6
BYLAYER
 10
25.7745131115
 20
5.6030167251
 11
25.7745131115
 21
4.4030167251
  0
LINE
  5
25B
100
AcDbEntity
  8
0
100
AcDbLine
 62
7
  6
BYLAYER
 10
26.0012732804
 20
5.6030167251
 11
26.0012732804
 21
11.6920167251
  0
LINE
  5
25C
100
AcDbEntity
  8
0
100
AcDbLine
 62
7
  6
BYLAYER
 10
14.6414616348
 20
5.9040191789
 11
16.4539601012
 21
8.8040167251
  0
LINE
  5
25D
100
AcDbEntity
  8
0
100
AcDbLine
 62
7
  6
BYLAYER
 10
5.7039598236
 20
34.3880925483
 11
34.2039598311
 21
34.3880925483
  0
LINE
  5
25E
100
AcDbEntity
  8
0
100
AcDbLine
 62
7
  6
BYLAYER
 10
27.8836335285
 20
34.3926811429
 11
31.7753418007
 21
34.3926633242
  0
LINE
  5
25F
100
AcDbEntity
  8
0
100
AcDbLine
 62
7
  6
BYLAYER
 10
7.0939858459
 20
34.8020166625
 11
25.5669427205
 21
34.8020166625
  0
LINE
  5
260
100
AcDbEntity
  8
0
100
AcDbLine
 62
7
  6
BYLAYER
 10
31.5216923084
 20
34.8020166625
 11
32.8139338088
 21
34.8020166625
  0
LINE
  5
261
100
AcDbEntity
  8
0
100
AcDbLine
 62
7
  6
BYLAYER
 10
25.3361767772
 20
34.8059410047
 11
31.5170664911
 21
34.8059410047
  0
LINE
  5
262
100
AcDbEntity
  8
0
100
AcDbLine
 62
7
  6
BYLAYER
 10
7.4789598273
 20
35.0320170169
 11
32.4289595904
 21
35.0320170169
  0
LINE
  5
263
100
AcDbEntity
  8
0
100
AcDbLine
 62
7
  6
BYLAYER
 10
27.9545848449
 20
11.6920167251
 11
27.9545848449
 21
19.8920167251
  0
LINE
  5
264
100
AcDbEntity
  8
0
100
AcDbLine
 62
7
  6
BYLAYER
 10
28.092129308
 20
23.2520167251
 11
28.0921651801
 21
22.4673662491
  0
LINE
  5
265
100
AcDbEntity
  8
0
100
AcDbLine
 62
7
  6
BYLAYER
 10
28.4038118278
 20
19.8920167251
 11
28.403811897
 21
5.6030167251
  0
LINE
  5
266
100
AcDbEntity
  8
0
100
AcDbLine
 62
7
  6
BYLAYER
 10
28.6539598273
 20
9.0030167251
 11
28.6539598273
 21
11.6920167251
  0
LINE
  5
267
100
AcDbEntity
  8
0
100
AcDbLine
 62
7
  6
BYLAYER
 10
28.6844043819
 20
9.0030167251
 11
28.6844043819
 21
5.6030167251
  0
LINE
  5
268
100
AcDbEntity
  8
0
100
AcDbLine
 62
7
  6
BYLAYER
 10
28.7226742393
 20
19.8920167251
 11
28.7226742393
 21
11.6920167251
  0
LINE
  5
269
100
AcDbEntity
  8
0
100
AcDbLine
 62
7
  6
BYLAYER
 10
7.4789600643
 20
35.0320170169
 11
10.8393567535
 21
35.5323322739
  0
LINE
  5
26A
100
AcDbEntity
  8
0
100
AcDbLine
 62
7
  6
BYLAYER
 10
10.8393567535
 20
35.5323322739
 11
23.2245745832
 21
35.5323322739
  0
LINE
  5
26B
100
AcDbEntity
  8
0
100
AcDbLine
 62
7
  6
BYLAYER
 10
32.0775180932
 20
35.5359410042
 11
25.3356337011
 21
35.5359410046
  0
LINE
  5
26C
100
AcDbEntity
  8
0
100
AcDbLine
 62
7
  6
BYLAYER
 10
8.6995256616
 20
35.535941003
 11
7.8304016592
 21
35.5359410028
  0
LINE
  5
26D
100
AcDbEntity
  8
0
100
AcDbLine
 62
7
  6
BYLAYER
 10
30.4109322565
 20
22.4673662491
 11
30.4110422385
 21
22.4568439526
  0
LINE
  5
26E
100
AcDbEntity
  8
0
100
AcDbLine
 62
7
  6
BYLAYER
 10
30.2686047336
 20
9.0030167251
 11
30.2686047336
 21
7.9947823463
  0
LINE
  5
26F
100
AcDbEntity
  8
0
100
AcDbLine
 62
7
  6
BYLAYER
 10
30.2804665562
 20
9.0030167251
 11
30.2804665562
 21
8.1030435299
  0
LINE
  5
270
100
AcDbEntity
  8
0
100
AcDbLine
 62
7
  6
BYLAYER
 10
30.4539598273
 20
20.3030167251
 11
30.4539598273
 21
19.8920167251
  0
LINE
  5
271
100
AcDbEntity
  8
0
100
AcDbLine
 62
7
  6
BYLAYER
 10
30.478217232
 20
11.6920167251
 11
30.478217232
 21
19.8920167251
  0
LINE
  5
272
100
AcDbEntity
  8
0
100
AcDbLine
 62
7
  6
BYLAYER
 10
30.8289598273
 20
23.2520167251
 11
30.8289598273
 21
20.5530167251
  0
LINE
  5
273
100
AcDbEntity
  8
0
100
AcDbLine
 62
7
  6
BYLAYER
 10
30.4109322565
 20
22.4673662491
 11
30.4110601722
 21
23.2520167251
  0
LINE
  5
274
100
AcDbEntity
  8
0
100
AcDbLine
 62
7
  6
BYLAYER
 10
32.8139599608
 20
34.8020166625
 11
34.2039598273
 21
34.3880925483
  0
LINE
  5
275
100
AcDbEntity
  8
0
100
AcDbLine
 62
7
  6
BYLAYER
 10
31.2076869151
 20
35.5359410108
 11
31.2076869151
 21
35.0321483335
  0
LINE
  5
276
100
AcDbEntity
  8
0
100
AcDbLine
 62
7
  6
BYLAYER
 10
32.0775180889
 20
45.8177474081
 11
32.0775180932
 21
35.5359410047
  0
LINE
  5
277
100
AcDbEntity
  8
0
100
AcDbLine
 62
7
  6
BYLAYER
 10
32.4289595904
 20
35.0320170169
 11
32.4289595904
 21
34.8020166625
  0
LINE
  5
278
100
AcDbEntity
  8
0
100
AcDbLine
 62
7
  6
BYLAYER
 10
32.5539598273
 20
23.2520167251
 11
32.5539598273
 21
24.5020167251
  0
LINE
  5
279
100
AcDbEntity
  8
0
100
AcDbLine
 62
7
  6
BYLAYER
 10
30.4110422385
 20
22.4568439526
 11
30.3744059338
 21
22.2683140349
  0
LINE
  5
27A
100
AcDbEntity
  8
0
100
AcDbLine
 62
7
  6
BYLAYER
 10
29.9254203523
 20
21.2306529105
 11
30.3744059338
 21
22.2683140349
  0
LINE
  5
27B
100
AcDbEntity
  8
0
100
AcDbLine
 62
7
  6
BYLAYER
 10
34.2039598311
 20
34.3880925472
 11
34.2039598311
 21
25.7020167251
  0
LINE
  5
27C
100
AcDbEntity
  8
0
100
AcDbLine
 62
7
  6
BYLAYER
 10
26.7558717097
 20
48.4583898778
 11
32.0727307289
 21
48.4583898778
  0
LINE
  5
27D
100
AcDbEntity
  8
0
100
AcDbLine
 62
7
  6
BYLAYER
 10
32.0114744669
 20
48.8546635809
 11
26.400835777
 21
48.8546635809
  0
LINE
  5
27E
100
AcDbEntity
  8
0
100
AcDbLine
 62
7
  6
BYLAYER
 10
31.8459456036
 20
48.9728330259
 11
25.9958051968
 21
48.9728330259
  0
LINE
  5
27F
100
AcDbEntity
  8
0
100
AcDbLine
 62
7
  6
BYLAYER
 10
18.2559118512
 20
50.7563520496
 11
18.1851945483
 21
50.7539121364
  0
LINE
  5
280
100
AcDbEntity
  8
0
100
AcDbLine
 62
7
  6
BYLAYER
 10
18.2559214545
 20
50.7557745198
 11
18.1851945483
 21
50.7539121364
  0
LINE
  5
281
100
AcDbEntity
  8
0
100
AcDbLine
 62
7
  6
BYLAYER
 10
19.1231093594
 20
50.7697647047
 11
19.1054419715
 21
50.7696375863
  0
LINE
  5
282
100
AcDbEntity
  8
0
100
AcDbLine
 62
7
  6
BYLAYER
 10
19.1054316899
 20
50.7710665605
 11
21.2569570916
 21
50.7684405906
  0
LINE
  5
283
100
AcDbEntity
  8
0
100
AcDbLine
 62
7
  6
BYLAYER
 10
21.2569670422
 20
50.7684392808
 11
21.2557999515
 21
50.7685005222
  0
ARC
  5
284
100
AcDbEntity
  8
0
100
AcDbCircle
 62
7
  6
BYLAYER
 10
-713.2502813775
 20
45.7747083295
 40
745.3278007091
100
AcDbArc
 50
0.0033085544
 51
0.2063242636
  0
ARC
  5
285
100
AcDbEntity
  8
0
100
AcDbCircle
 62
7
  6
BYLAYER
 10
751.5504925138
 20
45.8136512348
 40
743.7200920366
100
AcDbArc
 50
179.7962298222
 51
179.9967638764
  0
ARC
  5
286
100
AcDbEntity
  8
0
100
AcDbCircle
 62
7
  6
BYLAYER
 10
19.9331005851
 20
0.6324369672
 40
50.1535083753
100
AcDbArc
 50
88.9056295338
 51
89.9761702298
  0
ARC
  5
287
100
AcDbEntity
  8
0
100
AcDbCircle
 62
7
  6
BYLAYER
 10
19.9748190696
 20
0.6324369672
 40
50.1535083753
100
AcDbArc
 50
90.0238297702
 51
90.9933903432
  0
ARC
  5
288
100
AcDbEntity
  8
0
100
AcDbCircle
 62
7
  6
BYLAYER
 10
19.9748190696
 20
0.6324369672
 40
50.1535083753
100
AcDbArc
 50
92.0449223083
 51
95.4061616969
  0
ARC
  5
289
100
AcDbEntity
  8
0
100
AcDbCircle
 62
7
  6
BYLAYER
 10
19.9331005851
 20
0.6324369672
 40
50.1535083753
100
AcDbArc
 50
84.5962852728
 51
88.4887623587
  0
ARC
  5
28A
100
AcDbEntity
  8
0
100
AcDbCircle
 62
7
  6
BYLAYER
 10
19.0999636417
 20
26.468324773
 40
24.3027424026
100
AcDbArc
 50
89.9871086118
 51
91.9903405814
  0
ARC
  5
28B
100
AcDbEntity
  8
0
100
AcDbCircle
 62
7
  6
BYLAYER
 10
19.0631340898
 20
26.5967568214
 40
24.1730769521
100
AcDbArc
 50
89.8997202157
 51
91.9136590521
  0
ARC
  5
28C
100
AcDbEntity
  8
0
100
AcDbCircle
 62
7
  6
BYLAYER
 10
29.0685629012
 20
23.9970241829
 40
11.5353080911
100
AcDbArc
 50
73.0633606013
 51
79.218662139
  0
ARC
  5
28D
100
AcDbEntity
  8
0
100
AcDbCircle
 62
7
  6
BYLAYER
 10
21.3557168534
 20
-3.5118839152
 40
10.1948156234
100
AcDbArc
 50
63.3894969528
 51
67.4430857783
  0
ARC
  5
28E
100
AcDbEntity
  8
0
100
AcDbCircle
 62
7
  6
BYLAYER
 10
18.4668298478
 20
-3.325273043
 40
9.989734169
100
AcDbArc
 50
112.5152878096
 51
116.6521294593
  0
ARC
  5
28F
100
AcDbEntity
  8
0
100
AcDbCircle
 62
7
  6
BYLAYER
 10
11.3624468941
 20
22.4573257582
 40
0.4533953861
100
AcDbArc
 50
335.3431268018
 51
359.9391140007
  0
ARC
  5
290
100
AcDbEntity
  8
0
100
AcDbCircle
 62
7
  6
BYLAYER
 10
28.5454725848
 20
22.4573257262
 40
0.4533952104
100
AcDbArc
 50
180.0608819841
 51
204.6569089851
  0
ARC
  5
291
100
AcDbEntity
  8
0
100
AcDbCircle
 62
7
  6
BYLAYER
 10
9.3289598273
 20
20.5530167251
 40
0.25
100
AcDbArc
 50
180.0
 51
270.0
  0
ARC
  5
292
100
AcDbEntity
  8
0
100
AcDbCircle
 62
7
  6
BYLAYER
 10
30.5789598273
 20
20.5530167251
 40
0.25
100
AcDbArc
 50
270.0
 51
360.0
  0
SPLINE
  5
293
100
AcDbEntity
  8
0
100
AcDbSpline
 62
7
  6
BYLAYER
 70
0
 71
3
 72
10
 73
6
 74
0
 42
0.0000001
 43
0.0000001
 44
0.0000000001
 40
0.0
 40
0.0
 40
0.0
 40
0.0
 40
0.5534763564
 40
0.7913639378
 40
1.0
 40
1.0
 40
1.0
 40
1.0
 10
31.3428800749
 20
49.1616474547
 30
0.0
 10
31.4373996826
 20
49.1315708977
 30
0.0
 10
31.5718055214
 20
49.086039119
 30
0.0
 10
31.738712888
 20
49.0207114526
 30
0.0
 10
31.8120946201
 20
48.988711511
 30
0.0
 10
31.8459456036
 20
48.9728330259
 30
0.0
  0
SPLINE
  5
294
100
AcDbEntity
  8
0
100
AcDbSpline
 62
7
  6
BYLAYER
 70
0
 71
3
 72
9
 73
5
 74
0
 42
0.0000001
 43
0.0000001
 44
0.0000000001
 40
0.0
 40
0.0
 40
0.0
 40
0.0
 40
0.2781894365
 40
1.0
 40
1.0
 40
1.0
 40
1.0
 10
31.8459456036
 20
48.9728330259
 30
0.0
 10
31.8632865295
 20
48.965197092
 30
0.0
 10
31.9242293819
 20
48.9348997149
 30
0.0
 10
31.9797143778
 20
48.8921909631
 30
0.0
 10
32.0114744669
 20
48.8546635809
 30
0.0
  0
SPLINE
  5
295
100
AcDbEntity
  8
0
100
AcDbSpline
 62
7
  6
BYLAYER
 70
0
 71
3
 72
11
 73
7
 74
0
 42
0.0000001
 43
0.0000001
 44
0.0000000001
 40
0.0
 40
0.0
 40
0.0
 40
0.0
 40
0.181261293
 40
0.401360842
 40
0.6728975347
 40
1.0
 40
1.0
 40
1.0
 40
1.0
 10
32.0114744669
 20
48.8546635809
 30
0.0
 10
32.0237849617
 20
48.8335599444
 30
0.0
 10
32.0440510564
 20
48.7827708184
 30
0.0
 10
32.0617326483
 20
48.6935681177
 30
0.0
 10
32.0707823594
 20
48.5834369354
 30
0.0
 10
32.0724516039
 20
48.5027447925
 30
0.0
 10
32.0726868278
 20
48.4586560583
 30
0.0
  0
LINE
  5
296
100
AcDbEntity
  8
0
100
AcDbLine
 62
7
  6
BYLAYER
 10
31.5172333324
 20
34.8039807713
 11
31.5227608967
 21
34.8019347567
  0
SPLINE
  5
297
100
AcDbEntity
  8
0
100
AcDbSpline
 62
7
  6
BYLAYER
 70
0
 71
3
 72
17
 73
13
 74
0
 42
0.0000001
 43
0.0000001
 44
0.0000000001
 40
0.0
 40
0.0
 40
0.0
 40
0.0
 40
0.2011699908
 40
0.3826952144
 40
0.5430898838
 40
0.6809509923
 40
0.7950354552
 40
0.8430297844
 40
0.8850365163
 40
0.9212295
 40
0.9519795348
 40
1.0
 40
1.0
 40
1.0
 40
1.0
 10
31.5227608967
 20
34.8019347567
 30
0.0
 10
31.5640450391
 20
34.7866411151
 30
0.0
 10
31.6424181543
 20
34.7570976845
 30
0.0
 10
31.7524920484
 20
34.7121892119
 30
0.0
 10
31.8477357894
 20
34.6678623966
 30
0.0
 10
31.9273300372
 20
34.6252541821
 30
0.0
 10
31.9830792882
 20
34.5904220749
 30
0.0
 10
32.0188405621
 20
34.5636061783
 30
0.0
 10
32.0397046435
 20
34.5454879041
 30
0.0
 10
32.0561604961
 20
34.5280963576
 30
0.0
 10
32.0709127955
 20
34.5078310696
 30
0.0
 10
32.0775180932
 20
34.4907971135
 30
0.0
 10
32.0775180932
 20
34.4802878819
 30
0.0
  0
SPLINE
  5
298
100
AcDbEntity
  8
0
100
AcDbSpline
 62
7
  6
BYLAYER
 70
0
 71
3
 72
10
 73
6
 74
0
 42
0.0000001
 43
0.0000001
 44
0.0000000001
 40
0.0
 40
0.0
 40
0.0
 40
0.0
 40
0.5535855568
 40
0.7914494053
 40
1.0
 40
1.0
 40
1.0
 40
1.0
 10
8.5650395789
 20
49.1618737209
 30
0.0
 10
8.470398276
 20
49.1317614423
 30
0.0
 10
8.3358317239
 20
49.0861773907
 30
0.0
 10
8.1687482262
 20
49.0207679805
 30
0.0
 10
8.0953098091
 20
48.9887301555
 30
0.0
 10
8.0614398716
 20
48.9728330259
 30
0.0
  0
SPLINE
  5
299
100
AcDbEntity
  8
0
100
AcDbSpline
 62
7
  6
BYLAYER
 70
0
 71
3
 72
9
 73
5
 74
0
 42
0.0000001
 43
0.0000001
 44
0.0000000001
 40
0.0
 40
0.0
 40
0.0
 40
0.0
 40
0.2782517624
 40
1.0
 40
1.0
 40
1.0
 40
1.0
 10
8.0614398716
 20
48.9728330259
 30
0.0
 10
8.0441082368
 20
48.9651964978
 30
0.0
 10
7.9832142828
 20
48.9349028001
 30
0.0
 10
7.9277810571
 20
48.892192255
 30
0.0
 10
7.8960793211
 20
48.8546635809
 30
0.0
  0
SPLINE
  5
29A
100
AcDbEntity
  8
0
100
AcDbSpline
 62
7
  6
BYLAYER
 70
0
 71
3
 72
11
 73
7
 74
0
 42
0.0000001
 43
0.0000001
 44
0.0000000001
 40
0.0
 40
0.0
 40
0.0
 40
0.0
 40
0.1811775453
 40
0.4012143127
 40
0.6727476829
 40
1.0
 40
1.0
 40
1.0
 40
1.0
 10
7.8960793211
 20
48.8546635809
 30
0.0
 10
7.8837931816
 20
48.8335622014
 30
0.0
 10
7.8635795075
 20
48.7827808803
 30
0.0
 10
7.8459700548
 20
48.6935963432
 30
0.0
 10
7.8369837942
 20
48.5834625822
 30
0.0
 10
7.8353364086
 20
48.5027604668
 30
0.0
 10
7.835103911
 20
48.4586568036
 30
0.0
  0
SPLINE
  5
29B
100
AcDbEntity
  8
0
100
AcDbSpline
 62
7
  6
BYLAYER
 70
0
 71
3
 72
9
 73
5
 74
0
 42
0.0000001
 43
0.0000001
 44
0.0000000001
 40
0.0
 40
0.0
 40
0.0
 40
0.0
 40
0.5132927208
 40
1.0
 40
1.0
 40
1.0
 40
1.0
 10
8.5650395789
 20
49.1618737209
 30
0.0
 10
9.6803179442
 20
49.5162029652
 30
0.0
 10
11.887018441
 20
50.1052895579
 30
0.0
 10
14.1449237481
 20
50.4583142629
 30
0.0
 10
15.2495897574
 20
50.5628558056
 30
0.0
  0
SPLINE
  5
29C
100
AcDbEntity
  8
0
100
AcDbSpline
 62
7
  6
BYLAYER
 70
0
 71
3
 72
9
 73
5
 74
0
 42
0.0000001
 43
0.0000001
 44
0.0000000001
 40
0.0
 40
0.0
 40
0.0
 40
0.0
 40
0.5132959385
 40
1.0
 40
1.0
 40
1.0
 40
1.0
 10
31.3428800749
 20
49.1616474547
 30
0.0
 10
30.2272493115
 20
49.5161264497
 30
0.0
 10
28.0198506793
 20
50.1054373299
 30
0.0
 10
25.7612131654
 20
50.4585311261
 30
0.0
 10
24.6561970727
 20
50.5630581515
 30
0.0
  0
SPLINE
  5
29D
100
AcDbEntity
  8
0
100
AcDbSpline
 62
7
  6
BYLAYER
 70
0
 71
3
 72
19
 73
15
 74
0
 42
0.0000001
 43
0.0000001
 44
0.0000000001
 40
0.0
 40
0.0
 40
0.0
 40
0.0
 40
0.1192826912
 40
0.1827647438
 40
0.2480735362
 40
0.3147171077
 40
0.38221281
 40
0.5177632161
 40
0.6507691057
 40
0.715165052
 40
0.7775894081
 40
0.8376599872
 40
0.8949927097
 40
1.0
 40
1.0
 40
1.0
 40
1.0
 10
27.8891881911
 20
34.394375833
 30
0.0
 10
27.7950512213
 20
34.3946654309
 30
0.0
 10
27.6508348558
 20
34.4007114839
 30
0.0
 10
27.4555575806
 20
34.4146217667
 30
0.0
 10
27.3019086747
 20
34.4281967209
 30
0.0
 10
27.1453969226
 20
34.4450246809
 30
0.0
 10
26.9342881345
 20
34.4722124474
 30
0.0
 10
26.6723210661
 20
34.5139872099
 30
0.0
 10
26.4144417527
 20
34.5647825805
 30
0.0
 10
26.2145842197
 20
34.6107180335
 30
0.0
 10
26.0715662062
 20
34.6468166702
 30
0.0
 10
25.9346826284
 20
34.6843357515
 30
0.0
 10
25.7663408659
 20
34.7340132702
 30
0.0
 10
25.6446411408
 20
34.7744395448
 30
0.0
 10
25.56721392
 20
34.8039807417
 30
0.0
  0
SPLINE
  5
29E
100
AcDbEntity
  8
0
100
AcDbSpline
 62
7
  6
BYLAYER
 70
0
 71
3
 72
19
 73
15
 74
0
 42
0.0000001
 43
0.0000001
 44
0.0000000001
 40
0.0
 40
0.0
 40
0.0
 40
0.0
 40
0.1053070449
 40
0.1626859682
 40
0.2227297687
 40
0.2851006401
 40
0.3494462789
 40
0.4823782297
 40
0.6178915837
 40
0.6853896513
 40
0.7520359703
 40
0.8173253355
 40
0.8807633706
 40
1.0
 40
1.0
 40
1.0
 40
1.0
 10
25.56721392
 20
34.8039807417
 30
0.0
 10
25.644341902
 20
34.7728217321
 30
0.0
 10
25.765122105
 20
34.7286064895
 30
0.0
 10
25.9329678316
 20
34.6757935346
 30
0.0
 10
26.069756002
 20
34.6375048407
 30
0.0
 10
26.2128369511
 20
34.6015075523
 30
0.0
 10
26.4128332886
 20
34.5559716112
 30
0.0
 10
26.6709179315
 20
34.5055752412
 30
0.0
 10
26.9332993455
 20
34.4653965072
 30
0.0
 10
27.1446691586
 20
34.4389573809
 30
0.0
 10
27.3013307367
 20
34.4222792004
 30
0.0
 10
27.4551223584
 20
34.4092194428
 30
0.0
 10
27.6506755462
 20
34.3977117377
 30
0.0
 10
27.7950011002
 20
34.3946373805
 30
0.0
 10
27.8891881911
 20
34.394375833
 30
0.0
  0
SPLINE
  5
29F
100
AcDbEntity
  8
0
100
AcDbSpline
 62
7
  6
BYLAYER
 70
0
 71
3
 72
16
 73
12
 74
0
 42
0.0000001
 43
0.0000001
 44
0.0000000001
 40
0.0
 40
0.0
 40
0.0
 40
0.0
 40
0.0294634126
 40
0.0591751705
 40
0.1255114864
 40
0.2094424262
 40
0.3162887272
 40
0.4484736336
 40
0.6068404311
 40
0.790972787
 40
1.0
 40
1.0
 40
1.0
 40
1.0
 10
32.0775180932
 20
34.4802878819
 30
0.0
 10
32.0775180932
 20
34.4769950366
 30
0.0
 10
32.0767147363
 20
34.4703477923
 30
0.0
 10
32.0714786563
 20
34.4571762432
 30
0.0
 10
32.0573343251
 20
34.4420178262
 30
0.0
 10
32.0319164031
 20
34.4281208342
 30
0.0
 10
31.9974967935
 20
34.416852911
 30
0.0
 10
31.9539659909
 20
34.4078001454
 30
0.0
 10
31.9013827479
 20
34.4005449792
 30
0.0
 10
31.8399154139
 20
34.3955620721
 30
0.0
 10
31.79596441
 20
34.3944302974
 30
0.0
 10
31.7726034299
 20
34.3944184787
 30
0.0
  0
SPLINE
  5
2A0
100
AcDbEntity
  8
0
100
AcDbSpline
 62
7
  6
BYLAYER
 70
0
 71
3
 72
16
 73
12
 74
0
 42
0.0000001
 43
0.0000001
 44
0.0000000001
 40
0.0
 40
0.0
 40
0.0
 40
0.0
 40
0.2101493514
 40
0.3949572202
 40
0.5536364823
 40
0.6862077667
 40
0.7935133796
 40
0.8773661656
 40
0.9425473571
 40
0.97139272
 40
1.0
 40
1.0
 40
1.0
 40
1.0
 10
31.7726034299
 20
34.3944184787
 30
0.0
 10
31.7959522832
 20
34.394423585
 30
0.0
 10
31.8398374616
 20
34.3947989437
 30
0.0
 10
31.9013142679
 20
34.3973758891
 30
0.0
 10
31.9539869398
 20
34.4027239824
 30
0.0
 10
31.9975260784
 20
34.41122384
 30
0.0
 10
32.0318387812
 20
34.4224358455
 30
0.0
 10
32.0571379994
 20
34.4359080369
 30
0.0
 10
32.0714251594
 20
34.4504291461
 30
0.0
 10
32.0767169925
 20
34.4631542287
 30
0.0
 10
32.0775180932
 20
34.4695736558
 30
0.0
 10
32.0775180932
 20
34.4727520963
 30
0.0
  0
SPLINE
  5
2A1
100
AcDbEntity
  8
0
100
AcDbSpline
 62
7
  6
BYLAYER
 70
0
 71
3
 72
14
 73
10
 74
0
 42
0.0000001
 43
0.0000001
 44
0.0000000001
 40
0.0
 40
0.0
 40
0.0
 40
0.0
 40
0.2857720682
 40
0.4215244756
 40
0.5514365657
 40
0.6745290103
 40
0.7900913826
 40
0.8982399493
 40
1.0
 40
1.0
 40
1.0
 40
1.0
 10
9.9824893848
 20
21.2306335141
 30
0.0
 10
10.0117561226
 20
21.1630173933
 30
0.0
 10
10.0582402461
 20
21.0645717195
 30
0.0
 10
10.12918459
 20
20.9412779479
 30
0.0
 10
10.184990279
 20
20.8579022131
 30
0.0
 10
10.2446737925
 20
20.783754855
 30
0.0
 10
10.3088211481
 20
20.7210540155
 30
0.0
 10
10.3775848692
 20
20.6722623668
 30
0.0
 10
10.4276873344
 20
20.650319976
 30
0.0
 10
10.4528862906
 20
20.6430167256
 30
0.0
  0
SPLINE
  5
2A2
100
AcDbEntity
  8
0
100
AcDbSpline
 62
7
  6
BYLAYER
 70
0
 71
3
 72
17
 73
13
 74
0
 42
0.0000001
 43
0.0000001
 44
0.0000000001
 40
0.0
 40
0.0
 40
0.0
 40
0.0
 40
0.0440298176
 40
0.0920388153
 40
0.1439377441
 40
0.1994044555
 40
0.257860656
 40
0.3188045078
 40
0.4464738454
 40
0.5798247968
 40
0.7171678097
 40
1.0
 40
1.0
 40
1.0
 40
1.0
 10
10.6212387675
 20
20.6430167256
 30
0.0
 10
10.649947947
 20
20.6509027805
 30
0.0
 10
10.7079283628
 20
20.6750254939
 30
0.0
 10
10.7899738183
 20
20.7279837748
 30
0.0
 10
10.8701731046
 20
20.796217
 30
0.0
 10
10.9482353036
 20
20.8768726728
 30
0.0
 10
11.0244133338
 20
20.9674013504
 30
0.0
 10
11.1250229866
 20
21.1008490033
 30
0.0
 10
11.2452839449
 20
21.2825412231
 30
0.0
 10
11.3825863694
 20
21.5143567211
 30
0.0
 10
11.5625227226
 20
21.8426128755
 30
0.0
 10
11.6903555164
 20
22.0964348957
 30
0.0
 10
11.7745028001
 20
22.2681768577
 30
0.0
  0
LINE
  5
2A3
100
AcDbEntity
  8
0
100
AcDbLine
 62
7
  6
BYLAYER
 10
11.8158420243
 20
22.4568439526
 11
11.8157544745
 21
22.4673662491
  0
SPLINE
  5
2A4
100
AcDbEntity
  8
0
100
AcDbSpline
 62
7
  6
BYLAYER
 70
0
 71
3
 72
17
 73
13
 74
0
 42
0.0000001
 43
0.0000001
 44
0.0000000001
 40
0.0
 40
0.0
 40
0.0
 40
0.0
 40
0.2828312799
 40
0.4201736112
 40
0.5535240661
 40
0.681193415
 40
0.7421368562
 40
0.800593909
 40
0.8560603032
 40
0.9079597525
 40
0.9559699984
 40
1.0
 40
1.0
 40
1.0
 40
1.0
 10
28.1334169567
 20
22.2681766417
 30
0.0
 10
28.2175639738
 20
22.0964352177
 30
0.0
 10
28.3453960558
 20
21.8426140165
 30
0.0
 10
28.5253324642
 20
21.5143594452
 30
0.0
 10
28.6626348871
 20
21.282544897
 30
0.0
 10
28.7828941827
 20
21.1008522245
 30
0.0
 10
28.8835045547
 20
20.967404754
 30
0.0
 10
28.9596805572
 20
20.876874285
 30
0.0
 10
29.0377433379
 20
20.7962179797
 30
0.0
 10
29.1179453839
 20
20.7279864967
 30
0.0
 10
29.1999914271
 20
20.675027046
 30
0.0
 10
29.257972345
 20
20.6509027564
 30
0.0
 10
29.2866816626
 20
20.6430167256
 30
0.0
  0
SPLINE
  5
2A5
100
AcDbEntity
  8
0
100
AcDbSpline
 62
7
  6
BYLAYER
 70
0
 71
3
 72
14
 73
10
 74
0
 42
0.0000001
 43
0.0000001
 44
0.0000000001
 40
0.0
 40
0.0
 40
0.0
 40
0.0
 40
0.101760306
 40
0.2099068613
 40
0.3254680876
 40
0.448562419
 40
0.5784731886
 40
0.7142265973
 40
1.0
 40
1.0
 40
1.0
 40
1.0
 10
29.455034099
 20
20.6430167256
 30
0.0
 10
29.4802330643
 20
20.6503200396
 30
0.0
 10
29.5303353799
 20
20.6722611752
 30
0.0
 10
29.5990991249
 20
20.7210516359
 30
0.0
 10
29.6632440419
 20
20.7837544087
 30
0.0
 10
29.7229265639
 20
20.8579019677
 30
0.0
 10
29.7787348372
 20
20.9412762968
 30
0.0
 10
29.8496785207
 20
21.0645705593
 30
0.0
 10
29.8961640805
 20
21.1630159927
 30
0.0
 10
29.9254307412
 20
21.2306324016
 30
0.0
  0
LINE
  5
2A6
100
AcDbEntity
  8
0
100
AcDbLine
 62
7
  6
BYLAYER
 10
28.0921651801
 20
22.4673662491
 11
28.0920776304
 21
22.4568439526
  0
SPLINE
  5
2A7
100
AcDbEntity
  8
0
100
AcDbSpline
 62
7
  6
BYLAYER
 70
0
 71
3
 72
15
 73
11
 74
0
 42
0.0000001
 43
0.0000001
 44
0.0000000001
 40
0.0
 40
0.0
 40
0.0
 40
0.0
 40
0.2675250223
 40
0.3323529558
 40
0.3963835861
 40
0.5221390979
 40
0.6450495453
 40
0.7654155849
 40
0.8835957498
 40
1.0
 40
1.0
 40
1.0
 40
1.0
 10
15.2495897574
 20
50.5628558056
 30
0.0
 10
16.184471979
 20
50.6513296264
 30
0.0
 10
17.3534582741
 20
50.7013356372
 30
0.0
 10
18.7441989973
 20
50.6567919989
 30
0.0
 10
19.6363308044
 20
50.6010801127
 30
0.0
 10
20.728317028
 20
50.4826037686
 30
0.0
 10
22.0053073219
 20
50.259762848
 30
0.0
 10
23.2387114536
 20
49.9579755399
 30
0.0
 10
24.4262607016
 20
49.5777672207
 30
0.0
 10
25.1912076702
 20
49.2706579226
 30
0.0
 10
25.5644986285
 20
49.1045040185
 30
0.0
  0
SPLINE
  5
2A8
100
AcDbEntity
  8
0
100
AcDbSpline
 62
7
  6
BYLAYER
 70
0
 71
3
 72
13
 73
9
 74
0
 42
0.0000001
 43
0.0000001
 44
0.0000000001
 40
0.0
 40
0.0
 40
0.0
 40
0.0
 40
0.1259303438
 40
0.2518667194
 40
0.3777236864
 40
0.503362263
 40
0.7530894586
 40
1.0
 40
1.0
 40
1.0
 40
1.0
 10
26.7559099622
 20
48.4583883968
 30
0.0
 10
26.7542049858
 20
48.4816167917
 30
0.0
 10
26.7448171623
 20
48.5278066672
 30
0.0
 10
26.7157051139
 20
48.5917950332
 30
0.0
 10
26.6759833138
 20
48.6495422273
 30
0.0
 10
26.613323872
 20
48.7181487432
 30
0.0
 10
26.5225042559
 20
48.7899999905
 30
0.0
 10
26.442127887
 20
48.835160588
 30
0.0
 10
26.400835777
 20
48.8546635809
 30
0.0
  0
SPLINE
  5
2A9
100
AcDbEntity
  8
0
100
AcDbSpline
 62
7
  6
BYLAYER
 70
0
 71
3
 72
9
 73
5
 74
0
 42
0.0000001
 43
0.0000001
 44
0.0000000001
 40
0.0
 40
0.0
 40
0.0
 40
0.0
 40
0.5115740845
 40
1.0
 40
1.0
 40
1.0
 40
1.0
 10
26.400835777
 20
48.8546635809
 30
0.0
 10
26.3324109095
 20
48.8769393611
 30
0.0
 10
26.198216861
 20
48.9191519777
 30
0.0
 10
26.0625413329
 20
48.9565097363
 30
0.0
 10
25.9958051968
 20
48.9728330259
 30
0.0
  0
SPLINE
  5
2AA
100
AcDbEntity
  8
0
100
AcDbSpline
 62
7
  6
BYLAYER
 70
0
 71
3
 72
9
 73
5
 74
0
 42
0.0000001
 43
0.0000001
 44
0.0000000001
 40
0.0
 40
0.0
 40
0.0
 40
0.0
 40
0.5254678899
 40
1.0
 40
1.0
 40
1.0
 40
1.0
 10
25.9958051968
 20
48.9728330259
 30
0.0
 10
25.9193495789
 20
48.9927536953
 30
0.0
 10
25.7745210394
 20
49.0333113012
 30
0.0
 10
25.6315996771
 20
49.0802508759
 30
0.0
 10
25.5644986285
 20
49.1045040185
 30
0.0
  0
SPLINE
  5
2AB
100
AcDbEntity
  8
0
100
AcDbSpline
 62
7
  6
BYLAYER
 70
0
 71
3
 72
34
 73
30
 74
0
 42
0.0000001
 43
0.0000001
 44
0.0000000001
 40
0.0
 40
0.0
 40
0.0
 40
0.0
 40
0.0032381439
 40
0.0067714043
 40
0.0140910376
 40
0.0215732139
 40
0.0291631549
 40
0.0368000359
 40
0.0444739285
 40
0.0598981804
 40
0.0753814145
 40
0.0909059299
 40
0.1064593635
 40
0.1220325405
 40
0.1532253812
 40
0.1844616282
 40
0.2157272609
 40
0.2470155076
 40
0.2783206649
 40
0.3096394963
 40
0.3723098171
 40
0.4350121162
 40
0.497737609
 40
0.5604820456
 40
0.6232419467
 40
0.6860143454
 40
0.7487966589
 40
0.8743850066
 40
1.0
 40
1.0
 40
1.0
 40
1.0
 10
31.7977982001
 20
35.5359410048
 30
0.0
 10
31.8035290425
 20
35.5454570368
 30
0.0
 10
31.8130573234
 20
35.5668102543
 30
0.0
 10
31.8273630586
 20
35.612997273
 30
0.0
 10
31.8414841616
 20
35.6743661763
 30
0.0
 10
31.8549142427
 20
35.7500049407
 30
0.0
 10
31.8662907873
 20
35.8270818434
 30
0.0
 10
31.8763655098
 20
35.9049966082
 30
0.0
 10
31.8882743531
 20
36.0097617565
 30
0.0
 10
31.9009845921
 20
36.1415110326
 30
0.0
 10
31.9141603828
 20
36.300252862
 30
0.0
 10
31.9256457647
 20
36.4595699715
 30
0.0
 10
31.9358575177
 20
36.6192814774
 30
0.0
 10
31.948241471
 20
36.8327101661
 30
0.0
 10
31.9615966609
 20
37.0999673112
 30
0.0
 10
31.9752636059
 20
37.4210977689
 30
0.0
 10
31.9871624677
 20
37.7426257291
 30
0.0
 10
31.9975843215
 20
38.0644409369
 30
0.0
 10
32.0068400655
 20
38.3864740848
 30
0.0
 10
32.0178455569
 20
38.8161553424
 30
0.0
 10
32.0294251301
 20
39.3535622299
 30
0.0
 10
32.0407169367
 20
39.9987344474
 30
0.0
 10
32.0499382801
 20
40.6441935867
 30
0.0
 10
32.0574057112
 20
41.2898727202
 30
0.0
 10
32.0633974155
 20
41.9357279671
 30
0.0
 10
32.068128384
 20
42.5817235003
 30
0.0
 10
32.0729872287
 20
43.4432553512
 30
0.0
 10
32.0766608739
 20
44.5203769966
 30
0.0
 10
32.0775180932
 20
45.3821293298
 30
0.0
 10
32.0775180932
 20
45.8130510441
 30
0.0
  0
SPLINE
  5
2AC
100
AcDbEntity
  8
0
100
AcDbSpline
 62
7
  6
BYLAYER
 70
0
 71
3
 72
35
 73
31
 74
0
 42
0.0000001
 43
0.0000001
 44
0.0000000001
 40
0.0
 40
0.0
 40
0.0
 40
0.0
 40
0.1251179726
 40
0.2502362225
 40
0.3127952613
 40
0.3753540269
 40
0.437912291
 40
0.5004697184
 40
0.5630258023
 40
0.6255797374
 40
0.6881301803
 40
0.7194034611
 40
0.7506748383
 40
0.7819436248
 40
0.8132087796
 40
0.8444686225
 40
0.8757202342
 40
0.8913414765
 40
0.9069581928
 40
0.9225685351
 40
0.9381693744
 40
0.9537548121
 40
0.9615384597
 40
0.9693123834
 40
0.9770712222
 40
0.9848038901
 40
0.9886535373
 40
0.9924836283
 40
0.996277929
 40
1.0
 40
1.0
 40
1.0
 40
1.0
 10
26.7559099622
 20
48.4583883968
 30
0.0
 10
26.7817645553
 20
47.9172261785
 30
0.0
 10
26.8350826465
 20
46.8349767137
 30
0.0
 10
26.9062717274
 20
45.4823951773
 30
0.0
 10
26.9666658698
 20
44.4005192909
 30
0.0
 10
27.013892269
 20
43.5892264399
 30
0.0
 10
27.0633192826
 20
42.7780714081
 30
0.0
 10
27.1152910962
 20
41.967086697
 30
0.0
 10
27.1702581355
 20
41.1563175444
 30
0.0
 10
27.2288373244
 20
40.3458309463
 30
0.0
 10
27.2813840303
 20
39.6707291555
 30
0.0
 10
27.3263305553
 20
39.1309154277
 30
0.0
 10
27.3617397157
 20
38.7262339694
 30
0.0
 10
27.3991586838
 20
38.3217682123
 30
0.0
 10
27.4390100276
 20
37.917583857
 30
0.0
 10
27.4818975618
 20
37.513783989
 30
0.0
 10
27.5209121405
 20
37.1777061737
 30
0.0
 10
27.5548433671
 20
36.9092504973
 30
0.0
 10
27.5819484829
 20
36.7082065595
 30
0.0
 10
27.6111143494
 20
36.5075383674
 30
0.0
 10
27.6429511755
 20
36.3074118939
 30
0.0
 10
27.6725092077
 20
36.1412580994
 30
0.0
 10
27.6988799387
 20
36.0090027999
 30
0.0
 10
27.7204047249
 20
35.9103520044
 30
0.0
 10
27.7442787098
 20
35.812469077
 30
0.0
 10
27.7669753189
 20
35.7318145475
 30
0.0
 10
27.7878873528
 20
35.6684290307
 30
0.0
 10
27.8053911474
 20
35.6218944832
 30
0.0
 10
27.825614524
 20
35.5771137727
 30
0.0
 10
27.8420381775
 20
35.5487841027
 30
0.0
 10
27.8517755531
 20
35.535941005
 30
0.0
  0
SPLINE
  5
2AD
100
AcDbEntity
  8
0
100
AcDbSpline
 62
7
  6
BYLAYER
 70
0
 71
3
 72
11
 73
7
 74
0
 42
0.0000001
 43
0.0000001
 44
0.0000000001
 40
0.0
 40
0.0
 40
0.0
 40
0.0
 40
0.252319703
 40
0.5015379417
 40
0.7500109657
 40
1.0
 40
1.0
 40
1.0
 40
1.0
 10
25.3356337011
 20
35.0322916305
 30
0.0
 10
25.1713746934
 20
35.115362894
 30
0.0
 10
24.8349688658
 20
35.2617571468
 30
0.0
 10
24.3096173793
 20
35.4191045392
 30
0.0
 10
23.7709452898
 20
35.5123501562
 30
0.0
 10
23.4069443005
 20
35.5323252641
 30
0.0
 10
23.2245743028
 20
35.5323312682
 30
0.0
  0
ELLIPSE
  5
2AE
100
AcDbEntity
  8
0
100
AcDbEllipse
 62
7
  6
BYLAYER
 10
29.7804933595
 20
8.1030435299
 30
0.0
 11
0.4999731966
 21
0.0
 31
0.0
 40
1.0
 41
-0.2182628097
 42
-0.0
  0
ELLIPSE
  5
2AF
100
AcDbEntity
  8
0
100
AcDbEllipse
 62
7
  6
BYLAYER
 10
19.9514061
 20
11.8016077578
 30
0.0
 11
10.9971135921
 21
-0.0
 31
0.0
 40
1.0
 41
-0.5988054662
 42
-0.3534812045
  0
ELLIPSE
  5
2B0
100
AcDbEntity
  8
0
100
AcDbEllipse
 62
7
  6
BYLAYER
 10
19.9539598273
 20
223.3048709218
 30
0.0
 11
0.0
 21
509.8806585133
 31
0.0
 40
0.0174550649
 41
-2.0145358115
 42
-2.0119315574
  0
ELLIPSE
  5
2B1
100
AcDbEntity
  8
0
100
AcDbEllipse
 62
7
  6
BYLAYER
 10
19.9539598273
 20
223.3048709218
 30
0.0
 11
0.0
 21
509.8806585133
 31
0.0
 40
0.0174550649
 41
-4.2712537498
 42
-4.2686494957
  0
ELLIPSE
  5
2B2
100
AcDbEntity
  8
0
100
AcDbEllipse
 62
7
  6
BYLAYER
 10
10.1275012362
 20
8.1029916702
 30
0.0
 11
0.5000250562
 21
0.0
 31
0.0
 40
1.0
 41
-3.1415926536
 42
-2.7814790576
  0
ELLIPSE
  5
2B3
100
AcDbEntity
  8
0
100
AcDbEllipse
 62
7
  6
BYLAYER
 10
19.9514061
 20
11.8016077578
 30
0.0
 11
10.9971135921
 21
0.0
 31
0.0
 40
1.0
 41
-2.7815134241
 42
-2.5427871874
  0
ELLIPSE
  5
2B4
100
AcDbEntity
  8
0
100
AcDbEllipse
 62
7
  6
BYLAYER
 10
14.6560892864
 20
-9.3356338756
 30
0.0
 11
0.0
 21
28.7445147379
 31
0.0
 40
0.0174550649
 41
1.0242914156
 42
1.0724686148
  0
ELLIPSE
  5
2B5
100
AcDbEntity
  8
0
100
AcDbEllipse
 62
7
  6
BYLAYER
 10
25.2518212154
 20
-9.3358634493
 30
0.0
 11
0.0
 21
28.7450394449
 31
0.0
 40
0.0174550649
 41
-1.072469455
 42
-1.0242931714
  0
ELLIPSE
  5
2B6
100
AcDbEntity
  8
0
100
AcDbEllipse
 62
7
  6
BYLAYER
 10
19.9539598273
 20
37.7020167251
 30
0.0
 11
0.0
 21
162.8571428998
 31
0.0
 40
0.0875
 41
-1.651937968
 42
-1.6445473771
  0
ELLIPSE
  5
2B7
100
AcDbEntity
  8
0
100
AcDbEllipse
 62
7
  6
BYLAYER
 10
19.9539598273
 20
37.7020167251
 30
0.0
 11
0.0
 21
162.8571428998
 31
0.0
 40
0.0875
 41
-4.6386379301
 42
-4.6312473392
  0
ELLIPSE
  5
2B8
100
AcDbEntity
  8
0
100
AcDbEllipse
 62
7
  6
BYLAYER
 10
19.4713565343
 20
203.5285454867
 30
0.0
 11
-0.0
 21
414.2700652642
 31
0.0
 40
0.0174550649
 41
-4.2142752569
 42
-4.2109749532
  0
ELLIPSE
  5
2B9
100
AcDbEntity
  8
0
100
AcDbEllipse
 62
7
  6
BYLAYER
 10
20.4365631204
 20
203.5285454866
 30
0.0
 11
0.0
 21
414.2700652641
 31
0.0
 40
0.0174550649
 41
-2.072210354
 42
-2.0689100503
  0
ENDSEC
  0
SECTION
  2
OBJECTS
  0
DICTIONARY
  5
C
100
AcDbDictionary
280
0
281
1
  3
ACAD_GROUP
350
D
  3
ACAD_MLINESTYLE
350
17
  3
ACAD_LAYOUT
350
1A
  3
ACAD_PLOTSETTINGS
350
19
  3
ACAD_PLOTSTYLENAME
350
E
  0
DICTIONARY
  5
D
102
{ACAD_REACTORS
330
C
102
}
100
AcDbDictionary
280
0
281
1
  0
ACDBDICTIONARYWDFLT
  5
E
102
{ACAD_REACTORS
330
C
102
}
100
AcDbDictionary
281
1
  3
Normal
350
F
100
AcDbDictionaryWithDefault
340
F
  0
DICTIONARY
  5
17
102
{ACAD_REACTORS
330
C
102
}
100
AcDbDictionary
280
0
281
1
  3
Standard
350
18
  0
DICTIONARY
  5
19
102
{ACAD_REACTORS
330
C
102
}
100
AcDbDictionary
281
1
  0
DICTIONARY
  5
1A
102
{ACAD_REACTORS
330
C
102
}
100
AcDbDictionary
281
1
  3
Model
350
2BA
  3
Layout1
350
2BB
  0
ACDBPLACEHOLDER
  5
F
102
{ACAD_REACTORS
330
E
102
}
  0
MLINESTYLE
  5
18
102
{ACAD_REACTORS
330
17
102
}
100
AcDbMlineStyle
  2
STANDARD
 70
0
  3

 62
256
 51
90.0
 52
90.0
 71
2
 49
0.5
 62
256
  6
BYLAYER
 49
-0.5
 62
256
  6
BYLAYER
  0
LAYOUT
  5
2BA
102
{ACAD_REACTORS
330
1A
102
}
100
AcDbPlotSettings
  1

  2
none_device
  4

  6

 40
0.0
 41
0.0
 42
0.0
 43
0.0
 44
210.0
 45
297.0
 46
0.0
 47
0.0
 48
0.0
 49
0.0
140
0.0
141
0.0
142
1.0
143
1.0
 70
1024
 72
1
 73
0
 74
0
  7

 75
0
147
1.0
148
0.0
149
0.0
100
AcDbLayout
  1
Model
 70
0
 71
0
 10
0.0
 20
0.0
 11
210.0
 21
297.0
 12
0.0
 22
0.0
 32
0.0
 14
0.0
 24
0.0
 34
0.0
 15
0.0
 25
0.0
 35
0.0
146
0.0
 13
0.0
 23
0.0
 33
0.0
 16
1.0
 26
0.0
 36
0.0
 17
0.0
 27
1.0
 37
0.0
 76
0
330
210
345
0
346
0
  0
LAYOUT
  5
2BB
102
{ACAD_REACTORS
330
1A
102
}
100
AcDbPlotSettings
  1

  2
none_device
  4

  6

 40
0.0
 41
0.0
 42
0.0
 43
0.0
 44
210.0
 45
297.0
 46
0.0
 47
0.0
 48
0.0
 49
0.0
140
0.0
141
0.0
142
1.0
143
1.0
 70
0
 72
1
 73
0
 74
0
  7

 75
0
147
1.0
148
0.0
149
0.0
100
AcDbLayout
  1
Layout1
 70
0
 71
1
 10
0.0
 20
0.0
 11
210.0
 21
297.0
 12
0.0
 22
0.0
 32
0.0
 14
0.0
 24
0.0
 34
0.0
 15
0.0
 25
0.0
 35
0.0
146
0.0
 13
0.0
 23
0.0
 33
0.0
 16
1.0
 26
0.0
 36
0.0
 17
0.0
 27
1.0
 37
0.0
 76
0
330
211
345
0
346
0
  0
ENDSEC
  0
EOF
