999
DXF file: C:\Users\sesa63760\Dev\_Creo\CAD\MCADID0001897_3D-CAD\drw0001_2.dxf
999
Pro/ENGINEER 2019471 by Parametric Technology Corporation
  0
SECTION
  2
HEADER
  9
$ACADVER
  1
AC1024
  9
$DWGCODEPAGE
  3
ANSI_1252
  9
$EXTMAX
 10
99.425848903
 20
140.6165577342
 30
0.0
  9
$EXTMIN
 10
0.0
 20
0.0
 30
0.0
  9
$LIMMIN
 10
0.0
 20
0.0
  9
$LIMMAX
 10
99.425848903
 20
140.6165577342
  9
$VIEWCTR
 10
49.7129244515
 20
70.3082788671
  9
$VIEWSIZE
 40
140.6165577342
  9
$CLAYER
  8
0
  9
$LTSCALE
 40
9.166116356
  9
$CELTYPE
  6
BYLAYER
  9
$DIMSCALE
 40
1.0
  9
$DIMASZ
 40
1.1836410584
  9
$DIMEXO
 40
1.0
  9
$DIMDLI
 40
6.3329531187
  9
$DIMEXE
 40
1.0
  9
$DIMCEN
 40
1.4999099492
  9
$DIMLFAC
 40
1.0
  9
$DIMBLK
  1
_FILLED
  9
$DIMALT
 70
0
  9
$DIMALTF
 40
0.0393700787
  9
$DIMTXT
 40
1.6570974817
  9
$DIMTOL
 70
1
  9
$DIMLIM
 70
0
  9
$DIMTFAC
 40
1.0
  9
$DIMTP
 40
0.01
  9
$DIMTM
 40
0.01
  9
$DIMGAP
 40
0.625
  9
$DIMDSEP
 70
46
  9
$AUNITS
 70
0
  9
$PDMODE
 70
3
  9
$PDSIZE
 40
0.3125
  9
$HANDSEED
  5
493
  9
$TILEMODE
 70
1
  9
$MEASUREMENT
 70
1
  9
$INSUNITS
 70
4
  0
ENDSEC
  0
SECTION
  2
CLASSES
  0
CLASS
  1
ACDBDICTIONARYWDFLT
  2
AcDbDictionaryWithDefault
  3
AutoCAD 2000
 90
0
 91
1
280
0
281
0
  0
CLASS
  1
ACDBPLACEHOLDER
  2
AcDbPlaceHolder
  3
AutoCAD 2000
 90
0
 91
1
280
0
281
0
  0
CLASS
  1
LAYOUT
  2
AcDbLayout
  3
AutoCAD 2000
 90
0
 91
0
280
0
281
0
  0
ENDSEC
  0
SECTION
  2
TABLES
  0
TABLE
  2
VPORT
  5
8
100
AcDbSymbolTable
 70
2
  0
VPORT
  5
1F4
100
AcDbSymbolTableRecord
100
AcDbViewportTableRecord
  2
*ACTIVE
 70
0
 10
0.0
 20
0.0
 11
1.0
 21
1.0
 12
49.7129244515
 22
70.3082788671
 13
0.0
 23
0.0
 14
1.0
 24
1.0
 15
0.0
 25
0.0
 16
0.0
 26
0.0
 36
1.0
 17
0.0
 27
0.0
 37
0.0
 40
140.6165577342
 41
0.7070707071
 42
50.0
 43
0.0
 44
0.0
 50
0.0
 51
0.0
 71
0
 72
100
 73
1
 74
1
 75
0
 76
0
 77
0
 78
0
  0
ENDTAB
  0
TABLE
  2
LTYPE
  5
5
100
AcDbSymbolTable
 70
6
  0
LTYPE
  5
14
100
AcDbSymbolTableRecord
100
AcDbLinetypeTableRecord
  2
BYBLOCK
 70
0
  3

 72
65
 73
0
 40
0.0
  0
LTYPE
  5
15
100
AcDbSymbolTableRecord
100
AcDbLinetypeTableRecord
  2
BYLAYER
 70
0
  3

 72
65
 73
0
 40
0.0
  0
LTYPE
  5
16
100
AcDbSymbolTableRecord
100
AcDbLinetypeTableRecord
  2
CONTINUOUS
 70
64
  3
Solid line
 72
65
 73
0
 40
0.0
  0
LTYPE
  5
1F5
100
AcDbSymbolTableRecord
100
AcDbLinetypeTableRecord
  2
CENTER
 70
64
  3
____ _ ____ _ ____ _ ____ _ ____ _ ____ _ ____
 72
65
 73
4
 40
0.6
 49
0.375
 74
0
 49
-0.075
 74
0
 49
0.075
 74
0
 49
-0.075
 74
0
  0
LTYPE
  5
1F6
100
AcDbSymbolTableRecord
100
AcDbLinetypeTableRecord
  2
HIDDEN
 70
64
  3
- - - - - - - - - - - - - - - - - - - -
 72
65
 73
2
 40
0.2
 49
0.1
 74
0
 49
-0.1
 74
0
  0
LTYPE
  5
1F7
100
AcDbSymbolTableRecord
100
AcDbLinetypeTableRecord
  2
PHANTOM
 70
64
  3
_____ _ _ _____ _ _ _____ _ _ _____
 72
65
 73
6
 40
0.8
 49
0.45
 74
0
 49
-0.05
 74
0
 49
0.1
 74
0
 49
-0.05
 74
0
 49
0.1
 74
0
 49
-0.05
 74
0
  0
LTYPE
  5
1F8
100
AcDbSymbolTableRecord
100
AcDbLinetypeTableRecord
  2
DOT
 70
64
  3
. . . . . . . . . . . . . . . . . . . .
 72
65
 73
2
 40
0.2
 49
0.1
 74
0
 49
-0.1
 74
0
  0
LTYPE
  5
1F9
100
AcDbSymbolTableRecord
100
AcDbLinetypeTableRecord
  2
DASHED
 70
64
  3
- - - - - - - - - - - - - - - - - - - -
 72
65
 73
2
 40
0.2
 49
0.1
 74
0
 49
-0.1
 74
0
  0
ENDTAB
  0
TABLE
  2
LAYER
  5
2
100
AcDbSymbolTable
 70
36
  0
LAYER
  5
10
100
AcDbSymbolTableRecord
100
AcDbLayerTableRecord
  2
0
 70
0
 62
7
  6
CONTINUOUS
370
-3
390
F
  0
LAYER
  5
1FA
100
AcDbSymbolTableRecord
100
AcDbLayerTableRecord
  2
DEFAULT_1
 70
0
 62
7
  6
CENTER
370
-3
390
F
  0
LAYER
  5
1FB
100
AcDbSymbolTableRecord
100
AcDbLayerTableRecord
  2
DEFAULT_2
 70
0
 62
8
  6
HIDDEN
370
-3
390
F
  0
LAYER
  5
1FC
100
AcDbSymbolTableRecord
100
AcDbLayerTableRecord
  2
DEFAULT_3
 70
0
 62
7
  6
PHANTOM
370
-3
390
F
  0
LAYER
  5
1FD
100
AcDbSymbolTableRecord
100
AcDbLayerTableRecord
  2
00_COMPONENTS
 70
0
 62
7
  6
CONTINUOUS
370
-3
390
F
  0
LAYER
  5
1FE
100
AcDbSymbolTableRecord
100
AcDbLayerTableRecord
  2
01_1_DEFAULT_DATUMS
 70
0
 62
7
  6
CONTINUOUS
370
-3
390
F
  0
LAYER
  5
1FF
100
AcDbSymbolTableRecord
100
AcDbLayerTableRecord
  2
01_PLANES
 70
0
 62
7
  6
CONTINUOUS
370
-3
390
F
  0
LAYER
  5
200
100
AcDbSymbolTableRecord
100
AcDbLayerTableRecord
  2
02_COORD_SYS
 70
0
 62
7
  6
CONTINUOUS
370
-3
390
F
  0
LAYER
  5
201
100
AcDbSymbolTableRecord
100
AcDbLayerTableRecord
  2
03_AXES
 70
0
 62
7
  6
CONTINUOUS
370
-3
390
F
  0
LAYER
  5
202
100
AcDbSymbolTableRecord
100
AcDbLayerTableRecord
  2
04_POINTS
 70
0
 62
7
  6
CONTINUOUS
370
-3
390
F
  0
LAYER
  5
203
100
AcDbSymbolTableRecord
100
AcDbLayerTableRecord
  2
05_CURVES
 70
0
 62
7
  6
CONTINUOUS
370
-3
390
F
  0
LAYER
  5
204
100
AcDbSymbolTableRecord
100
AcDbLayerTableRecord
  2
06_SURFS
 70
0
 62
7
  6
CONTINUOUS
370
-3
390
F
  0
LAYER
  5
205
100
AcDbSymbolTableRecord
100
AcDbLayerTableRecord
  2
07_COSMETICS
 70
0
 62
7
  6
CONTINUOUS
370
-3
390
F
  0
LAYER
  5
206
100
AcDbSymbolTableRecord
100
AcDbLayerTableRecord
  2
10_NOTES
 70
0
 62
7
  6
CONTINUOUS
370
-3
390
F
  0
LAYER
  5
207
100
AcDbSymbolTableRecord
100
AcDbLayerTableRecord
  2
11_NOTES_PUB
 70
0
 62
7
  6
CONTINUOUS
370
-3
390
F
  0
LAYER
  5
208
100
AcDbSymbolTableRecord
100
AcDbLayerTableRecord
  2
13_REF_GTOL
 70
0
 62
7
  6
CONTINUOUS
370
-3
390
F
  0
LAYER
  5
209
100
AcDbSymbolTableRecord
100
AcDbLayerTableRecord
  2
16_MISC
 70
0
 62
7
  6
CONTINUOUS
370
-3
390
F
  0
LAYER
  5
20A
100
AcDbSymbolTableRecord
100
AcDbLayerTableRecord
  2
17_NO_PRINT
 70
0
 62
7
  6
CONTINUOUS
370
-3
390
F
  0
LAYER
  5
20B
100
AcDbSymbolTableRecord
100
AcDbLayerTableRecord
  2
18_DATUM_CAMS_JOINTS
 70
0
 62
7
  6
CONTINUOUS
370
-3
390
F
  0
LAYER
  5
20C
100
AcDbSymbolTableRecord
100
AcDbLayerTableRecord
  2
19_DATUM_FUNCTIONAL
 70
0
 62
7
  6
CONTINUOUS
370
-3
390
F
  0
LAYER
  5
20D
100
AcDbSymbolTableRecord
100
AcDbLayerTableRecord
  2
20_DATUM_KINEMATIC_SCHEME
 70
0
 62
7
  6
CONTINUOUS
370
-3
390
F
  0
ENDTAB
  0
TABLE
  2
STYLE
  5
3
100
AcDbSymbolTable
 70
1
  0
STYLE
  5
11
100
AcDbSymbolTableRecord
100
AcDbTextStyleTableRecord
  2
STANDARD
 70
0
 40
0.0
 41
0.8
 50
0.0
 71
0
 42
0.2
  3
txt
  4

  0
STYLE
  5
20E
100
AcDbSymbolTableRecord
100
AcDbTextStyleTableRecord
  2
TEXTSTYLE_1
 70
0
 40
0.0
 41
0.8
 50
0.0
 71
0
 42
0.2
  3
gdt
  4

  0
ENDTAB
  0
TABLE
  2
VIEW
  5
6
100
AcDbSymbolTable
 70
0
  0
ENDTAB
  0
TABLE
  2
UCS
  5
7
100
AcDbSymbolTable
 70
0
  0
ENDTAB
  0
TABLE
  2
APPID
  5
9
100
AcDbSymbolTable
 70
1
  0
APPID
  5
20F
100
AcDbSymbolTableRecord
100
AcDbRegAppTableRecord
  2
ACAD
 70
0
  0
ENDTAB
  0
TABLE
  2
BLOCK_RECORD
  5
1
100
AcDbSymbolTable
 70
0
  0
BLOCK_RECORD
  5
210
100
AcDbSymbolTableRecord
100
AcDbBlockTableRecord
  2
*Model_Space
  0
BLOCK_RECORD
  5
211
100
AcDbSymbolTableRecord
100
AcDbBlockTableRecord
  2
*Paper_Space
  0
BLOCK_RECORD
  5
212
100
AcDbSymbolTableRecord
100
AcDbBlockTableRecord
  2
_FILLED
  0
ENDTAB
  0
TABLE
  2
DIMSTYLE
  5
A
100
AcDbSymbolTable
 70
1
100
AcDbDimStyleTable
 71
0
  0
DIMSTYLE
105
213
100
AcDbSymbolTableRecord
100
AcDbDimStyleTableRecord
  2
STANDARD
 70
0
  3

  4

 40
1.0
 41
1.1836410584
 42
1.0
 43
0.38
 44
1.0
 45
0.0
 46
0.0
 47
0.01
 48
0.01
140
1.6570974817
141
0.09
142
0.0
143
25.4
144
1.0
145
0.0
146
1.0
147
0.625
 71
1
 72
0
 73
0
 74
0
 75
0
 76
0
 77
1
 78
8
 79
2
170
0
171
1
172
0
173
0
174
0
175
0
176
0
177
0
178
0
270
2
179
2
271
2
272
2
273
2
274
2
275
0
280
0
281
0
282
0
283
1
284
8
285
0
286
0
287
3
288
0
340
11
278
46
341
212
342
212
343
212
344
212
  0
ENDTAB
  0
ENDSEC
  0
SECTION
  2
BLOCKS
  0
BLOCK
  5
20
100
AcDbEntity
  8
0
100
AcDbBlockBegin
  2
*Model_Space
 70
0
 10
0.0
 20
0.0
 30
0.0
  3
*Model_Space
  1

  0
ENDBLK
  5
21
100
AcDbEntity
  8
0
100
AcDbBlockEnd
  0
BLOCK
  5
1C
100
AcDbEntity
  8
0
100
AcDbBlockBegin
  2
*Paper_Space
 70
0
 10
0.0
 20
0.0
 30
0.0
  3
*Paper_Space
  1

  0
ENDBLK
  5
1D
100
AcDbEntity
  8
0
100
AcDbBlockEnd
  0
BLOCK
  5
214
100
AcDbEntity
  8
0
100
AcDbBlockBegin
  2
_FILLED
 70
64
 10
0.0
 20
0.0
  3
_FILLED
  1

  0
SOLID
  5
215
100
AcDbEntity
  8
0
  6
BYBLOCK
 62
0
100
AcDbTrace
 10
0.0
 20
0.0
 11
-1.0
 21
0.25
 12
-1.0
 22
-0.25
 13
-1.0
 23
-0.25
  0
ENDBLK
  5
216
100
AcDbEntity
  8
0
  6
BYBLOCK
 62
0
100
AcDbBlockEnd
  0
ENDSEC
  0
SECTION
  2
ENTITIES
  0
LINE
  5
217
100
AcDbEntity
  8
0
100
AcDbLine
 62
7
  6
CONTINUOUS
 10
10.9013776105
 20
54.5751089325
 11
10.9013776105
 21
30.8751089325
  0
LINE
  5
218
100
AcDbEntity
  8
0
100
AcDbLine
 62
7
  6
CONTINUOUS
 10
11.2013776105
 20
30.8751089325
 11
11.2013776105
 21
54.8751089325
  0
LINE
  5
219
100
AcDbEntity
  8
0
100
AcDbLine
 62
7
  6
CONTINUOUS
 10
69.4513776105
 20
33.1751089325
 11
68.2013776105
 21
32.9751089325
  0
LINE
  5
21A
100
AcDbEntity
  8
0
100
AcDbLine
 62
7
  6
CONTINUOUS
 10
10.9013776105
 20
30.8751089325
 11
34.1013776105
 21
30.8751089325
  0
LINE
  5
21B
100
AcDbEntity
  8
0
100
AcDbLine
 62
7
  6
CONTINUOUS
 10
47.7513776078
 20
30.8751089325
 11
53.0513776078
 21
30.8751089325
  0
LINE
  5
21C
100
AcDbEntity
  8
0
100
AcDbLine
 62
7
  6
CONTINUOUS
 10
69.7013776105
 20
30.8751089325
 11
89.9013776105
 21
30.8751089325
  0
LINE
  5
21D
100
AcDbEntity
  8
0
100
AcDbLine
 62
7
  6
CONTINUOUS
 10
18.3013776105
 20
32.6751089325
 11
22.3013776105
 21
32.6751089325
  0
LINE
  5
21E
100
AcDbEntity
  8
0
100
AcDbLine
 62
7
  6
CONTINUOUS
 10
78.501377605
 20
32.6751089325
 11
82.501377605
 21
32.6751089325
  0
LINE
  5
21F
100
AcDbEntity
  8
0
100
AcDbLine
 62
7
  6
CONTINUOUS
 10
71.9013776105
 20
33.1751089325
 11
69.4513776105
 21
33.1751089325
  0
LINE
  5
220
100
AcDbEntity
  8
0
100
AcDbLine
 62
7
  6
CONTINUOUS
 10
68.4062681038
 20
33.3751089325
 11
72.4013776105
 21
33.3751089325
  0
LINE
  5
221
100
AcDbEntity
  8
0
100
AcDbLine
 62
7
  6
CONTINUOUS
 10
35.3013776105
 20
32.8751089325
 11
34.1013776105
 21
33.0751089325
  0
LINE
  5
222
100
AcDbEntity
  8
0
100
AcDbLine
 62
7
  6
CONTINUOUS
 10
82.3013776105
 20
33.5751089325
 11
78.7013776105
 21
33.5751089325
  0
LINE
  5
223
100
AcDbEntity
  8
0
100
AcDbLine
 62
7
  6
CONTINUOUS
 10
22.1013776105
 20
33.5751089325
 11
18.5013776105
 21
33.5751089325
  0
LINE
  5
224
100
AcDbEntity
  8
0
100
AcDbLine
 62
7
  6
CONTINUOUS
 10
72.4013776105
 20
33.8751089325
 11
71.2123432854
 21
33.8751089325
  0
LINE
  5
225
100
AcDbEntity
  8
0
100
AcDbLine
 62
7
  6
CONTINUOUS
 10
32.9013776105
 20
34.3751089325
 11
48.7513776087
 21
34.3751089325
  0
LINE
  5
226
100
AcDbEntity
  8
0
100
AcDbLine
 62
7
  6
CONTINUOUS
 10
52.0513776087
 20
34.3751089325
 11
72.4013776105
 21
34.3751089325
  0
LINE
  5
227
100
AcDbEntity
  8
0
100
AcDbLine
 62
7
  6
CONTINUOUS
 10
82.501377605
 20
35.0751089325
 11
78.501377605
 21
35.0751089325
  0
LINE
  5
228
100
AcDbEntity
  8
0
100
AcDbLine
 62
7
  6
CONTINUOUS
 10
22.3013776105
 20
35.0751089325
 11
18.3013776105
 21
35.0751089325
  0
LINE
  5
229
100
AcDbEntity
  8
0
100
AcDbLine
 62
7
  6
CONTINUOUS
 10
37.301377616
 20
36.1751089325
 11
41.501377616
 21
36.1751089325
  0
LINE
  5
22A
100
AcDbEntity
  8
0
100
AcDbLine
 62
7
  6
CONTINUOUS
 10
59.301377605
 20
36.1751089325
 11
63.501377605
 21
36.1751089325
  0
LINE
  5
22B
100
AcDbEntity
  8
0
100
AcDbLine
 62
7
  6
CONTINUOUS
 10
63.401377605
 20
36.9751089325
 11
59.401377605
 21
36.9751089325
  0
LINE
  5
22C
100
AcDbEntity
  8
0
100
AcDbLine
 62
7
  6
CONTINUOUS
 10
41.401377616
 20
36.9751089325
 11
37.401377616
 21
36.9751089325
  0
LINE
  5
22D
100
AcDbEntity
  8
0
100
AcDbLine
 62
7
  6
CONTINUOUS
 10
18.3013776105
 20
35.0751089325
 11
18.3013776105
 21
32.6751089325
  0
LINE
  5
22E
100
AcDbEntity
  8
0
100
AcDbLine
 62
7
  6
CONTINUOUS
 10
18.5013776105
 20
32.6751089325
 11
18.5013776105
 21
35.0751089325
  0
LINE
  5
22F
100
AcDbEntity
  8
0
100
AcDbLine
 62
7
  6
CONTINUOUS
 10
63.501377605
 20
38.4751089325
 11
59.301377605
 21
38.4751089325
  0
LINE
  5
230
100
AcDbEntity
  8
0
100
AcDbLine
 62
7
  6
CONTINUOUS
 10
41.501377616
 20
38.4751089325
 11
37.301377616
 21
38.4751089325
  0
LINE
  5
231
100
AcDbEntity
  8
0
100
AcDbLine
 62
7
  6
CONTINUOUS
 10
22.1013776105
 20
54.8751089325
 11
22.4013776105
 21
54.5751089325
  0
LINE
  5
232
100
AcDbEntity
  8
0
100
AcDbLine
 62
7
  6
CONTINUOUS
 10
22.1013776105
 20
73.0751089325
 11
22.1013776105
 21
54.8751089325
  0
LINE
  5
233
100
AcDbEntity
  8
0
100
AcDbLine
 62
7
  6
CONTINUOUS
 10
22.1013776105
 20
35.0751089325
 11
22.1013776105
 21
32.6751089325
  0
LINE
  5
234
100
AcDbEntity
  8
0
100
AcDbLine
 62
7
  6
CONTINUOUS
 10
22.3013776105
 20
32.6751089325
 11
22.3013776105
 21
35.0751089325
  0
LINE
  5
235
100
AcDbEntity
  8
0
100
AcDbLine
 62
7
  6
CONTINUOUS
 10
22.4013776105
 20
54.5751089325
 11
22.4013776105
 21
73.3751089325
  0
LINE
  5
236
100
AcDbEntity
  8
0
100
AcDbLine
 62
7
  6
CONTINUOUS
 10
47.2513776078
 20
34.3751089325
 11
47.7513776078
 21
33.8751089325
  0
LINE
  5
237
100
AcDbEntity
  8
0
100
AcDbLine
 62
7
  6
CONTINUOUS
 10
47.3013776105
 20
47.4751089325
 11
48.4513776105
 21
47.4751089325
  0
LINE
  5
238
100
AcDbEntity
  8
0
100
AcDbLine
 62
7
  6
CONTINUOUS
 10
52.3513776105
 20
47.4751089325
 11
53.5013776105
 21
47.4751089325
  0
LINE
  5
239
100
AcDbEntity
  8
0
100
AcDbLine
 62
7
  6
CONTINUOUS
 10
47.6013776105
 20
47.7751089325
 11
53.2013776105
 21
47.7751089325
  0
LINE
  5
23A
100
AcDbEntity
  8
0
100
AcDbLine
 62
7
  6
CONTINUOUS
 10
68.2013776105
 20
31.7247179864
 11
69.7013776105
 21
30.8751089325
  0
LINE
  5
23B
100
AcDbEntity
  8
0
100
AcDbLine
 62
7
  6
CONTINUOUS
 10
32.0013776105
 20
73.3751089325
 11
32.0013776105
 21
50.6751089325
  0
LINE
  5
23C
100
AcDbEntity
  8
0
100
AcDbLine
 62
7
  6
CONTINUOUS
 10
32.3013776105
 20
50.9751089325
 11
32.3013776105
 21
73.0751089325
  0
LINE
  5
23D
100
AcDbEntity
  8
0
100
AcDbLine
 62
7
  6
CONTINUOUS
 10
32.0013776105
 20
50.6751089325
 11
47.6013776105
 21
50.6751089325
  0
LINE
  5
23E
100
AcDbEntity
  8
0
100
AcDbLine
 62
7
  6
CONTINUOUS
 10
53.1181961664
 20
50.6751089325
 11
71.1013776105
 21
50.6751089325
  0
LINE
  5
23F
100
AcDbEntity
  8
0
100
AcDbLine
 62
7
  6
CONTINUOUS
 10
47.3013776105
 20
50.9751089325
 11
32.3013776105
 21
50.9751089325
  0
LINE
  5
240
100
AcDbEntity
  8
0
100
AcDbLine
 62
7
  6
CONTINUOUS
 10
53.4685424251
 20
50.9751089325
 11
70.8013776105
 21
50.9751089325
  0
LINE
  5
241
100
AcDbEntity
  8
0
100
AcDbLine
 62
7
  6
CONTINUOUS
 10
41.6494461498
 20
51.3251089325
 11
56.8975146891
 21
51.3251089325
  0
LINE
  5
242
100
AcDbEntity
  8
0
100
AcDbLine
 62
7
  6
CONTINUOUS
 10
32.9013776105
 20
30.8751089325
 11
32.9013776105
 21
34.3751089325
  0
LINE
  5
243
100
AcDbEntity
  8
0
100
AcDbLine
 62
7
  6
CONTINUOUS
 10
34.1013776105
 20
34.3751089325
 11
34.1013776105
 21
33.0751089325
  0
LINE
  5
244
100
AcDbEntity
  8
0
100
AcDbLine
 62
7
  6
CONTINUOUS
 10
35.3013776105
 20
31.9251089325
 11
35.3013776105
 21
32.8751089325
  0
LINE
  5
245
100
AcDbEntity
  8
0
100
AcDbLine
 62
7
  6
CONTINUOUS
 10
10.9013776105
 20
54.5751089325
 11
22.4013776105
 21
54.5751089325
  0
LINE
  5
246
100
AcDbEntity
  8
0
100
AcDbLine
 62
7
  6
CONTINUOUS
 10
80.7013776105
 20
54.5751089325
 11
89.9013776105
 21
54.5751089325
  0
LINE
  5
247
100
AcDbEntity
  8
0
100
AcDbLine
 62
7
  6
CONTINUOUS
 10
41.6494461498
 20
54.8251089325
 11
44.7513776105
 21
54.8251089325
  0
LINE
  5
248
100
AcDbEntity
  8
0
100
AcDbLine
 62
7
  6
CONTINUOUS
 10
89.6013776105
 20
54.8751089325
 11
81.0013776105
 21
54.8751089325
  0
LINE
  5
249
100
AcDbEntity
  8
0
100
AcDbLine
 62
7
  6
CONTINUOUS
 10
22.1013776105
 20
54.8751089325
 11
11.2013776105
 21
54.8751089325
  0
LINE
  5
24A
100
AcDbEntity
  8
0
100
AcDbLine
 62
7
  6
CONTINUOUS
 10
44.4013776105
 20
55.1751089325
 11
41.4013776105
 21
55.1751089325
  0
LINE
  5
24B
100
AcDbEntity
  8
0
100
AcDbLine
 62
7
  6
CONTINUOUS
 10
44.4013776105
 20
55.4626089325
 11
41.4013776105
 21
55.4626089325
  0
LINE
  5
24C
100
AcDbEntity
  8
0
100
AcDbLine
 62
7
  6
CONTINUOUS
 10
52.0513776105
 20
47.7751089325
 11
52.3513776105
 21
47.4751089325
  0
LINE
  5
24D
100
AcDbEntity
  8
0
100
AcDbLine
 62
7
  6
CONTINUOUS
 10
39.2834805209
 20
61.8794937377
 11
39.2837705844
 21
59.9751089325
  0
LINE
  5
24E
100
AcDbEntity
  8
0
100
AcDbLine
 62
7
  6
CONTINUOUS
 10
37.301377616
 20
38.4751089325
 11
37.301377616
 21
36.1751089325
  0
LINE
  5
24F
100
AcDbEntity
  8
0
100
AcDbLine
 62
7
  6
CONTINUOUS
 10
37.401377616
 20
36.1751089325
 11
37.401377616
 21
38.4751089325
  0
LINE
  5
250
100
AcDbEntity
  8
0
100
AcDbLine
 62
7
  6
CONTINUOUS
 10
39.2413776105
 20
57.7751089325
 11
39.2413776105
 21
62.2751089325
  0
LINE
  5
251
100
AcDbEntity
  8
0
100
AcDbLine
 62
7
  6
CONTINUOUS
 10
39.2450038543
 20
62.3751089325
 11
39.2450038543
 21
66.6751151122
  0
LINE
  5
252
100
AcDbEntity
  8
0
100
AcDbLine
 62
7
  6
CONTINUOUS
 10
39.2450038543
 20
71.1751027527
 11
39.2450038543
 21
72.2251089325
  0
LINE
  5
253
100
AcDbEntity
  8
0
100
AcDbLine
 62
7
  6
CONTINUOUS
 10
39.2450038543
 20
72.4751089325
 11
39.2450038543
 21
72.7251089325
  0
LINE
  5
254
100
AcDbEntity
  8
0
100
AcDbLine
 62
7
  6
CONTINUOUS
 10
39.2450038543
 20
72.9751089325
 11
39.2450038543
 21
73.2251089325
  0
LINE
  5
255
100
AcDbEntity
  8
0
100
AcDbLine
 62
7
  6
CONTINUOUS
 10
39.2450038543
 20
73.4751089325
 11
39.2450038543
 21
73.7251089325
  0
LINE
  5
256
100
AcDbEntity
  8
0
100
AcDbLine
 62
7
  6
CONTINUOUS
 10
39.2450038543
 20
73.9751089325
 11
39.2450038543
 21
74.2251089325
  0
LINE
  5
257
100
AcDbEntity
  8
0
100
AcDbLine
 62
7
  6
CONTINUOUS
 10
39.2450038543
 20
74.4751089325
 11
39.2450038543
 21
74.7251089325
  0
LINE
  5
258
100
AcDbEntity
  8
0
100
AcDbLine
 62
7
  6
CONTINUOUS
 10
39.2450038543
 20
74.9751089325
 11
39.2450038543
 21
75.2251089325
  0
LINE
  5
259
100
AcDbEntity
  8
0
100
AcDbLine
 62
7
  6
CONTINUOUS
 10
39.2450038543
 20
75.4751089325
 11
39.2450038543
 21
75.7251089325
  0
LINE
  5
25A
100
AcDbEntity
  8
0
100
AcDbLine
 62
7
  6
CONTINUOUS
 10
39.2450038543
 20
75.9751089325
 11
39.2450038543
 21
76.2251089325
  0
LINE
  5
25B
100
AcDbEntity
  8
0
100
AcDbLine
 62
7
  6
CONTINUOUS
 10
39.2450038543
 20
76.4751089325
 11
39.2450038543
 21
76.7251089325
  0
LINE
  5
25C
100
AcDbEntity
  8
0
100
AcDbLine
 62
7
  6
CONTINUOUS
 10
39.2450038543
 20
76.9751089325
 11
39.2450038543
 21
77.2251089325
  0
LINE
  5
25D
100
AcDbEntity
  8
0
100
AcDbLine
 62
7
  6
CONTINUOUS
 10
39.2450038543
 20
77.4751089325
 11
39.2450038543
 21
77.7251089325
  0
LINE
  5
25E
100
AcDbEntity
  8
0
100
AcDbLine
 62
7
  6
CONTINUOUS
 10
39.2450038543
 20
77.9751089325
 11
39.2450038543
 21
78.2251089325
  0
LINE
  5
25F
100
AcDbEntity
  8
0
100
AcDbLine
 62
7
  6
CONTINUOUS
 10
39.2450038543
 20
78.4751089325
 11
39.2450038543
 21
78.7251089325
  0
LINE
  5
260
100
AcDbEntity
  8
0
100
AcDbLine
 62
7
  6
CONTINUOUS
 10
39.2450038543
 20
78.9751089325
 11
39.2450038543
 21
79.2251089325
  0
LINE
  5
261
100
AcDbEntity
  8
0
100
AcDbLine
 62
7
  6
CONTINUOUS
 10
39.2450038543
 20
79.4751089325
 11
39.2450038543
 21
79.7251089325
  0
LINE
  5
262
100
AcDbEntity
  8
0
100
AcDbLine
 62
7
  6
CONTINUOUS
 10
39.2450038543
 20
79.9751089325
 11
39.2450038543
 21
80.2251089325
  0
LINE
  5
263
100
AcDbEntity
  8
0
100
AcDbLine
 62
7
  6
CONTINUOUS
 10
39.2450038543
 20
80.4751089325
 11
39.2450038543
 21
80.7251089325
  0
LINE
  5
264
100
AcDbEntity
  8
0
100
AcDbLine
 62
7
  6
CONTINUOUS
 10
39.2450038543
 20
80.9751089325
 11
39.2450038543
 21
81.2251089325
  0
LINE
  5
265
100
AcDbEntity
  8
0
100
AcDbLine
 62
7
  6
CONTINUOUS
 10
39.2450038543
 20
81.4751089325
 11
39.2450038543
 21
81.7251089325
  0
LINE
  5
266
100
AcDbEntity
  8
0
100
AcDbLine
 62
7
  6
CONTINUOUS
 10
39.2450038543
 20
81.9751089325
 11
39.2450038543
 21
82.2251089325
  0
LINE
  5
267
100
AcDbEntity
  8
0
100
AcDbLine
 62
7
  6
CONTINUOUS
 10
39.2450038543
 20
82.4751089325
 11
39.2450038543
 21
82.7251089325
  0
LINE
  5
268
100
AcDbEntity
  8
0
100
AcDbLine
 62
7
  6
CONTINUOUS
 10
39.2450038543
 20
82.9751089325
 11
39.2450038543
 21
83.2251089325
  0
LINE
  5
269
100
AcDbEntity
  8
0
100
AcDbLine
 62
7
  6
CONTINUOUS
 10
39.2450038543
 20
83.4751089325
 11
39.2450038543
 21
83.7251089325
  0
LINE
  5
26A
100
AcDbEntity
  8
0
100
AcDbLine
 62
7
  6
CONTINUOUS
 10
39.2450038543
 20
83.9751089325
 11
39.2450038543
 21
84.2251089325
  0
LINE
  5
26B
100
AcDbEntity
  8
0
100
AcDbLine
 62
7
  6
CONTINUOUS
 10
39.2450038543
 20
84.4751089325
 11
39.2450038543
 21
84.7251089325
  0
LINE
  5
26C
100
AcDbEntity
  8
0
100
AcDbLine
 62
7
  6
CONTINUOUS
 10
39.2450038543
 20
84.9751089325
 11
39.2450038543
 21
85.2251089325
  0
LINE
  5
26D
100
AcDbEntity
  8
0
100
AcDbLine
 62
7
  6
CONTINUOUS
 10
39.2450038543
 20
85.4751089325
 11
39.2450038543
 21
85.7251089325
  0
LINE
  5
26E
100
AcDbEntity
  8
0
100
AcDbLine
 62
7
  6
CONTINUOUS
 10
39.2450038543
 20
85.9751089325
 11
39.2450038543
 21
86.2251089325
  0
LINE
  5
26F
100
AcDbEntity
  8
0
100
AcDbLine
 62
7
  6
CONTINUOUS
 10
39.2450038543
 20
86.4751089325
 11
39.2450038543
 21
86.7251089325
  0
LINE
  5
270
100
AcDbEntity
  8
0
100
AcDbLine
 62
7
  6
CONTINUOUS
 10
39.2450038543
 20
86.9751089325
 11
39.2450038543
 21
87.2251089325
  0
LINE
  5
271
100
AcDbEntity
  8
0
100
AcDbLine
 62
7
  6
CONTINUOUS
 10
39.2450038543
 20
87.4751089325
 11
39.2450038543
 21
87.7251089325
  0
LINE
  5
272
100
AcDbEntity
  8
0
100
AcDbLine
 62
7
  6
CONTINUOUS
 10
39.2450038543
 20
87.9751089325
 11
39.2450038543
 21
88.2251089325
  0
LINE
  5
273
100
AcDbEntity
  8
0
100
AcDbLine
 62
7
  6
CONTINUOUS
 10
39.2450038543
 20
88.4751089325
 11
39.2450038543
 21
88.7251089325
  0
LINE
  5
274
100
AcDbEntity
  8
0
100
AcDbLine
 62
7
  6
CONTINUOUS
 10
39.2450038543
 20
88.9751089325
 11
39.2450038543
 21
89.1751151122
  0
LINE
  5
275
100
AcDbEntity
  8
0
100
AcDbLine
 62
7
  6
CONTINUOUS
 10
39.2450036334
 20
94.7751089333
 11
39.2450038543
 21
93.6751027527
  0
LINE
  5
276
100
AcDbEntity
  8
0
100
AcDbLine
 62
7
  6
CONTINUOUS
 10
39.3933769573
 20
72.2251089325
 11
39.3933769573
 21
72.4751089325
  0
LINE
  5
277
100
AcDbEntity
  8
0
100
AcDbLine
 62
7
  6
CONTINUOUS
 10
39.3933769573
 20
72.7251089325
 11
39.3933769573
 21
72.9751089325
  0
LINE
  5
278
100
AcDbEntity
  8
0
100
AcDbLine
 62
7
  6
CONTINUOUS
 10
39.3933769573
 20
73.2251089325
 11
39.3933769573
 21
73.4751089325
  0
LINE
  5
279
100
AcDbEntity
  8
0
100
AcDbLine
 62
7
  6
CONTINUOUS
 10
39.3933769573
 20
73.7251089325
 11
39.3933769573
 21
73.9751089325
  0
LINE
  5
27A
100
AcDbEntity
  8
0
100
AcDbLine
 62
7
  6
CONTINUOUS
 10
39.3933769573
 20
74.2251089325
 11
39.3933769573
 21
74.4751089325
  0
LINE
  5
27B
100
AcDbEntity
  8
0
100
AcDbLine
 62
7
  6
CONTINUOUS
 10
39.3933769573
 20
74.7251089325
 11
39.3933769573
 21
74.9751089325
  0
LINE
  5
27C
100
AcDbEntity
  8
0
100
AcDbLine
 62
7
  6
CONTINUOUS
 10
39.3933769573
 20
75.2251089325
 11
39.3933769573
 21
75.4751089325
  0
LINE
  5
27D
100
AcDbEntity
  8
0
100
AcDbLine
 62
7
  6
CONTINUOUS
 10
39.3933769573
 20
75.7251089325
 11
39.3933769573
 21
75.9751089325
  0
LINE
  5
27E
100
AcDbEntity
  8
0
100
AcDbLine
 62
7
  6
CONTINUOUS
 10
39.3933769573
 20
76.2251089325
 11
39.3933769573
 21
76.4751089325
  0
LINE
  5
27F
100
AcDbEntity
  8
0
100
AcDbLine
 62
7
  6
CONTINUOUS
 10
39.3933769573
 20
76.7251089325
 11
39.3933769573
 21
76.9751089325
  0
LINE
  5
280
100
AcDbEntity
  8
0
100
AcDbLine
 62
7
  6
CONTINUOUS
 10
39.3933769573
 20
77.2251089325
 11
39.3933769573
 21
77.4751089325
  0
LINE
  5
281
100
AcDbEntity
  8
0
100
AcDbLine
 62
7
  6
CONTINUOUS
 10
39.3933769573
 20
77.7251089325
 11
39.3933769573
 21
77.9751089325
  0
LINE
  5
282
100
AcDbEntity
  8
0
100
AcDbLine
 62
7
  6
CONTINUOUS
 10
39.3933769573
 20
78.2251089325
 11
39.3933769573
 21
78.4751089325
  0
LINE
  5
283
100
AcDbEntity
  8
0
100
AcDbLine
 62
7
  6
CONTINUOUS
 10
39.3933769573
 20
78.7251089325
 11
39.3933769573
 21
78.9751089325
  0
LINE
  5
284
100
AcDbEntity
  8
0
100
AcDbLine
 62
7
  6
CONTINUOUS
 10
39.3933769573
 20
79.2251089325
 11
39.3933769573
 21
79.4751089325
  0
LINE
  5
285
100
AcDbEntity
  8
0
100
AcDbLine
 62
7
  6
CONTINUOUS
 10
39.3933769573
 20
79.7251089325
 11
39.3933769573
 21
79.9751089325
  0
LINE
  5
286
100
AcDbEntity
  8
0
100
AcDbLine
 62
7
  6
CONTINUOUS
 10
39.3933769573
 20
80.2251089325
 11
39.3933769573
 21
80.4751089325
  0
LINE
  5
287
100
AcDbEntity
  8
0
100
AcDbLine
 62
7
  6
CONTINUOUS
 10
39.3933769573
 20
80.7251089325
 11
39.3933769573
 21
80.9751089325
  0
LINE
  5
288
100
AcDbEntity
  8
0
100
AcDbLine
 62
7
  6
CONTINUOUS
 10
39.3933769573
 20
81.2251089325
 11
39.3933769573
 21
81.4751089325
  0
LINE
  5
289
100
AcDbEntity
  8
0
100
AcDbLine
 62
7
  6
CONTINUOUS
 10
39.3933769573
 20
81.7251089325
 11
39.3933769573
 21
81.9751089325
  0
LINE
  5
28A
100
AcDbEntity
  8
0
100
AcDbLine
 62
7
  6
CONTINUOUS
 10
39.3933769573
 20
82.2251089325
 11
39.3933769573
 21
82.4751089325
  0
LINE
  5
28B
100
AcDbEntity
  8
0
100
AcDbLine
 62
7
  6
CONTINUOUS
 10
39.3933769573
 20
82.7251089325
 11
39.3933769573
 21
82.9751089325
  0
LINE
  5
28C
100
AcDbEntity
  8
0
100
AcDbLine
 62
7
  6
CONTINUOUS
 10
39.3933769573
 20
83.2251089325
 11
39.3933769573
 21
83.4751089325
  0
LINE
  5
28D
100
AcDbEntity
  8
0
100
AcDbLine
 62
7
  6
CONTINUOUS
 10
39.3933769573
 20
83.7251089325
 11
39.3933769573
 21
83.9751089325
  0
LINE
  5
28E
100
AcDbEntity
  8
0
100
AcDbLine
 62
7
  6
CONTINUOUS
 10
39.3933769573
 20
84.2251089325
 11
39.3933769573
 21
84.4751089325
  0
LINE
  5
28F
100
AcDbEntity
  8
0
100
AcDbLine
 62
7
  6
CONTINUOUS
 10
39.3933769573
 20
84.7251089325
 11
39.3933769573
 21
84.9751089325
  0
LINE
  5
290
100
AcDbEntity
  8
0
100
AcDbLine
 62
7
  6
CONTINUOUS
 10
39.3933769573
 20
85.2251089325
 11
39.3933769573
 21
85.4751089325
  0
LINE
  5
291
100
AcDbEntity
  8
0
100
AcDbLine
 62
7
  6
CONTINUOUS
 10
39.3933769573
 20
85.7251089325
 11
39.3933769573
 21
85.9751089325
  0
LINE
  5
292
100
AcDbEntity
  8
0
100
AcDbLine
 62
7
  6
CONTINUOUS
 10
39.3933769573
 20
86.2251089325
 11
39.3933769573
 21
86.4751089325
  0
LINE
  5
293
100
AcDbEntity
  8
0
100
AcDbLine
 62
7
  6
CONTINUOUS
 10
39.3933769573
 20
86.7251089325
 11
39.3933769573
 21
86.9751089325
  0
LINE
  5
294
100
AcDbEntity
  8
0
100
AcDbLine
 62
7
  6
CONTINUOUS
 10
39.3933769573
 20
87.2251089325
 11
39.3933769573
 21
87.4751089325
  0
LINE
  5
295
100
AcDbEntity
  8
0
100
AcDbLine
 62
7
  6
CONTINUOUS
 10
39.3933769573
 20
87.7251089325
 11
39.3933769573
 21
87.9751089325
  0
LINE
  5
296
100
AcDbEntity
  8
0
100
AcDbLine
 62
7
  6
CONTINUOUS
 10
39.3933769573
 20
88.2251089325
 11
39.3933769573
 21
88.4751089325
  0
LINE
  5
297
100
AcDbEntity
  8
0
100
AcDbLine
 62
7
  6
CONTINUOUS
 10
39.3933769573
 20
88.7251089325
 11
39.3933769573
 21
88.9751089325
  0
LINE
  5
298
100
AcDbEntity
  8
0
100
AcDbLine
 62
7
  6
CONTINUOUS
 10
39.41970682
 20
94.7751089325
 11
39.41970682
 21
59.9751089325
  0
LINE
  5
299
100
AcDbEntity
  8
0
100
AcDbLine
 62
7
  6
CONTINUOUS
 10
39.2431907327
 20
94.7751089499
 11
39.292125841
 21
97.578599425
  0
LINE
  5
29A
100
AcDbEntity
  8
0
100
AcDbLine
 62
7
  6
CONTINUOUS
 10
39.9920194364
 20
97.5785994318
 11
39.9431061977
 21
94.7766362868
  0
LINE
  5
29B
100
AcDbEntity
  8
0
100
AcDbLine
 62
7
  6
CONTINUOUS
 10
41.4013776105
 20
56.1751089325
 11
44.4013776105
 21
56.1751089325
  0
LINE
  5
29C
100
AcDbEntity
  8
0
100
AcDbLine
 62
7
  6
CONTINUOUS
 10
32.3013776105
 20
57.4751089325
 11
46.6871056722
 21
57.4751089325
  0
LINE
  5
29D
100
AcDbEntity
  8
0
100
AcDbLine
 62
7
  6
CONTINUOUS
 10
64.6418451429
 20
57.4751089325
 11
70.8013776105
 21
57.4751089325
  0
LINE
  5
29E
100
AcDbEntity
  8
0
100
AcDbLine
 62
7
  6
CONTINUOUS
 10
70.8013776105
 20
57.7751089325
 11
64.7474730956
 21
57.7751089325
  0
LINE
  5
29F
100
AcDbEntity
  8
0
100
AcDbLine
 62
7
  6
CONTINUOUS
 10
46.7490150261
 20
57.7751089325
 11
32.3013776105
 21
57.7751089325
  0
LINE
  5
2A0
100
AcDbEntity
  8
0
100
AcDbLine
 62
7
  6
CONTINUOUS
 10
53.2013776105
 20
47.7751089325
 11
53.5013776105
 21
47.4751089325
  0
LINE
  5
2A1
100
AcDbEntity
  8
0
100
AcDbLine
 62
7
  6
CONTINUOUS
 10
39.9196306676
 20
59.9751089325
 11
39.9196345924
 21
94.7751079128
  0
LINE
  5
2A2
100
AcDbEntity
  8
0
100
AcDbLine
 62
7
  6
CONTINUOUS
 10
39.9920192274
 20
97.5785994321
 11
39.9920192274
 21
97.7751089325
  0
LINE
  5
2A3
100
AcDbEntity
  8
0
100
AcDbLine
 62
7
  6
CONTINUOUS
 10
40.2413776105
 20
57.7751089325
 11
40.2413776105
 21
59.9751089325
  0
LINE
  5
2A4
100
AcDbEntity
  8
0
100
AcDbLine
 62
7
  6
CONTINUOUS
 10
40.6478261666
 20
97.7751089325
 11
40.6478261666
 21
99.6751089325
  0
LINE
  5
2A5
100
AcDbEntity
  8
0
100
AcDbLine
 62
7
  6
CONTINUOUS
 10
41.401377616
 20
38.4751089325
 11
41.401377616
 21
36.1751089325
  0
LINE
  5
2A6
100
AcDbEntity
  8
0
100
AcDbLine
 62
7
  6
CONTINUOUS
 10
41.4013776105
 20
54.8074374232
 11
41.4013776105
 21
56.1751089325
  0
LINE
  5
2A7
100
AcDbEntity
  8
0
100
AcDbLine
 62
7
  6
CONTINUOUS
 10
41.501377616
 20
36.1751089325
 11
41.501377616
 21
38.4751089325
  0
LINE
  5
2A8
100
AcDbEntity
  8
0
100
AcDbLine
 62
7
  6
CONTINUOUS
 10
42.7747532964
 20
69.9751089324
 11
42.7747532964
 21
64.9751089325
  0
LINE
  5
2A9
100
AcDbEntity
  8
0
100
AcDbLine
 62
7
  6
CONTINUOUS
 10
42.9413776105
 20
59.9751089325
 11
42.9413776105
 21
57.7751089325
  0
LINE
  5
2AA
100
AcDbEntity
  8
0
100
AcDbLine
 62
7
  6
CONTINUOUS
 10
39.2413776105
 20
59.9751089325
 11
47.2030169548
 21
59.9751089325
  0
LINE
  5
2AB
100
AcDbEntity
  8
0
100
AcDbLine
 62
7
  6
CONTINUOUS
 10
65.5220780822
 20
59.9751089325
 11
66.4413776105
 21
59.9751089325
  0
LINE
  5
2AC
100
AcDbEntity
  8
0
100
AcDbLine
 62
7
  6
CONTINUOUS
 10
39.2413776105
 20
61.7751089325
 11
39.2834805209
 21
61.7751089325
  0
LINE
  5
2AD
100
AcDbEntity
  8
0
100
AcDbLine
 62
7
  6
CONTINUOUS
 10
39.2747554742
 20
62.2751089325
 11
39.2413776105
 21
62.2751089325
  0
LINE
  5
2AE
100
AcDbEntity
  8
0
100
AcDbLine
 62
7
  6
CONTINUOUS
 10
39.2747554742
 20
62.3751089325
 11
39.2450038543
 21
62.3751089325
  0
LINE
  5
2AF
100
AcDbEntity
  8
0
100
AcDbLine
 62
7
  6
CONTINUOUS
 10
46.2942394271
 20
55.7492291502
 11
46.3663107797
 21
51.3251089325
  0
LINE
  5
2B0
100
AcDbEntity
  8
0
100
AcDbLine
 62
7
  6
CONTINUOUS
 10
43.9413776105
 20
57.7751089325
 11
43.9413776105
 21
59.9751089325
  0
LINE
  5
2B1
100
AcDbEntity
  8
0
100
AcDbLine
 62
7
  6
CONTINUOUS
 10
44.4013776105
 20
56.1751089325
 11
44.4013776105
 21
54.8251089325
  0
LINE
  5
2B2
100
AcDbEntity
  8
0
100
AcDbLine
 62
7
  6
CONTINUOUS
 10
44.8478261666
 20
97.7751089325
 11
44.8478261666
 21
98.6751089325
  0
LINE
  5
2B3
100
AcDbEntity
  8
0
100
AcDbLine
 62
7
  6
CONTINUOUS
 10
45.2282914929
 20
81.5541350968
 11
45.2282916112
 21
83.7751108376
  0
LINE
  5
2B4
100
AcDbEntity
  8
0
100
AcDbLine
 62
7
  6
CONTINUOUS
 10
45.2282917891
 20
72.7646062315
 11
45.228291789
 21
74.9855819714
  0
LINE
  5
2B5
100
AcDbEntity
  8
0
100
AcDbLine
 62
7
  6
CONTINUOUS
 10
45.299445084
 20
54.9131456222
 11
45.299445084
 21
51.3251089325
  0
LINE
  5
2B6
100
AcDbEntity
  8
0
100
AcDbLine
 62
7
  6
CONTINUOUS
 10
44.3413776105
 20
57.7751089325
 11
44.5467109439
 21
59.9751089325
  0
LINE
  5
2B7
100
AcDbEntity
  8
0
100
AcDbLine
 62
7
  6
CONTINUOUS
 10
39.2450038543
 20
66.6751151122
 11
39.4108270104
 21
66.6769658673
  0
LINE
  5
2B8
100
AcDbEntity
  8
0
100
AcDbLine
 62
7
  6
CONTINUOUS
 10
43.2747532964
 20
64.4751089325
 11
47.2747532964
 21
64.4751089325
  0
LINE
  5
2B9
100
AcDbEntity
  8
0
100
AcDbLine
 62
7
  6
CONTINUOUS
 10
47.3013776105
 20
50.9751089325
 11
47.3013776105
 21
47.4751089325
  0
LINE
  5
2BA
100
AcDbEntity
  8
0
100
AcDbLine
 62
7
  6
CONTINUOUS
 10
47.393471362
 20
51.3251089325
 11
47.393471362
 21
50.9693262738
  0
LINE
  5
2BB
100
AcDbEntity
  8
0
100
AcDbLine
 62
7
  6
CONTINUOUS
 10
47.6013776105
 20
47.7751089325
 11
47.6013776105
 21
50.6751089325
  0
LINE
  5
2BC
100
AcDbEntity
  8
0
100
AcDbLine
 62
7
  6
CONTINUOUS
 10
47.684559056
 20
51.3251089325
 11
47.684559056
 21
50.6751089325
  0
LINE
  5
2BD
100
AcDbEntity
  8
0
100
AcDbLine
 62
7
  6
CONTINUOUS
 10
47.7513776078
 20
34.3751089325
 11
47.7513776078
 21
30.8751089325
  0
LINE
  5
2BE
100
AcDbEntity
  8
0
100
AcDbLine
 62
7
  6
CONTINUOUS
 10
47.7747532964
 20
64.9751089325
 11
47.7747532964
 21
69.9751089325
  0
LINE
  5
2BF
100
AcDbEntity
  8
0
100
AcDbLine
 62
7
  6
CONTINUOUS
 10
48.4513776105
 20
47.4751089325
 11
48.4513776105
 21
34.3751089325
  0
LINE
  5
2C0
100
AcDbEntity
  8
0
100
AcDbLine
 62
7
  6
CONTINUOUS
 10
48.7513776087
 20
30.8751089325
 11
48.7513776105
 21
47.7751089325
  0
LINE
  5
2C1
100
AcDbEntity
  8
0
100
AcDbLine
 62
7
  6
CONTINUOUS
 10
46.5013776105
 20
56.5751089325
 11
56.3193914386
 21
104.1511852863
  0
LINE
  5
2C2
100
AcDbEntity
  8
0
100
AcDbLine
 62
7
  6
CONTINUOUS
 10
47.2747532964
 20
70.4751089325
 11
43.2747532963
 21
70.4751089325
  0
LINE
  5
2C3
100
AcDbEntity
  8
0
100
AcDbLine
 62
7
  6
CONTINUOUS
 10
52.0513776105
 20
47.7751089325
 11
52.0513776087
 21
30.8751089325
  0
LINE
  5
2C4
100
AcDbEntity
  8
0
100
AcDbLine
 62
7
  6
CONTINUOUS
 10
52.3513776105
 20
34.3751089325
 11
52.3513776105
 21
47.4751089325
  0
LINE
  5
2C5
100
AcDbEntity
  8
0
100
AcDbLine
 62
7
  6
CONTINUOUS
 10
53.0513776078
 20
30.8751089325
 11
53.0513776078
 21
34.3751089325
  0
LINE
  5
2C6
100
AcDbEntity
  8
0
100
AcDbLine
 62
7
  6
CONTINUOUS
 10
53.1181961664
 20
50.6751089325
 11
53.1181961664
 21
51.3251089325
  0
LINE
  5
2C7
100
AcDbEntity
  8
0
100
AcDbLine
 62
7
  6
CONTINUOUS
 10
53.2013776105
 20
50.6751089325
 11
53.2013776105
 21
47.7751089325
  0
LINE
  5
2C8
100
AcDbEntity
  8
0
100
AcDbLine
 62
7
  6
CONTINUOUS
 10
53.4092838591
 20
50.9693262738
 11
53.4092838591
 21
51.3251089325
  0
LINE
  5
2C9
100
AcDbEntity
  8
0
100
AcDbLine
 62
7
  6
CONTINUOUS
 10
53.5013776105
 20
47.4751089325
 11
53.5013776105
 21
50.9751089325
  0
LINE
  5
2CA
100
AcDbEntity
  8
0
100
AcDbLine
 62
7
  6
CONTINUOUS
 10
32.3013776105
 20
50.9751089325
 11
32.0013776105
 21
50.6751089325
  0
LINE
  5
2CB
100
AcDbEntity
  8
0
100
AcDbLine
 62
7
  6
CONTINUOUS
 10
39.2450038543
 20
72.2251089325
 11
39.3929406471
 21
72.2251089325
  0
LINE
  5
2CC
100
AcDbEntity
  8
0
100
AcDbLine
 62
7
  6
CONTINUOUS
 10
39.3933769573
 20
72.4751089325
 11
39.2450038543
 21
72.4751089325
  0
LINE
  5
2CD
100
AcDbEntity
  8
0
100
AcDbLine
 62
7
  6
CONTINUOUS
 10
39.2450038543
 20
72.7251089325
 11
39.3929406471
 21
72.7251089325
  0
LINE
  5
2CE
100
AcDbEntity
  8
0
100
AcDbLine
 62
7
  6
CONTINUOUS
 10
49.8423153701
 20
72.7646063937
 11
45.2282917891
 21
72.7646062315
  0
LINE
  5
2CF
100
AcDbEntity
  8
0
100
AcDbLine
 62
7
  6
CONTINUOUS
 10
39.3933769573
 20
72.9751089325
 11
39.2450038543
 21
72.9751089325
  0
LINE
  5
2D0
100
AcDbEntity
  8
0
100
AcDbLine
 62
7
  6
CONTINUOUS
 10
22.1013776105
 20
73.0751089325
 11
32.3013776105
 21
73.0751089325
  0
LINE
  5
2D1
100
AcDbEntity
  8
0
100
AcDbLine
 62
7
  6
CONTINUOUS
 10
70.8013776105
 20
73.0751089325
 11
81.0013776105
 21
73.0751089325
  0
LINE
  5
2D2
100
AcDbEntity
  8
0
100
AcDbLine
 62
7
  6
CONTINUOUS
 10
39.2450038543
 20
73.2251089325
 11
39.3929406471
 21
73.2251089325
  0
LINE
  5
2D3
100
AcDbEntity
  8
0
100
AcDbLine
 62
7
  6
CONTINUOUS
 10
80.7013776105
 20
73.3751089325
 11
71.1013776105
 21
73.3751089325
  0
LINE
  5
2D4
100
AcDbEntity
  8
0
100
AcDbLine
 62
7
  6
CONTINUOUS
 10
32.0013776105
 20
73.3751089325
 11
22.4013776105
 21
73.3751089325
  0
LINE
  5
2D5
100
AcDbEntity
  8
0
100
AcDbLine
 62
7
  6
CONTINUOUS
 10
39.3933769573
 20
73.4751089325
 11
39.2450038543
 21
73.4751089325
  0
LINE
  5
2D6
100
AcDbEntity
  8
0
100
AcDbLine
 62
7
  6
CONTINUOUS
 10
39.2450038543
 20
73.7251089325
 11
39.3929406471
 21
73.7251089325
  0
LINE
  5
2D7
100
AcDbEntity
  8
0
100
AcDbLine
 62
7
  6
CONTINUOUS
 10
39.3933769573
 20
73.9751089325
 11
39.2450038543
 21
73.9751089325
  0
LINE
  5
2D8
100
AcDbEntity
  8
0
100
AcDbLine
 62
7
  6
CONTINUOUS
 10
39.2450038543
 20
74.2251089325
 11
39.3929406471
 21
74.2251089325
  0
LINE
  5
2D9
100
AcDbEntity
  8
0
100
AcDbLine
 62
7
  6
CONTINUOUS
 10
39.4108270104
 20
71.1732519744
 11
39.2450038543
 21
71.1751027527
  0
LINE
  5
2DA
100
AcDbEntity
  8
0
100
AcDbLine
 62
7
  6
CONTINUOUS
 10
70.8013776105
 20
50.9751089325
 11
71.1013776105
 21
50.6751089325
  0
LINE
  5
2DB
100
AcDbEntity
  8
0
100
AcDbLine
 62
7
  6
CONTINUOUS
 10
56.2013776105
 20
94.6151042072
 11
56.2013776105
 21
86.8747357808
  0
LINE
  5
2DC
100
AcDbEntity
  8
0
100
AcDbLine
 62
7
  6
CONTINUOUS
 10
56.5013776105
 20
86.8747357808
 11
56.5013776105
 21
94.555873167
  0
LINE
  5
2DD
100
AcDbEntity
  8
0
100
AcDbLine
 62
7
  6
CONTINUOUS
 10
57.6013776105
 20
108.4251089325
 11
57.6013776105
 21
109.2251089325
  0
LINE
  5
2DE
100
AcDbEntity
  8
0
100
AcDbLine
 62
7
  6
CONTINUOUS
 10
39.3933769573
 20
74.4751089325
 11
39.2450038543
 21
74.4751089325
  0
LINE
  5
2DF
100
AcDbEntity
  8
0
100
AcDbLine
 62
7
  6
CONTINUOUS
 10
39.2450038543
 20
74.7251089325
 11
39.3929406471
 21
74.7251089325
  0
LINE
  5
2E0
100
AcDbEntity
  8
0
100
AcDbLine
 62
7
  6
CONTINUOUS
 10
39.3933769573
 20
74.9751089325
 11
39.2450038543
 21
74.9751089325
  0
LINE
  5
2E1
100
AcDbEntity
  8
0
100
AcDbLine
 62
7
  6
CONTINUOUS
 10
45.228291789
 20
74.9855819714
 11
50.3006459136
 21
74.9855819714
  0
LINE
  5
2E2
100
AcDbEntity
  8
0
100
AcDbLine
 62
7
  6
CONTINUOUS
 10
39.2450038543
 20
75.2251089325
 11
39.3929406471
 21
75.2251089325
  0
LINE
  5
2E3
100
AcDbEntity
  8
0
100
AcDbLine
 62
7
  6
CONTINUOUS
 10
39.3933769573
 20
75.4751089325
 11
39.2450038543
 21
75.4751089325
  0
LINE
  5
2E4
100
AcDbEntity
  8
0
100
AcDbLine
 62
7
  6
CONTINUOUS
 10
39.2450038543
 20
75.7251089325
 11
39.3929406471
 21
75.7251089325
  0
LINE
  5
2E5
100
AcDbEntity
  8
0
100
AcDbLine
 62
7
  6
CONTINUOUS
 10
39.3933769573
 20
75.9751089325
 11
39.2450038543
 21
75.9751089325
  0
LINE
  5
2E6
100
AcDbEntity
  8
0
100
AcDbLine
 62
7
  6
CONTINUOUS
 10
39.2450038543
 20
76.2251089325
 11
39.3929406471
 21
76.2251089325
  0
LINE
  5
2E7
100
AcDbEntity
  8
0
100
AcDbLine
 62
7
  6
CONTINUOUS
 10
39.3933769573
 20
76.4751089325
 11
39.2450038543
 21
76.4751089325
  0
LINE
  5
2E8
100
AcDbEntity
  8
0
100
AcDbLine
 62
7
  6
CONTINUOUS
 10
39.2450038543
 20
76.7251089325
 11
39.3929406471
 21
76.7251089325
  0
LINE
  5
2E9
100
AcDbEntity
  8
0
100
AcDbLine
 62
7
  6
CONTINUOUS
 10
39.3933769573
 20
76.9751089325
 11
39.2450038543
 21
76.9751089325
  0
LINE
  5
2EA
100
AcDbEntity
  8
0
100
AcDbLine
 62
7
  6
CONTINUOUS
 10
39.2450038543
 20
77.2251089325
 11
39.3929406471
 21
77.2251089325
  0
LINE
  5
2EB
100
AcDbEntity
  8
0
100
AcDbLine
 62
7
  6
CONTINUOUS
 10
39.3933769573
 20
77.4751089325
 11
39.2450038543
 21
77.4751089325
  0
LINE
  5
2EC
100
AcDbEntity
  8
0
100
AcDbLine
 62
7
  6
CONTINUOUS
 10
39.2450038543
 20
77.7251089325
 11
39.3929406471
 21
77.7251089325
  0
LINE
  5
2ED
100
AcDbEntity
  8
0
100
AcDbLine
 62
7
  6
CONTINUOUS
 10
59.301377605
 20
38.4751089325
 11
59.301377605
 21
36.1751089325
  0
LINE
  5
2EE
100
AcDbEntity
  8
0
100
AcDbLine
 62
7
  6
CONTINUOUS
 10
59.401377605
 20
36.1751089325
 11
59.401377605
 21
38.4751089325
  0
LINE
  5
2EF
100
AcDbEntity
  8
0
100
AcDbLine
 62
7
  6
CONTINUOUS
 10
60.7013776105
 20
94.555873167
 11
60.7013776105
 21
86.8747357808
  0
LINE
  5
2F0
100
AcDbEntity
  8
0
100
AcDbLine
 62
7
  6
CONTINUOUS
 10
61.0013776105
 20
86.8747357808
 11
61.0013776105
 21
94.6151042072
  0
LINE
  5
2F1
100
AcDbEntity
  8
0
100
AcDbLine
 62
7
  6
CONTINUOUS
 10
39.3933769573
 20
77.9751089325
 11
39.2450038543
 21
77.9751089325
  0
LINE
  5
2F2
100
AcDbEntity
  8
0
100
AcDbLine
 62
7
  6
CONTINUOUS
 10
39.2450038543
 20
78.2251089325
 11
39.3929406471
 21
78.2251089325
  0
LINE
  5
2F3
100
AcDbEntity
  8
0
100
AcDbLine
 62
7
  6
CONTINUOUS
 10
39.3933769573
 20
78.4751089325
 11
39.2450038543
 21
78.4751089325
  0
LINE
  5
2F4
100
AcDbEntity
  8
0
100
AcDbLine
 62
7
  6
CONTINUOUS
 10
39.2450038543
 20
78.7251089325
 11
39.3929406471
 21
78.7251089325
  0
LINE
  5
2F5
100
AcDbEntity
  8
0
100
AcDbLine
 62
7
  6
CONTINUOUS
 10
39.3933769573
 20
78.9751089325
 11
39.2450038543
 21
78.9751089325
  0
LINE
  5
2F6
100
AcDbEntity
  8
0
100
AcDbLine
 62
7
  6
CONTINUOUS
 10
39.2450038543
 20
79.2251089325
 11
39.3929406471
 21
79.2251089325
  0
LINE
  5
2F7
100
AcDbEntity
  8
0
100
AcDbLine
 62
7
  6
CONTINUOUS
 10
39.3933769573
 20
79.4751089325
 11
39.2450038543
 21
79.4751089325
  0
LINE
  5
2F8
100
AcDbEntity
  8
0
100
AcDbLine
 62
7
  6
CONTINUOUS
 10
39.2450038543
 20
79.7251089325
 11
39.3929406471
 21
79.7251089325
  0
LINE
  5
2F9
100
AcDbEntity
  8
0
100
AcDbLine
 62
7
  6
CONTINUOUS
 10
39.3933769573
 20
79.9751089325
 11
39.2450038543
 21
79.9751089325
  0
LINE
  5
2FA
100
AcDbEntity
  8
0
100
AcDbLine
 62
7
  6
CONTINUOUS
 10
39.2450038543
 20
80.2251089325
 11
39.3929406471
 21
80.2251089325
  0
LINE
  5
2FB
100
AcDbEntity
  8
0
100
AcDbLine
 62
7
  6
CONTINUOUS
 10
39.3933769573
 20
80.4751089325
 11
39.2450038543
 21
80.4751089325
  0
LINE
  5
2FC
100
AcDbEntity
  8
0
100
AcDbLine
 62
7
  6
CONTINUOUS
 10
39.2450038543
 20
80.7251089325
 11
39.3929406471
 21
80.7251089325
  0
LINE
  5
2FD
100
AcDbEntity
  8
0
100
AcDbLine
 62
7
  6
CONTINUOUS
 10
39.3933769573
 20
80.9751089325
 11
39.2450038543
 21
80.9751089325
  0
LINE
  5
2FE
100
AcDbEntity
  8
0
100
AcDbLine
 62
7
  6
CONTINUOUS
 10
39.2450038543
 20
81.2251089325
 11
39.3929406471
 21
81.2251089325
  0
LINE
  5
2FF
100
AcDbEntity
  8
0
100
AcDbLine
 62
7
  6
CONTINUOUS
 10
39.3933769573
 20
81.4751089325
 11
39.2450038543
 21
81.4751089325
  0
LINE
  5
300
100
AcDbEntity
  8
0
100
AcDbLine
 62
7
  6
CONTINUOUS
 10
51.6561622272
 20
81.5541353225
 11
45.2282914929
 21
81.5541350968
  0
LINE
  5
301
100
AcDbEntity
  8
0
100
AcDbLine
 62
7
  6
CONTINUOUS
 10
62.6013776105
 20
108.4251089325
 11
63.5766146916
 21
75.3158858737
  0
LINE
  5
302
100
AcDbEntity
  8
0
100
AcDbLine
 62
7
  6
CONTINUOUS
 10
62.4013776105
 20
108.4251089325
 11
62.4013776105
 21
109.2251089325
  0
LINE
  5
303
100
AcDbEntity
  8
0
100
AcDbLine
 62
7
  6
CONTINUOUS
 10
63.401377605
 20
38.4751089325
 11
63.401377605
 21
36.1751089325
  0
LINE
  5
304
100
AcDbEntity
  8
0
100
AcDbLine
 62
7
  6
CONTINUOUS
 10
63.501377605
 20
36.1751089325
 11
63.501377605
 21
38.4751089325
  0
LINE
  5
305
100
AcDbEntity
  8
0
100
AcDbLine
 62
7
  6
CONTINUOUS
 10
65.4413776105
 20
59.7459068995
 11
65.4413776105
 21
57.7751089325
  0
LINE
  5
306
100
AcDbEntity
  8
0
100
AcDbLine
 62
7
  6
CONTINUOUS
 10
65.6943774702
 20
97.7751089325
 11
65.6943774702
 21
97.5785994321
  0
LINE
  5
307
100
AcDbEntity
  8
0
100
AcDbLine
 62
7
  6
CONTINUOUS
 10
47.6013776105
 20
47.7751089325
 11
47.3013776105
 21
47.4751089325
  0
LINE
  5
308
100
AcDbEntity
  8
0
100
AcDbLine
 62
7
  6
CONTINUOUS
 10
48.7513776105
 20
47.7751089325
 11
48.4513776105
 21
47.4751089325
  0
LINE
  5
309
100
AcDbEntity
  8
0
100
AcDbLine
 62
7
  6
CONTINUOUS
 10
39.2450038543
 20
81.7251089325
 11
39.3929406471
 21
81.7251089325
  0
LINE
  5
30A
100
AcDbEntity
  8
0
100
AcDbLine
 62
7
  6
CONTINUOUS
 10
39.3933769573
 20
81.9751089325
 11
39.2450038543
 21
81.9751089325
  0
LINE
  5
30B
100
AcDbEntity
  8
0
100
AcDbLine
 62
7
  6
CONTINUOUS
 10
39.2450038543
 20
82.2251089325
 11
39.3929406471
 21
82.2251089325
  0
LINE
  5
30C
100
AcDbEntity
  8
0
100
AcDbLine
 62
7
  6
CONTINUOUS
 10
39.3933769573
 20
82.4751089325
 11
39.2450038543
 21
82.4751089325
  0
LINE
  5
30D
100
AcDbEntity
  8
0
100
AcDbLine
 62
7
  6
CONTINUOUS
 10
39.2450038543
 20
82.7251089325
 11
39.3929406471
 21
82.7251089325
  0
LINE
  5
30E
100
AcDbEntity
  8
0
100
AcDbLine
 62
7
  6
CONTINUOUS
 10
39.3933769573
 20
82.9751089325
 11
39.2450038543
 21
82.9751089325
  0
LINE
  5
30F
100
AcDbEntity
  8
0
100
AcDbLine
 62
7
  6
CONTINUOUS
 10
39.2450038543
 20
83.2251089325
 11
39.3929406471
 21
83.2251089325
  0
LINE
  5
310
100
AcDbEntity
  8
0
100
AcDbLine
 62
7
  6
CONTINUOUS
 10
39.3933769573
 20
83.4751089325
 11
39.2450038543
 21
83.4751089325
  0
LINE
  5
311
100
AcDbEntity
  8
0
100
AcDbLine
 62
7
  6
CONTINUOUS
 10
39.2450038543
 20
83.7251089325
 11
39.3929406471
 21
83.7251089325
  0
LINE
  5
312
100
AcDbEntity
  8
0
100
AcDbLine
 62
7
  6
CONTINUOUS
 10
45.2282916112
 20
83.7751108376
 11
52.1144927578
 21
83.7751108376
  0
LINE
  5
313
100
AcDbEntity
  8
0
100
AcDbLine
 62
7
  6
CONTINUOUS
 10
39.3933769573
 20
83.9751089325
 11
39.2450038543
 21
83.9751089325
  0
LINE
  5
314
100
AcDbEntity
  8
0
100
AcDbLine
 62
7
  6
CONTINUOUS
 10
39.2450038543
 20
84.2251089325
 11
39.3929406471
 21
84.2251089325
  0
LINE
  5
315
100
AcDbEntity
  8
0
100
AcDbLine
 62
7
  6
CONTINUOUS
 10
39.3933769573
 20
84.4751089325
 11
39.2450038543
 21
84.4751089325
  0
LINE
  5
316
100
AcDbEntity
  8
0
100
AcDbLine
 62
7
  6
CONTINUOUS
 10
39.2450038543
 20
84.7251089325
 11
39.3929406471
 21
84.7251089325
  0
LINE
  5
317
100
AcDbEntity
  8
0
100
AcDbLine
 62
7
  6
CONTINUOUS
 10
39.3933769573
 20
84.9751089325
 11
39.2450038543
 21
84.9751089325
  0
LINE
  5
318
100
AcDbEntity
  8
0
100
AcDbLine
 62
7
  6
CONTINUOUS
 10
39.2450038543
 20
85.2251089325
 11
39.3929406471
 21
85.2251089325
  0
LINE
  5
319
100
AcDbEntity
  8
0
100
AcDbLine
 62
7
  6
CONTINUOUS
 10
66.5047146292
 20
62.7659512856
 11
63.5766146916
 21
75.3158858737
  0
LINE
  5
31A
100
AcDbEntity
  8
0
100
AcDbLine
 62
7
  6
CONTINUOUS
 10
65.7432916534
 20
94.7766362868
 11
65.6943773524
 21
97.5785994324
  0
LINE
  5
31B
100
AcDbEntity
  8
0
100
AcDbLine
 62
7
  6
CONTINUOUS
 10
66.3942708565
 20
97.5785994305
 11
66.4432059649
 21
94.7751089475
  0
LINE
  5
31C
100
AcDbEntity
  8
0
100
AcDbLine
 62
7
  6
CONTINUOUS
 10
65.7667468805
 20
94.7751079143
 11
65.7667501271
 21
65.9288919048
  0
LINE
  5
31D
100
AcDbEntity
  8
0
100
AcDbLine
 62
7
  6
CONTINUOUS
 10
65.766750719
 20
60.6700177058
 11
65.7667507972
 21
59.9751089325
  0
LINE
  5
31E
100
AcDbEntity
  8
0
100
AcDbLine
 62
7
  6
CONTINUOUS
 10
66.2666746448
 20
59.9751089325
 11
66.2666746448
 21
62.0898802884
  0
LINE
  5
31F
100
AcDbEntity
  8
0
100
AcDbLine
 62
7
  6
CONTINUOUS
 10
66.2666746448
 20
63.7861986465
 11
66.2666746448
 21
94.7751089325
  0
LINE
  5
320
100
AcDbEntity
  8
0
100
AcDbLine
 62
7
  6
CONTINUOUS
 10
66.4413778333
 20
94.7751089338
 11
66.4413776301
 21
63.0374157891
  0
LINE
  5
321
100
AcDbEntity
  8
0
100
AcDbLine
 62
7
  6
CONTINUOUS
 10
66.4413776105
 20
57.7751089325
 11
66.4413776272
 21
62.5860642377
  0
LINE
  5
322
100
AcDbEntity
  8
0
100
AcDbLine
 62
7
  6
CONTINUOUS
 10
68.2013776105
 20
32.9751089325
 11
68.2013776105
 21
31.7247179864
  0
LINE
  5
323
100
AcDbEntity
  8
0
100
AcDbLine
 62
7
  6
CONTINUOUS
 10
62.1064814327
 20
53.2731713198
 11
66.0838875453
 21
64.5696302885
  0
LINE
  5
324
100
AcDbEntity
  8
0
100
AcDbLine
 62
7
  6
CONTINUOUS
 10
66.5047146292
 20
62.7659512856
 11
63.9257576104
 21
55.4413077062
  0
LINE
  5
325
100
AcDbEntity
  8
0
100
AcDbLine
 62
7
  6
CONTINUOUS
 10
34.1013776105
 20
30.8751089325
 11
35.3013776105
 21
31.9251089325
  0
LINE
  5
326
100
AcDbEntity
  8
0
100
AcDbLine
 62
7
  6
CONTINUOUS
 10
39.3933769573
 20
85.4751089325
 11
39.2450038543
 21
85.4751089325
  0
LINE
  5
327
100
AcDbEntity
  8
0
100
AcDbLine
 62
7
  6
CONTINUOUS
 10
39.2450038543
 20
85.7251089325
 11
39.3929406471
 21
85.7251089325
  0
LINE
  5
328
100
AcDbEntity
  8
0
100
AcDbLine
 62
7
  6
CONTINUOUS
 10
39.3933769573
 20
85.9751089325
 11
39.2450038543
 21
85.9751089325
  0
LINE
  5
329
100
AcDbEntity
  8
0
100
AcDbLine
 62
7
  6
CONTINUOUS
 10
39.2450038543
 20
86.2251089325
 11
39.3929406471
 21
86.2251089325
  0
LINE
  5
32A
100
AcDbEntity
  8
0
100
AcDbLine
 62
7
  6
CONTINUOUS
 10
39.3933769573
 20
86.4751089325
 11
39.2450038543
 21
86.4751089325
  0
LINE
  5
32B
100
AcDbEntity
  8
0
100
AcDbLine
 62
7
  6
CONTINUOUS
 10
39.2450038543
 20
86.7251089325
 11
39.3929406471
 21
86.7251089325
  0
LINE
  5
32C
100
AcDbEntity
  8
0
100
AcDbLine
 62
7
  6
CONTINUOUS
 10
61.0013776105
 20
86.8747357808
 11
56.2013776105
 21
86.8747357808
  0
LINE
  5
32D
100
AcDbEntity
  8
0
100
AcDbLine
 62
7
  6
CONTINUOUS
 10
39.3933769573
 20
86.9751089325
 11
39.2450038543
 21
86.9751089325
  0
LINE
  5
32E
100
AcDbEntity
  8
0
100
AcDbLine
 62
7
  6
CONTINUOUS
 10
39.2450038543
 20
87.2251089325
 11
39.3929406471
 21
87.2251089325
  0
LINE
  5
32F
100
AcDbEntity
  8
0
100
AcDbLine
 62
7
  6
CONTINUOUS
 10
39.3933769573
 20
87.4751089325
 11
39.2450038543
 21
87.4751089325
  0
LINE
  5
330
100
AcDbEntity
  8
0
100
AcDbLine
 62
7
  6
CONTINUOUS
 10
39.2450038543
 20
87.7251089325
 11
39.3929406471
 21
87.7251089325
  0
LINE
  5
331
100
AcDbEntity
  8
0
100
AcDbLine
 62
7
  6
CONTINUOUS
 10
39.3933769573
 20
87.9751089325
 11
39.2450038543
 21
87.9751089325
  0
LINE
  5
332
100
AcDbEntity
  8
0
100
AcDbLine
 62
7
  6
CONTINUOUS
 10
39.2450038543
 20
88.2251089325
 11
39.3929406471
 21
88.2251089325
  0
LINE
  5
333
100
AcDbEntity
  8
0
100
AcDbLine
 62
7
  6
CONTINUOUS
 10
39.3933769573
 20
88.4751089325
 11
39.2450038543
 21
88.4751089325
  0
LINE
  5
334
100
AcDbEntity
  8
0
100
AcDbLine
 62
7
  6
CONTINUOUS
 10
39.2450038543
 20
88.7251089325
 11
39.3929406471
 21
88.7251089325
  0
LINE
  5
335
100
AcDbEntity
  8
0
100
AcDbLine
 62
7
  6
CONTINUOUS
 10
39.3933769573
 20
88.9751089325
 11
39.2450038543
 21
88.9751089325
  0
LINE
  5
336
100
AcDbEntity
  8
0
100
AcDbLine
 62
7
  6
CONTINUOUS
 10
44.8478261666
 20
98.6751089325
 11
43.8478261666
 21
99.6751089325
  0
LINE
  5
337
100
AcDbEntity
  8
0
100
AcDbLine
 62
7
  6
CONTINUOUS
 10
70.8013776105
 20
73.0751089325
 11
70.8013776105
 21
50.9751089325
  0
LINE
  5
338
100
AcDbEntity
  8
0
100
AcDbLine
 62
7
  6
CONTINUOUS
 10
71.1013776105
 20
50.6751089325
 11
71.1013776105
 21
73.3751089325
  0
LINE
  5
339
100
AcDbEntity
  8
0
100
AcDbLine
 62
7
  6
CONTINUOUS
 10
72.4013776105
 20
34.3751089325
 11
72.4013776105
 21
30.8751089325
  0
LINE
  5
33A
100
AcDbEntity
  8
0
100
AcDbLine
 62
7
  6
CONTINUOUS
 10
63.9257576104
 20
55.4413077062
 11
62.1391409594
 21
53.2853854111
  0
LINE
  5
33B
100
AcDbEntity
  8
0
100
AcDbLine
 62
7
  6
CONTINUOUS
 10
56.8975146891
 20
51.3251089325
 11
62.1391409594
 21
53.2853854111
  0
LINE
  5
33C
100
AcDbEntity
  8
0
100
AcDbLine
 62
7
  6
CONTINUOUS
 10
39.2450038543
 20
89.1751151122
 11
39.4108270104
 21
89.1769658673
  0
LINE
  5
33D
100
AcDbEntity
  8
0
100
AcDbLine
 62
7
  6
CONTINUOUS
 10
66.4432059649
 20
94.7751089325
 11
65.8914517261
 21
94.7751089325
  0
LINE
  5
33E
100
AcDbEntity
  8
0
100
AcDbLine
 62
7
  6
CONTINUOUS
 10
39.7948498439
 20
94.7751089325
 11
39.2431907344
 21
94.7751089325
  0
LINE
  5
33F
100
AcDbEntity
  8
0
100
AcDbLine
 62
7
  6
CONTINUOUS
 10
56.6708027726
 20
94.7772036422
 11
56.3336281919
 21
94.7771922031
  0
LINE
  5
340
100
AcDbEntity
  8
0
100
AcDbLine
 62
7
  6
CONTINUOUS
 10
54.3849182776
 20
94.7771260904
 11
39.9431061977
 21
94.7766361318
  0
LINE
  5
341
100
AcDbEntity
  8
0
100
AcDbLine
 62
7
  6
CONTINUOUS
 10
65.7432916534
 20
94.7766361317
 11
63.0033721719
 21
94.7774248375
  0
LINE
  5
342
100
AcDbEntity
  8
0
100
AcDbLine
 62
7
  6
CONTINUOUS
 10
60.8684357913
 20
94.7780393944
 11
60.5440037362
 21
94.7781327846
  0
LINE
  5
343
100
AcDbEntity
  8
0
100
AcDbLine
 62
7
  6
CONTINUOUS
 10
39.4108270104
 20
93.6732519744
 11
39.2450038543
 21
93.6751027527
  0
LINE
  5
344
100
AcDbEntity
  8
0
100
AcDbLine
 62
7
  6
CONTINUOUS
 10
78.501377605
 20
35.0751089325
 11
78.501377605
 21
32.6751089325
  0
LINE
  5
345
100
AcDbEntity
  8
0
100
AcDbLine
 62
7
  6
CONTINUOUS
 10
78.7013776105
 20
32.6751089325
 11
78.7013776105
 21
35.0751089325
  0
LINE
  5
346
100
AcDbEntity
  8
0
100
AcDbLine
 62
7
  6
CONTINUOUS
 10
53.0513776078
 20
33.8751089325
 11
53.5513776078
 21
34.3751089325
  0
LINE
  5
347
100
AcDbEntity
  8
0
100
AcDbLine
 62
7
  6
CONTINUOUS
 10
39.9920194364
 20
97.5785994318
 11
54.9630429595
 21
97.5785994321
  0
LINE
  5
348
100
AcDbEntity
  8
0
100
AcDbLine
 62
7
  6
CONTINUOUS
 10
62.9208631583
 20
97.5785994323
 11
65.6943773524
 21
97.5785994324
  0
LINE
  5
349
100
AcDbEntity
  8
0
100
AcDbLine
 62
7
  6
CONTINUOUS
 10
39.4920953798
 20
97.7751089325
 11
55.0035955469
 21
97.7751089325
  0
LINE
  5
34A
100
AcDbEntity
  8
0
100
AcDbLine
 62
7
  6
CONTINUOUS
 10
62.9150749418
 20
97.7751089325
 11
66.1943013178
 21
97.7751089325
  0
LINE
  5
34B
100
AcDbEntity
  8
0
100
AcDbLine
 62
7
  6
CONTINUOUS
 10
62.8997624091
 20
98.2949682264
 11
65.6053167718
 21
98.2949682264
  0
LINE
  5
34C
100
AcDbEntity
  8
0
100
AcDbLine
 62
7
  6
CONTINUOUS
 10
40.6478261666
 20
99.6751089325
 11
43.8478261666
 21
99.6751089325
  0
LINE
  5
34D
100
AcDbEntity
  8
0
100
AcDbLine
 62
7
  6
CONTINUOUS
 10
80.7013776105
 20
73.3751089325
 11
80.7013776105
 21
54.5751089325
  0
LINE
  5
34E
100
AcDbEntity
  8
0
100
AcDbLine
 62
7
  6
CONTINUOUS
 10
81.0013776105
 20
54.8751089325
 11
81.0013776105
 21
73.0751089325
  0
LINE
  5
34F
100
AcDbEntity
  8
0
100
AcDbLine
 62
7
  6
CONTINUOUS
 10
82.3013776105
 20
35.0751089325
 11
82.3013776105
 21
32.6751089325
  0
LINE
  5
350
100
AcDbEntity
  8
0
100
AcDbLine
 62
7
  6
CONTINUOUS
 10
82.501377605
 20
32.6751089325
 11
82.501377605
 21
35.0751089325
  0
LINE
  5
351
100
AcDbEntity
  8
0
100
AcDbLine
 62
7
  6
CONTINUOUS
 10
81.0013776105
 20
54.8751089325
 11
80.7013776105
 21
54.5751089325
  0
LINE
  5
352
100
AcDbEntity
  8
0
100
AcDbLine
 62
7
  6
CONTINUOUS
 10
89.6013776105
 20
54.8751089325
 11
89.6013776105
 21
30.8751089325
  0
LINE
  5
353
100
AcDbEntity
  8
0
100
AcDbLine
 62
7
  6
CONTINUOUS
 10
89.9013776105
 20
30.8751089325
 11
89.9013776105
 21
54.5751089325
  0
LINE
  5
354
100
AcDbEntity
  8
0
100
AcDbLine
 62
7
  6
CONTINUOUS
 10
57.1792208091
 20
108.1287740327
 11
62.610106199
 21
108.1287740327
  0
LINE
  5
355
100
AcDbEntity
  8
0
100
AcDbLine
 62
7
  6
CONTINUOUS
 10
62.6013776105
 20
108.4251089325
 11
57.2514230374
 21
108.4251089325
  0
LINE
  5
356
100
AcDbEntity
  8
0
100
AcDbLine
 62
7
  6
CONTINUOUS
 10
62.4013776105
 20
108.6251089325
 11
57.6013776105
 21
108.6251089325
  0
LINE
  5
357
100
AcDbEntity
  8
0
100
AcDbLine
 62
7
  6
CONTINUOUS
 10
57.6013776105
 20
109.2251089325
 11
62.4013776105
 21
109.2251089325
  0
ARC
  5
358
100
AcDbEntity
  8
0
100
AcDbCircle
 62
7
  6
CONTINUOUS
 10
32.1371691355
 20
62.1067812223
 40
7.1447945418
100
AcDbArc
 50
0.9897567721
 51
1.5694621818
  0
ARC
  5
359
100
AcDbEntity
  8
0
100
AcDbCircle
 62
7
  6
CONTINUOUS
 10
41.6494461498
 20
53.0751089325
 40
1.75
100
AcDbArc
 50
90.0
 51
270.0
  0
ARC
  5
35A
100
AcDbEntity
  8
0
100
AcDbCircle
 62
7
  6
CONTINUOUS
 10
44.7513776105
 20
56.5751089325
 40
1.75
100
AcDbArc
 50
270.0
 51
360.0
  0
CIRCLE
  5
35B
100
AcDbEntity
  8
0
100
AcDbCircle
 62
7
  6
CONTINUOUS
 10
12.2013776105
 20
52.2751089325
 40
0.75
  0
CIRCLE
  5
35C
100
AcDbEntity
  8
0
100
AcDbCircle
 62
7
  6
CONTINUOUS
 10
23.4013776105
 20
70.7751089325
 40
0.75
  0
ARC
  5
35D
100
AcDbEntity
  8
0
100
AcDbCircle
 62
7
  6
CONTINUOUS
 10
47.3112537212
 20
50.5891434228
 40
0.3830756053
100
AcDbArc
 50
12.9680916919
 51
18.7362801877
  0
ARC
  5
35E
100
AcDbEntity
  8
0
100
AcDbCircle
 62
7
  6
CONTINUOUS
 10
47.3341994593
 20
50.6685002825
 40
0.3066095815
100
AcDbArc
 50
78.8537552181
 51
89.9960547941
  0
ARC
  5
35F
100
AcDbEntity
  8
0
100
AcDbCircle
 62
7
  6
CONTINUOUS
 10
47.3013776105
 20
50.6751089325
 40
0.3
100
AcDbArc
 50
0.0
 51
89.9999999981
  0
ARC
  5
360
100
AcDbEntity
  8
0
100
AcDbCircle
 62
7
  6
CONTINUOUS
 10
11.2013776105
 20
54.5751089325
 40
0.3
100
AcDbArc
 50
89.9999999999
 51
180.0
  0
ARC
  5
361
100
AcDbEntity
  8
0
100
AcDbCircle
 62
7
  6
CONTINUOUS
 10
22.4013776105
 20
73.0751089325
 40
0.3
100
AcDbArc
 50
89.9999999999
 51
180.0
  0
ARC
  5
362
100
AcDbEntity
  8
0
100
AcDbCircle
 62
7
  6
CONTINUOUS
 10
32.0013776105
 20
73.0751089325
 40
0.3
100
AcDbArc
 50
0.0
 51
90.0000000019
  0
ARC
  5
363
100
AcDbEntity
  8
0
100
AcDbCircle
 62
7
  6
CONTINUOUS
 10
39.393358633
 20
78.3500715743
 40
0.1249626432
100
AcDbArc
 50
89.9915982083
 51
270.0084017548
  0
ARC
  5
364
100
AcDbEntity
  8
0
100
AcDbCircle
 62
7
  6
CONTINUOUS
 10
39.393358633
 20
77.8500715743
 40
0.1249626432
100
AcDbArc
 50
89.9915982083
 51
270.0084017548
  0
ARC
  5
365
100
AcDbEntity
  8
0
100
AcDbCircle
 62
7
  6
CONTINUOUS
 10
39.393358633
 20
77.3500715743
 40
0.1249626432
100
AcDbArc
 50
89.9915982083
 51
270.0084017548
  0
ARC
  5
366
100
AcDbEntity
  8
0
100
AcDbCircle
 62
7
  6
CONTINUOUS
 10
39.393358633
 20
76.8500715743
 40
0.1249626432
100
AcDbArc
 50
89.9915982083
 51
270.0084017548
  0
ARC
  5
367
100
AcDbEntity
  8
0
100
AcDbCircle
 62
7
  6
CONTINUOUS
 10
39.393358633
 20
76.3500715743
 40
0.1249626432
100
AcDbArc
 50
89.9915982083
 51
270.0084017548
  0
ARC
  5
368
100
AcDbEntity
  8
0
100
AcDbCircle
 62
7
  6
CONTINUOUS
 10
39.393358633
 20
75.8500715743
 40
0.1249626432
100
AcDbArc
 50
89.9915982083
 51
270.0084017548
  0
ARC
  5
369
100
AcDbEntity
  8
0
100
AcDbCircle
 62
7
  6
CONTINUOUS
 10
39.393358633
 20
75.3500715743
 40
0.1249626432
100
AcDbArc
 50
89.9915982083
 51
270.0084017548
  0
ARC
  5
36A
100
AcDbEntity
  8
0
100
AcDbCircle
 62
7
  6
CONTINUOUS
 10
39.393358633
 20
74.8500715743
 40
0.1249626432
100
AcDbArc
 50
89.9915982083
 51
270.0084017548
  0
ARC
  5
36B
100
AcDbEntity
  8
0
100
AcDbCircle
 62
7
  6
CONTINUOUS
 10
39.393358633
 20
74.3500715743
 40
0.1249626432
100
AcDbArc
 50
89.9915982083
 51
270.0084017548
  0
ARC
  5
36C
100
AcDbEntity
  8
0
100
AcDbCircle
 62
7
  6
CONTINUOUS
 10
39.393358633
 20
73.8500715743
 40
0.1249626432
100
AcDbArc
 50
89.9915982083
 51
270.0084017548
  0
ARC
  5
36D
100
AcDbEntity
  8
0
100
AcDbCircle
 62
7
  6
CONTINUOUS
 10
39.393358633
 20
73.3500715743
 40
0.1249626432
100
AcDbArc
 50
89.9915982083
 51
270.0084017548
  0
ARC
  5
36E
100
AcDbEntity
  8
0
100
AcDbCircle
 62
7
  6
CONTINUOUS
 10
39.393358633
 20
72.8500715743
 40
0.1249626432
100
AcDbArc
 50
89.9915982083
 51
270.0084017548
  0
ARC
  5
36F
100
AcDbEntity
  8
0
100
AcDbCircle
 62
7
  6
CONTINUOUS
 10
39.393358633
 20
72.3500715743
 40
0.1249626432
100
AcDbArc
 50
89.9915982083
 51
270.0084017548
  0
ARC
  5
370
100
AcDbEntity
  8
0
100
AcDbCircle
 62
7
  6
CONTINUOUS
 10
39.393358633
 20
84.8500715743
 40
0.1249626432
100
AcDbArc
 50
89.9915982083
 51
270.0084017548
  0
ARC
  5
371
100
AcDbEntity
  8
0
100
AcDbCircle
 62
7
  6
CONTINUOUS
 10
39.393358633
 20
84.3500715743
 40
0.1249626432
100
AcDbArc
 50
89.9915982083
 51
270.0084017548
  0
ARC
  5
372
100
AcDbEntity
  8
0
100
AcDbCircle
 62
7
  6
CONTINUOUS
 10
39.393358633
 20
83.8500715743
 40
0.1249626432
100
AcDbArc
 50
89.9915982083
 51
270.0084017548
  0
ARC
  5
373
100
AcDbEntity
  8
0
100
AcDbCircle
 62
7
  6
CONTINUOUS
 10
39.393358633
 20
83.3500715743
 40
0.1249626432
100
AcDbArc
 50
89.9915982083
 51
270.0084017548
  0
ARC
  5
374
100
AcDbEntity
  8
0
100
AcDbCircle
 62
7
  6
CONTINUOUS
 10
39.393358633
 20
82.8500715743
 40
0.1249626432
100
AcDbArc
 50
89.9915982083
 51
270.0084017548
  0
ARC
  5
375
100
AcDbEntity
  8
0
100
AcDbCircle
 62
7
  6
CONTINUOUS
 10
39.393358633
 20
82.3500715743
 40
0.1249626432
100
AcDbArc
 50
89.9915982083
 51
270.0084017548
  0
ARC
  5
376
100
AcDbEntity
  8
0
100
AcDbCircle
 62
7
  6
CONTINUOUS
 10
39.393358633
 20
81.8500715743
 40
0.1249626432
100
AcDbArc
 50
89.9915982083
 51
270.0084017548
  0
ARC
  5
377
100
AcDbEntity
  8
0
100
AcDbCircle
 62
7
  6
CONTINUOUS
 10
39.393358633
 20
81.3500715743
 40
0.1249626432
100
AcDbArc
 50
89.9915982083
 51
270.0084017548
  0
ARC
  5
378
100
AcDbEntity
  8
0
100
AcDbCircle
 62
7
  6
CONTINUOUS
 10
39.393358633
 20
80.8500715743
 40
0.1249626432
100
AcDbArc
 50
89.9915982083
 51
270.0084017548
  0
ARC
  5
379
100
AcDbEntity
  8
0
100
AcDbCircle
 62
7
  6
CONTINUOUS
 10
39.393358633
 20
80.3500715743
 40
0.1249626432
100
AcDbArc
 50
89.9915982083
 51
270.0084017548
  0
ARC
  5
37A
100
AcDbEntity
  8
0
100
AcDbCircle
 62
7
  6
CONTINUOUS
 10
39.393358633
 20
79.8500715743
 40
0.1249626432
100
AcDbArc
 50
89.9915982083
 51
270.0084017548
  0
ARC
  5
37B
100
AcDbEntity
  8
0
100
AcDbCircle
 62
7
  6
CONTINUOUS
 10
39.393358633
 20
79.3500715743
 40
0.1249626432
100
AcDbArc
 50
89.9915982083
 51
270.0084017548
  0
ARC
  5
37C
100
AcDbEntity
  8
0
100
AcDbCircle
 62
7
  6
CONTINUOUS
 10
39.393358633
 20
78.8500715743
 40
0.1249626432
100
AcDbArc
 50
89.9915982083
 51
270.0084017548
  0
ARC
  5
37D
100
AcDbEntity
  8
0
100
AcDbCircle
 62
7
  6
CONTINUOUS
 10
39.4920953798
 20
97.5751089325
 40
0.2
100
AcDbArc
 50
90.0
 51
178.9999976939
  0
ARC
  5
37E
100
AcDbEntity
  8
0
100
AcDbCircle
 62
7
  6
CONTINUOUS
 10
39.393358633
 20
88.8500715743
 40
0.1249626432
100
AcDbArc
 50
89.9915982083
 51
270.0084017548
  0
ARC
  5
37F
100
AcDbEntity
  8
0
100
AcDbCircle
 62
7
  6
CONTINUOUS
 10
39.393358633
 20
88.3500715743
 40
0.1249626432
100
AcDbArc
 50
89.9915982083
 51
270.0084017548
  0
ARC
  5
380
100
AcDbEntity
  8
0
100
AcDbCircle
 62
7
  6
CONTINUOUS
 10
39.393358633
 20
87.8500715743
 40
0.1249626432
100
AcDbArc
 50
89.9915982083
 51
270.0084017548
  0
ARC
  5
381
100
AcDbEntity
  8
0
100
AcDbCircle
 62
7
  6
CONTINUOUS
 10
39.393358633
 20
87.3500715743
 40
0.1249626432
100
AcDbArc
 50
89.9915982083
 51
270.0084017548
  0
ARC
  5
382
100
AcDbEntity
  8
0
100
AcDbCircle
 62
7
  6
CONTINUOUS
 10
39.393358633
 20
86.8500715743
 40
0.1249626432
100
AcDbArc
 50
89.9915982083
 51
270.0084017548
  0
ARC
  5
383
100
AcDbEntity
  8
0
100
AcDbCircle
 62
7
  6
CONTINUOUS
 10
39.393358633
 20
86.3500715743
 40
0.1249626432
100
AcDbArc
 50
89.9915982083
 51
270.0084017548
  0
ARC
  5
384
100
AcDbEntity
  8
0
100
AcDbCircle
 62
7
  6
CONTINUOUS
 10
39.393358633
 20
85.8500715743
 40
0.1249626432
100
AcDbArc
 50
89.9915982083
 51
270.0084017548
  0
ARC
  5
385
100
AcDbEntity
  8
0
100
AcDbCircle
 62
7
  6
CONTINUOUS
 10
39.393358633
 20
85.3500715743
 40
0.1249626432
100
AcDbArc
 50
89.9915982083
 51
270.0084017548
  0
ARC
  5
386
100
AcDbEntity
  8
0
100
AcDbCircle
 62
7
  6
CONTINUOUS
 10
72.9575038543
 20
68.9251089325
 40
33.7875
100
AcDbArc
 50
176.1817056017
 51
183.8182943982
  0
ARC
  5
387
100
AcDbEntity
  8
0
100
AcDbCircle
 62
7
  6
CONTINUOUS
 10
72.9575038543
 20
68.9251089325
 40
33.6216768832
100
AcDbArc
 50
176.166020656
 51
183.8324202687
  0
CIRCLE
  5
388
100
AcDbEntity
  8
0
100
AcDbCircle
 62
7
  6
CONTINUOUS
 10
61.0013776105
 20
55.8751089325
 40
1.1
  0
CIRCLE
  5
389
100
AcDbEntity
  8
0
100
AcDbCircle
 62
7
  6
CONTINUOUS
 10
61.0013776105
 20
55.8751089325
 40
1.0
  0
CIRCLE
  5
38A
100
AcDbEntity
  8
0
100
AcDbCircle
 62
7
  6
CONTINUOUS
 10
61.0013776105
 20
55.8751089325
 40
0.8
  0
CIRCLE
  5
38B
100
AcDbEntity
  8
0
100
AcDbCircle
 62
7
  6
CONTINUOUS
 10
79.7013776105
 20
70.7751089325
 40
0.75
  0
CIRCLE
  5
38C
100
AcDbEntity
  8
0
100
AcDbCircle
 62
7
  6
CONTINUOUS
 10
88.6013776105
 20
52.2751089325
 40
0.75
  0
ARC
  5
38D
100
AcDbEntity
  8
0
100
AcDbCircle
 62
7
  6
CONTINUOUS
 10
71.9013776105
 20
33.6751089325
 40
0.5
100
AcDbArc
 50
270.0
 51
359.9999999943
  0
ARC
  5
38E
100
AcDbEntity
  8
0
100
AcDbCircle
 62
7
  6
CONTINUOUS
 10
53.4913947142
 20
50.5891690981
 40
0.382965853
100
AcDbArc
 50
161.2883083069
 51
167.0320190301
  0
ARC
  5
38F
100
AcDbEntity
  8
0
100
AcDbCircle
 62
7
  6
CONTINUOUS
 10
53.4686129753
 20
50.6678646014
 40
0.3072443392
100
AcDbArc
 50
90.0131563982
 51
101.1337967547
  0
ARC
  5
390
100
AcDbEntity
  8
0
100
AcDbCircle
 62
7
  6
CONTINUOUS
 10
89.6013776105
 20
54.5751089325
 40
0.3
100
AcDbArc
 50
0.0
 51
90.0000000001
  0
ARC
  5
391
100
AcDbEntity
  8
0
100
AcDbCircle
 62
7
  6
CONTINUOUS
 10
53.5013776105
 20
50.6751089325
 40
0.3
100
AcDbArc
 50
90.0
 51
180.0
  0
ARC
  5
392
100
AcDbEntity
  8
0
100
AcDbCircle
 62
7
  6
CONTINUOUS
 10
58.6013776105
 20
93.5112630792
 40
2.6416804628
100
AcDbArc
 50
24.6992939973
 51
155.3007060027
  0
ARC
  5
393
100
AcDbEntity
  8
0
100
AcDbCircle
 62
7
  6
CONTINUOUS
 10
56.7879748028
 20
105.5366287292
 40
0.1834675753
100
AcDbArc
 50
117.8230703915
 51
218.8566619268
  0
ARC
  5
394
100
AcDbEntity
  8
0
100
AcDbCircle
 62
7
  6
CONTINUOUS
 10
56.6869218491
 20
105.0469468931
 40
0.1834675753
100
AcDbArc
 50
117.8230703915
 51
218.8566619292
  0
ARC
  5
395
100
AcDbEntity
  8
0
100
AcDbCircle
 62
7
  6
CONTINUOUS
 10
56.5858688955
 20
104.5572650571
 40
0.1834675753
100
AcDbArc
 50
117.8230703915
 51
218.8566619268
  0
ARC
  5
396
100
AcDbEntity
  8
0
100
AcDbCircle
 62
7
  6
CONTINUOUS
 10
56.6632860474
 20
105.8176278533
 40
0.125
100
AcDbArc
 50
288.2071045121
 51
48.4726278138
  0
ARC
  5
397
100
AcDbEntity
  8
0
100
AcDbCircle
 62
7
  6
CONTINUOUS
 10
56.5622330938
 20
105.3279460172
 40
0.125
100
AcDbArc
 50
288.2071045077
 51
48.4726278107
  0
ARC
  5
398
100
AcDbEntity
  8
0
100
AcDbCircle
 62
7
  6
CONTINUOUS
 10
56.4611801401
 20
104.8382641812
 40
0.125
100
AcDbArc
 50
288.2071045121
 51
48.4726278108
  0
ARC
  5
399
100
AcDbEntity
  8
0
100
AcDbCircle
 62
7
  6
CONTINUOUS
 10
56.3601271865
 20
104.3485823451
 40
0.125
100
AcDbArc
 50
284.7276660757
 51
48.4726278073
  0
ARC
  5
39A
100
AcDbEntity
  8
0
100
AcDbCircle
 62
7
  6
CONTINUOUS
 10
56.4173278058
 20
104.1309746955
 40
0.1
100
AcDbArc
 50
104.7276661807
 51
168.3398661579
  0
ARC
  5
39B
100
AcDbEntity
  8
0
100
AcDbCircle
 62
7
  6
CONTINUOUS
 10
56.764339001
 20
106.3073096893
 40
0.125
100
AcDbArc
 50
288.2071045077
 51
48.4726278107
  0
ARC
  5
39C
100
AcDbEntity
  8
0
100
AcDbCircle
 62
7
  6
CONTINUOUS
 10
56.8890277564
 20
106.0263105652
 40
0.1834675753
100
AcDbArc
 50
117.8230703915
 51
218.8566619268
  0
ARC
  5
39D
100
AcDbEntity
  8
0
100
AcDbCircle
 62
7
  6
CONTINUOUS
 10
57.2932395709
 20
107.9850379095
 40
0.1834675753
100
AcDbArc
 50
117.8230703915
 51
218.8566619287
  0
ARC
  5
39E
100
AcDbEntity
  8
0
100
AcDbCircle
 62
7
  6
CONTINUOUS
 10
57.1921866173
 20
107.4953560734
 40
0.1834675753
100
AcDbArc
 50
117.8230703915
 51
218.8566619268
  0
ARC
  5
39F
100
AcDbEntity
  8
0
100
AcDbCircle
 62
7
  6
CONTINUOUS
 10
57.0911336637
 20
107.0056742374
 40
0.1834675753
100
AcDbArc
 50
117.8230703943
 51
218.8566619248
  0
ARC
  5
3A0
100
AcDbEntity
  8
0
100
AcDbCircle
 62
7
  6
CONTINUOUS
 10
56.99008071
 20
106.5159924013
 40
0.1834675753
100
AcDbArc
 50
117.8230703915
 51
218.8566619292
  0
ARC
  5
3A1
100
AcDbEntity
  8
0
100
AcDbCircle
 62
7
  6
CONTINUOUS
 10
57.1685508155
 20
108.2660370336
 40
0.125
100
AcDbArc
 50
288.2071045121
 51
48.4726058289
  0
ARC
  5
3A2
100
AcDbEntity
  8
0
100
AcDbCircle
 62
7
  6
CONTINUOUS
 10
57.0674978619
 20
107.7763551975
 40
0.125
100
AcDbArc
 50
288.2071045077
 51
48.4726278115
  0
ARC
  5
3A3
100
AcDbEntity
  8
0
100
AcDbCircle
 62
7
  6
CONTINUOUS
 10
56.9664449083
 20
107.2866733614
 40
0.125
100
AcDbArc
 50
288.2071045077
 51
48.4726278138
  0
ARC
  5
3A4
100
AcDbEntity
  8
0
100
AcDbCircle
 62
7
  6
CONTINUOUS
 10
56.8653919546
 20
106.7969915254
 40
0.125
100
AcDbArc
 50
288.2071045121
 51
48.4726278108
  0
ARC
  5
3A5
100
AcDbEntity
  8
0
100
AcDbCircle
 62
7
  6
CONTINUOUS
 10
57.2804221579
 20
108.3923629254
 40
0.0437407129
100
AcDbArc
 50
131.5273721912
 51
228.4726906186
  0
ARC
  5
3A6
100
AcDbEntity
  8
0
100
AcDbCircle
 62
7
  6
CONTINUOUS
 10
65.6919380353
 20
97.7532479583
 40
0.5486019433
100
AcDbArc
 50
1.7236558561
 51
99.0847106517
  0
ARC
  5
3A7
100
AcDbEntity
  8
0
100
AcDbCircle
 62
7
  6
CONTINUOUS
 10
66.1943013178
 20
97.5751089325
 40
0.2
100
AcDbArc
 50
1.0000048075
 51
90.0
  0
ARC
  5
3A8
100
AcDbEntity
  8
0
100
AcDbCircle
 62
7
  6
CONTINUOUS
 10
80.7013776105
 20
73.0751089325
 40
0.3
100
AcDbArc
 50
0.0
 51
89.9999999982
  0
ARC
  5
3A9
100
AcDbEntity
  8
0
100
AcDbCircle
 62
7
  6
CONTINUOUS
 10
71.1013776105
 20
73.0751089325
 40
0.3
100
AcDbArc
 50
90.0
 51
180.0
  0
ARC
  5
3AA
100
AcDbEntity
  8
0
100
AcDbCircle
 62
7
  6
CONTINUOUS
 10
72.9575038543
 20
91.4251089325
 40
33.7875
100
AcDbArc
 50
176.1817056017
 51
183.8182943982
  0
ARC
  5
3AB
100
AcDbEntity
  8
0
100
AcDbCircle
 62
7
  6
CONTINUOUS
 10
72.9575038543
 20
91.4251089325
 40
33.6216768832
100
AcDbArc
 50
176.166020656
 51
183.8324202687
  0
SPLINE
  5
3AC
100
AcDbEntity
  8
0
100
AcDbSpline
 62
7
  6
CONTINUOUS
 70
0
 71
3
 72
11
 73
7
 74
0
 42
0.0000001
 43
0.0000001
 44
0.0000000001
 40
0.0
 40
0.0
 40
0.0
 40
0.0
 40
0.2434301036
 40
0.4907413448
 40
0.7434908595
 40
1.0
 40
1.0
 40
1.0
 40
1.0
 10
68.406268108
 20
34.3750953134
 30
0.0
 10
68.3446749006
 20
34.3750924607
 30
0.0
 10
68.2190496685
 20
34.3485374583
 30
0.0
 10
68.0620110637
 20
34.2362227014
 30
0.0
 10
67.9578775151
 20
34.0701648162
 30
0.0
 10
67.9337341554
 20
33.9400114259
 30
0.0
 10
67.9337341554
 20
33.8751089325
 30
0.0
  0
SPLINE
  5
3AD
100
AcDbEntity
  8
0
100
AcDbSpline
 62
7
  6
CONTINUOUS
 70
0
 71
3
 72
9
 73
5
 74
0
 42
0.0000001
 43
0.0000001
 44
0.0000000001
 40
0.0
 40
0.0
 40
0.0
 40
0.0
 40
0.2757809968
 40
1.0
 40
1.0
 40
1.0
 40
1.0
 10
39.2834805209
 20
61.8794937377
 30
0.0
 10
39.2834755927
 20
61.9117339817
 30
0.0
 10
39.2832415077
 20
62.0286384966
 30
0.0
 10
39.2823881802
 20
62.1455460635
 30
0.0
 10
39.2808976688
 20
62.2301979407
 30
0.0
  0
SPLINE
  5
3AE
100
AcDbEntity
  8
0
100
AcDbSpline
 62
7
  6
CONTINUOUS
 70
0
 71
3
 72
14
 73
10
 74
0
 42
0.0000001
 43
0.0000001
 44
0.0000000001
 40
0.0
 40
0.0
 40
0.0
 40
0.0
 40
0.4301800124
 40
0.6016189433
 40
0.7428887186
 40
0.8535985634
 40
0.9333883914
 40
0.9819990325
 40
1.0
 40
1.0
 40
1.0
 40
1.0
 10
39.2792833425
 20
62.3024689791
 30
0.0
 10
39.2789830852
 20
62.3129219243
 30
0.0
 10
39.2785166302
 20
62.3275530431
 30
0.0
 10
39.2777236107
 20
62.3455652354
 30
0.0
 10
39.2771808433
 20
62.3559055207
 30
0.0
 10
39.2765912717
 20
62.3637898437
 30
0.0
 10
39.2761167159
 20
62.3699482756
 30
0.0
 10
39.2754753771
 20
62.3728053683
 30
0.0
 10
39.2751903292
 20
62.3751091276
 30
0.0
 10
39.2747527433
 20
62.3751089325
 30
0.0
  0
SPLINE
  5
3AF
100
AcDbEntity
  8
0
100
AcDbSpline
 62
7
  6
CONTINUOUS
 70
0
 71
3
 72
11
 73
7
 74
0
 42
0.0000001
 43
0.0000001
 44
0.0000000001
 40
0.0
 40
0.0
 40
0.0
 40
0.0
 40
0.2565102334
 40
0.5092390173
 40
0.7565517191
 40
1.0
 40
1.0
 40
1.0
 40
1.0
 10
67.9337341554
 20
33.8751089325
 30
0.0
 10
67.9337341554
 20
33.8102060677
 30
0.0
 10
67.9578749686
 20
33.6800570658
 30
0.0
 10
68.0620053624
 20
33.5140027311
 30
0.0
 10
68.219038798
 20
33.40168401
 30
0.0
 10
68.3446702031
 20
33.3751196987
 30
0.0
 10
68.4062680996
 20
33.3751225516
 30
0.0
  0
SPLINE
  5
3B0
100
AcDbEntity
  8
0
100
AcDbSpline
 62
7
  6
CONTINUOUS
 70
0
 71
3
 72
8
 73
4
 74
0
 42
0.0000001
 43
0.0000001
 44
0.0000000001
 40
0.0
 40
0.0
 40
0.0
 40
0.0
 40
1.0
 40
1.0
 40
1.0
 40
1.0
 10
39.1209990862
 20
88.8730202359
 30
0.0
 10
39.1209990862
 20
88.8944568488
 30
0.0
 10
39.1255732176
 20
88.9167106036
 30
0.0
 10
39.1356237261
 20
88.9356451132
 30
0.0
  0
SPLINE
  5
3B1
100
AcDbEntity
  8
0
100
AcDbSpline
 62
7
  6
CONTINUOUS
 70
0
 71
3
 72
9
 73
5
 74
0
 42
0.0000001
 43
0.0000001
 44
0.0000000001
 40
0.0
 40
0.0
 40
0.0
 40
0.0
 40
0.500182216
 40
1.0
 40
1.0
 40
1.0
 40
1.0
 10
39.1356237261
 20
88.9356451132
 30
0.0
 10
39.1459112165
 20
88.9550260814
 30
0.0
 10
39.1785582697
 20
88.988040687
 30
0.0
 10
39.2230777723
 20
89.0001089325
 30
0.0
 10
39.2450038543
 20
89.0001089325
 30
0.0
  0
SPLINE
  5
3B2
100
AcDbEntity
  8
0
100
AcDbSpline
 62
7
  6
CONTINUOUS
 70
0
 71
3
 72
8
 73
4
 74
0
 42
0.0000001
 43
0.0000001
 44
0.0000000001
 40
0.0
 40
0.0
 40
0.0
 40
0.0
 40
1.0
 40
1.0
 40
1.0
 40
1.0
 10
39.1210336236
 20
88.8514645874
 30
0.0
 10
39.1210336236
 20
88.8293919591
 30
0.0
 10
39.126182716
 20
88.8064485977
 30
0.0
 10
39.1369746895
 20
88.7871941377
 30
0.0
  0
SPLINE
  5
3B3
100
AcDbEntity
  8
0
100
AcDbSpline
 62
7
  6
CONTINUOUS
 70
0
 71
3
 72
9
 73
5
 74
0
 42
0.0000001
 43
0.0000001
 44
0.0000000001
 40
0.0
 40
0.0
 40
0.0
 40
0.0
 40
0.4999399336
 40
1.0
 40
1.0
 40
1.0
 40
1.0
 10
39.1369746895
 20
88.7871941377
 30
0.0
 10
39.1474821173
 20
88.7684473487
 30
0.0
 10
39.1799101675
 20
88.7366982288
 30
0.0
 10
39.2235080378
 20
88.7251089325
 30
0.0
 10
39.2450038543
 20
88.7251089325
 30
0.0
  0
SPLINE
  5
3B4
100
AcDbEntity
  8
0
100
AcDbSpline
 62
7
  6
CONTINUOUS
 70
0
 71
3
 72
8
 73
4
 74
0
 42
0.0000001
 43
0.0000001
 44
0.0000000001
 40
0.0
 40
0.0
 40
0.0
 40
0.0
 40
1.0
 40
1.0
 40
1.0
 40
1.0
 10
39.1209990862
 20
88.3730202359
 30
0.0
 10
39.1209990862
 20
88.3944568488
 30
0.0
 10
39.1255732176
 20
88.4167106036
 30
0.0
 10
39.1356237261
 20
88.4356451132
 30
0.0
  0
SPLINE
  5
3B5
100
AcDbEntity
  8
0
100
AcDbSpline
 62
7
  6
CONTINUOUS
 70
0
 71
3
 72
9
 73
5
 74
0
 42
0.0000001
 43
0.0000001
 44
0.0000000001
 40
0.0
 40
0.0
 40
0.0
 40
0.0
 40
0.500182216
 40
1.0
 40
1.0
 40
1.0
 40
1.0
 10
39.1356237261
 20
88.4356451132
 30
0.0
 10
39.1459112165
 20
88.4550260814
 30
0.0
 10
39.1785582697
 20
88.488040687
 30
0.0
 10
39.2230777723
 20
88.5001089325
 30
0.0
 10
39.2450038543
 20
88.5001089325
 30
0.0
  0
SPLINE
  5
3B6
100
AcDbEntity
  8
0
100
AcDbSpline
 62
7
  6
CONTINUOUS
 70
0
 71
3
 72
8
 73
4
 74
0
 42
0.0000001
 43
0.0000001
 44
0.0000000001
 40
0.0
 40
0.0
 40
0.0
 40
0.0
 40
1.0
 40
1.0
 40
1.0
 40
1.0
 10
39.1210336236
 20
88.3514645874
 30
0.0
 10
39.1210336236
 20
88.3293919591
 30
0.0
 10
39.126182716
 20
88.3064485977
 30
0.0
 10
39.1369746895
 20
88.2871941377
 30
0.0
  0
SPLINE
  5
3B7
100
AcDbEntity
  8
0
100
AcDbSpline
 62
7
  6
CONTINUOUS
 70
0
 71
3
 72
9
 73
5
 74
0
 42
0.0000001
 43
0.0000001
 44
0.0000000001
 40
0.0
 40
0.0
 40
0.0
 40
0.0
 40
0.4999399336
 40
1.0
 40
1.0
 40
1.0
 40
1.0
 10
39.1369746895
 20
88.2871941377
 30
0.0
 10
39.1474821173
 20
88.2684473487
 30
0.0
 10
39.1799101675
 20
88.2366982288
 30
0.0
 10
39.2235080378
 20
88.2251089325
 30
0.0
 10
39.2450038543
 20
88.2251089325
 30
0.0
  0
SPLINE
  5
3B8
100
AcDbEntity
  8
0
100
AcDbSpline
 62
7
  6
CONTINUOUS
 70
0
 71
3
 72
8
 73
4
 74
0
 42
0.0000001
 43
0.0000001
 44
0.0000000001
 40
0.0
 40
0.0
 40
0.0
 40
0.0
 40
1.0
 40
1.0
 40
1.0
 40
1.0
 10
39.1209990862
 20
87.8730202359
 30
0.0
 10
39.1209990862
 20
87.8944568488
 30
0.0
 10
39.1255732176
 20
87.9167106036
 30
0.0
 10
39.1356237261
 20
87.9356451132
 30
0.0
  0
SPLINE
  5
3B9
100
AcDbEntity
  8
0
100
AcDbSpline
 62
7
  6
CONTINUOUS
 70
0
 71
3
 72
9
 73
5
 74
0
 42
0.0000001
 43
0.0000001
 44
0.0000000001
 40
0.0
 40
0.0
 40
0.0
 40
0.0
 40
0.500182216
 40
1.0
 40
1.0
 40
1.0
 40
1.0
 10
39.1356237261
 20
87.9356451132
 30
0.0
 10
39.1459112165
 20
87.9550260814
 30
0.0
 10
39.1785582697
 20
87.988040687
 30
0.0
 10
39.2230777723
 20
88.0001089325
 30
0.0
 10
39.2450038543
 20
88.0001089325
 30
0.0
  0
SPLINE
  5
3BA
100
AcDbEntity
  8
0
100
AcDbSpline
 62
7
  6
CONTINUOUS
 70
0
 71
3
 72
8
 73
4
 74
0
 42
0.0000001
 43
0.0000001
 44
0.0000000001
 40
0.0
 40
0.0
 40
0.0
 40
0.0
 40
1.0
 40
1.0
 40
1.0
 40
1.0
 10
39.1210336236
 20
87.8514645874
 30
0.0
 10
39.1210336236
 20
87.8293919591
 30
0.0
 10
39.126182716
 20
87.8064485977
 30
0.0
 10
39.1369746895
 20
87.7871941377
 30
0.0
  0
SPLINE
  5
3BB
100
AcDbEntity
  8
0
100
AcDbSpline
 62
7
  6
CONTINUOUS
 70
0
 71
3
 72
9
 73
5
 74
0
 42
0.0000001
 43
0.0000001
 44
0.0000000001
 40
0.0
 40
0.0
 40
0.0
 40
0.0
 40
0.4999399336
 40
1.0
 40
1.0
 40
1.0
 40
1.0
 10
39.1369746895
 20
87.7871941377
 30
0.0
 10
39.1474821173
 20
87.7684473487
 30
0.0
 10
39.1799101675
 20
87.7366982288
 30
0.0
 10
39.2235080378
 20
87.7251089325
 30
0.0
 10
39.2450038543
 20
87.7251089325
 30
0.0
  0
SPLINE
  5
3BC
100
AcDbEntity
  8
0
100
AcDbSpline
 62
7
  6
CONTINUOUS
 70
0
 71
3
 72
8
 73
4
 74
0
 42
0.0000001
 43
0.0000001
 44
0.0000000001
 40
0.0
 40
0.0
 40
0.0
 40
0.0
 40
1.0
 40
1.0
 40
1.0
 40
1.0
 10
39.1209990862
 20
87.3730202359
 30
0.0
 10
39.1209990862
 20
87.3944568488
 30
0.0
 10
39.1255732176
 20
87.4167106036
 30
0.0
 10
39.1356237261
 20
87.4356451132
 30
0.0
  0
SPLINE
  5
3BD
100
AcDbEntity
  8
0
100
AcDbSpline
 62
7
  6
CONTINUOUS
 70
0
 71
3
 72
9
 73
5
 74
0
 42
0.0000001
 43
0.0000001
 44
0.0000000001
 40
0.0
 40
0.0
 40
0.0
 40
0.0
 40
0.500182216
 40
1.0
 40
1.0
 40
1.0
 40
1.0
 10
39.1356237261
 20
87.4356451132
 30
0.0
 10
39.1459112165
 20
87.4550260814
 30
0.0
 10
39.1785582697
 20
87.488040687
 30
0.0
 10
39.2230777723
 20
87.5001089325
 30
0.0
 10
39.2450038543
 20
87.5001089325
 30
0.0
  0
SPLINE
  5
3BE
100
AcDbEntity
  8
0
100
AcDbSpline
 62
7
  6
CONTINUOUS
 70
0
 71
3
 72
8
 73
4
 74
0
 42
0.0000001
 43
0.0000001
 44
0.0000000001
 40
0.0
 40
0.0
 40
0.0
 40
0.0
 40
1.0
 40
1.0
 40
1.0
 40
1.0
 10
39.1210336236
 20
87.3514645874
 30
0.0
 10
39.1210336236
 20
87.3293919591
 30
0.0
 10
39.126182716
 20
87.3064485977
 30
0.0
 10
39.1369746895
 20
87.2871941377
 30
0.0
  0
SPLINE
  5
3BF
100
AcDbEntity
  8
0
100
AcDbSpline
 62
7
  6
CONTINUOUS
 70
0
 71
3
 72
9
 73
5
 74
0
 42
0.0000001
 43
0.0000001
 44
0.0000000001
 40
0.0
 40
0.0
 40
0.0
 40
0.0
 40
0.4999399336
 40
1.0
 40
1.0
 40
1.0
 40
1.0
 10
39.1369746895
 20
87.2871941377
 30
0.0
 10
39.1474821173
 20
87.2684473487
 30
0.0
 10
39.1799101675
 20
87.2366982288
 30
0.0
 10
39.2235080378
 20
87.2251089325
 30
0.0
 10
39.2450038543
 20
87.2251089325
 30
0.0
  0
SPLINE
  5
3C0
100
AcDbEntity
  8
0
100
AcDbSpline
 62
7
  6
CONTINUOUS
 70
0
 71
3
 72
8
 73
4
 74
0
 42
0.0000001
 43
0.0000001
 44
0.0000000001
 40
0.0
 40
0.0
 40
0.0
 40
0.0
 40
1.0
 40
1.0
 40
1.0
 40
1.0
 10
39.1209990862
 20
86.8730202359
 30
0.0
 10
39.1209990862
 20
86.8944568488
 30
0.0
 10
39.1255732176
 20
86.9167106036
 30
0.0
 10
39.1356237261
 20
86.9356451132
 30
0.0
  0
SPLINE
  5
3C1
100
AcDbEntity
  8
0
100
AcDbSpline
 62
7
  6
CONTINUOUS
 70
0
 71
3
 72
9
 73
5
 74
0
 42
0.0000001
 43
0.0000001
 44
0.0000000001
 40
0.0
 40
0.0
 40
0.0
 40
0.0
 40
0.500182216
 40
1.0
 40
1.0
 40
1.0
 40
1.0
 10
39.1356237261
 20
86.9356451132
 30
0.0
 10
39.1459112165
 20
86.9550260814
 30
0.0
 10
39.1785582697
 20
86.988040687
 30
0.0
 10
39.2230777723
 20
87.0001089325
 30
0.0
 10
39.2450038543
 20
87.0001089325
 30
0.0
  0
SPLINE
  5
3C2
100
AcDbEntity
  8
0
100
AcDbSpline
 62
7
  6
CONTINUOUS
 70
0
 71
3
 72
8
 73
4
 74
0
 42
0.0000001
 43
0.0000001
 44
0.0000000001
 40
0.0
 40
0.0
 40
0.0
 40
0.0
 40
1.0
 40
1.0
 40
1.0
 40
1.0
 10
39.1210336236
 20
86.8514645874
 30
0.0
 10
39.1210336236
 20
86.8293919591
 30
0.0
 10
39.126182716
 20
86.8064485977
 30
0.0
 10
39.1369746895
 20
86.7871941377
 30
0.0
  0
SPLINE
  5
3C3
100
AcDbEntity
  8
0
100
AcDbSpline
 62
7
  6
CONTINUOUS
 70
0
 71
3
 72
9
 73
5
 74
0
 42
0.0000001
 43
0.0000001
 44
0.0000000001
 40
0.0
 40
0.0
 40
0.0
 40
0.0
 40
0.4999399336
 40
1.0
 40
1.0
 40
1.0
 40
1.0
 10
39.1369746895
 20
86.7871941377
 30
0.0
 10
39.1474821173
 20
86.7684473487
 30
0.0
 10
39.1799101675
 20
86.7366982288
 30
0.0
 10
39.2235080378
 20
86.7251089325
 30
0.0
 10
39.2450038543
 20
86.7251089325
 30
0.0
  0
SPLINE
  5
3C4
100
AcDbEntity
  8
0
100
AcDbSpline
 62
7
  6
CONTINUOUS
 70
0
 71
3
 72
8
 73
4
 74
0
 42
0.0000001
 43
0.0000001
 44
0.0000000001
 40
0.0
 40
0.0
 40
0.0
 40
0.0
 40
1.0
 40
1.0
 40
1.0
 40
1.0
 10
39.1209990862
 20
86.3730202359
 30
0.0
 10
39.1209990862
 20
86.3944568488
 30
0.0
 10
39.1255732176
 20
86.4167106036
 30
0.0
 10
39.1356237261
 20
86.4356451132
 30
0.0
  0
SPLINE
  5
3C5
100
AcDbEntity
  8
0
100
AcDbSpline
 62
7
  6
CONTINUOUS
 70
0
 71
3
 72
9
 73
5
 74
0
 42
0.0000001
 43
0.0000001
 44
0.0000000001
 40
0.0
 40
0.0
 40
0.0
 40
0.0
 40
0.500182216
 40
1.0
 40
1.0
 40
1.0
 40
1.0
 10
39.1356237261
 20
86.4356451132
 30
0.0
 10
39.1459112165
 20
86.4550260814
 30
0.0
 10
39.1785582697
 20
86.488040687
 30
0.0
 10
39.2230777723
 20
86.5001089325
 30
0.0
 10
39.2450038543
 20
86.5001089325
 30
0.0
  0
SPLINE
  5
3C6
100
AcDbEntity
  8
0
100
AcDbSpline
 62
7
  6
CONTINUOUS
 70
0
 71
3
 72
8
 73
4
 74
0
 42
0.0000001
 43
0.0000001
 44
0.0000000001
 40
0.0
 40
0.0
 40
0.0
 40
0.0
 40
1.0
 40
1.0
 40
1.0
 40
1.0
 10
39.1210336236
 20
86.3514645874
 30
0.0
 10
39.1210336236
 20
86.3293919591
 30
0.0
 10
39.126182716
 20
86.3064485977
 30
0.0
 10
39.1369746895
 20
86.2871941377
 30
0.0
  0
SPLINE
  5
3C7
100
AcDbEntity
  8
0
100
AcDbSpline
 62
7
  6
CONTINUOUS
 70
0
 71
3
 72
9
 73
5
 74
0
 42
0.0000001
 43
0.0000001
 44
0.0000000001
 40
0.0
 40
0.0
 40
0.0
 40
0.0
 40
0.4999399336
 40
1.0
 40
1.0
 40
1.0
 40
1.0
 10
39.1369746895
 20
86.2871941377
 30
0.0
 10
39.1474821173
 20
86.2684473487
 30
0.0
 10
39.1799101675
 20
86.2366982288
 30
0.0
 10
39.2235080378
 20
86.2251089325
 30
0.0
 10
39.2450038543
 20
86.2251089325
 30
0.0
  0
SPLINE
  5
3C8
100
AcDbEntity
  8
0
100
AcDbSpline
 62
7
  6
CONTINUOUS
 70
0
 71
3
 72
8
 73
4
 74
0
 42
0.0000001
 43
0.0000001
 44
0.0000000001
 40
0.0
 40
0.0
 40
0.0
 40
0.0
 40
1.0
 40
1.0
 40
1.0
 40
1.0
 10
39.1209990862
 20
85.8730202359
 30
0.0
 10
39.1209990862
 20
85.8944568488
 30
0.0
 10
39.1255732176
 20
85.9167106036
 30
0.0
 10
39.1356237261
 20
85.9356451132
 30
0.0
  0
SPLINE
  5
3C9
100
AcDbEntity
  8
0
100
AcDbSpline
 62
7
  6
CONTINUOUS
 70
0
 71
3
 72
9
 73
5
 74
0
 42
0.0000001
 43
0.0000001
 44
0.0000000001
 40
0.0
 40
0.0
 40
0.0
 40
0.0
 40
0.500182216
 40
1.0
 40
1.0
 40
1.0
 40
1.0
 10
39.1356237261
 20
85.9356451132
 30
0.0
 10
39.1459112165
 20
85.9550260814
 30
0.0
 10
39.1785582697
 20
85.988040687
 30
0.0
 10
39.2230777723
 20
86.0001089325
 30
0.0
 10
39.2450038543
 20
86.0001089325
 30
0.0
  0
SPLINE
  5
3CA
100
AcDbEntity
  8
0
100
AcDbSpline
 62
7
  6
CONTINUOUS
 70
0
 71
3
 72
8
 73
4
 74
0
 42
0.0000001
 43
0.0000001
 44
0.0000000001
 40
0.0
 40
0.0
 40
0.0
 40
0.0
 40
1.0
 40
1.0
 40
1.0
 40
1.0
 10
39.1210336236
 20
85.8514645874
 30
0.0
 10
39.1210336236
 20
85.8293919591
 30
0.0
 10
39.126182716
 20
85.8064485977
 30
0.0
 10
39.1369746895
 20
85.7871941377
 30
0.0
  0
SPLINE
  5
3CB
100
AcDbEntity
  8
0
100
AcDbSpline
 62
7
  6
CONTINUOUS
 70
0
 71
3
 72
9
 73
5
 74
0
 42
0.0000001
 43
0.0000001
 44
0.0000000001
 40
0.0
 40
0.0
 40
0.0
 40
0.0
 40
0.4999399336
 40
1.0
 40
1.0
 40
1.0
 40
1.0
 10
39.1369746895
 20
85.7871941377
 30
0.0
 10
39.1474821173
 20
85.7684473487
 30
0.0
 10
39.1799101675
 20
85.7366982288
 30
0.0
 10
39.2235080378
 20
85.7251089325
 30
0.0
 10
39.2450038543
 20
85.7251089325
 30
0.0
  0
SPLINE
  5
3CC
100
AcDbEntity
  8
0
100
AcDbSpline
 62
7
  6
CONTINUOUS
 70
0
 71
3
 72
8
 73
4
 74
0
 42
0.0000001
 43
0.0000001
 44
0.0000000001
 40
0.0
 40
0.0
 40
0.0
 40
0.0
 40
1.0
 40
1.0
 40
1.0
 40
1.0
 10
39.1209990862
 20
85.3730202359
 30
0.0
 10
39.1209990862
 20
85.3944568488
 30
0.0
 10
39.1255732176
 20
85.4167106036
 30
0.0
 10
39.1356237261
 20
85.4356451132
 30
0.0
  0
SPLINE
  5
3CD
100
AcDbEntity
  8
0
100
AcDbSpline
 62
7
  6
CONTINUOUS
 70
0
 71
3
 72
9
 73
5
 74
0
 42
0.0000001
 43
0.0000001
 44
0.0000000001
 40
0.0
 40
0.0
 40
0.0
 40
0.0
 40
0.500182216
 40
1.0
 40
1.0
 40
1.0
 40
1.0
 10
39.1356237261
 20
85.4356451132
 30
0.0
 10
39.1459112165
 20
85.4550260814
 30
0.0
 10
39.1785582697
 20
85.488040687
 30
0.0
 10
39.2230777723
 20
85.5001089325
 30
0.0
 10
39.2450038543
 20
85.5001089325
 30
0.0
  0
SPLINE
  5
3CE
100
AcDbEntity
  8
0
100
AcDbSpline
 62
7
  6
CONTINUOUS
 70
0
 71
3
 72
8
 73
4
 74
0
 42
0.0000001
 43
0.0000001
 44
0.0000000001
 40
0.0
 40
0.0
 40
0.0
 40
0.0
 40
1.0
 40
1.0
 40
1.0
 40
1.0
 10
39.1210336236
 20
85.3514645874
 30
0.0
 10
39.1210336236
 20
85.3293919591
 30
0.0
 10
39.126182716
 20
85.3064485977
 30
0.0
 10
39.1369746895
 20
85.2871941377
 30
0.0
  0
SPLINE
  5
3CF
100
AcDbEntity
  8
0
100
AcDbSpline
 62
7
  6
CONTINUOUS
 70
0
 71
3
 72
9
 73
5
 74
0
 42
0.0000001
 43
0.0000001
 44
0.0000000001
 40
0.0
 40
0.0
 40
0.0
 40
0.0
 40
0.4999399336
 40
1.0
 40
1.0
 40
1.0
 40
1.0
 10
39.1369746895
 20
85.2871941377
 30
0.0
 10
39.1474821173
 20
85.2684473487
 30
0.0
 10
39.1799101675
 20
85.2366982288
 30
0.0
 10
39.2235080378
 20
85.2251089325
 30
0.0
 10
39.2450038543
 20
85.2251089325
 30
0.0
  0
SPLINE
  5
3D0
100
AcDbEntity
  8
0
100
AcDbSpline
 62
7
  6
CONTINUOUS
 70
0
 71
3
 72
8
 73
4
 74
0
 42
0.0000001
 43
0.0000001
 44
0.0000000001
 40
0.0
 40
0.0
 40
0.0
 40
0.0
 40
1.0
 40
1.0
 40
1.0
 40
1.0
 10
39.1209990862
 20
84.8730202359
 30
0.0
 10
39.1209990862
 20
84.8944568488
 30
0.0
 10
39.1255732176
 20
84.9167106036
 30
0.0
 10
39.1356237261
 20
84.9356451132
 30
0.0
  0
SPLINE
  5
3D1
100
AcDbEntity
  8
0
100
AcDbSpline
 62
7
  6
CONTINUOUS
 70
0
 71
3
 72
9
 73
5
 74
0
 42
0.0000001
 43
0.0000001
 44
0.0000000001
 40
0.0
 40
0.0
 40
0.0
 40
0.0
 40
0.500182216
 40
1.0
 40
1.0
 40
1.0
 40
1.0
 10
39.1356237261
 20
84.9356451132
 30
0.0
 10
39.1459112165
 20
84.9550260814
 30
0.0
 10
39.1785582697
 20
84.988040687
 30
0.0
 10
39.2230777723
 20
85.0001089325
 30
0.0
 10
39.2450038543
 20
85.0001089325
 30
0.0
  0
SPLINE
  5
3D2
100
AcDbEntity
  8
0
100
AcDbSpline
 62
7
  6
CONTINUOUS
 70
0
 71
3
 72
8
 73
4
 74
0
 42
0.0000001
 43
0.0000001
 44
0.0000000001
 40
0.0
 40
0.0
 40
0.0
 40
0.0
 40
1.0
 40
1.0
 40
1.0
 40
1.0
 10
39.1210336236
 20
84.8514645874
 30
0.0
 10
39.1210336236
 20
84.8293919591
 30
0.0
 10
39.126182716
 20
84.8064485977
 30
0.0
 10
39.1369746895
 20
84.7871941377
 30
0.0
  0
SPLINE
  5
3D3
100
AcDbEntity
  8
0
100
AcDbSpline
 62
7
  6
CONTINUOUS
 70
0
 71
3
 72
9
 73
5
 74
0
 42
0.0000001
 43
0.0000001
 44
0.0000000001
 40
0.0
 40
0.0
 40
0.0
 40
0.0
 40
0.4999399336
 40
1.0
 40
1.0
 40
1.0
 40
1.0
 10
39.1369746895
 20
84.7871941377
 30
0.0
 10
39.1474821173
 20
84.7684473487
 30
0.0
 10
39.1799101675
 20
84.7366982288
 30
0.0
 10
39.2235080378
 20
84.7251089325
 30
0.0
 10
39.2450038543
 20
84.7251089325
 30
0.0
  0
SPLINE
  5
3D4
100
AcDbEntity
  8
0
100
AcDbSpline
 62
7
  6
CONTINUOUS
 70
0
 71
3
 72
8
 73
4
 74
0
 42
0.0000001
 43
0.0000001
 44
0.0000000001
 40
0.0
 40
0.0
 40
0.0
 40
0.0
 40
1.0
 40
1.0
 40
1.0
 40
1.0
 10
39.1209990862
 20
84.3730202359
 30
0.0
 10
39.1209990862
 20
84.3944568488
 30
0.0
 10
39.1255732176
 20
84.4167106036
 30
0.0
 10
39.1356237261
 20
84.4356451132
 30
0.0
  0
SPLINE
  5
3D5
100
AcDbEntity
  8
0
100
AcDbSpline
 62
7
  6
CONTINUOUS
 70
0
 71
3
 72
9
 73
5
 74
0
 42
0.0000001
 43
0.0000001
 44
0.0000000001
 40
0.0
 40
0.0
 40
0.0
 40
0.0
 40
0.500182216
 40
1.0
 40
1.0
 40
1.0
 40
1.0
 10
39.1356237261
 20
84.4356451132
 30
0.0
 10
39.1459112165
 20
84.4550260814
 30
0.0
 10
39.1785582697
 20
84.488040687
 30
0.0
 10
39.2230777723
 20
84.5001089325
 30
0.0
 10
39.2450038543
 20
84.5001089325
 30
0.0
  0
SPLINE
  5
3D6
100
AcDbEntity
  8
0
100
AcDbSpline
 62
7
  6
CONTINUOUS
 70
0
 71
3
 72
8
 73
4
 74
0
 42
0.0000001
 43
0.0000001
 44
0.0000000001
 40
0.0
 40
0.0
 40
0.0
 40
0.0
 40
1.0
 40
1.0
 40
1.0
 40
1.0
 10
39.1210336236
 20
84.3514645874
 30
0.0
 10
39.1210336236
 20
84.3293919591
 30
0.0
 10
39.126182716
 20
84.3064485977
 30
0.0
 10
39.1369746895
 20
84.2871941377
 30
0.0
  0
SPLINE
  5
3D7
100
AcDbEntity
  8
0
100
AcDbSpline
 62
7
  6
CONTINUOUS
 70
0
 71
3
 72
9
 73
5
 74
0
 42
0.0000001
 43
0.0000001
 44
0.0000000001
 40
0.0
 40
0.0
 40
0.0
 40
0.0
 40
0.4999399336
 40
1.0
 40
1.0
 40
1.0
 40
1.0
 10
39.1369746895
 20
84.2871941377
 30
0.0
 10
39.1474821173
 20
84.2684473487
 30
0.0
 10
39.1799101675
 20
84.2366982288
 30
0.0
 10
39.2235080378
 20
84.2251089325
 30
0.0
 10
39.2450038543
 20
84.2251089325
 30
0.0
  0
SPLINE
  5
3D8
100
AcDbEntity
  8
0
100
AcDbSpline
 62
7
  6
CONTINUOUS
 70
0
 71
3
 72
8
 73
4
 74
0
 42
0.0000001
 43
0.0000001
 44
0.0000000001
 40
0.0
 40
0.0
 40
0.0
 40
0.0
 40
1.0
 40
1.0
 40
1.0
 40
1.0
 10
39.1209990862
 20
83.8730202359
 30
0.0
 10
39.1209990862
 20
83.8944568488
 30
0.0
 10
39.1255732176
 20
83.9167106036
 30
0.0
 10
39.1356237261
 20
83.9356451132
 30
0.0
  0
SPLINE
  5
3D9
100
AcDbEntity
  8
0
100
AcDbSpline
 62
7
  6
CONTINUOUS
 70
0
 71
3
 72
9
 73
5
 74
0
 42
0.0000001
 43
0.0000001
 44
0.0000000001
 40
0.0
 40
0.0
 40
0.0
 40
0.0
 40
0.500182216
 40
1.0
 40
1.0
 40
1.0
 40
1.0
 10
39.1356237261
 20
83.9356451132
 30
0.0
 10
39.1459112165
 20
83.9550260814
 30
0.0
 10
39.1785582697
 20
83.988040687
 30
0.0
 10
39.2230777723
 20
84.0001089325
 30
0.0
 10
39.2450038543
 20
84.0001089325
 30
0.0
  0
SPLINE
  5
3DA
100
AcDbEntity
  8
0
100
AcDbSpline
 62
7
  6
CONTINUOUS
 70
0
 71
3
 72
8
 73
4
 74
0
 42
0.0000001
 43
0.0000001
 44
0.0000000001
 40
0.0
 40
0.0
 40
0.0
 40
0.0
 40
1.0
 40
1.0
 40
1.0
 40
1.0
 10
39.1210336236
 20
83.8514645874
 30
0.0
 10
39.1210336236
 20
83.8293919591
 30
0.0
 10
39.126182716
 20
83.8064485977
 30
0.0
 10
39.1369746895
 20
83.7871941377
 30
0.0
  0
SPLINE
  5
3DB
100
AcDbEntity
  8
0
100
AcDbSpline
 62
7
  6
CONTINUOUS
 70
0
 71
3
 72
9
 73
5
 74
0
 42
0.0000001
 43
0.0000001
 44
0.0000000001
 40
0.0
 40
0.0
 40
0.0
 40
0.0
 40
0.4999399336
 40
1.0
 40
1.0
 40
1.0
 40
1.0
 10
39.1369746895
 20
83.7871941377
 30
0.0
 10
39.1474821173
 20
83.7684473487
 30
0.0
 10
39.1799101675
 20
83.7366982288
 30
0.0
 10
39.2235080378
 20
83.7251089325
 30
0.0
 10
39.2450038543
 20
83.7251089325
 30
0.0
  0
SPLINE
  5
3DC
100
AcDbEntity
  8
0
100
AcDbSpline
 62
7
  6
CONTINUOUS
 70
0
 71
3
 72
8
 73
4
 74
0
 42
0.0000001
 43
0.0000001
 44
0.0000000001
 40
0.0
 40
0.0
 40
0.0
 40
0.0
 40
1.0
 40
1.0
 40
1.0
 40
1.0
 10
39.1209990862
 20
83.3730202359
 30
0.0
 10
39.1209990862
 20
83.3944568488
 30
0.0
 10
39.1255732176
 20
83.4167106036
 30
0.0
 10
39.1356237261
 20
83.4356451132
 30
0.0
  0
SPLINE
  5
3DD
100
AcDbEntity
  8
0
100
AcDbSpline
 62
7
  6
CONTINUOUS
 70
0
 71
3
 72
9
 73
5
 74
0
 42
0.0000001
 43
0.0000001
 44
0.0000000001
 40
0.0
 40
0.0
 40
0.0
 40
0.0
 40
0.500182216
 40
1.0
 40
1.0
 40
1.0
 40
1.0
 10
39.1356237261
 20
83.4356451132
 30
0.0
 10
39.1459112165
 20
83.4550260814
 30
0.0
 10
39.1785582697
 20
83.488040687
 30
0.0
 10
39.2230777723
 20
83.5001089325
 30
0.0
 10
39.2450038543
 20
83.5001089325
 30
0.0
  0
SPLINE
  5
3DE
100
AcDbEntity
  8
0
100
AcDbSpline
 62
7
  6
CONTINUOUS
 70
0
 71
3
 72
8
 73
4
 74
0
 42
0.0000001
 43
0.0000001
 44
0.0000000001
 40
0.0
 40
0.0
 40
0.0
 40
0.0
 40
1.0
 40
1.0
 40
1.0
 40
1.0
 10
39.1210336236
 20
83.3514645874
 30
0.0
 10
39.1210336236
 20
83.3293919591
 30
0.0
 10
39.126182716
 20
83.3064485977
 30
0.0
 10
39.1369746895
 20
83.2871941377
 30
0.0
  0
SPLINE
  5
3DF
100
AcDbEntity
  8
0
100
AcDbSpline
 62
7
  6
CONTINUOUS
 70
0
 71
3
 72
9
 73
5
 74
0
 42
0.0000001
 43
0.0000001
 44
0.0000000001
 40
0.0
 40
0.0
 40
0.0
 40
0.0
 40
0.4999399336
 40
1.0
 40
1.0
 40
1.0
 40
1.0
 10
39.1369746895
 20
83.2871941377
 30
0.0
 10
39.1474821173
 20
83.2684473487
 30
0.0
 10
39.1799101675
 20
83.2366982288
 30
0.0
 10
39.2235080378
 20
83.2251089325
 30
0.0
 10
39.2450038543
 20
83.2251089325
 30
0.0
  0
SPLINE
  5
3E0
100
AcDbEntity
  8
0
100
AcDbSpline
 62
7
  6
CONTINUOUS
 70
0
 71
3
 72
8
 73
4
 74
0
 42
0.0000001
 43
0.0000001
 44
0.0000000001
 40
0.0
 40
0.0
 40
0.0
 40
0.0
 40
1.0
 40
1.0
 40
1.0
 40
1.0
 10
39.1209990862
 20
82.8730202359
 30
0.0
 10
39.1209990862
 20
82.8944568488
 30
0.0
 10
39.1255732176
 20
82.9167106036
 30
0.0
 10
39.1356237261
 20
82.9356451132
 30
0.0
  0
SPLINE
  5
3E1
100
AcDbEntity
  8
0
100
AcDbSpline
 62
7
  6
CONTINUOUS
 70
0
 71
3
 72
9
 73
5
 74
0
 42
0.0000001
 43
0.0000001
 44
0.0000000001
 40
0.0
 40
0.0
 40
0.0
 40
0.0
 40
0.500182216
 40
1.0
 40
1.0
 40
1.0
 40
1.0
 10
39.1356237261
 20
82.9356451132
 30
0.0
 10
39.1459112165
 20
82.9550260814
 30
0.0
 10
39.1785582697
 20
82.988040687
 30
0.0
 10
39.2230777723
 20
83.0001089325
 30
0.0
 10
39.2450038543
 20
83.0001089325
 30
0.0
  0
SPLINE
  5
3E2
100
AcDbEntity
  8
0
100
AcDbSpline
 62
7
  6
CONTINUOUS
 70
0
 71
3
 72
8
 73
4
 74
0
 42
0.0000001
 43
0.0000001
 44
0.0000000001
 40
0.0
 40
0.0
 40
0.0
 40
0.0
 40
1.0
 40
1.0
 40
1.0
 40
1.0
 10
39.1210336236
 20
82.8514645874
 30
0.0
 10
39.1210336236
 20
82.8293919591
 30
0.0
 10
39.126182716
 20
82.8064485977
 30
0.0
 10
39.1369746895
 20
82.7871941377
 30
0.0
  0
SPLINE
  5
3E3
100
AcDbEntity
  8
0
100
AcDbSpline
 62
7
  6
CONTINUOUS
 70
0
 71
3
 72
9
 73
5
 74
0
 42
0.0000001
 43
0.0000001
 44
0.0000000001
 40
0.0
 40
0.0
 40
0.0
 40
0.0
 40
0.4999399336
 40
1.0
 40
1.0
 40
1.0
 40
1.0
 10
39.1369746895
 20
82.7871941377
 30
0.0
 10
39.1474821173
 20
82.7684473487
 30
0.0
 10
39.1799101675
 20
82.7366982288
 30
0.0
 10
39.2235080378
 20
82.7251089325
 30
0.0
 10
39.2450038543
 20
82.7251089325
 30
0.0
  0
SPLINE
  5
3E4
100
AcDbEntity
  8
0
100
AcDbSpline
 62
7
  6
CONTINUOUS
 70
0
 71
3
 72
8
 73
4
 74
0
 42
0.0000001
 43
0.0000001
 44
0.0000000001
 40
0.0
 40
0.0
 40
0.0
 40
0.0
 40
1.0
 40
1.0
 40
1.0
 40
1.0
 10
39.1209990862
 20
82.3730202359
 30
0.0
 10
39.1209990862
 20
82.3944568488
 30
0.0
 10
39.1255732176
 20
82.4167106036
 30
0.0
 10
39.1356237261
 20
82.4356451132
 30
0.0
  0
SPLINE
  5
3E5
100
AcDbEntity
  8
0
100
AcDbSpline
 62
7
  6
CONTINUOUS
 70
0
 71
3
 72
9
 73
5
 74
0
 42
0.0000001
 43
0.0000001
 44
0.0000000001
 40
0.0
 40
0.0
 40
0.0
 40
0.0
 40
0.500182216
 40
1.0
 40
1.0
 40
1.0
 40
1.0
 10
39.1356237261
 20
82.4356451132
 30
0.0
 10
39.1459112165
 20
82.4550260814
 30
0.0
 10
39.1785582697
 20
82.488040687
 30
0.0
 10
39.2230777723
 20
82.5001089325
 30
0.0
 10
39.2450038543
 20
82.5001089325
 30
0.0
  0
SPLINE
  5
3E6
100
AcDbEntity
  8
0
100
AcDbSpline
 62
7
  6
CONTINUOUS
 70
0
 71
3
 72
8
 73
4
 74
0
 42
0.0000001
 43
0.0000001
 44
0.0000000001
 40
0.0
 40
0.0
 40
0.0
 40
0.0
 40
1.0
 40
1.0
 40
1.0
 40
1.0
 10
39.1210336236
 20
82.3514645874
 30
0.0
 10
39.1210336236
 20
82.3293919591
 30
0.0
 10
39.126182716
 20
82.3064485977
 30
0.0
 10
39.1369746895
 20
82.2871941377
 30
0.0
  0
SPLINE
  5
3E7
100
AcDbEntity
  8
0
100
AcDbSpline
 62
7
  6
CONTINUOUS
 70
0
 71
3
 72
9
 73
5
 74
0
 42
0.0000001
 43
0.0000001
 44
0.0000000001
 40
0.0
 40
0.0
 40
0.0
 40
0.0
 40
0.4999399336
 40
1.0
 40
1.0
 40
1.0
 40
1.0
 10
39.1369746895
 20
82.2871941377
 30
0.0
 10
39.1474821173
 20
82.2684473487
 30
0.0
 10
39.1799101675
 20
82.2366982288
 30
0.0
 10
39.2235080378
 20
82.2251089325
 30
0.0
 10
39.2450038543
 20
82.2251089325
 30
0.0
  0
SPLINE
  5
3E8
100
AcDbEntity
  8
0
100
AcDbSpline
 62
7
  6
CONTINUOUS
 70
0
 71
3
 72
8
 73
4
 74
0
 42
0.0000001
 43
0.0000001
 44
0.0000000001
 40
0.0
 40
0.0
 40
0.0
 40
0.0
 40
1.0
 40
1.0
 40
1.0
 40
1.0
 10
39.1209990862
 20
81.8730202359
 30
0.0
 10
39.1209990862
 20
81.8944568488
 30
0.0
 10
39.1255732176
 20
81.9167106036
 30
0.0
 10
39.1356237261
 20
81.9356451132
 30
0.0
  0
SPLINE
  5
3E9
100
AcDbEntity
  8
0
100
AcDbSpline
 62
7
  6
CONTINUOUS
 70
0
 71
3
 72
9
 73
5
 74
0
 42
0.0000001
 43
0.0000001
 44
0.0000000001
 40
0.0
 40
0.0
 40
0.0
 40
0.0
 40
0.500182216
 40
1.0
 40
1.0
 40
1.0
 40
1.0
 10
39.1356237261
 20
81.9356451132
 30
0.0
 10
39.1459112165
 20
81.9550260814
 30
0.0
 10
39.1785582697
 20
81.988040687
 30
0.0
 10
39.2230777723
 20
82.0001089325
 30
0.0
 10
39.2450038543
 20
82.0001089325
 30
0.0
  0
SPLINE
  5
3EA
100
AcDbEntity
  8
0
100
AcDbSpline
 62
7
  6
CONTINUOUS
 70
0
 71
3
 72
8
 73
4
 74
0
 42
0.0000001
 43
0.0000001
 44
0.0000000001
 40
0.0
 40
0.0
 40
0.0
 40
0.0
 40
1.0
 40
1.0
 40
1.0
 40
1.0
 10
39.1210336236
 20
81.8514645874
 30
0.0
 10
39.1210336236
 20
81.8293919591
 30
0.0
 10
39.126182716
 20
81.8064485977
 30
0.0
 10
39.1369746895
 20
81.7871941377
 30
0.0
  0
SPLINE
  5
3EB
100
AcDbEntity
  8
0
100
AcDbSpline
 62
7
  6
CONTINUOUS
 70
0
 71
3
 72
9
 73
5
 74
0
 42
0.0000001
 43
0.0000001
 44
0.0000000001
 40
0.0
 40
0.0
 40
0.0
 40
0.0
 40
0.4999399336
 40
1.0
 40
1.0
 40
1.0
 40
1.0
 10
39.1369746895
 20
81.7871941377
 30
0.0
 10
39.1474821173
 20
81.7684473487
 30
0.0
 10
39.1799101675
 20
81.7366982288
 30
0.0
 10
39.2235080378
 20
81.7251089325
 30
0.0
 10
39.2450038543
 20
81.7251089325
 30
0.0
  0
SPLINE
  5
3EC
100
AcDbEntity
  8
0
100
AcDbSpline
 62
7
  6
CONTINUOUS
 70
0
 71
3
 72
8
 73
4
 74
0
 42
0.0000001
 43
0.0000001
 44
0.0000000001
 40
0.0
 40
0.0
 40
0.0
 40
0.0
 40
1.0
 40
1.0
 40
1.0
 40
1.0
 10
39.1209990862
 20
81.3730202359
 30
0.0
 10
39.1209990862
 20
81.3944568488
 30
0.0
 10
39.1255732176
 20
81.4167106036
 30
0.0
 10
39.1356237261
 20
81.4356451132
 30
0.0
  0
SPLINE
  5
3ED
100
AcDbEntity
  8
0
100
AcDbSpline
 62
7
  6
CONTINUOUS
 70
0
 71
3
 72
9
 73
5
 74
0
 42
0.0000001
 43
0.0000001
 44
0.0000000001
 40
0.0
 40
0.0
 40
0.0
 40
0.0
 40
0.500182216
 40
1.0
 40
1.0
 40
1.0
 40
1.0
 10
39.1356237261
 20
81.4356451132
 30
0.0
 10
39.1459112165
 20
81.4550260814
 30
0.0
 10
39.1785582697
 20
81.488040687
 30
0.0
 10
39.2230777723
 20
81.5001089325
 30
0.0
 10
39.2450038543
 20
81.5001089325
 30
0.0
  0
SPLINE
  5
3EE
100
AcDbEntity
  8
0
100
AcDbSpline
 62
7
  6
CONTINUOUS
 70
0
 71
3
 72
8
 73
4
 74
0
 42
0.0000001
 43
0.0000001
 44
0.0000000001
 40
0.0
 40
0.0
 40
0.0
 40
0.0
 40
1.0
 40
1.0
 40
1.0
 40
1.0
 10
39.1210336236
 20
81.3514645874
 30
0.0
 10
39.1210336236
 20
81.3293919591
 30
0.0
 10
39.126182716
 20
81.3064485977
 30
0.0
 10
39.1369746895
 20
81.2871941377
 30
0.0
  0
SPLINE
  5
3EF
100
AcDbEntity
  8
0
100
AcDbSpline
 62
7
  6
CONTINUOUS
 70
0
 71
3
 72
9
 73
5
 74
0
 42
0.0000001
 43
0.0000001
 44
0.0000000001
 40
0.0
 40
0.0
 40
0.0
 40
0.0
 40
0.4999399336
 40
1.0
 40
1.0
 40
1.0
 40
1.0
 10
39.1369746895
 20
81.2871941377
 30
0.0
 10
39.1474821173
 20
81.2684473487
 30
0.0
 10
39.1799101675
 20
81.2366982288
 30
0.0
 10
39.2235080378
 20
81.2251089325
 30
0.0
 10
39.2450038543
 20
81.2251089325
 30
0.0
  0
SPLINE
  5
3F0
100
AcDbEntity
  8
0
100
AcDbSpline
 62
7
  6
CONTINUOUS
 70
0
 71
3
 72
8
 73
4
 74
0
 42
0.0000001
 43
0.0000001
 44
0.0000000001
 40
0.0
 40
0.0
 40
0.0
 40
0.0
 40
1.0
 40
1.0
 40
1.0
 40
1.0
 10
39.1209990862
 20
80.8730202359
 30
0.0
 10
39.1209990862
 20
80.8944568488
 30
0.0
 10
39.1255732176
 20
80.9167106036
 30
0.0
 10
39.1356237261
 20
80.9356451132
 30
0.0
  0
SPLINE
  5
3F1
100
AcDbEntity
  8
0
100
AcDbSpline
 62
7
  6
CONTINUOUS
 70
0
 71
3
 72
9
 73
5
 74
0
 42
0.0000001
 43
0.0000001
 44
0.0000000001
 40
0.0
 40
0.0
 40
0.0
 40
0.0
 40
0.500182216
 40
1.0
 40
1.0
 40
1.0
 40
1.0
 10
39.1356237261
 20
80.9356451132
 30
0.0
 10
39.1459112165
 20
80.9550260814
 30
0.0
 10
39.1785582697
 20
80.988040687
 30
0.0
 10
39.2230777723
 20
81.0001089325
 30
0.0
 10
39.2450038543
 20
81.0001089325
 30
0.0
  0
SPLINE
  5
3F2
100
AcDbEntity
  8
0
100
AcDbSpline
 62
7
  6
CONTINUOUS
 70
0
 71
3
 72
8
 73
4
 74
0
 42
0.0000001
 43
0.0000001
 44
0.0000000001
 40
0.0
 40
0.0
 40
0.0
 40
0.0
 40
1.0
 40
1.0
 40
1.0
 40
1.0
 10
39.1210336236
 20
80.8514645874
 30
0.0
 10
39.1210336236
 20
80.8293919591
 30
0.0
 10
39.126182716
 20
80.8064485977
 30
0.0
 10
39.1369746895
 20
80.7871941377
 30
0.0
  0
SPLINE
  5
3F3
100
AcDbEntity
  8
0
100
AcDbSpline
 62
7
  6
CONTINUOUS
 70
0
 71
3
 72
9
 73
5
 74
0
 42
0.0000001
 43
0.0000001
 44
0.0000000001
 40
0.0
 40
0.0
 40
0.0
 40
0.0
 40
0.4999399336
 40
1.0
 40
1.0
 40
1.0
 40
1.0
 10
39.1369746895
 20
80.7871941377
 30
0.0
 10
39.1474821173
 20
80.7684473487
 30
0.0
 10
39.1799101675
 20
80.7366982288
 30
0.0
 10
39.2235080378
 20
80.7251089325
 30
0.0
 10
39.2450038543
 20
80.7251089325
 30
0.0
  0
SPLINE
  5
3F4
100
AcDbEntity
  8
0
100
AcDbSpline
 62
7
  6
CONTINUOUS
 70
0
 71
3
 72
8
 73
4
 74
0
 42
0.0000001
 43
0.0000001
 44
0.0000000001
 40
0.0
 40
0.0
 40
0.0
 40
0.0
 40
1.0
 40
1.0
 40
1.0
 40
1.0
 10
39.1209990862
 20
80.3730202359
 30
0.0
 10
39.1209990862
 20
80.3944568488
 30
0.0
 10
39.1255732176
 20
80.4167106036
 30
0.0
 10
39.1356237261
 20
80.4356451132
 30
0.0
  0
SPLINE
  5
3F5
100
AcDbEntity
  8
0
100
AcDbSpline
 62
7
  6
CONTINUOUS
 70
0
 71
3
 72
9
 73
5
 74
0
 42
0.0000001
 43
0.0000001
 44
0.0000000001
 40
0.0
 40
0.0
 40
0.0
 40
0.0
 40
0.500182216
 40
1.0
 40
1.0
 40
1.0
 40
1.0
 10
39.1356237261
 20
80.4356451132
 30
0.0
 10
39.1459112165
 20
80.4550260814
 30
0.0
 10
39.1785582697
 20
80.488040687
 30
0.0
 10
39.2230777723
 20
80.5001089325
 30
0.0
 10
39.2450038543
 20
80.5001089325
 30
0.0
  0
SPLINE
  5
3F6
100
AcDbEntity
  8
0
100
AcDbSpline
 62
7
  6
CONTINUOUS
 70
0
 71
3
 72
8
 73
4
 74
0
 42
0.0000001
 43
0.0000001
 44
0.0000000001
 40
0.0
 40
0.0
 40
0.0
 40
0.0
 40
1.0
 40
1.0
 40
1.0
 40
1.0
 10
39.1210336236
 20
80.3514645874
 30
0.0
 10
39.1210336236
 20
80.3293919591
 30
0.0
 10
39.126182716
 20
80.3064485977
 30
0.0
 10
39.1369746895
 20
80.2871941377
 30
0.0
  0
SPLINE
  5
3F7
100
AcDbEntity
  8
0
100
AcDbSpline
 62
7
  6
CONTINUOUS
 70
0
 71
3
 72
9
 73
5
 74
0
 42
0.0000001
 43
0.0000001
 44
0.0000000001
 40
0.0
 40
0.0
 40
0.0
 40
0.0
 40
0.4999399336
 40
1.0
 40
1.0
 40
1.0
 40
1.0
 10
39.1369746895
 20
80.2871941377
 30
0.0
 10
39.1474821173
 20
80.2684473487
 30
0.0
 10
39.1799101675
 20
80.2366982288
 30
0.0
 10
39.2235080378
 20
80.2251089325
 30
0.0
 10
39.2450038543
 20
80.2251089325
 30
0.0
  0
SPLINE
  5
3F8
100
AcDbEntity
  8
0
100
AcDbSpline
 62
7
  6
CONTINUOUS
 70
0
 71
3
 72
8
 73
4
 74
0
 42
0.0000001
 43
0.0000001
 44
0.0000000001
 40
0.0
 40
0.0
 40
0.0
 40
0.0
 40
1.0
 40
1.0
 40
1.0
 40
1.0
 10
39.1209990862
 20
79.8730202359
 30
0.0
 10
39.1209990862
 20
79.8944568488
 30
0.0
 10
39.1255732176
 20
79.9167106036
 30
0.0
 10
39.1356237261
 20
79.9356451132
 30
0.0
  0
SPLINE
  5
3F9
100
AcDbEntity
  8
0
100
AcDbSpline
 62
7
  6
CONTINUOUS
 70
0
 71
3
 72
9
 73
5
 74
0
 42
0.0000001
 43
0.0000001
 44
0.0000000001
 40
0.0
 40
0.0
 40
0.0
 40
0.0
 40
0.500182216
 40
1.0
 40
1.0
 40
1.0
 40
1.0
 10
39.1356237261
 20
79.9356451132
 30
0.0
 10
39.1459112165
 20
79.9550260814
 30
0.0
 10
39.1785582697
 20
79.988040687
 30
0.0
 10
39.2230777723
 20
80.0001089325
 30
0.0
 10
39.2450038543
 20
80.0001089325
 30
0.0
  0
SPLINE
  5
3FA
100
AcDbEntity
  8
0
100
AcDbSpline
 62
7
  6
CONTINUOUS
 70
0
 71
3
 72
8
 73
4
 74
0
 42
0.0000001
 43
0.0000001
 44
0.0000000001
 40
0.0
 40
0.0
 40
0.0
 40
0.0
 40
1.0
 40
1.0
 40
1.0
 40
1.0
 10
39.1210336236
 20
79.8514645874
 30
0.0
 10
39.1210336236
 20
79.8293919591
 30
0.0
 10
39.126182716
 20
79.8064485977
 30
0.0
 10
39.1369746895
 20
79.7871941377
 30
0.0
  0
SPLINE
  5
3FB
100
AcDbEntity
  8
0
100
AcDbSpline
 62
7
  6
CONTINUOUS
 70
0
 71
3
 72
9
 73
5
 74
0
 42
0.0000001
 43
0.0000001
 44
0.0000000001
 40
0.0
 40
0.0
 40
0.0
 40
0.0
 40
0.4999399336
 40
1.0
 40
1.0
 40
1.0
 40
1.0
 10
39.1369746895
 20
79.7871941377
 30
0.0
 10
39.1474821173
 20
79.7684473487
 30
0.0
 10
39.1799101675
 20
79.7366982288
 30
0.0
 10
39.2235080378
 20
79.7251089325
 30
0.0
 10
39.2450038543
 20
79.7251089325
 30
0.0
  0
SPLINE
  5
3FC
100
AcDbEntity
  8
0
100
AcDbSpline
 62
7
  6
CONTINUOUS
 70
0
 71
3
 72
8
 73
4
 74
0
 42
0.0000001
 43
0.0000001
 44
0.0000000001
 40
0.0
 40
0.0
 40
0.0
 40
0.0
 40
1.0
 40
1.0
 40
1.0
 40
1.0
 10
39.1209990862
 20
79.3730202359
 30
0.0
 10
39.1209990862
 20
79.3944568488
 30
0.0
 10
39.1255732176
 20
79.4167106036
 30
0.0
 10
39.1356237261
 20
79.4356451132
 30
0.0
  0
SPLINE
  5
3FD
100
AcDbEntity
  8
0
100
AcDbSpline
 62
7
  6
CONTINUOUS
 70
0
 71
3
 72
9
 73
5
 74
0
 42
0.0000001
 43
0.0000001
 44
0.0000000001
 40
0.0
 40
0.0
 40
0.0
 40
0.0
 40
0.500182216
 40
1.0
 40
1.0
 40
1.0
 40
1.0
 10
39.1356237261
 20
79.4356451132
 30
0.0
 10
39.1459112165
 20
79.4550260814
 30
0.0
 10
39.1785582697
 20
79.488040687
 30
0.0
 10
39.2230777723
 20
79.5001089325
 30
0.0
 10
39.2450038543
 20
79.5001089325
 30
0.0
  0
SPLINE
  5
3FE
100
AcDbEntity
  8
0
100
AcDbSpline
 62
7
  6
CONTINUOUS
 70
0
 71
3
 72
8
 73
4
 74
0
 42
0.0000001
 43
0.0000001
 44
0.0000000001
 40
0.0
 40
0.0
 40
0.0
 40
0.0
 40
1.0
 40
1.0
 40
1.0
 40
1.0
 10
39.1210336236
 20
79.3514645874
 30
0.0
 10
39.1210336236
 20
79.3293919591
 30
0.0
 10
39.126182716
 20
79.3064485977
 30
0.0
 10
39.1369746895
 20
79.2871941377
 30
0.0
  0
SPLINE
  5
3FF
100
AcDbEntity
  8
0
100
AcDbSpline
 62
7
  6
CONTINUOUS
 70
0
 71
3
 72
9
 73
5
 74
0
 42
0.0000001
 43
0.0000001
 44
0.0000000001
 40
0.0
 40
0.0
 40
0.0
 40
0.0
 40
0.4999399336
 40
1.0
 40
1.0
 40
1.0
 40
1.0
 10
39.1369746895
 20
79.2871941377
 30
0.0
 10
39.1474821173
 20
79.2684473487
 30
0.0
 10
39.1799101675
 20
79.2366982288
 30
0.0
 10
39.2235080378
 20
79.2251089325
 30
0.0
 10
39.2450038543
 20
79.2251089325
 30
0.0
  0
SPLINE
  5
400
100
AcDbEntity
  8
0
100
AcDbSpline
 62
7
  6
CONTINUOUS
 70
0
 71
3
 72
8
 73
4
 74
0
 42
0.0000001
 43
0.0000001
 44
0.0000000001
 40
0.0
 40
0.0
 40
0.0
 40
0.0
 40
1.0
 40
1.0
 40
1.0
 40
1.0
 10
39.1209990862
 20
78.8730202359
 30
0.0
 10
39.1209990862
 20
78.8944568488
 30
0.0
 10
39.1255732176
 20
78.9167106036
 30
0.0
 10
39.1356237261
 20
78.9356451132
 30
0.0
  0
SPLINE
  5
401
100
AcDbEntity
  8
0
100
AcDbSpline
 62
7
  6
CONTINUOUS
 70
0
 71
3
 72
9
 73
5
 74
0
 42
0.0000001
 43
0.0000001
 44
0.0000000001
 40
0.0
 40
0.0
 40
0.0
 40
0.0
 40
0.500182216
 40
1.0
 40
1.0
 40
1.0
 40
1.0
 10
39.1356237261
 20
78.9356451132
 30
0.0
 10
39.1459112165
 20
78.9550260814
 30
0.0
 10
39.1785582697
 20
78.988040687
 30
0.0
 10
39.2230777723
 20
79.0001089325
 30
0.0
 10
39.2450038543
 20
79.0001089325
 30
0.0
  0
SPLINE
  5
402
100
AcDbEntity
  8
0
100
AcDbSpline
 62
7
  6
CONTINUOUS
 70
0
 71
3
 72
8
 73
4
 74
0
 42
0.0000001
 43
0.0000001
 44
0.0000000001
 40
0.0
 40
0.0
 40
0.0
 40
0.0
 40
1.0
 40
1.0
 40
1.0
 40
1.0
 10
39.1210336236
 20
78.8514645874
 30
0.0
 10
39.1210336236
 20
78.8293919591
 30
0.0
 10
39.126182716
 20
78.8064485977
 30
0.0
 10
39.1369746895
 20
78.7871941377
 30
0.0
  0
SPLINE
  5
403
100
AcDbEntity
  8
0
100
AcDbSpline
 62
7
  6
CONTINUOUS
 70
0
 71
3
 72
9
 73
5
 74
0
 42
0.0000001
 43
0.0000001
 44
0.0000000001
 40
0.0
 40
0.0
 40
0.0
 40
0.0
 40
0.4999399336
 40
1.0
 40
1.0
 40
1.0
 40
1.0
 10
39.1369746895
 20
78.7871941377
 30
0.0
 10
39.1474821173
 20
78.7684473487
 30
0.0
 10
39.1799101675
 20
78.7366982288
 30
0.0
 10
39.2235080378
 20
78.7251089325
 30
0.0
 10
39.2450038543
 20
78.7251089325
 30
0.0
  0
SPLINE
  5
404
100
AcDbEntity
  8
0
100
AcDbSpline
 62
7
  6
CONTINUOUS
 70
0
 71
3
 72
8
 73
4
 74
0
 42
0.0000001
 43
0.0000001
 44
0.0000000001
 40
0.0
 40
0.0
 40
0.0
 40
0.0
 40
1.0
 40
1.0
 40
1.0
 40
1.0
 10
39.1209990862
 20
78.3730202359
 30
0.0
 10
39.1209990862
 20
78.3944568488
 30
0.0
 10
39.1255732176
 20
78.4167106036
 30
0.0
 10
39.1356237261
 20
78.4356451132
 30
0.0
  0
SPLINE
  5
405
100
AcDbEntity
  8
0
100
AcDbSpline
 62
7
  6
CONTINUOUS
 70
0
 71
3
 72
9
 73
5
 74
0
 42
0.0000001
 43
0.0000001
 44
0.0000000001
 40
0.0
 40
0.0
 40
0.0
 40
0.0
 40
0.500182216
 40
1.0
 40
1.0
 40
1.0
 40
1.0
 10
39.1356237261
 20
78.4356451132
 30
0.0
 10
39.1459112165
 20
78.4550260814
 30
0.0
 10
39.1785582697
 20
78.488040687
 30
0.0
 10
39.2230777723
 20
78.5001089325
 30
0.0
 10
39.2450038543
 20
78.5001089325
 30
0.0
  0
SPLINE
  5
406
100
AcDbEntity
  8
0
100
AcDbSpline
 62
7
  6
CONTINUOUS
 70
0
 71
3
 72
8
 73
4
 74
0
 42
0.0000001
 43
0.0000001
 44
0.0000000001
 40
0.0
 40
0.0
 40
0.0
 40
0.0
 40
1.0
 40
1.0
 40
1.0
 40
1.0
 10
39.1210336236
 20
78.3514645874
 30
0.0
 10
39.1210336236
 20
78.3293919591
 30
0.0
 10
39.126182716
 20
78.3064485977
 30
0.0
 10
39.1369746895
 20
78.2871941377
 30
0.0
  0
SPLINE
  5
407
100
AcDbEntity
  8
0
100
AcDbSpline
 62
7
  6
CONTINUOUS
 70
0
 71
3
 72
9
 73
5
 74
0
 42
0.0000001
 43
0.0000001
 44
0.0000000001
 40
0.0
 40
0.0
 40
0.0
 40
0.0
 40
0.4999399336
 40
1.0
 40
1.0
 40
1.0
 40
1.0
 10
39.1369746895
 20
78.2871941377
 30
0.0
 10
39.1474821173
 20
78.2684473487
 30
0.0
 10
39.1799101675
 20
78.2366982288
 30
0.0
 10
39.2235080378
 20
78.2251089325
 30
0.0
 10
39.2450038543
 20
78.2251089325
 30
0.0
  0
SPLINE
  5
408
100
AcDbEntity
  8
0
100
AcDbSpline
 62
7
  6
CONTINUOUS
 70
0
 71
3
 72
8
 73
4
 74
0
 42
0.0000001
 43
0.0000001
 44
0.0000000001
 40
0.0
 40
0.0
 40
0.0
 40
0.0
 40
1.0
 40
1.0
 40
1.0
 40
1.0
 10
39.1209990862
 20
77.8730202359
 30
0.0
 10
39.1209990862
 20
77.8944568488
 30
0.0
 10
39.1255732176
 20
77.9167106036
 30
0.0
 10
39.1356237261
 20
77.9356451132
 30
0.0
  0
SPLINE
  5
409
100
AcDbEntity
  8
0
100
AcDbSpline
 62
7
  6
CONTINUOUS
 70
0
 71
3
 72
9
 73
5
 74
0
 42
0.0000001
 43
0.0000001
 44
0.0000000001
 40
0.0
 40
0.0
 40
0.0
 40
0.0
 40
0.500182216
 40
1.0
 40
1.0
 40
1.0
 40
1.0
 10
39.1356237261
 20
77.9356451132
 30
0.0
 10
39.1459112165
 20
77.9550260814
 30
0.0
 10
39.1785582697
 20
77.988040687
 30
0.0
 10
39.2230777723
 20
78.0001089325
 30
0.0
 10
39.2450038543
 20
78.0001089325
 30
0.0
  0
SPLINE
  5
40A
100
AcDbEntity
  8
0
100
AcDbSpline
 62
7
  6
CONTINUOUS
 70
0
 71
3
 72
8
 73
4
 74
0
 42
0.0000001
 43
0.0000001
 44
0.0000000001
 40
0.0
 40
0.0
 40
0.0
 40
0.0
 40
1.0
 40
1.0
 40
1.0
 40
1.0
 10
39.1210336236
 20
77.8514645874
 30
0.0
 10
39.1210336236
 20
77.8293919591
 30
0.0
 10
39.126182716
 20
77.8064485977
 30
0.0
 10
39.1369746895
 20
77.7871941377
 30
0.0
  0
SPLINE
  5
40B
100
AcDbEntity
  8
0
100
AcDbSpline
 62
7
  6
CONTINUOUS
 70
0
 71
3
 72
9
 73
5
 74
0
 42
0.0000001
 43
0.0000001
 44
0.0000000001
 40
0.0
 40
0.0
 40
0.0
 40
0.0
 40
0.4999399336
 40
1.0
 40
1.0
 40
1.0
 40
1.0
 10
39.1369746895
 20
77.7871941377
 30
0.0
 10
39.1474821173
 20
77.7684473487
 30
0.0
 10
39.1799101675
 20
77.7366982288
 30
0.0
 10
39.2235080378
 20
77.7251089325
 30
0.0
 10
39.2450038543
 20
77.7251089325
 30
0.0
  0
SPLINE
  5
40C
100
AcDbEntity
  8
0
100
AcDbSpline
 62
7
  6
CONTINUOUS
 70
0
 71
3
 72
8
 73
4
 74
0
 42
0.0000001
 43
0.0000001
 44
0.0000000001
 40
0.0
 40
0.0
 40
0.0
 40
0.0
 40
1.0
 40
1.0
 40
1.0
 40
1.0
 10
39.1209990862
 20
77.3730202359
 30
0.0
 10
39.1209990862
 20
77.3944568488
 30
0.0
 10
39.1255732176
 20
77.4167106036
 30
0.0
 10
39.1356237261
 20
77.4356451132
 30
0.0
  0
SPLINE
  5
40D
100
AcDbEntity
  8
0
100
AcDbSpline
 62
7
  6
CONTINUOUS
 70
0
 71
3
 72
9
 73
5
 74
0
 42
0.0000001
 43
0.0000001
 44
0.0000000001
 40
0.0
 40
0.0
 40
0.0
 40
0.0
 40
0.500182216
 40
1.0
 40
1.0
 40
1.0
 40
1.0
 10
39.1356237261
 20
77.4356451132
 30
0.0
 10
39.1459112165
 20
77.4550260814
 30
0.0
 10
39.1785582697
 20
77.488040687
 30
0.0
 10
39.2230777723
 20
77.5001089325
 30
0.0
 10
39.2450038543
 20
77.5001089325
 30
0.0
  0
SPLINE
  5
40E
100
AcDbEntity
  8
0
100
AcDbSpline
 62
7
  6
CONTINUOUS
 70
0
 71
3
 72
8
 73
4
 74
0
 42
0.0000001
 43
0.0000001
 44
0.0000000001
 40
0.0
 40
0.0
 40
0.0
 40
0.0
 40
1.0
 40
1.0
 40
1.0
 40
1.0
 10
39.1210336236
 20
77.3514645874
 30
0.0
 10
39.1210336236
 20
77.3293919591
 30
0.0
 10
39.126182716
 20
77.3064485977
 30
0.0
 10
39.1369746895
 20
77.2871941377
 30
0.0
  0
SPLINE
  5
40F
100
AcDbEntity
  8
0
100
AcDbSpline
 62
7
  6
CONTINUOUS
 70
0
 71
3
 72
9
 73
5
 74
0
 42
0.0000001
 43
0.0000001
 44
0.0000000001
 40
0.0
 40
0.0
 40
0.0
 40
0.0
 40
0.4999399336
 40
1.0
 40
1.0
 40
1.0
 40
1.0
 10
39.1369746895
 20
77.2871941377
 30
0.0
 10
39.1474821173
 20
77.2684473487
 30
0.0
 10
39.1799101675
 20
77.2366982288
 30
0.0
 10
39.2235080378
 20
77.2251089325
 30
0.0
 10
39.2450038543
 20
77.2251089325
 30
0.0
  0
SPLINE
  5
410
100
AcDbEntity
  8
0
100
AcDbSpline
 62
7
  6
CONTINUOUS
 70
0
 71
3
 72
8
 73
4
 74
0
 42
0.0000001
 43
0.0000001
 44
0.0000000001
 40
0.0
 40
0.0
 40
0.0
 40
0.0
 40
1.0
 40
1.0
 40
1.0
 40
1.0
 10
39.1209990862
 20
76.8730202359
 30
0.0
 10
39.1209990862
 20
76.8944568488
 30
0.0
 10
39.1255732176
 20
76.9167106036
 30
0.0
 10
39.1356237261
 20
76.9356451132
 30
0.0
  0
SPLINE
  5
411
100
AcDbEntity
  8
0
100
AcDbSpline
 62
7
  6
CONTINUOUS
 70
0
 71
3
 72
9
 73
5
 74
0
 42
0.0000001
 43
0.0000001
 44
0.0000000001
 40
0.0
 40
0.0
 40
0.0
 40
0.0
 40
0.500182216
 40
1.0
 40
1.0
 40
1.0
 40
1.0
 10
39.1356237261
 20
76.9356451132
 30
0.0
 10
39.1459112165
 20
76.9550260814
 30
0.0
 10
39.1785582697
 20
76.988040687
 30
0.0
 10
39.2230777723
 20
77.0001089325
 30
0.0
 10
39.2450038543
 20
77.0001089325
 30
0.0
  0
SPLINE
  5
412
100
AcDbEntity
  8
0
100
AcDbSpline
 62
7
  6
CONTINUOUS
 70
0
 71
3
 72
8
 73
4
 74
0
 42
0.0000001
 43
0.0000001
 44
0.0000000001
 40
0.0
 40
0.0
 40
0.0
 40
0.0
 40
1.0
 40
1.0
 40
1.0
 40
1.0
 10
39.1210336236
 20
76.8514645874
 30
0.0
 10
39.1210336236
 20
76.8293919591
 30
0.0
 10
39.126182716
 20
76.8064485977
 30
0.0
 10
39.1369746895
 20
76.7871941377
 30
0.0
  0
SPLINE
  5
413
100
AcDbEntity
  8
0
100
AcDbSpline
 62
7
  6
CONTINUOUS
 70
0
 71
3
 72
9
 73
5
 74
0
 42
0.0000001
 43
0.0000001
 44
0.0000000001
 40
0.0
 40
0.0
 40
0.0
 40
0.0
 40
0.4999399336
 40
1.0
 40
1.0
 40
1.0
 40
1.0
 10
39.1369746895
 20
76.7871941377
 30
0.0
 10
39.1474821173
 20
76.7684473487
 30
0.0
 10
39.1799101675
 20
76.7366982288
 30
0.0
 10
39.2235080378
 20
76.7251089325
 30
0.0
 10
39.2450038543
 20
76.7251089325
 30
0.0
  0
SPLINE
  5
414
100
AcDbEntity
  8
0
100
AcDbSpline
 62
7
  6
CONTINUOUS
 70
0
 71
3
 72
8
 73
4
 74
0
 42
0.0000001
 43
0.0000001
 44
0.0000000001
 40
0.0
 40
0.0
 40
0.0
 40
0.0
 40
1.0
 40
1.0
 40
1.0
 40
1.0
 10
39.1209990862
 20
76.3730202359
 30
0.0
 10
39.1209990862
 20
76.3944568488
 30
0.0
 10
39.1255732176
 20
76.4167106036
 30
0.0
 10
39.1356237261
 20
76.4356451132
 30
0.0
  0
SPLINE
  5
415
100
AcDbEntity
  8
0
100
AcDbSpline
 62
7
  6
CONTINUOUS
 70
0
 71
3
 72
9
 73
5
 74
0
 42
0.0000001
 43
0.0000001
 44
0.0000000001
 40
0.0
 40
0.0
 40
0.0
 40
0.0
 40
0.500182216
 40
1.0
 40
1.0
 40
1.0
 40
1.0
 10
39.1356237261
 20
76.4356451132
 30
0.0
 10
39.1459112165
 20
76.4550260814
 30
0.0
 10
39.1785582697
 20
76.488040687
 30
0.0
 10
39.2230777723
 20
76.5001089325
 30
0.0
 10
39.2450038543
 20
76.5001089325
 30
0.0
  0
SPLINE
  5
416
100
AcDbEntity
  8
0
100
AcDbSpline
 62
7
  6
CONTINUOUS
 70
0
 71
3
 72
8
 73
4
 74
0
 42
0.0000001
 43
0.0000001
 44
0.0000000001
 40
0.0
 40
0.0
 40
0.0
 40
0.0
 40
1.0
 40
1.0
 40
1.0
 40
1.0
 10
39.1210336236
 20
76.3514645874
 30
0.0
 10
39.1210336236
 20
76.3293919591
 30
0.0
 10
39.126182716
 20
76.3064485977
 30
0.0
 10
39.1369746895
 20
76.2871941377
 30
0.0
  0
SPLINE
  5
417
100
AcDbEntity
  8
0
100
AcDbSpline
 62
7
  6
CONTINUOUS
 70
0
 71
3
 72
9
 73
5
 74
0
 42
0.0000001
 43
0.0000001
 44
0.0000000001
 40
0.0
 40
0.0
 40
0.0
 40
0.0
 40
0.4999399336
 40
1.0
 40
1.0
 40
1.0
 40
1.0
 10
39.1369746895
 20
76.2871941377
 30
0.0
 10
39.1474821173
 20
76.2684473487
 30
0.0
 10
39.1799101675
 20
76.2366982288
 30
0.0
 10
39.2235080378
 20
76.2251089325
 30
0.0
 10
39.2450038543
 20
76.2251089325
 30
0.0
  0
SPLINE
  5
418
100
AcDbEntity
  8
0
100
AcDbSpline
 62
7
  6
CONTINUOUS
 70
0
 71
3
 72
8
 73
4
 74
0
 42
0.0000001
 43
0.0000001
 44
0.0000000001
 40
0.0
 40
0.0
 40
0.0
 40
0.0
 40
1.0
 40
1.0
 40
1.0
 40
1.0
 10
39.1209990862
 20
75.8730202359
 30
0.0
 10
39.1209990862
 20
75.8944568488
 30
0.0
 10
39.1255732176
 20
75.9167106036
 30
0.0
 10
39.1356237261
 20
75.9356451132
 30
0.0
  0
SPLINE
  5
419
100
AcDbEntity
  8
0
100
AcDbSpline
 62
7
  6
CONTINUOUS
 70
0
 71
3
 72
9
 73
5
 74
0
 42
0.0000001
 43
0.0000001
 44
0.0000000001
 40
0.0
 40
0.0
 40
0.0
 40
0.0
 40
0.500182216
 40
1.0
 40
1.0
 40
1.0
 40
1.0
 10
39.1356237261
 20
75.9356451132
 30
0.0
 10
39.1459112165
 20
75.9550260814
 30
0.0
 10
39.1785582697
 20
75.988040687
 30
0.0
 10
39.2230777723
 20
76.0001089325
 30
0.0
 10
39.2450038543
 20
76.0001089325
 30
0.0
  0
SPLINE
  5
41A
100
AcDbEntity
  8
0
100
AcDbSpline
 62
7
  6
CONTINUOUS
 70
0
 71
3
 72
8
 73
4
 74
0
 42
0.0000001
 43
0.0000001
 44
0.0000000001
 40
0.0
 40
0.0
 40
0.0
 40
0.0
 40
1.0
 40
1.0
 40
1.0
 40
1.0
 10
39.1210336236
 20
75.8514645874
 30
0.0
 10
39.1210336236
 20
75.8293919591
 30
0.0
 10
39.126182716
 20
75.8064485977
 30
0.0
 10
39.1369746895
 20
75.7871941377
 30
0.0
  0
SPLINE
  5
41B
100
AcDbEntity
  8
0
100
AcDbSpline
 62
7
  6
CONTINUOUS
 70
0
 71
3
 72
9
 73
5
 74
0
 42
0.0000001
 43
0.0000001
 44
0.0000000001
 40
0.0
 40
0.0
 40
0.0
 40
0.0
 40
0.4999399336
 40
1.0
 40
1.0
 40
1.0
 40
1.0
 10
39.1369746895
 20
75.7871941377
 30
0.0
 10
39.1474821173
 20
75.7684473487
 30
0.0
 10
39.1799101675
 20
75.7366982288
 30
0.0
 10
39.2235080378
 20
75.7251089325
 30
0.0
 10
39.2450038543
 20
75.7251089325
 30
0.0
  0
SPLINE
  5
41C
100
AcDbEntity
  8
0
100
AcDbSpline
 62
7
  6
CONTINUOUS
 70
0
 71
3
 72
8
 73
4
 74
0
 42
0.0000001
 43
0.0000001
 44
0.0000000001
 40
0.0
 40
0.0
 40
0.0
 40
0.0
 40
1.0
 40
1.0
 40
1.0
 40
1.0
 10
39.1209990862
 20
75.3730202359
 30
0.0
 10
39.1209990862
 20
75.3944568488
 30
0.0
 10
39.1255732176
 20
75.4167106036
 30
0.0
 10
39.1356237261
 20
75.4356451132
 30
0.0
  0
SPLINE
  5
41D
100
AcDbEntity
  8
0
100
AcDbSpline
 62
7
  6
CONTINUOUS
 70
0
 71
3
 72
9
 73
5
 74
0
 42
0.0000001
 43
0.0000001
 44
0.0000000001
 40
0.0
 40
0.0
 40
0.0
 40
0.0
 40
0.500182216
 40
1.0
 40
1.0
 40
1.0
 40
1.0
 10
39.1356237261
 20
75.4356451132
 30
0.0
 10
39.1459112165
 20
75.4550260814
 30
0.0
 10
39.1785582697
 20
75.488040687
 30
0.0
 10
39.2230777723
 20
75.5001089325
 30
0.0
 10
39.2450038543
 20
75.5001089325
 30
0.0
  0
SPLINE
  5
41E
100
AcDbEntity
  8
0
100
AcDbSpline
 62
7
  6
CONTINUOUS
 70
0
 71
3
 72
8
 73
4
 74
0
 42
0.0000001
 43
0.0000001
 44
0.0000000001
 40
0.0
 40
0.0
 40
0.0
 40
0.0
 40
1.0
 40
1.0
 40
1.0
 40
1.0
 10
39.1210336236
 20
75.3514645874
 30
0.0
 10
39.1210336236
 20
75.3293919591
 30
0.0
 10
39.126182716
 20
75.3064485977
 30
0.0
 10
39.1369746895
 20
75.2871941377
 30
0.0
  0
SPLINE
  5
41F
100
AcDbEntity
  8
0
100
AcDbSpline
 62
7
  6
CONTINUOUS
 70
0
 71
3
 72
9
 73
5
 74
0
 42
0.0000001
 43
0.0000001
 44
0.0000000001
 40
0.0
 40
0.0
 40
0.0
 40
0.0
 40
0.4999399336
 40
1.0
 40
1.0
 40
1.0
 40
1.0
 10
39.1369746895
 20
75.2871941377
 30
0.0
 10
39.1474821173
 20
75.2684473487
 30
0.0
 10
39.1799101675
 20
75.2366982288
 30
0.0
 10
39.2235080378
 20
75.2251089325
 30
0.0
 10
39.2450038543
 20
75.2251089325
 30
0.0
  0
SPLINE
  5
420
100
AcDbEntity
  8
0
100
AcDbSpline
 62
7
  6
CONTINUOUS
 70
0
 71
3
 72
8
 73
4
 74
0
 42
0.0000001
 43
0.0000001
 44
0.0000000001
 40
0.0
 40
0.0
 40
0.0
 40
0.0
 40
1.0
 40
1.0
 40
1.0
 40
1.0
 10
39.1209990862
 20
74.8730202359
 30
0.0
 10
39.1209990862
 20
74.8944568488
 30
0.0
 10
39.1255732176
 20
74.9167106036
 30
0.0
 10
39.1356237261
 20
74.9356451132
 30
0.0
  0
SPLINE
  5
421
100
AcDbEntity
  8
0
100
AcDbSpline
 62
7
  6
CONTINUOUS
 70
0
 71
3
 72
9
 73
5
 74
0
 42
0.0000001
 43
0.0000001
 44
0.0000000001
 40
0.0
 40
0.0
 40
0.0
 40
0.0
 40
0.500182216
 40
1.0
 40
1.0
 40
1.0
 40
1.0
 10
39.1356237261
 20
74.9356451132
 30
0.0
 10
39.1459112165
 20
74.9550260814
 30
0.0
 10
39.1785582697
 20
74.988040687
 30
0.0
 10
39.2230777723
 20
75.0001089325
 30
0.0
 10
39.2450038543
 20
75.0001089325
 30
0.0
  0
SPLINE
  5
422
100
AcDbEntity
  8
0
100
AcDbSpline
 62
7
  6
CONTINUOUS
 70
0
 71
3
 72
8
 73
4
 74
0
 42
0.0000001
 43
0.0000001
 44
0.0000000001
 40
0.0
 40
0.0
 40
0.0
 40
0.0
 40
1.0
 40
1.0
 40
1.0
 40
1.0
 10
39.1210336236
 20
74.8514645874
 30
0.0
 10
39.1210336236
 20
74.8293919591
 30
0.0
 10
39.126182716
 20
74.8064485977
 30
0.0
 10
39.1369746895
 20
74.7871941377
 30
0.0
  0
SPLINE
  5
423
100
AcDbEntity
  8
0
100
AcDbSpline
 62
7
  6
CONTINUOUS
 70
0
 71
3
 72
9
 73
5
 74
0
 42
0.0000001
 43
0.0000001
 44
0.0000000001
 40
0.0
 40
0.0
 40
0.0
 40
0.0
 40
0.4999399336
 40
1.0
 40
1.0
 40
1.0
 40
1.0
 10
39.1369746895
 20
74.7871941377
 30
0.0
 10
39.1474821173
 20
74.7684473487
 30
0.0
 10
39.1799101675
 20
74.7366982288
 30
0.0
 10
39.2235080378
 20
74.7251089325
 30
0.0
 10
39.2450038543
 20
74.7251089325
 30
0.0
  0
SPLINE
  5
424
100
AcDbEntity
  8
0
100
AcDbSpline
 62
7
  6
CONTINUOUS
 70
0
 71
3
 72
8
 73
4
 74
0
 42
0.0000001
 43
0.0000001
 44
0.0000000001
 40
0.0
 40
0.0
 40
0.0
 40
0.0
 40
1.0
 40
1.0
 40
1.0
 40
1.0
 10
39.1209990862
 20
74.3730202359
 30
0.0
 10
39.1209990862
 20
74.3944568488
 30
0.0
 10
39.1255732176
 20
74.4167106036
 30
0.0
 10
39.1356237261
 20
74.4356451132
 30
0.0
  0
SPLINE
  5
425
100
AcDbEntity
  8
0
100
AcDbSpline
 62
7
  6
CONTINUOUS
 70
0
 71
3
 72
9
 73
5
 74
0
 42
0.0000001
 43
0.0000001
 44
0.0000000001
 40
0.0
 40
0.0
 40
0.0
 40
0.0
 40
0.500182216
 40
1.0
 40
1.0
 40
1.0
 40
1.0
 10
39.1356237261
 20
74.4356451132
 30
0.0
 10
39.1459112165
 20
74.4550260814
 30
0.0
 10
39.1785582697
 20
74.488040687
 30
0.0
 10
39.2230777723
 20
74.5001089325
 30
0.0
 10
39.2450038543
 20
74.5001089325
 30
0.0
  0
SPLINE
  5
426
100
AcDbEntity
  8
0
100
AcDbSpline
 62
7
  6
CONTINUOUS
 70
0
 71
3
 72
8
 73
4
 74
0
 42
0.0000001
 43
0.0000001
 44
0.0000000001
 40
0.0
 40
0.0
 40
0.0
 40
0.0
 40
1.0
 40
1.0
 40
1.0
 40
1.0
 10
39.1210336236
 20
74.3514645874
 30
0.0
 10
39.1210336236
 20
74.3293919591
 30
0.0
 10
39.126182716
 20
74.3064485977
 30
0.0
 10
39.1369746895
 20
74.2871941377
 30
0.0
  0
SPLINE
  5
427
100
AcDbEntity
  8
0
100
AcDbSpline
 62
7
  6
CONTINUOUS
 70
0
 71
3
 72
9
 73
5
 74
0
 42
0.0000001
 43
0.0000001
 44
0.0000000001
 40
0.0
 40
0.0
 40
0.0
 40
0.0
 40
0.4999399336
 40
1.0
 40
1.0
 40
1.0
 40
1.0
 10
39.1369746895
 20
74.2871941377
 30
0.0
 10
39.1474821173
 20
74.2684473487
 30
0.0
 10
39.1799101675
 20
74.2366982288
 30
0.0
 10
39.2235080378
 20
74.2251089325
 30
0.0
 10
39.2450038543
 20
74.2251089325
 30
0.0
  0
SPLINE
  5
428
100
AcDbEntity
  8
0
100
AcDbSpline
 62
7
  6
CONTINUOUS
 70
0
 71
3
 72
8
 73
4
 74
0
 42
0.0000001
 43
0.0000001
 44
0.0000000001
 40
0.0
 40
0.0
 40
0.0
 40
0.0
 40
1.0
 40
1.0
 40
1.0
 40
1.0
 10
39.1209990862
 20
73.8730202359
 30
0.0
 10
39.1209990862
 20
73.8944568488
 30
0.0
 10
39.1255732176
 20
73.9167106036
 30
0.0
 10
39.1356237261
 20
73.9356451132
 30
0.0
  0
SPLINE
  5
429
100
AcDbEntity
  8
0
100
AcDbSpline
 62
7
  6
CONTINUOUS
 70
0
 71
3
 72
9
 73
5
 74
0
 42
0.0000001
 43
0.0000001
 44
0.0000000001
 40
0.0
 40
0.0
 40
0.0
 40
0.0
 40
0.500182216
 40
1.0
 40
1.0
 40
1.0
 40
1.0
 10
39.1356237261
 20
73.9356451132
 30
0.0
 10
39.1459112165
 20
73.9550260814
 30
0.0
 10
39.1785582697
 20
73.988040687
 30
0.0
 10
39.2230777723
 20
74.0001089325
 30
0.0
 10
39.2450038543
 20
74.0001089325
 30
0.0
  0
SPLINE
  5
42A
100
AcDbEntity
  8
0
100
AcDbSpline
 62
7
  6
CONTINUOUS
 70
0
 71
3
 72
8
 73
4
 74
0
 42
0.0000001
 43
0.0000001
 44
0.0000000001
 40
0.0
 40
0.0
 40
0.0
 40
0.0
 40
1.0
 40
1.0
 40
1.0
 40
1.0
 10
39.1210336236
 20
73.8514645874
 30
0.0
 10
39.1210336236
 20
73.8293919591
 30
0.0
 10
39.126182716
 20
73.8064485977
 30
0.0
 10
39.1369746895
 20
73.7871941377
 30
0.0
  0
SPLINE
  5
42B
100
AcDbEntity
  8
0
100
AcDbSpline
 62
7
  6
CONTINUOUS
 70
0
 71
3
 72
9
 73
5
 74
0
 42
0.0000001
 43
0.0000001
 44
0.0000000001
 40
0.0
 40
0.0
 40
0.0
 40
0.0
 40
0.4999399336
 40
1.0
 40
1.0
 40
1.0
 40
1.0
 10
39.1369746895
 20
73.7871941377
 30
0.0
 10
39.1474821173
 20
73.7684473487
 30
0.0
 10
39.1799101675
 20
73.7366982288
 30
0.0
 10
39.2235080378
 20
73.7251089325
 30
0.0
 10
39.2450038543
 20
73.7251089325
 30
0.0
  0
SPLINE
  5
42C
100
AcDbEntity
  8
0
100
AcDbSpline
 62
7
  6
CONTINUOUS
 70
0
 71
3
 72
8
 73
4
 74
0
 42
0.0000001
 43
0.0000001
 44
0.0000000001
 40
0.0
 40
0.0
 40
0.0
 40
0.0
 40
1.0
 40
1.0
 40
1.0
 40
1.0
 10
39.1209990862
 20
73.3730202359
 30
0.0
 10
39.1209990862
 20
73.3944568488
 30
0.0
 10
39.1255732176
 20
73.4167106036
 30
0.0
 10
39.1356237261
 20
73.4356451132
 30
0.0
  0
SPLINE
  5
42D
100
AcDbEntity
  8
0
100
AcDbSpline
 62
7
  6
CONTINUOUS
 70
0
 71
3
 72
9
 73
5
 74
0
 42
0.0000001
 43
0.0000001
 44
0.0000000001
 40
0.0
 40
0.0
 40
0.0
 40
0.0
 40
0.500182216
 40
1.0
 40
1.0
 40
1.0
 40
1.0
 10
39.1356237261
 20
73.4356451132
 30
0.0
 10
39.1459112165
 20
73.4550260814
 30
0.0
 10
39.1785582697
 20
73.488040687
 30
0.0
 10
39.2230777723
 20
73.5001089325
 30
0.0
 10
39.2450038543
 20
73.5001089325
 30
0.0
  0
SPLINE
  5
42E
100
AcDbEntity
  8
0
100
AcDbSpline
 62
7
  6
CONTINUOUS
 70
0
 71
3
 72
8
 73
4
 74
0
 42
0.0000001
 43
0.0000001
 44
0.0000000001
 40
0.0
 40
0.0
 40
0.0
 40
0.0
 40
1.0
 40
1.0
 40
1.0
 40
1.0
 10
39.1210336236
 20
73.3514645874
 30
0.0
 10
39.1210336236
 20
73.3293919591
 30
0.0
 10
39.126182716
 20
73.3064485977
 30
0.0
 10
39.1369746895
 20
73.2871941377
 30
0.0
  0
SPLINE
  5
42F
100
AcDbEntity
  8
0
100
AcDbSpline
 62
7
  6
CONTINUOUS
 70
0
 71
3
 72
9
 73
5
 74
0
 42
0.0000001
 43
0.0000001
 44
0.0000000001
 40
0.0
 40
0.0
 40
0.0
 40
0.0
 40
0.4999399336
 40
1.0
 40
1.0
 40
1.0
 40
1.0
 10
39.1369746895
 20
73.2871941377
 30
0.0
 10
39.1474821173
 20
73.2684473487
 30
0.0
 10
39.1799101675
 20
73.2366982288
 30
0.0
 10
39.2235080378
 20
73.2251089325
 30
0.0
 10
39.2450038543
 20
73.2251089325
 30
0.0
  0
SPLINE
  5
430
100
AcDbEntity
  8
0
100
AcDbSpline
 62
7
  6
CONTINUOUS
 70
0
 71
3
 72
8
 73
4
 74
0
 42
0.0000001
 43
0.0000001
 44
0.0000000001
 40
0.0
 40
0.0
 40
0.0
 40
0.0
 40
1.0
 40
1.0
 40
1.0
 40
1.0
 10
39.1209990862
 20
72.8730202359
 30
0.0
 10
39.1209990862
 20
72.8944568488
 30
0.0
 10
39.1255732176
 20
72.9167106036
 30
0.0
 10
39.1356237261
 20
72.9356451132
 30
0.0
  0
SPLINE
  5
431
100
AcDbEntity
  8
0
100
AcDbSpline
 62
7
  6
CONTINUOUS
 70
0
 71
3
 72
9
 73
5
 74
0
 42
0.0000001
 43
0.0000001
 44
0.0000000001
 40
0.0
 40
0.0
 40
0.0
 40
0.0
 40
0.500182216
 40
1.0
 40
1.0
 40
1.0
 40
1.0
 10
39.1356237261
 20
72.9356451132
 30
0.0
 10
39.1459112165
 20
72.9550260814
 30
0.0
 10
39.1785582697
 20
72.988040687
 30
0.0
 10
39.2230777723
 20
73.0001089325
 30
0.0
 10
39.2450038543
 20
73.0001089325
 30
0.0
  0
SPLINE
  5
432
100
AcDbEntity
  8
0
100
AcDbSpline
 62
7
  6
CONTINUOUS
 70
0
 71
3
 72
8
 73
4
 74
0
 42
0.0000001
 43
0.0000001
 44
0.0000000001
 40
0.0
 40
0.0
 40
0.0
 40
0.0
 40
1.0
 40
1.0
 40
1.0
 40
1.0
 10
39.1210336236
 20
72.8514645874
 30
0.0
 10
39.1210336236
 20
72.8293919591
 30
0.0
 10
39.126182716
 20
72.8064485977
 30
0.0
 10
39.1369746895
 20
72.7871941377
 30
0.0
  0
SPLINE
  5
433
100
AcDbEntity
  8
0
100
AcDbSpline
 62
7
  6
CONTINUOUS
 70
0
 71
3
 72
9
 73
5
 74
0
 42
0.0000001
 43
0.0000001
 44
0.0000000001
 40
0.0
 40
0.0
 40
0.0
 40
0.0
 40
0.4999399336
 40
1.0
 40
1.0
 40
1.0
 40
1.0
 10
39.1369746895
 20
72.7871941377
 30
0.0
 10
39.1474821173
 20
72.7684473487
 30
0.0
 10
39.1799101675
 20
72.7366982288
 30
0.0
 10
39.2235080378
 20
72.7251089325
 30
0.0
 10
39.2450038543
 20
72.7251089325
 30
0.0
  0
SPLINE
  5
434
100
AcDbEntity
  8
0
100
AcDbSpline
 62
7
  6
CONTINUOUS
 70
0
 71
3
 72
8
 73
4
 74
0
 42
0.0000001
 43
0.0000001
 44
0.0000000001
 40
0.0
 40
0.0
 40
0.0
 40
0.0
 40
1.0
 40
1.0
 40
1.0
 40
1.0
 10
39.1209990862
 20
72.3730202359
 30
0.0
 10
39.1209990862
 20
72.3944568488
 30
0.0
 10
39.1255732176
 20
72.4167106036
 30
0.0
 10
39.1356237261
 20
72.4356451132
 30
0.0
  0
SPLINE
  5
435
100
AcDbEntity
  8
0
100
AcDbSpline
 62
7
  6
CONTINUOUS
 70
0
 71
3
 72
9
 73
5
 74
0
 42
0.0000001
 43
0.0000001
 44
0.0000000001
 40
0.0
 40
0.0
 40
0.0
 40
0.0
 40
0.500182216
 40
1.0
 40
1.0
 40
1.0
 40
1.0
 10
39.1356237261
 20
72.4356451132
 30
0.0
 10
39.1459112165
 20
72.4550260814
 30
0.0
 10
39.1785582697
 20
72.488040687
 30
0.0
 10
39.2230777723
 20
72.5001089325
 30
0.0
 10
39.2450038543
 20
72.5001089325
 30
0.0
  0
SPLINE
  5
436
100
AcDbEntity
  8
0
100
AcDbSpline
 62
7
  6
CONTINUOUS
 70
0
 71
3
 72
8
 73
4
 74
0
 42
0.0000001
 43
0.0000001
 44
0.0000000001
 40
0.0
 40
0.0
 40
0.0
 40
0.0
 40
1.0
 40
1.0
 40
1.0
 40
1.0
 10
39.1210336236
 20
72.3514645874
 30
0.0
 10
39.1210336236
 20
72.3293919591
 30
0.0
 10
39.126182716
 20
72.3064485977
 30
0.0
 10
39.1369746895
 20
72.2871941377
 30
0.0
  0
SPLINE
  5
437
100
AcDbEntity
  8
0
100
AcDbSpline
 62
7
  6
CONTINUOUS
 70
0
 71
3
 72
9
 73
5
 74
0
 42
0.0000001
 43
0.0000001
 44
0.0000000001
 40
0.0
 40
0.0
 40
0.0
 40
0.0
 40
0.4999399336
 40
1.0
 40
1.0
 40
1.0
 40
1.0
 10
39.1369746895
 20
72.2871941377
 30
0.0
 10
39.1474821173
 20
72.2684473487
 30
0.0
 10
39.1799101675
 20
72.2366982288
 30
0.0
 10
39.2235080378
 20
72.2251089325
 30
0.0
 10
39.2450038543
 20
72.2251089325
 30
0.0
  0
SPLINE
  5
438
100
AcDbEntity
  8
0
100
AcDbSpline
 62
7
  6
CONTINUOUS
 70
0
 71
3
 72
11
 73
7
 74
0
 42
0.0000001
 43
0.0000001
 44
0.0000000001
 40
0.0
 40
0.0
 40
0.0
 40
0.0
 40
0.2565102334
 40
0.5092390173
 40
0.7565517191
 40
1.0
 40
1.0
 40
1.0
 40
1.0
 10
68.8788020522
 20
33.8751089325
 30
0.0
 10
68.8788020522
 20
33.9400117972
 30
0.0
 10
68.8546612389
 20
34.0701607991
 30
0.0
 10
68.7505308452
 20
34.2362151338
 30
0.0
 10
68.5934974096
 20
34.3485338549
 30
0.0
 10
68.4678660045
 20
34.3750981663
 30
0.0
 10
68.406268108
 20
34.3750953134
 30
0.0
  0
SPLINE
  5
439
100
AcDbEntity
  8
0
100
AcDbSpline
 62
7
  6
CONTINUOUS
 70
0
 71
3
 72
12
 73
8
 74
0
 42
0.0000001
 43
0.0000001
 44
0.0000000001
 40
0.0
 40
0.0
 40
0.0
 40
0.0
 40
0.1866498105
 40
0.4200818584
 40
0.6962825874
 40
0.8464529387
 40
1.0
 40
1.0
 40
1.0
 40
1.0
 10
71.2123431715
 20
33.8751089325
 30
0.0
 10
71.2123431739
 20
33.9221907394
 30
0.0
 10
71.1982008589
 20
34.028635903
 30
0.0
 10
71.1231413894
 20
34.191023815
 30
0.0
 10
70.9965616067
 20
34.3082466327
 30
0.0
 10
70.8602037709
 20
34.3647585489
 30
0.0
 10
70.7831876784
 20
34.3751089316
 30
0.0
 10
70.7444559322
 20
34.3751089325
 30
0.0
  0
SPLINE
  5
43A
100
AcDbEntity
  8
0
100
AcDbSpline
 62
7
  6
CONTINUOUS
 70
0
 71
3
 72
13
 73
9
 74
0
 42
0.0000001
 43
0.0000001
 44
0.0000000001
 40
0.0
 40
0.0
 40
0.0
 40
0.0
 40
0.2118661989
 40
0.466423278
 40
0.6030926355
 40
0.7394798906
 40
0.8717766093
 40
1.0
 40
1.0
 40
1.0
 40
1.0
 10
72.0123609645
 20
33.8751089325
 30
0.0
 10
72.0123609645
 20
33.8282224118
 30
0.0
 10
72.0025515044
 20
33.7248378194
 30
0.0
 10
71.9604518163
 20
33.5962266145
 30
0.0
 10
71.8984891398
 20
33.4965241366
 30
0.0
 10
71.8355882837
 20
33.4313367249
 30
0.0
 10
71.7587099767
 20
33.3861602897
 30
0.0
 10
71.7005971561
 20
33.3751089324
 30
0.0
 10
71.6722209985
 20
33.3751089325
 30
0.0
  0
SPLINE
  5
43B
100
AcDbEntity
  8
0
100
AcDbSpline
 62
7
  6
CONTINUOUS
 70
0
 71
3
 72
9
 73
5
 74
0
 42
0.0000001
 43
0.0000001
 44
0.0000000001
 40
0.0
 40
0.0
 40
0.0
 40
0.0
 40
0.5168610515
 40
1.0
 40
1.0
 40
1.0
 40
1.0
 10
53.4092838591
 20
50.9693262738
 30
0.0
 10
53.3757672971
 20
50.9627220608
 30
0.0
 10
53.3127105828
 20
50.9392133934
 30
0.0
 10
53.2588060004
 20
50.8996953377
 30
0.0
 10
53.2355256357
 20
50.8778391866
 30
0.0
  0
SPLINE
  5
43C
100
AcDbEntity
  8
0
100
AcDbSpline
 62
7
  6
CONTINUOUS
 70
0
 71
3
 72
9
 73
5
 74
0
 42
0.0000001
 43
0.0000001
 44
0.0000000001
 40
0.0
 40
0.0
 40
0.0
 40
0.0
 40
0.2655355625
 40
1.0
 40
1.0
 40
1.0
 40
1.0
 10
53.2355256357
 20
50.8778391866
 30
0.0
 10
53.2227223942
 20
50.8658192039
 30
0.0
 10
53.177499127
 20
50.8174449724
 30
0.0
 10
53.14424123
 20
50.7580381004
 30
0.0
 10
53.1286705849
 20
50.7120269451
 30
0.0
  0
SPLINE
  5
43D
100
AcDbEntity
  8
0
100
AcDbSpline
 62
7
  6
CONTINUOUS
 70
0
 71
3
 72
11
 73
7
 74
0
 42
0.0000001
 43
0.0000001
 44
0.0000000001
 40
0.0
 40
0.0
 40
0.0
 40
0.0
 40
0.2434301036
 40
0.4907413448
 40
0.7434908595
 40
1.0
 40
1.0
 40
1.0
 40
1.0
 10
68.4062680996
 20
33.3751225516
 30
0.0
 10
68.467861307
 20
33.3751254042
 30
0.0
 10
68.5934865391
 20
33.4016804066
 30
0.0
 10
68.7505251439
 20
33.5139951635
 30
0.0
 10
68.8546586925
 20
33.6800530487
 30
0.0
 10
68.8788020522
 20
33.8102064391
 30
0.0
 10
68.8788020522
 20
33.8751089325
 30
0.0
  0
SPLINE
  5
43E
100
AcDbEntity
  8
0
100
AcDbSpline
 62
7
  6
CONTINUOUS
 70
0
 71
3
 72
12
 73
8
 74
0
 42
0.0000001
 43
0.0000001
 44
0.0000000001
 40
0.0
 40
0.0
 40
0.0
 40
0.0
 40
0.153547058
 40
0.303717408
 40
0.5799181388
 40
0.813350189
 40
1.0
 40
1.0
 40
1.0
 40
1.0
 10
70.7444559847
 20
33.3751089325
 30
0.0
 10
70.7831877289
 20
33.375108936
 30
0.0
 10
70.8602038173
 20
33.3854593233
 30
0.0
 10
70.9965616453
 20
33.4419712449
 30
0.0
 10
71.1231414214
 20
33.5591940614
 30
0.0
 10
71.198200894
 20
33.7215819666
 30
0.0
 10
71.2123432159
 20
33.8280271268
 30
0.0
 10
71.2123432171
 20
33.8751089325
 30
0.0
  0
SPLINE
  5
43F
100
AcDbEntity
  8
0
100
AcDbSpline
 62
7
  6
CONTINUOUS
 70
0
 71
3
 72
13
 73
9
 74
0
 42
0.0000001
 43
0.0000001
 44
0.0000000001
 40
0.0
 40
0.0
 40
0.0
 40
0.0
 40
0.1282233907
 40
0.2605201096
 40
0.3969073648
 40
0.5335767225
 40
0.7881338015
 40
1.0
 40
1.0
 40
1.0
 40
1.0
 10
71.6722209854
 20
34.3751089325
 30
0.0
 10
71.7005971431
 20
34.3751089325
 30
0.0
 10
71.7587099637
 20
34.3640575749
 30
0.0
 10
71.8355882708
 20
34.3188811396
 30
0.0
 10
71.8984891272
 20
34.2536937279
 30
0.0
 10
71.9604518042
 20
34.1539912501
 30
0.0
 10
72.0025514932
 20
34.0253800454
 30
0.0
 10
72.0123609541
 20
33.9219954531
 30
0.0
 10
72.0123609544
 20
33.8751089325
 30
0.0
  0
SPLINE
  5
440
100
AcDbEntity
  8
0
100
AcDbSpline
 62
7
  6
CONTINUOUS
 70
0
 71
3
 72
11
 73
7
 74
0
 42
0.0000001
 43
0.0000001
 44
0.0000000001
 40
0.0
 40
0.0
 40
0.0
 40
0.0
 40
0.2500275571
 40
0.5
 40
0.7499724429
 40
1.0
 40
1.0
 40
1.0
 40
1.0
 10
42.7747532964
 20
64.9751089325
 30
0.0
 10
42.7760402856
 20
64.91008534
 30
0.0
 10
42.800196715
 20
64.778544062
 30
0.0
 10
42.9122103171
 20
64.6125659532
 30
0.0
 10
43.0781884258
 20
64.5005523511
 30
0.0
 10
43.2097297039
 20
64.4763959217
 30
0.0
 10
43.2747532964
 20
64.4751089325
 30
0.0
  0
SPLINE
  5
441
100
AcDbEntity
  8
0
100
AcDbSpline
 62
7
  6
CONTINUOUS
 70
0
 71
3
 72
11
 73
7
 74
0
 42
0.0000001
 43
0.0000001
 44
0.0000000001
 40
0.0
 40
0.0
 40
0.0
 40
0.0
 40
0.2500275571
 40
0.5
 40
0.7499724429
 40
1.0
 40
1.0
 40
1.0
 40
1.0
 10
47.2747532964
 20
64.4751089325
 30
0.0
 10
47.3397768888
 20
64.4763959217
 30
0.0
 10
47.4713181669
 20
64.5005523511
 30
0.0
 10
47.6372962756
 20
64.6125659532
 30
0.0
 10
47.7493098777
 20
64.778544062
 30
0.0
 10
47.7734663071
 20
64.91008534
 30
0.0
 10
47.7747532964
 20
64.9751089325
 30
0.0
  0
SPLINE
  5
442
100
AcDbEntity
  8
0
100
AcDbSpline
 62
7
  6
CONTINUOUS
 70
0
 71
3
 72
11
 73
7
 74
0
 42
0.0000001
 43
0.0000001
 44
0.0000000001
 40
0.0
 40
0.0
 40
0.0
 40
0.0
 40
0.2500275571
 40
0.5
 40
0.7499724429
 40
1.0
 40
1.0
 40
1.0
 40
1.0
 10
47.7747532964
 20
69.9751089325
 30
0.0
 10
47.7734663071
 20
70.0401325249
 30
0.0
 10
47.7493098777
 20
70.171673803
 30
0.0
 10
47.6372962756
 20
70.3376519118
 30
0.0
 10
47.4713181669
 20
70.4496655138
 30
0.0
 10
47.3397768888
 20
70.4738219432
 30
0.0
 10
47.2747532964
 20
70.4751089325
 30
0.0
  0
SPLINE
  5
443
100
AcDbEntity
  8
0
100
AcDbSpline
 62
7
  6
CONTINUOUS
 70
0
 71
3
 72
11
 73
7
 74
0
 42
0.0000001
 43
0.0000001
 44
0.0000000001
 40
0.0
 40
0.0
 40
0.0
 40
0.0
 40
0.2500275571
 40
0.5
 40
0.7499724429
 40
1.0
 40
1.0
 40
1.0
 40
1.0
 10
43.2747532963
 20
70.4751089325
 30
0.0
 10
43.2097297039
 20
70.4738219432
 30
0.0
 10
43.0781884258
 20
70.4496655138
 30
0.0
 10
42.912210317
 20
70.3376519117
 30
0.0
 10
42.800196715
 20
70.1716738029
 30
0.0
 10
42.7760402856
 20
70.0401325249
 30
0.0
 10
42.7747532964
 20
69.9751089324
 30
0.0
  0
SPLINE
  5
444
100
AcDbEntity
  8
0
100
AcDbSpline
 62
7
  6
CONTINUOUS
 70
0
 71
3
 72
22
 73
18
 74
0
 42
0.0000001
 43
0.0000001
 44
0.0000000001
 40
0.0
 40
0.0
 40
0.0
 40
0.0
 40
0.001349234
 40
0.0052825826
 40
0.0117458382
 40
0.0206738866
 40
0.0320003838
 40
0.0456586502
 40
0.0797031766
 40
0.1222724522
 40
0.1728310794
 40
0.2308435318
 40
0.2957742238
 40
0.4442478299
 40
0.6139668093
 40
0.8006459474
 40
1.0
 40
1.0
 40
1.0
 40
1.0
 10
66.3942708568
 20
97.5785994156
 30
0.0
 10
66.3942657188
 20
97.5789141594
 30
0.0
 10
66.3923296606
 20
97.5785565313
 30
0.0
 10
66.3902631591
 20
97.579142817
 30
0.0
 10
66.3853809466
 20
97.579028538
 30
0.0
 10
66.3793119647
 20
97.5792708662
 30
0.0
 10
66.3713387847
 20
97.5793531436
 30
0.0
 10
66.3575966263
 20
97.5795369486
 30
0.0
 10
66.3365176916
 20
97.5796902293
 30
0.0
 10
66.306855605
 20
97.5798440158
 30
0.0
 10
66.2715909424
 20
97.5799483007
 30
0.0
 10
66.2311126896
 20
97.5800123166
 30
0.0
 10
66.1677888994
 20
97.5800395458
 30
0.0
 10
66.0784037643
 20
97.5799522624
 30
0.0
 10
65.9606138671
 20
97.5796806018
 30
0.0
 10
65.8309537624
 20
97.5792347542
 30
0.0
 10
65.7408903962
 20
97.5788312802
 30
0.0
 10
65.6943802783
 20
97.5785994488
 30
0.0
  0
SPLINE
  5
445
100
AcDbEntity
  8
0
100
AcDbSpline
 62
7
  6
CONTINUOUS
 70
0
 71
3
 72
9
 73
5
 74
0
 42
0.0000001
 43
0.0000001
 44
0.0000000001
 40
0.0
 40
0.0
 40
0.0
 40
0.0
 40
0.4999298998
 40
1.0
 40
1.0
 40
1.0
 40
1.0
 10
65.7432916534
 20
94.7766361317
 30
0.0
 10
65.7472181974
 20
94.7766352293
 30
0.0
 10
65.7549073262
 20
94.7743593803
 30
0.0
 10
65.7628278654
 20
94.774847689
 30
0.0
 10
65.7667468805
 20
94.7751079143
 30
0.0
  0
LINE
  5
446
100
AcDbEntity
  8
0
100
AcDbLine
 62
7
  6
CONTINUOUS
 10
65.7667393218
 20
94.7751038417
 11
65.8914517261
 21
94.7751089325
  0
SPLINE
  5
447
100
AcDbEntity
  8
0
100
AcDbSpline
 62
7
  6
CONTINUOUS
 70
0
 71
3
 72
9
 73
5
 74
0
 42
0.0000001
 43
0.0000001
 44
0.0000000001
 40
0.0
 40
0.0
 40
0.0
 40
0.0
 40
0.4997636909
 40
1.0
 40
1.0
 40
1.0
 40
1.0
 10
39.2450038543
 20
88.9751089325
 30
0.0
 10
39.2259113712
 20
88.9751089325
 30
0.0
 10
39.1867888159
 20
88.9664077339
 30
0.0
 10
39.1574497563
 20
88.9399712412
 30
0.0
 10
39.1451598536
 20
88.9253366596
 30
0.0
  0
SPLINE
  5
448
100
AcDbEntity
  8
0
100
AcDbSpline
 62
7
  6
CONTINUOUS
 70
0
 71
3
 72
9
 73
5
 74
0
 42
0.0000001
 43
0.0000001
 44
0.0000000001
 40
0.0
 40
0.0
 40
0.0
 40
0.0
 40
0.2592072765
 40
1.0
 40
1.0
 40
1.0
 40
1.0
 10
39.1451598536
 20
88.9253366596
 30
0.0
 10
39.1419296724
 20
88.9214902215
 30
0.0
 10
39.1300453065
 20
88.9064002688
 30
0.0
 10
39.1209990862
 20
88.8873751597
 30
0.0
 10
39.1209990862
 20
88.8730202359
 30
0.0
  0
SPLINE
  5
449
100
AcDbEntity
  8
0
100
AcDbSpline
 62
7
  6
CONTINUOUS
 70
0
 71
3
 72
9
 73
5
 74
0
 42
0.0000001
 43
0.0000001
 44
0.0000000001
 40
0.0
 40
0.0
 40
0.0
 40
0.0
 40
0.4997636909
 40
1.0
 40
1.0
 40
1.0
 40
1.0
 10
39.2450038543
 20
88.4751089325
 30
0.0
 10
39.2259113712
 20
88.4751089325
 30
0.0
 10
39.1867888159
 20
88.4664077339
 30
0.0
 10
39.1574497563
 20
88.4399712412
 30
0.0
 10
39.1451598536
 20
88.4253366596
 30
0.0
  0
SPLINE
  5
44A
100
AcDbEntity
  8
0
100
AcDbSpline
 62
7
  6
CONTINUOUS
 70
0
 71
3
 72
9
 73
5
 74
0
 42
0.0000001
 43
0.0000001
 44
0.0000000001
 40
0.0
 40
0.0
 40
0.0
 40
0.0
 40
0.2592072765
 40
1.0
 40
1.0
 40
1.0
 40
1.0
 10
39.1451598536
 20
88.4253366596
 30
0.0
 10
39.1419296724
 20
88.4214902215
 30
0.0
 10
39.1300453065
 20
88.4064002688
 30
0.0
 10
39.1209990862
 20
88.3873751597
 30
0.0
 10
39.1209990862
 20
88.3730202359
 30
0.0
  0
SPLINE
  5
44B
100
AcDbEntity
  8
0
100
AcDbSpline
 62
7
  6
CONTINUOUS
 70
0
 71
3
 72
9
 73
5
 74
0
 42
0.0000001
 43
0.0000001
 44
0.0000000001
 40
0.0
 40
0.0
 40
0.0
 40
0.0
 40
0.4997636909
 40
1.0
 40
1.0
 40
1.0
 40
1.0
 10
39.2450038543
 20
87.9751089325
 30
0.0
 10
39.2259113712
 20
87.9751089325
 30
0.0
 10
39.1867888159
 20
87.9664077339
 30
0.0
 10
39.1574497563
 20
87.9399712412
 30
0.0
 10
39.1451598536
 20
87.9253366596
 30
0.0
  0
SPLINE
  5
44C
100
AcDbEntity
  8
0
100
AcDbSpline
 62
7
  6
CONTINUOUS
 70
0
 71
3
 72
9
 73
5
 74
0
 42
0.0000001
 43
0.0000001
 44
0.0000000001
 40
0.0
 40
0.0
 40
0.0
 40
0.0
 40
0.2592072765
 40
1.0
 40
1.0
 40
1.0
 40
1.0
 10
39.1451598536
 20
87.9253366596
 30
0.0
 10
39.1419296724
 20
87.9214902215
 30
0.0
 10
39.1300453065
 20
87.9064002688
 30
0.0
 10
39.1209990862
 20
87.8873751597
 30
0.0
 10
39.1209990862
 20
87.8730202359
 30
0.0
  0
SPLINE
  5
44D
100
AcDbEntity
  8
0
100
AcDbSpline
 62
7
  6
CONTINUOUS
 70
0
 71
3
 72
9
 73
5
 74
0
 42
0.0000001
 43
0.0000001
 44
0.0000000001
 40
0.0
 40
0.0
 40
0.0
 40
0.0
 40
0.4997636909
 40
1.0
 40
1.0
 40
1.0
 40
1.0
 10
39.2450038543
 20
87.4751089325
 30
0.0
 10
39.2259113712
 20
87.4751089325
 30
0.0
 10
39.1867888159
 20
87.4664077339
 30
0.0
 10
39.1574497563
 20
87.4399712412
 30
0.0
 10
39.1451598536
 20
87.4253366596
 30
0.0
  0
SPLINE
  5
44E
100
AcDbEntity
  8
0
100
AcDbSpline
 62
7
  6
CONTINUOUS
 70
0
 71
3
 72
9
 73
5
 74
0
 42
0.0000001
 43
0.0000001
 44
0.0000000001
 40
0.0
 40
0.0
 40
0.0
 40
0.0
 40
0.2592072765
 40
1.0
 40
1.0
 40
1.0
 40
1.0
 10
39.1451598536
 20
87.4253366596
 30
0.0
 10
39.1419296724
 20
87.4214902215
 30
0.0
 10
39.1300453065
 20
87.4064002688
 30
0.0
 10
39.1209990862
 20
87.3873751597
 30
0.0
 10
39.1209990862
 20
87.3730202359
 30
0.0
  0
SPLINE
  5
44F
100
AcDbEntity
  8
0
100
AcDbSpline
 62
7
  6
CONTINUOUS
 70
0
 71
3
 72
9
 73
5
 74
0
 42
0.0000001
 43
0.0000001
 44
0.0000000001
 40
0.0
 40
0.0
 40
0.0
 40
0.0
 40
0.4997636909
 40
1.0
 40
1.0
 40
1.0
 40
1.0
 10
39.2450038543
 20
86.9751089325
 30
0.0
 10
39.2259113712
 20
86.9751089325
 30
0.0
 10
39.1867888159
 20
86.9664077339
 30
0.0
 10
39.1574497563
 20
86.9399712412
 30
0.0
 10
39.1451598536
 20
86.9253366596
 30
0.0
  0
SPLINE
  5
450
100
AcDbEntity
  8
0
100
AcDbSpline
 62
7
  6
CONTINUOUS
 70
0
 71
3
 72
9
 73
5
 74
0
 42
0.0000001
 43
0.0000001
 44
0.0000000001
 40
0.0
 40
0.0
 40
0.0
 40
0.0
 40
0.2592072765
 40
1.0
 40
1.0
 40
1.0
 40
1.0
 10
39.1451598536
 20
86.9253366596
 30
0.0
 10
39.1419296724
 20
86.9214902215
 30
0.0
 10
39.1300453065
 20
86.9064002688
 30
0.0
 10
39.1209990862
 20
86.8873751597
 30
0.0
 10
39.1209990862
 20
86.8730202359
 30
0.0
  0
SPLINE
  5
451
100
AcDbEntity
  8
0
100
AcDbSpline
 62
7
  6
CONTINUOUS
 70
0
 71
3
 72
9
 73
5
 74
0
 42
0.0000001
 43
0.0000001
 44
0.0000000001
 40
0.0
 40
0.0
 40
0.0
 40
0.0
 40
0.4997636909
 40
1.0
 40
1.0
 40
1.0
 40
1.0
 10
39.2450038543
 20
86.4751089325
 30
0.0
 10
39.2259113712
 20
86.4751089325
 30
0.0
 10
39.1867888159
 20
86.4664077339
 30
0.0
 10
39.1574497563
 20
86.4399712412
 30
0.0
 10
39.1451598536
 20
86.4253366596
 30
0.0
  0
SPLINE
  5
452
100
AcDbEntity
  8
0
100
AcDbSpline
 62
7
  6
CONTINUOUS
 70
0
 71
3
 72
9
 73
5
 74
0
 42
0.0000001
 43
0.0000001
 44
0.0000000001
 40
0.0
 40
0.0
 40
0.0
 40
0.0
 40
0.2592072765
 40
1.0
 40
1.0
 40
1.0
 40
1.0
 10
39.1451598536
 20
86.4253366596
 30
0.0
 10
39.1419296724
 20
86.4214902215
 30
0.0
 10
39.1300453065
 20
86.4064002688
 30
0.0
 10
39.1209990862
 20
86.3873751597
 30
0.0
 10
39.1209990862
 20
86.3730202359
 30
0.0
  0
SPLINE
  5
453
100
AcDbEntity
  8
0
100
AcDbSpline
 62
7
  6
CONTINUOUS
 70
0
 71
3
 72
9
 73
5
 74
0
 42
0.0000001
 43
0.0000001
 44
0.0000000001
 40
0.0
 40
0.0
 40
0.0
 40
0.0
 40
0.4997636909
 40
1.0
 40
1.0
 40
1.0
 40
1.0
 10
39.2450038543
 20
85.9751089325
 30
0.0
 10
39.2259113712
 20
85.9751089325
 30
0.0
 10
39.1867888159
 20
85.9664077339
 30
0.0
 10
39.1574497563
 20
85.9399712412
 30
0.0
 10
39.1451598536
 20
85.9253366596
 30
0.0
  0
SPLINE
  5
454
100
AcDbEntity
  8
0
100
AcDbSpline
 62
7
  6
CONTINUOUS
 70
0
 71
3
 72
9
 73
5
 74
0
 42
0.0000001
 43
0.0000001
 44
0.0000000001
 40
0.0
 40
0.0
 40
0.0
 40
0.0
 40
0.2592072765
 40
1.0
 40
1.0
 40
1.0
 40
1.0
 10
39.1451598536
 20
85.9253366596
 30
0.0
 10
39.1419296724
 20
85.9214902215
 30
0.0
 10
39.1300453065
 20
85.9064002688
 30
0.0
 10
39.1209990862
 20
85.8873751597
 30
0.0
 10
39.1209990862
 20
85.8730202359
 30
0.0
  0
SPLINE
  5
455
100
AcDbEntity
  8
0
100
AcDbSpline
 62
7
  6
CONTINUOUS
 70
0
 71
3
 72
9
 73
5
 74
0
 42
0.0000001
 43
0.0000001
 44
0.0000000001
 40
0.0
 40
0.0
 40
0.0
 40
0.0
 40
0.4997636909
 40
1.0
 40
1.0
 40
1.0
 40
1.0
 10
39.2450038543
 20
85.4751089325
 30
0.0
 10
39.2259113712
 20
85.4751089325
 30
0.0
 10
39.1867888159
 20
85.4664077339
 30
0.0
 10
39.1574497563
 20
85.4399712412
 30
0.0
 10
39.1451598536
 20
85.4253366596
 30
0.0
  0
SPLINE
  5
456
100
AcDbEntity
  8
0
100
AcDbSpline
 62
7
  6
CONTINUOUS
 70
0
 71
3
 72
9
 73
5
 74
0
 42
0.0000001
 43
0.0000001
 44
0.0000000001
 40
0.0
 40
0.0
 40
0.0
 40
0.0
 40
0.2592072765
 40
1.0
 40
1.0
 40
1.0
 40
1.0
 10
39.1451598536
 20
85.4253366596
 30
0.0
 10
39.1419296724
 20
85.4214902215
 30
0.0
 10
39.1300453065
 20
85.4064002688
 30
0.0
 10
39.1209990862
 20
85.3873751597
 30
0.0
 10
39.1209990862
 20
85.3730202359
 30
0.0
  0
SPLINE
  5
457
100
AcDbEntity
  8
0
100
AcDbSpline
 62
7
  6
CONTINUOUS
 70
0
 71
3
 72
9
 73
5
 74
0
 42
0.0000001
 43
0.0000001
 44
0.0000000001
 40
0.0
 40
0.0
 40
0.0
 40
0.0
 40
0.4997636909
 40
1.0
 40
1.0
 40
1.0
 40
1.0
 10
39.2450038543
 20
84.9751089325
 30
0.0
 10
39.2259113712
 20
84.9751089325
 30
0.0
 10
39.1867888159
 20
84.9664077339
 30
0.0
 10
39.1574497563
 20
84.9399712412
 30
0.0
 10
39.1451598536
 20
84.9253366596
 30
0.0
  0
SPLINE
  5
458
100
AcDbEntity
  8
0
100
AcDbSpline
 62
7
  6
CONTINUOUS
 70
0
 71
3
 72
9
 73
5
 74
0
 42
0.0000001
 43
0.0000001
 44
0.0000000001
 40
0.0
 40
0.0
 40
0.0
 40
0.0
 40
0.2592072765
 40
1.0
 40
1.0
 40
1.0
 40
1.0
 10
39.1451598536
 20
84.9253366596
 30
0.0
 10
39.1419296724
 20
84.9214902215
 30
0.0
 10
39.1300453065
 20
84.9064002688
 30
0.0
 10
39.1209990862
 20
84.8873751597
 30
0.0
 10
39.1209990862
 20
84.8730202359
 30
0.0
  0
SPLINE
  5
459
100
AcDbEntity
  8
0
100
AcDbSpline
 62
7
  6
CONTINUOUS
 70
0
 71
3
 72
9
 73
5
 74
0
 42
0.0000001
 43
0.0000001
 44
0.0000000001
 40
0.0
 40
0.0
 40
0.0
 40
0.0
 40
0.4997636909
 40
1.0
 40
1.0
 40
1.0
 40
1.0
 10
39.2450038543
 20
84.4751089325
 30
0.0
 10
39.2259113712
 20
84.4751089325
 30
0.0
 10
39.1867888159
 20
84.4664077339
 30
0.0
 10
39.1574497563
 20
84.4399712412
 30
0.0
 10
39.1451598536
 20
84.4253366596
 30
0.0
  0
SPLINE
  5
45A
100
AcDbEntity
  8
0
100
AcDbSpline
 62
7
  6
CONTINUOUS
 70
0
 71
3
 72
9
 73
5
 74
0
 42
0.0000001
 43
0.0000001
 44
0.0000000001
 40
0.0
 40
0.0
 40
0.0
 40
0.0
 40
0.2592072765
 40
1.0
 40
1.0
 40
1.0
 40
1.0
 10
39.1451598536
 20
84.4253366596
 30
0.0
 10
39.1419296724
 20
84.4214902215
 30
0.0
 10
39.1300453065
 20
84.4064002688
 30
0.0
 10
39.1209990862
 20
84.3873751597
 30
0.0
 10
39.1209990862
 20
84.3730202359
 30
0.0
  0
SPLINE
  5
45B
100
AcDbEntity
  8
0
100
AcDbSpline
 62
7
  6
CONTINUOUS
 70
0
 71
3
 72
9
 73
5
 74
0
 42
0.0000001
 43
0.0000001
 44
0.0000000001
 40
0.0
 40
0.0
 40
0.0
 40
0.0
 40
0.4997636909
 40
1.0
 40
1.0
 40
1.0
 40
1.0
 10
39.2450038543
 20
83.9751089325
 30
0.0
 10
39.2259113712
 20
83.9751089325
 30
0.0
 10
39.1867888159
 20
83.9664077339
 30
0.0
 10
39.1574497563
 20
83.9399712412
 30
0.0
 10
39.1451598536
 20
83.9253366596
 30
0.0
  0
SPLINE
  5
45C
100
AcDbEntity
  8
0
100
AcDbSpline
 62
7
  6
CONTINUOUS
 70
0
 71
3
 72
9
 73
5
 74
0
 42
0.0000001
 43
0.0000001
 44
0.0000000001
 40
0.0
 40
0.0
 40
0.0
 40
0.0
 40
0.2592072765
 40
1.0
 40
1.0
 40
1.0
 40
1.0
 10
39.1451598536
 20
83.9253366596
 30
0.0
 10
39.1419296724
 20
83.9214902215
 30
0.0
 10
39.1300453065
 20
83.9064002688
 30
0.0
 10
39.1209990862
 20
83.8873751597
 30
0.0
 10
39.1209990862
 20
83.8730202359
 30
0.0
  0
SPLINE
  5
45D
100
AcDbEntity
  8
0
100
AcDbSpline
 62
7
  6
CONTINUOUS
 70
0
 71
3
 72
9
 73
5
 74
0
 42
0.0000001
 43
0.0000001
 44
0.0000000001
 40
0.0
 40
0.0
 40
0.0
 40
0.0
 40
0.4997636909
 40
1.0
 40
1.0
 40
1.0
 40
1.0
 10
39.2450038543
 20
83.4751089325
 30
0.0
 10
39.2259113712
 20
83.4751089325
 30
0.0
 10
39.1867888159
 20
83.4664077339
 30
0.0
 10
39.1574497563
 20
83.4399712412
 30
0.0
 10
39.1451598536
 20
83.4253366596
 30
0.0
  0
SPLINE
  5
45E
100
AcDbEntity
  8
0
100
AcDbSpline
 62
7
  6
CONTINUOUS
 70
0
 71
3
 72
9
 73
5
 74
0
 42
0.0000001
 43
0.0000001
 44
0.0000000001
 40
0.0
 40
0.0
 40
0.0
 40
0.0
 40
0.2592072765
 40
1.0
 40
1.0
 40
1.0
 40
1.0
 10
39.1451598536
 20
83.4253366596
 30
0.0
 10
39.1419296724
 20
83.4214902215
 30
0.0
 10
39.1300453065
 20
83.4064002688
 30
0.0
 10
39.1209990862
 20
83.3873751597
 30
0.0
 10
39.1209990862
 20
83.3730202359
 30
0.0
  0
SPLINE
  5
45F
100
AcDbEntity
  8
0
100
AcDbSpline
 62
7
  6
CONTINUOUS
 70
0
 71
3
 72
9
 73
5
 74
0
 42
0.0000001
 43
0.0000001
 44
0.0000000001
 40
0.0
 40
0.0
 40
0.0
 40
0.0
 40
0.4997636909
 40
1.0
 40
1.0
 40
1.0
 40
1.0
 10
39.2450038543
 20
82.9751089325
 30
0.0
 10
39.2259113712
 20
82.9751089325
 30
0.0
 10
39.1867888159
 20
82.9664077339
 30
0.0
 10
39.1574497563
 20
82.9399712412
 30
0.0
 10
39.1451598536
 20
82.9253366596
 30
0.0
  0
SPLINE
  5
460
100
AcDbEntity
  8
0
100
AcDbSpline
 62
7
  6
CONTINUOUS
 70
0
 71
3
 72
9
 73
5
 74
0
 42
0.0000001
 43
0.0000001
 44
0.0000000001
 40
0.0
 40
0.0
 40
0.0
 40
0.0
 40
0.2592072765
 40
1.0
 40
1.0
 40
1.0
 40
1.0
 10
39.1451598536
 20
82.9253366596
 30
0.0
 10
39.1419296724
 20
82.9214902215
 30
0.0
 10
39.1300453065
 20
82.9064002688
 30
0.0
 10
39.1209990862
 20
82.8873751597
 30
0.0
 10
39.1209990862
 20
82.8730202359
 30
0.0
  0
SPLINE
  5
461
100
AcDbEntity
  8
0
100
AcDbSpline
 62
7
  6
CONTINUOUS
 70
0
 71
3
 72
9
 73
5
 74
0
 42
0.0000001
 43
0.0000001
 44
0.0000000001
 40
0.0
 40
0.0
 40
0.0
 40
0.0
 40
0.4997636909
 40
1.0
 40
1.0
 40
1.0
 40
1.0
 10
39.2450038543
 20
82.4751089325
 30
0.0
 10
39.2259113712
 20
82.4751089325
 30
0.0
 10
39.1867888159
 20
82.4664077339
 30
0.0
 10
39.1574497563
 20
82.4399712412
 30
0.0
 10
39.1451598536
 20
82.4253366596
 30
0.0
  0
SPLINE
  5
462
100
AcDbEntity
  8
0
100
AcDbSpline
 62
7
  6
CONTINUOUS
 70
0
 71
3
 72
9
 73
5
 74
0
 42
0.0000001
 43
0.0000001
 44
0.0000000001
 40
0.0
 40
0.0
 40
0.0
 40
0.0
 40
0.2592072765
 40
1.0
 40
1.0
 40
1.0
 40
1.0
 10
39.1451598536
 20
82.4253366596
 30
0.0
 10
39.1419296724
 20
82.4214902215
 30
0.0
 10
39.1300453065
 20
82.4064002688
 30
0.0
 10
39.1209990862
 20
82.3873751597
 30
0.0
 10
39.1209990862
 20
82.3730202359
 30
0.0
  0
SPLINE
  5
463
100
AcDbEntity
  8
0
100
AcDbSpline
 62
7
  6
CONTINUOUS
 70
0
 71
3
 72
9
 73
5
 74
0
 42
0.0000001
 43
0.0000001
 44
0.0000000001
 40
0.0
 40
0.0
 40
0.0
 40
0.0
 40
0.4997636909
 40
1.0
 40
1.0
 40
1.0
 40
1.0
 10
39.2450038543
 20
81.9751089325
 30
0.0
 10
39.2259113712
 20
81.9751089325
 30
0.0
 10
39.1867888159
 20
81.9664077339
 30
0.0
 10
39.1574497563
 20
81.9399712412
 30
0.0
 10
39.1451598536
 20
81.9253366596
 30
0.0
  0
SPLINE
  5
464
100
AcDbEntity
  8
0
100
AcDbSpline
 62
7
  6
CONTINUOUS
 70
0
 71
3
 72
9
 73
5
 74
0
 42
0.0000001
 43
0.0000001
 44
0.0000000001
 40
0.0
 40
0.0
 40
0.0
 40
0.0
 40
0.2592072765
 40
1.0
 40
1.0
 40
1.0
 40
1.0
 10
39.1451598536
 20
81.9253366596
 30
0.0
 10
39.1419296724
 20
81.9214902215
 30
0.0
 10
39.1300453065
 20
81.9064002688
 30
0.0
 10
39.1209990862
 20
81.8873751597
 30
0.0
 10
39.1209990862
 20
81.8730202359
 30
0.0
  0
SPLINE
  5
465
100
AcDbEntity
  8
0
100
AcDbSpline
 62
7
  6
CONTINUOUS
 70
0
 71
3
 72
9
 73
5
 74
0
 42
0.0000001
 43
0.0000001
 44
0.0000000001
 40
0.0
 40
0.0
 40
0.0
 40
0.0
 40
0.4997636909
 40
1.0
 40
1.0
 40
1.0
 40
1.0
 10
39.2450038543
 20
81.4751089325
 30
0.0
 10
39.2259113712
 20
81.4751089325
 30
0.0
 10
39.1867888159
 20
81.4664077339
 30
0.0
 10
39.1574497563
 20
81.4399712412
 30
0.0
 10
39.1451598536
 20
81.4253366596
 30
0.0
  0
SPLINE
  5
466
100
AcDbEntity
  8
0
100
AcDbSpline
 62
7
  6
CONTINUOUS
 70
0
 71
3
 72
9
 73
5
 74
0
 42
0.0000001
 43
0.0000001
 44
0.0000000001
 40
0.0
 40
0.0
 40
0.0
 40
0.0
 40
0.2592072765
 40
1.0
 40
1.0
 40
1.0
 40
1.0
 10
39.1451598536
 20
81.4253366596
 30
0.0
 10
39.1419296724
 20
81.4214902215
 30
0.0
 10
39.1300453065
 20
81.4064002688
 30
0.0
 10
39.1209990862
 20
81.3873751597
 30
0.0
 10
39.1209990862
 20
81.3730202359
 30
0.0
  0
SPLINE
  5
467
100
AcDbEntity
  8
0
100
AcDbSpline
 62
7
  6
CONTINUOUS
 70
0
 71
3
 72
9
 73
5
 74
0
 42
0.0000001
 43
0.0000001
 44
0.0000000001
 40
0.0
 40
0.0
 40
0.0
 40
0.0
 40
0.4997636909
 40
1.0
 40
1.0
 40
1.0
 40
1.0
 10
39.2450038543
 20
80.9751089325
 30
0.0
 10
39.2259113712
 20
80.9751089325
 30
0.0
 10
39.1867888159
 20
80.9664077339
 30
0.0
 10
39.1574497563
 20
80.9399712412
 30
0.0
 10
39.1451598536
 20
80.9253366596
 30
0.0
  0
SPLINE
  5
468
100
AcDbEntity
  8
0
100
AcDbSpline
 62
7
  6
CONTINUOUS
 70
0
 71
3
 72
9
 73
5
 74
0
 42
0.0000001
 43
0.0000001
 44
0.0000000001
 40
0.0
 40
0.0
 40
0.0
 40
0.0
 40
0.2592072765
 40
1.0
 40
1.0
 40
1.0
 40
1.0
 10
39.1451598536
 20
80.9253366596
 30
0.0
 10
39.1419296724
 20
80.9214902215
 30
0.0
 10
39.1300453065
 20
80.9064002688
 30
0.0
 10
39.1209990862
 20
80.8873751597
 30
0.0
 10
39.1209990862
 20
80.8730202359
 30
0.0
  0
SPLINE
  5
469
100
AcDbEntity
  8
0
100
AcDbSpline
 62
7
  6
CONTINUOUS
 70
0
 71
3
 72
9
 73
5
 74
0
 42
0.0000001
 43
0.0000001
 44
0.0000000001
 40
0.0
 40
0.0
 40
0.0
 40
0.0
 40
0.4997636909
 40
1.0
 40
1.0
 40
1.0
 40
1.0
 10
39.2450038543
 20
80.4751089325
 30
0.0
 10
39.2259113712
 20
80.4751089325
 30
0.0
 10
39.1867888159
 20
80.4664077339
 30
0.0
 10
39.1574497563
 20
80.4399712412
 30
0.0
 10
39.1451598536
 20
80.4253366596
 30
0.0
  0
SPLINE
  5
46A
100
AcDbEntity
  8
0
100
AcDbSpline
 62
7
  6
CONTINUOUS
 70
0
 71
3
 72
9
 73
5
 74
0
 42
0.0000001
 43
0.0000001
 44
0.0000000001
 40
0.0
 40
0.0
 40
0.0
 40
0.0
 40
0.2592072765
 40
1.0
 40
1.0
 40
1.0
 40
1.0
 10
39.1451598536
 20
80.4253366596
 30
0.0
 10
39.1419296724
 20
80.4214902215
 30
0.0
 10
39.1300453065
 20
80.4064002688
 30
0.0
 10
39.1209990862
 20
80.3873751597
 30
0.0
 10
39.1209990862
 20
80.3730202359
 30
0.0
  0
SPLINE
  5
46B
100
AcDbEntity
  8
0
100
AcDbSpline
 62
7
  6
CONTINUOUS
 70
0
 71
3
 72
9
 73
5
 74
0
 42
0.0000001
 43
0.0000001
 44
0.0000000001
 40
0.0
 40
0.0
 40
0.0
 40
0.0
 40
0.4997636909
 40
1.0
 40
1.0
 40
1.0
 40
1.0
 10
39.2450038543
 20
79.9751089325
 30
0.0
 10
39.2259113712
 20
79.9751089325
 30
0.0
 10
39.1867888159
 20
79.9664077339
 30
0.0
 10
39.1574497563
 20
79.9399712412
 30
0.0
 10
39.1451598536
 20
79.9253366596
 30
0.0
  0
SPLINE
  5
46C
100
AcDbEntity
  8
0
100
AcDbSpline
 62
7
  6
CONTINUOUS
 70
0
 71
3
 72
9
 73
5
 74
0
 42
0.0000001
 43
0.0000001
 44
0.0000000001
 40
0.0
 40
0.0
 40
0.0
 40
0.0
 40
0.2592072765
 40
1.0
 40
1.0
 40
1.0
 40
1.0
 10
39.1451598536
 20
79.9253366596
 30
0.0
 10
39.1419296724
 20
79.9214902215
 30
0.0
 10
39.1300453065
 20
79.9064002688
 30
0.0
 10
39.1209990862
 20
79.8873751597
 30
0.0
 10
39.1209990862
 20
79.8730202359
 30
0.0
  0
SPLINE
  5
46D
100
AcDbEntity
  8
0
100
AcDbSpline
 62
7
  6
CONTINUOUS
 70
0
 71
3
 72
9
 73
5
 74
0
 42
0.0000001
 43
0.0000001
 44
0.0000000001
 40
0.0
 40
0.0
 40
0.0
 40
0.0
 40
0.4997636909
 40
1.0
 40
1.0
 40
1.0
 40
1.0
 10
39.2450038543
 20
79.4751089325
 30
0.0
 10
39.2259113712
 20
79.4751089325
 30
0.0
 10
39.1867888159
 20
79.4664077339
 30
0.0
 10
39.1574497563
 20
79.4399712412
 30
0.0
 10
39.1451598536
 20
79.4253366596
 30
0.0
  0
SPLINE
  5
46E
100
AcDbEntity
  8
0
100
AcDbSpline
 62
7
  6
CONTINUOUS
 70
0
 71
3
 72
9
 73
5
 74
0
 42
0.0000001
 43
0.0000001
 44
0.0000000001
 40
0.0
 40
0.0
 40
0.0
 40
0.0
 40
0.2592072765
 40
1.0
 40
1.0
 40
1.0
 40
1.0
 10
39.1451598536
 20
79.4253366596
 30
0.0
 10
39.1419296724
 20
79.4214902215
 30
0.0
 10
39.1300453065
 20
79.4064002688
 30
0.0
 10
39.1209990862
 20
79.3873751597
 30
0.0
 10
39.1209990862
 20
79.3730202359
 30
0.0
  0
SPLINE
  5
46F
100
AcDbEntity
  8
0
100
AcDbSpline
 62
7
  6
CONTINUOUS
 70
0
 71
3
 72
9
 73
5
 74
0
 42
0.0000001
 43
0.0000001
 44
0.0000000001
 40
0.0
 40
0.0
 40
0.0
 40
0.0
 40
0.4997636909
 40
1.0
 40
1.0
 40
1.0
 40
1.0
 10
39.2450038543
 20
78.9751089325
 30
0.0
 10
39.2259113712
 20
78.9751089325
 30
0.0
 10
39.1867888159
 20
78.9664077339
 30
0.0
 10
39.1574497563
 20
78.9399712412
 30
0.0
 10
39.1451598536
 20
78.9253366596
 30
0.0
  0
SPLINE
  5
470
100
AcDbEntity
  8
0
100
AcDbSpline
 62
7
  6
CONTINUOUS
 70
0
 71
3
 72
9
 73
5
 74
0
 42
0.0000001
 43
0.0000001
 44
0.0000000001
 40
0.0
 40
0.0
 40
0.0
 40
0.0
 40
0.2592072765
 40
1.0
 40
1.0
 40
1.0
 40
1.0
 10
39.1451598536
 20
78.9253366596
 30
0.0
 10
39.1419296724
 20
78.9214902215
 30
0.0
 10
39.1300453065
 20
78.9064002688
 30
0.0
 10
39.1209990862
 20
78.8873751597
 30
0.0
 10
39.1209990862
 20
78.8730202359
 30
0.0
  0
SPLINE
  5
471
100
AcDbEntity
  8
0
100
AcDbSpline
 62
7
  6
CONTINUOUS
 70
0
 71
3
 72
9
 73
5
 74
0
 42
0.0000001
 43
0.0000001
 44
0.0000000001
 40
0.0
 40
0.0
 40
0.0
 40
0.0
 40
0.4997636909
 40
1.0
 40
1.0
 40
1.0
 40
1.0
 10
39.2450038543
 20
78.4751089325
 30
0.0
 10
39.2259113712
 20
78.4751089325
 30
0.0
 10
39.1867888159
 20
78.4664077339
 30
0.0
 10
39.1574497563
 20
78.4399712412
 30
0.0
 10
39.1451598536
 20
78.4253366596
 30
0.0
  0
SPLINE
  5
472
100
AcDbEntity
  8
0
100
AcDbSpline
 62
7
  6
CONTINUOUS
 70
0
 71
3
 72
9
 73
5
 74
0
 42
0.0000001
 43
0.0000001
 44
0.0000000001
 40
0.0
 40
0.0
 40
0.0
 40
0.0
 40
0.2592072765
 40
1.0
 40
1.0
 40
1.0
 40
1.0
 10
39.1451598536
 20
78.4253366596
 30
0.0
 10
39.1419296724
 20
78.4214902215
 30
0.0
 10
39.1300453065
 20
78.4064002688
 30
0.0
 10
39.1209990862
 20
78.3873751597
 30
0.0
 10
39.1209990862
 20
78.3730202359
 30
0.0
  0
SPLINE
  5
473
100
AcDbEntity
  8
0
100
AcDbSpline
 62
7
  6
CONTINUOUS
 70
0
 71
3
 72
9
 73
5
 74
0
 42
0.0000001
 43
0.0000001
 44
0.0000000001
 40
0.0
 40
0.0
 40
0.0
 40
0.0
 40
0.4997636909
 40
1.0
 40
1.0
 40
1.0
 40
1.0
 10
39.2450038543
 20
77.9751089325
 30
0.0
 10
39.2259113712
 20
77.9751089325
 30
0.0
 10
39.1867888159
 20
77.9664077339
 30
0.0
 10
39.1574497563
 20
77.9399712412
 30
0.0
 10
39.1451598536
 20
77.9253366596
 30
0.0
  0
SPLINE
  5
474
100
AcDbEntity
  8
0
100
AcDbSpline
 62
7
  6
CONTINUOUS
 70
0
 71
3
 72
9
 73
5
 74
0
 42
0.0000001
 43
0.0000001
 44
0.0000000001
 40
0.0
 40
0.0
 40
0.0
 40
0.0
 40
0.2592072765
 40
1.0
 40
1.0
 40
1.0
 40
1.0
 10
39.1451598536
 20
77.9253366596
 30
0.0
 10
39.1419296724
 20
77.9214902215
 30
0.0
 10
39.1300453065
 20
77.9064002688
 30
0.0
 10
39.1209990862
 20
77.8873751597
 30
0.0
 10
39.1209990862
 20
77.8730202359
 30
0.0
  0
SPLINE
  5
475
100
AcDbEntity
  8
0
100
AcDbSpline
 62
7
  6
CONTINUOUS
 70
0
 71
3
 72
9
 73
5
 74
0
 42
0.0000001
 43
0.0000001
 44
0.0000000001
 40
0.0
 40
0.0
 40
0.0
 40
0.0
 40
0.4997636909
 40
1.0
 40
1.0
 40
1.0
 40
1.0
 10
39.2450038543
 20
77.4751089325
 30
0.0
 10
39.2259113712
 20
77.4751089325
 30
0.0
 10
39.1867888159
 20
77.4664077339
 30
0.0
 10
39.1574497563
 20
77.4399712412
 30
0.0
 10
39.1451598536
 20
77.4253366596
 30
0.0
  0
SPLINE
  5
476
100
AcDbEntity
  8
0
100
AcDbSpline
 62
7
  6
CONTINUOUS
 70
0
 71
3
 72
9
 73
5
 74
0
 42
0.0000001
 43
0.0000001
 44
0.0000000001
 40
0.0
 40
0.0
 40
0.0
 40
0.0
 40
0.2592072765
 40
1.0
 40
1.0
 40
1.0
 40
1.0
 10
39.1451598536
 20
77.4253366596
 30
0.0
 10
39.1419296724
 20
77.4214902215
 30
0.0
 10
39.1300453065
 20
77.4064002688
 30
0.0
 10
39.1209990862
 20
77.3873751597
 30
0.0
 10
39.1209990862
 20
77.3730202359
 30
0.0
  0
SPLINE
  5
477
100
AcDbEntity
  8
0
100
AcDbSpline
 62
7
  6
CONTINUOUS
 70
0
 71
3
 72
9
 73
5
 74
0
 42
0.0000001
 43
0.0000001
 44
0.0000000001
 40
0.0
 40
0.0
 40
0.0
 40
0.0
 40
0.4997636909
 40
1.0
 40
1.0
 40
1.0
 40
1.0
 10
39.2450038543
 20
76.9751089325
 30
0.0
 10
39.2259113712
 20
76.9751089325
 30
0.0
 10
39.1867888159
 20
76.9664077339
 30
0.0
 10
39.1574497563
 20
76.9399712412
 30
0.0
 10
39.1451598536
 20
76.9253366596
 30
0.0
  0
SPLINE
  5
478
100
AcDbEntity
  8
0
100
AcDbSpline
 62
7
  6
CONTINUOUS
 70
0
 71
3
 72
9
 73
5
 74
0
 42
0.0000001
 43
0.0000001
 44
0.0000000001
 40
0.0
 40
0.0
 40
0.0
 40
0.0
 40
0.2592072765
 40
1.0
 40
1.0
 40
1.0
 40
1.0
 10
39.1451598536
 20
76.9253366596
 30
0.0
 10
39.1419296724
 20
76.9214902215
 30
0.0
 10
39.1300453065
 20
76.9064002688
 30
0.0
 10
39.1209990862
 20
76.8873751597
 30
0.0
 10
39.1209990862
 20
76.8730202359
 30
0.0
  0
SPLINE
  5
479
100
AcDbEntity
  8
0
100
AcDbSpline
 62
7
  6
CONTINUOUS
 70
0
 71
3
 72
9
 73
5
 74
0
 42
0.0000001
 43
0.0000001
 44
0.0000000001
 40
0.0
 40
0.0
 40
0.0
 40
0.0
 40
0.4997636909
 40
1.0
 40
1.0
 40
1.0
 40
1.0
 10
39.2450038543
 20
76.4751089325
 30
0.0
 10
39.2259113712
 20
76.4751089325
 30
0.0
 10
39.1867888159
 20
76.4664077339
 30
0.0
 10
39.1574497563
 20
76.4399712412
 30
0.0
 10
39.1451598536
 20
76.4253366596
 30
0.0
  0
SPLINE
  5
47A
100
AcDbEntity
  8
0
100
AcDbSpline
 62
7
  6
CONTINUOUS
 70
0
 71
3
 72
9
 73
5
 74
0
 42
0.0000001
 43
0.0000001
 44
0.0000000001
 40
0.0
 40
0.0
 40
0.0
 40
0.0
 40
0.2592072765
 40
1.0
 40
1.0
 40
1.0
 40
1.0
 10
39.1451598536
 20
76.4253366596
 30
0.0
 10
39.1419296724
 20
76.4214902215
 30
0.0
 10
39.1300453065
 20
76.4064002688
 30
0.0
 10
39.1209990862
 20
76.3873751597
 30
0.0
 10
39.1209990862
 20
76.3730202359
 30
0.0
  0
SPLINE
  5
47B
100
AcDbEntity
  8
0
100
AcDbSpline
 62
7
  6
CONTINUOUS
 70
0
 71
3
 72
9
 73
5
 74
0
 42
0.0000001
 43
0.0000001
 44
0.0000000001
 40
0.0
 40
0.0
 40
0.0
 40
0.0
 40
0.4997636909
 40
1.0
 40
1.0
 40
1.0
 40
1.0
 10
39.2450038543
 20
75.9751089325
 30
0.0
 10
39.2259113712
 20
75.9751089325
 30
0.0
 10
39.1867888159
 20
75.9664077339
 30
0.0
 10
39.1574497563
 20
75.9399712412
 30
0.0
 10
39.1451598536
 20
75.9253366596
 30
0.0
  0
SPLINE
  5
47C
100
AcDbEntity
  8
0
100
AcDbSpline
 62
7
  6
CONTINUOUS
 70
0
 71
3
 72
9
 73
5
 74
0
 42
0.0000001
 43
0.0000001
 44
0.0000000001
 40
0.0
 40
0.0
 40
0.0
 40
0.0
 40
0.2592072765
 40
1.0
 40
1.0
 40
1.0
 40
1.0
 10
39.1451598536
 20
75.9253366596
 30
0.0
 10
39.1419296724
 20
75.9214902215
 30
0.0
 10
39.1300453065
 20
75.9064002688
 30
0.0
 10
39.1209990862
 20
75.8873751597
 30
0.0
 10
39.1209990862
 20
75.8730202359
 30
0.0
  0
SPLINE
  5
47D
100
AcDbEntity
  8
0
100
AcDbSpline
 62
7
  6
CONTINUOUS
 70
0
 71
3
 72
9
 73
5
 74
0
 42
0.0000001
 43
0.0000001
 44
0.0000000001
 40
0.0
 40
0.0
 40
0.0
 40
0.0
 40
0.4997636909
 40
1.0
 40
1.0
 40
1.0
 40
1.0
 10
39.2450038543
 20
75.4751089325
 30
0.0
 10
39.2259113712
 20
75.4751089325
 30
0.0
 10
39.1867888159
 20
75.4664077339
 30
0.0
 10
39.1574497563
 20
75.4399712412
 30
0.0
 10
39.1451598536
 20
75.4253366596
 30
0.0
  0
SPLINE
  5
47E
100
AcDbEntity
  8
0
100
AcDbSpline
 62
7
  6
CONTINUOUS
 70
0
 71
3
 72
9
 73
5
 74
0
 42
0.0000001
 43
0.0000001
 44
0.0000000001
 40
0.0
 40
0.0
 40
0.0
 40
0.0
 40
0.2592072765
 40
1.0
 40
1.0
 40
1.0
 40
1.0
 10
39.1451598536
 20
75.4253366596
 30
0.0
 10
39.1419296724
 20
75.4214902215
 30
0.0
 10
39.1300453065
 20
75.4064002688
 30
0.0
 10
39.1209990862
 20
75.3873751597
 30
0.0
 10
39.1209990862
 20
75.3730202359
 30
0.0
  0
SPLINE
  5
47F
100
AcDbEntity
  8
0
100
AcDbSpline
 62
7
  6
CONTINUOUS
 70
0
 71
3
 72
9
 73
5
 74
0
 42
0.0000001
 43
0.0000001
 44
0.0000000001
 40
0.0
 40
0.0
 40
0.0
 40
0.0
 40
0.4997636909
 40
1.0
 40
1.0
 40
1.0
 40
1.0
 10
39.2450038543
 20
74.9751089325
 30
0.0
 10
39.2259113712
 20
74.9751089325
 30
0.0
 10
39.1867888159
 20
74.9664077339
 30
0.0
 10
39.1574497563
 20
74.9399712412
 30
0.0
 10
39.1451598536
 20
74.9253366596
 30
0.0
  0
SPLINE
  5
480
100
AcDbEntity
  8
0
100
AcDbSpline
 62
7
  6
CONTINUOUS
 70
0
 71
3
 72
9
 73
5
 74
0
 42
0.0000001
 43
0.0000001
 44
0.0000000001
 40
0.0
 40
0.0
 40
0.0
 40
0.0
 40
0.2592072765
 40
1.0
 40
1.0
 40
1.0
 40
1.0
 10
39.1451598536
 20
74.9253366596
 30
0.0
 10
39.1419296724
 20
74.9214902215
 30
0.0
 10
39.1300453065
 20
74.9064002688
 30
0.0
 10
39.1209990862
 20
74.8873751597
 30
0.0
 10
39.1209990862
 20
74.8730202359
 30
0.0
  0
SPLINE
  5
481
100
AcDbEntity
  8
0
100
AcDbSpline
 62
7
  6
CONTINUOUS
 70
0
 71
3
 72
9
 73
5
 74
0
 42
0.0000001
 43
0.0000001
 44
0.0000000001
 40
0.0
 40
0.0
 40
0.0
 40
0.0
 40
0.4997636909
 40
1.0
 40
1.0
 40
1.0
 40
1.0
 10
39.2450038543
 20
74.4751089325
 30
0.0
 10
39.2259113712
 20
74.4751089325
 30
0.0
 10
39.1867888159
 20
74.4664077339
 30
0.0
 10
39.1574497563
 20
74.4399712412
 30
0.0
 10
39.1451598536
 20
74.4253366596
 30
0.0
  0
SPLINE
  5
482
100
AcDbEntity
  8
0
100
AcDbSpline
 62
7
  6
CONTINUOUS
 70
0
 71
3
 72
9
 73
5
 74
0
 42
0.0000001
 43
0.0000001
 44
0.0000000001
 40
0.0
 40
0.0
 40
0.0
 40
0.0
 40
0.2592072765
 40
1.0
 40
1.0
 40
1.0
 40
1.0
 10
39.1451598536
 20
74.4253366596
 30
0.0
 10
39.1419296724
 20
74.4214902215
 30
0.0
 10
39.1300453065
 20
74.4064002688
 30
0.0
 10
39.1209990862
 20
74.3873751597
 30
0.0
 10
39.1209990862
 20
74.3730202359
 30
0.0
  0
SPLINE
  5
483
100
AcDbEntity
  8
0
100
AcDbSpline
 62
7
  6
CONTINUOUS
 70
0
 71
3
 72
9
 73
5
 74
0
 42
0.0000001
 43
0.0000001
 44
0.0000000001
 40
0.0
 40
0.0
 40
0.0
 40
0.0
 40
0.4997636909
 40
1.0
 40
1.0
 40
1.0
 40
1.0
 10
39.2450038543
 20
73.9751089325
 30
0.0
 10
39.2259113712
 20
73.9751089325
 30
0.0
 10
39.1867888159
 20
73.9664077339
 30
0.0
 10
39.1574497563
 20
73.9399712412
 30
0.0
 10
39.1451598536
 20
73.9253366596
 30
0.0
  0
SPLINE
  5
484
100
AcDbEntity
  8
0
100
AcDbSpline
 62
7
  6
CONTINUOUS
 70
0
 71
3
 72
9
 73
5
 74
0
 42
0.0000001
 43
0.0000001
 44
0.0000000001
 40
0.0
 40
0.0
 40
0.0
 40
0.0
 40
0.2592072765
 40
1.0
 40
1.0
 40
1.0
 40
1.0
 10
39.1451598536
 20
73.9253366596
 30
0.0
 10
39.1419296724
 20
73.9214902215
 30
0.0
 10
39.1300453065
 20
73.9064002688
 30
0.0
 10
39.1209990862
 20
73.8873751597
 30
0.0
 10
39.1209990862
 20
73.8730202359
 30
0.0
  0
SPLINE
  5
485
100
AcDbEntity
  8
0
100
AcDbSpline
 62
7
  6
CONTINUOUS
 70
0
 71
3
 72
9
 73
5
 74
0
 42
0.0000001
 43
0.0000001
 44
0.0000000001
 40
0.0
 40
0.0
 40
0.0
 40
0.0
 40
0.4997636909
 40
1.0
 40
1.0
 40
1.0
 40
1.0
 10
39.2450038543
 20
73.4751089325
 30
0.0
 10
39.2259113712
 20
73.4751089325
 30
0.0
 10
39.1867888159
 20
73.4664077339
 30
0.0
 10
39.1574497563
 20
73.4399712412
 30
0.0
 10
39.1451598536
 20
73.4253366596
 30
0.0
  0
SPLINE
  5
486
100
AcDbEntity
  8
0
100
AcDbSpline
 62
7
  6
CONTINUOUS
 70
0
 71
3
 72
9
 73
5
 74
0
 42
0.0000001
 43
0.0000001
 44
0.0000000001
 40
0.0
 40
0.0
 40
0.0
 40
0.0
 40
0.2592072765
 40
1.0
 40
1.0
 40
1.0
 40
1.0
 10
39.1451598536
 20
73.4253366596
 30
0.0
 10
39.1419296724
 20
73.4214902215
 30
0.0
 10
39.1300453065
 20
73.4064002688
 30
0.0
 10
39.1209990862
 20
73.3873751597
 30
0.0
 10
39.1209990862
 20
73.3730202359
 30
0.0
  0
SPLINE
  5
487
100
AcDbEntity
  8
0
100
AcDbSpline
 62
7
  6
CONTINUOUS
 70
0
 71
3
 72
9
 73
5
 74
0
 42
0.0000001
 43
0.0000001
 44
0.0000000001
 40
0.0
 40
0.0
 40
0.0
 40
0.0
 40
0.4997636909
 40
1.0
 40
1.0
 40
1.0
 40
1.0
 10
39.2450038543
 20
72.9751089325
 30
0.0
 10
39.2259113712
 20
72.9751089325
 30
0.0
 10
39.1867888159
 20
72.9664077339
 30
0.0
 10
39.1574497563
 20
72.9399712412
 30
0.0
 10
39.1451598536
 20
72.9253366596
 30
0.0
  0
SPLINE
  5
488
100
AcDbEntity
  8
0
100
AcDbSpline
 62
7
  6
CONTINUOUS
 70
0
 71
3
 72
9
 73
5
 74
0
 42
0.0000001
 43
0.0000001
 44
0.0000000001
 40
0.0
 40
0.0
 40
0.0
 40
0.0
 40
0.2592072765
 40
1.0
 40
1.0
 40
1.0
 40
1.0
 10
39.1451598536
 20
72.9253366596
 30
0.0
 10
39.1419296724
 20
72.9214902215
 30
0.0
 10
39.1300453065
 20
72.9064002688
 30
0.0
 10
39.1209990862
 20
72.8873751597
 30
0.0
 10
39.1209990862
 20
72.8730202359
 30
0.0
  0
SPLINE
  5
489
100
AcDbEntity
  8
0
100
AcDbSpline
 62
7
  6
CONTINUOUS
 70
0
 71
3
 72
9
 73
5
 74
0
 42
0.0000001
 43
0.0000001
 44
0.0000000001
 40
0.0
 40
0.0
 40
0.0
 40
0.0
 40
0.4997636909
 40
1.0
 40
1.0
 40
1.0
 40
1.0
 10
39.2450038543
 20
72.4751089325
 30
0.0
 10
39.2259113712
 20
72.4751089325
 30
0.0
 10
39.1867888159
 20
72.4664077339
 30
0.0
 10
39.1574497563
 20
72.4399712412
 30
0.0
 10
39.1451598536
 20
72.4253366596
 30
0.0
  0
SPLINE
  5
48A
100
AcDbEntity
  8
0
100
AcDbSpline
 62
7
  6
CONTINUOUS
 70
0
 71
3
 72
9
 73
5
 74
0
 42
0.0000001
 43
0.0000001
 44
0.0000000001
 40
0.0
 40
0.0
 40
0.0
 40
0.0
 40
0.2592072765
 40
1.0
 40
1.0
 40
1.0
 40
1.0
 10
39.1451598536
 20
72.4253366596
 30
0.0
 10
39.1419296724
 20
72.4214902215
 30
0.0
 10
39.1300453065
 20
72.4064002688
 30
0.0
 10
39.1209990862
 20
72.3873751597
 30
0.0
 10
39.1209990862
 20
72.3730202359
 30
0.0
  0
SPLINE
  5
48B
100
AcDbEntity
  8
0
100
AcDbSpline
 62
7
  6
CONTINUOUS
 70
0
 71
3
 72
9
 73
5
 74
0
 42
0.0000001
 43
0.0000001
 44
0.0000000001
 40
0.0
 40
0.0
 40
0.0
 40
0.0
 40
0.2371260182
 40
1.0
 40
1.0
 40
1.0
 40
1.0
 10
47.6740290289
 20
50.7121921754
 30
0.0
 10
47.668930868
 20
50.727236003
 30
0.0
 10
47.643594284
 20
50.7893050353
 30
0.0
 10
47.6026588651
 20
50.8450719334
 30
0.0
 10
47.5651485957
 20
50.8797765229
 30
0.0
  0
SPLINE
  5
48C
100
AcDbEntity
  8
0
100
AcDbSpline
 62
7
  6
CONTINUOUS
 70
0
 71
3
 72
9
 73
5
 74
0
 42
0.0000001
 43
0.0000001
 44
0.0000000001
 40
0.0
 40
0.0
 40
0.0
 40
0.0
 40
0.2380418193
 40
1.0
 40
1.0
 40
1.0
 40
1.0
 10
47.5651485957
 20
50.8797765229
 30
0.0
 10
47.5537958999
 20
50.8902800637
 30
0.0
 10
47.5036789281
 20
50.9316222283
 30
0.0
 10
47.4420442999
 20
50.9597553033
 30
0.0
 10
47.393471362
 20
50.9693262738
 30
0.0
  0
SPLINE
  5
48D
100
AcDbEntity
  8
0
100
AcDbSpline
 62
7
  6
CONTINUOUS
 70
0
 71
3
 72
22
 73
18
 74
0
 42
0.0000001
 43
0.0000001
 44
0.0000000001
 40
0.0
 40
0.0
 40
0.0
 40
0.0
 40
0.1993541883
 40
0.386033451
 40
0.5557525303
 40
0.7042261974
 40
0.769156901
 40
0.8271693501
 40
0.8777279573
 40
0.9202971945
 40
0.9543416624
 40
0.9679998914
 40
0.9793263455
 40
0.9882543449
 40
0.9947175455
 40
0.9986508327
 40
1.0
 40
1.0
 40
1.0
 40
1.0
 10
39.9920170416
 20
97.5785994439
 30
0.0
 10
39.9455068505
 20
97.5788312759
 30
0.0
 10
39.8554433434
 20
97.5792347508
 30
0.0
 10
39.7257830392
 20
97.5796805995
 30
0.0
 10
39.6079929704
 20
97.5799522606
 30
0.0
 10
39.5186077155
 20
97.5800395441
 30
0.0
 10
39.4552838527
 20
97.5800123146
 30
0.0
 10
39.4148055668
 20
97.5799482985
 30
0.0
 10
39.3795408864
 20
97.5798440133
 30
0.0
 10
39.3498788031
 20
97.5796902263
 30
0.0
 10
39.3287998753
 20
97.5795369449
 30
0.0
 10
39.3150577458
 20
97.5793531397
 30
0.0
 10
39.3070845702
 20
97.579270861
 30
0.0
 10
39.3010156659
 20
97.5790285352
 30
0.0
 10
39.2961333774
 20
97.5791428066
 30
0.0
 10
39.294067107
 20
97.578556539
 30
0.0
 10
39.2921308903
 20
97.578914139
 30
0.0
 10
39.2921258407
 20
97.578599409
 30
0.0
  0
LINE
  5
48E
100
AcDbEntity
  8
0
100
AcDbLine
 62
7
  6
CONTINUOUS
 10
39.7948499374
 20
94.7751089325
 11
39.9196421674
 21
94.7751038339
  0
SPLINE
  5
48F
100
AcDbEntity
  8
0
100
AcDbSpline
 62
7
  6
CONTINUOUS
 70
0
 71
3
 72
9
 73
5
 74
0
 42
0.0000001
 43
0.0000001
 44
0.0000000001
 40
0.0
 40
0.0
 40
0.0
 40
0.0
 40
0.5000700728
 40
1.0
 40
1.0
 40
1.0
 40
1.0
 10
39.9196345924
 20
94.7751079128
 30
0.0
 10
39.9235564143
 20
94.7748489561
 30
0.0
 10
39.9314822133
 20
94.7743586942
 30
0.0
 10
39.9391769372
 20
94.7766354288
 30
0.0
 10
39.9431061977
 20
94.7766361318
 30
0.0
  0
ELLIPSE
  5
490
100
AcDbEntity
  8
0
100
AcDbEllipse
 62
7
  6
CONTINUOUS
 10
58.6013776105
 20
93.5194464042
 30
0.0
 11
0.0
 21
2.3424580576
 31
0.0
 40
0.9996680433
 41
-1.112464583
 42
1.112464583
  0
ENDSEC
  0
SECTION
  2
OBJECTS
  0
DICTIONARY
  5
C
100
AcDbDictionary
280
0
281
1
  3
ACAD_GROUP
350
D
  3
ACAD_MLINESTYLE
350
17
  3
ACAD_LAYOUT
350
1A
  3
ACAD_PLOTSETTINGS
350
19
  3
ACAD_PLOTSTYLENAME
350
E
  0
DICTIONARY
  5
D
102
{ACAD_REACTORS
330
C
102
}
100
AcDbDictionary
280
0
281
1
  0
ACDBDICTIONARYWDFLT
  5
E
102
{ACAD_REACTORS
330
C
102
}
100
AcDbDictionary
281
1
  3
Normal
350
F
100
AcDbDictionaryWithDefault
340
F
  0
DICTIONARY
  5
17
102
{ACAD_REACTORS
330
C
102
}
100
AcDbDictionary
280
0
281
1
  3
Standard
350
18
  0
DICTIONARY
  5
19
102
{ACAD_REACTORS
330
C
102
}
100
AcDbDictionary
281
1
  0
DICTIONARY
  5
1A
102
{ACAD_REACTORS
330
C
102
}
100
AcDbDictionary
281
1
  3
Model
350
491
  3
Layout1
350
492
  0
ACDBPLACEHOLDER
  5
F
102
{ACAD_REACTORS
330
E
102
}
  0
MLINESTYLE
  5
18
102
{ACAD_REACTORS
330
17
102
}
100
AcDbMlineStyle
  2
STANDARD
 70
0
  3

 62
256
 51
90.0
 52
90.0
 71
2
 49
0.5
 62
256
  6
BYLAYER
 49
-0.5
 62
256
  6
BYLAYER
  0
LAYOUT
  5
491
102
{ACAD_REACTORS
330
1A
102
}
100
AcDbPlotSettings
  1

  2
none_device
  4

  6

 40
0.0
 41
0.0
 42
0.0
 43
0.0
 44
210.0
 45
297.0
 46
0.0
 47
0.0
 48
0.0
 49
0.0
140
0.0
141
0.0
142
1.0
143
1.0
 70
1024
 72
1
 73
0
 74
0
  7

 75
0
147
1.0
148
0.0
149
0.0
100
AcDbLayout
  1
Model
 70
0
 71
0
 10
0.0
 20
0.0
 11
210.0
 21
297.0
 12
0.0
 22
0.0
 32
0.0
 14
0.0
 24
0.0
 34
0.0
 15
0.0
 25
0.0
 35
0.0
146
0.0
 13
0.0
 23
0.0
 33
0.0
 16
1.0
 26
0.0
 36
0.0
 17
0.0
 27
1.0
 37
0.0
 76
0
330
210
345
0
346
0
  0
LAYOUT
  5
492
102
{ACAD_REACTORS
330
1A
102
}
100
AcDbPlotSettings
  1

  2
none_device
  4

  6

 40
0.0
 41
0.0
 42
0.0
 43
0.0
 44
210.0
 45
297.0
 46
0.0
 47
0.0
 48
0.0
 49
0.0
140
0.0
141
0.0
142
1.0
143
1.0
 70
0
 72
1
 73
0
 74
0
  7

 75
0
147
1.0
148
0.0
149
0.0
100
AcDbLayout
  1
Layout1
 70
0
 71
1
 10
0.0
 20
0.0
 11
210.0
 21
297.0
 12
0.0
 22
0.0
 32
0.0
 14
0.0
 24
0.0
 34
0.0
 15
0.0
 25
0.0
 35
0.0
146
0.0
 13
0.0
 23
0.0
 33
0.0
 16
1.0
 26
0.0
 36
0.0
 17
0.0
 27
1.0
 37
0.0
 76
0
330
211
345
0
346
0
  0
ENDSEC
  0
EOF
