999
DXF file: C:\Users\sesa63760\Dev\_Creo\CAD\MCADPD0005304_3D-CAD\drw0001_2.dxf
999
Pro/ENGINEER 2019471 by Parametric Technology Corporation
  0
SECTION
  2
HEADER
  9
$ACADVER
  1
AC1024
  9
$DWGCODEPAGE
  3
ANSI_1252
  9
$EXTMAX
 10
102.0152589896
 20
144.2787234282
 30
0.0
  9
$EXTMIN
 10
0.0
 20
0.0
 30
0.0
  9
$LIMMIN
 10
0.0
 20
0.0
  9
$LIMMAX
 10
102.0152589896
 20
144.2787234282
  9
$VIEWCTR
 10
51.0076294948
 20
72.1393617141
  9
$VIEWSIZE
 40
144.2787234282
  9
$CLAYER
  8
0
  9
$LTSCALE
 40
9.4048353049
  9
$CELTYPE
  6
BYLAYER
  9
$DIMSCALE
 40
1.0
  9
$DIMASZ
 40
1.2144673689
  9
$DIMEXO
 40
1.0
  9
$DIMDLI
 40
6.4978862107
  9
$DIMEXE
 40
1.0
  9
$DIMCEN
 40
1.5389730499
  9
$DIMLFAC
 40
1.0
  9
$DIMBLK
  1
_FILLED
  9
$DIMALT
 70
0
  9
$DIMALTF
 40
0.0393700787
  9
$DIMTXT
 40
1.7002543165
  9
$DIMTOL
 70
1
  9
$DIMLIM
 70
0
  9
$DIMTFAC
 40
1.0
  9
$DIMTP
 40
0.01
  9
$DIMTM
 40
0.01
  9
$DIMGAP
 40
0.625
  9
$DIMDSEP
 70
46
  9
$AUNITS
 70
0
  9
$PDMODE
 70
3
  9
$PDSIZE
 40
0.3125
  9
$HANDSEED
  5
273
  9
$TILEMODE
 70
1
  9
$MEASUREMENT
 70
1
  9
$INSUNITS
 70
4
  0
ENDSEC
  0
SECTION
  2
CLASSES
  0
CLASS
  1
ACDBDICTIONARYWDFLT
  2
AcDbDictionaryWithDefault
  3
AutoCAD 2000
 90
0
 91
1
280
0
281
0
  0
CLASS
  1
ACDBPLACEHOLDER
  2
AcDbPlaceHolder
  3
AutoCAD 2000
 90
0
 91
1
280
0
281
0
  0
CLASS
  1
LAYOUT
  2
AcDbLayout
  3
AutoCAD 2000
 90
0
 91
0
280
0
281
0
  0
ENDSEC
  0
SECTION
  2
TABLES
  0
TABLE
  2
VPORT
  5
8
100
AcDbSymbolTable
 70
2
  0
VPORT
  5
1F4
100
AcDbSymbolTableRecord
100
AcDbViewportTableRecord
  2
*ACTIVE
 70
0
 10
0.0
 20
0.0
 11
1.0
 21
1.0
 12
51.0076294948
 22
72.1393617141
 13
0.0
 23
0.0
 14
1.0
 24
1.0
 15
0.0
 25
0.0
 16
0.0
 26
0.0
 36
1.0
 17
0.0
 27
0.0
 37
0.0
 40
144.2787234282
 41
0.7070707071
 42
50.0
 43
0.0
 44
0.0
 50
0.0
 51
0.0
 71
0
 72
100
 73
1
 74
1
 75
0
 76
0
 77
0
 78
0
  0
ENDTAB
  0
TABLE
  2
LTYPE
  5
5
100
AcDbSymbolTable
 70
6
  0
LTYPE
  5
14
100
AcDbSymbolTableRecord
100
AcDbLinetypeTableRecord
  2
BYBLOCK
 70
0
  3

 72
65
 73
0
 40
0.0
  0
LTYPE
  5
15
100
AcDbSymbolTableRecord
100
AcDbLinetypeTableRecord
  2
BYLAYER
 70
0
  3

 72
65
 73
0
 40
0.0
  0
LTYPE
  5
16
100
AcDbSymbolTableRecord
100
AcDbLinetypeTableRecord
  2
CONTINUOUS
 70
64
  3
Solid line
 72
65
 73
0
 40
0.0
  0
LTYPE
  5
1F5
100
AcDbSymbolTableRecord
100
AcDbLinetypeTableRecord
  2
CENTER
 70
64
  3
____ _ ____ _ ____ _ ____ _ ____ _ ____ _ ____
 72
65
 73
4
 40
0.6
 49
0.375
 74
0
 49
-0.075
 74
0
 49
0.075
 74
0
 49
-0.075
 74
0
  0
LTYPE
  5
1F6
100
AcDbSymbolTableRecord
100
AcDbLinetypeTableRecord
  2
HIDDEN
 70
64
  3
- - - - - - - - - - - - - - - - - - - -
 72
65
 73
2
 40
0.2
 49
0.1
 74
0
 49
-0.1
 74
0
  0
LTYPE
  5
1F7
100
AcDbSymbolTableRecord
100
AcDbLinetypeTableRecord
  2
PHANTOM
 70
64
  3
_____ _ _ _____ _ _ _____ _ _ _____
 72
65
 73
6
 40
0.8
 49
0.45
 74
0
 49
-0.05
 74
0
 49
0.1
 74
0
 49
-0.05
 74
0
 49
0.1
 74
0
 49
-0.05
 74
0
  0
LTYPE
  5
1F8
100
AcDbSymbolTableRecord
100
AcDbLinetypeTableRecord
  2
DOT
 70
64
  3
. . . . . . . . . . . . . . . . . . . .
 72
65
 73
2
 40
0.2
 49
0.1
 74
0
 49
-0.1
 74
0
  0
LTYPE
  5
1F9
100
AcDbSymbolTableRecord
100
AcDbLinetypeTableRecord
  2
DASHED
 70
64
  3
- - - - - - - - - - - - - - - - - - - -
 72
65
 73
2
 40
0.2
 49
0.1
 74
0
 49
-0.1
 74
0
  0
ENDTAB
  0
TABLE
  2
LAYER
  5
2
100
AcDbSymbolTable
 70
36
  0
LAYER
  5
10
100
AcDbSymbolTableRecord
100
AcDbLayerTableRecord
  2
0
 70
0
 62
7
  6
CONTINUOUS
370
-3
390
F
  0
LAYER
  5
1FA
100
AcDbSymbolTableRecord
100
AcDbLayerTableRecord
  2
DEFAULT_1
 70
0
 62
7
  6
CENTER
370
-3
390
F
  0
LAYER
  5
1FB
100
AcDbSymbolTableRecord
100
AcDbLayerTableRecord
  2
DEFAULT_2
 70
0
 62
7
  6
HIDDEN
370
-3
390
F
  0
LAYER
  5
1FC
100
AcDbSymbolTableRecord
100
AcDbLayerTableRecord
  2
DEFAULT_3
 70
0
 62
7
  6
PHANTOM
370
-3
390
F
  0
LAYER
  5
1FD
100
AcDbSymbolTableRecord
100
AcDbLayerTableRecord
  2
00_COMPONENTS
 70
0
 62
7
  6
CONTINUOUS
370
-3
390
F
  0
LAYER
  5
1FE
100
AcDbSymbolTableRecord
100
AcDbLayerTableRecord
  2
01_1_DEFAULT_DATUMS
 70
0
 62
7
  6
CONTINUOUS
370
-3
390
F
  0
LAYER
  5
1FF
100
AcDbSymbolTableRecord
100
AcDbLayerTableRecord
  2
01_PLANES
 70
0
 62
7
  6
CONTINUOUS
370
-3
390
F
  0
LAYER
  5
200
100
AcDbSymbolTableRecord
100
AcDbLayerTableRecord
  2
02_COORD_SYS
 70
0
 62
7
  6
CONTINUOUS
370
-3
390
F
  0
LAYER
  5
201
100
AcDbSymbolTableRecord
100
AcDbLayerTableRecord
  2
03_AXES
 70
0
 62
7
  6
CONTINUOUS
370
-3
390
F
  0
LAYER
  5
202
100
AcDbSymbolTableRecord
100
AcDbLayerTableRecord
  2
04_POINTS
 70
0
 62
7
  6
CONTINUOUS
370
-3
390
F
  0
LAYER
  5
203
100
AcDbSymbolTableRecord
100
AcDbLayerTableRecord
  2
05_CURVES
 70
0
 62
7
  6
CONTINUOUS
370
-3
390
F
  0
LAYER
  5
204
100
AcDbSymbolTableRecord
100
AcDbLayerTableRecord
  2
06_SURFS
 70
0
 62
7
  6
CONTINUOUS
370
-3
390
F
  0
LAYER
  5
205
100
AcDbSymbolTableRecord
100
AcDbLayerTableRecord
  2
07_COSMETICS
 70
0
 62
7
  6
CONTINUOUS
370
-3
390
F
  0
LAYER
  5
206
100
AcDbSymbolTableRecord
100
AcDbLayerTableRecord
  2
10_NOTES
 70
0
 62
7
  6
CONTINUOUS
370
-3
390
F
  0
LAYER
  5
207
100
AcDbSymbolTableRecord
100
AcDbLayerTableRecord
  2
11_NOTES_PUB
 70
0
 62
7
  6
CONTINUOUS
370
-3
390
F
  0
LAYER
  5
208
100
AcDbSymbolTableRecord
100
AcDbLayerTableRecord
  2
13_REF_GTOL
 70
0
 62
7
  6
CONTINUOUS
370
-3
390
F
  0
LAYER
  5
209
100
AcDbSymbolTableRecord
100
AcDbLayerTableRecord
  2
16_MISC
 70
0
 62
7
  6
CONTINUOUS
370
-3
390
F
  0
LAYER
  5
20A
100
AcDbSymbolTableRecord
100
AcDbLayerTableRecord
  2
17_NO_PRINT
 70
0
 62
7
  6
CONTINUOUS
370
-3
390
F
  0
LAYER
  5
20B
100
AcDbSymbolTableRecord
100
AcDbLayerTableRecord
  2
18_DATUM_CAMS_JOINTS
 70
0
 62
7
  6
CONTINUOUS
370
-3
390
F
  0
LAYER
  5
20C
100
AcDbSymbolTableRecord
100
AcDbLayerTableRecord
  2
19_DATUM_FUNCTIONAL
 70
0
 62
7
  6
CONTINUOUS
370
-3
390
F
  0
LAYER
  5
20D
100
AcDbSymbolTableRecord
100
AcDbLayerTableRecord
  2
20_DATUM_KINEMATIC_SCHEME
 70
0
 62
7
  6
CONTINUOUS
370
-3
390
F
  0
ENDTAB
  0
TABLE
  2
STYLE
  5
3
100
AcDbSymbolTable
 70
1
  0
STYLE
  5
11
100
AcDbSymbolTableRecord
100
AcDbTextStyleTableRecord
  2
STANDARD
 70
0
 40
0.0
 41
1.0
 50
0.0
 71
0
 42
0.2
  3
ARIAL.TTF
  4

  0
STYLE
  5
20E
100
AcDbSymbolTableRecord
100
AcDbTextStyleTableRecord
  2
TEXTSTYLE_1
 70
0
 40
0.0
 41
0.8
 50
0.0
 71
0
 42
0.2
  3
gdt
  4

  0
ENDTAB
  0
TABLE
  2
VIEW
  5
6
100
AcDbSymbolTable
 70
0
  0
ENDTAB
  0
TABLE
  2
UCS
  5
7
100
AcDbSymbolTable
 70
0
  0
ENDTAB
  0
TABLE
  2
APPID
  5
9
100
AcDbSymbolTable
 70
1
  0
APPID
  5
20F
100
AcDbSymbolTableRecord
100
AcDbRegAppTableRecord
  2
ACAD
 70
0
  0
ENDTAB
  0
TABLE
  2
BLOCK_RECORD
  5
1
100
AcDbSymbolTable
 70
0
  0
BLOCK_RECORD
  5
210
100
AcDbSymbolTableRecord
100
AcDbBlockTableRecord
  2
*Model_Space
  0
BLOCK_RECORD
  5
211
100
AcDbSymbolTableRecord
100
AcDbBlockTableRecord
  2
*Paper_Space
  0
BLOCK_RECORD
  5
212
100
AcDbSymbolTableRecord
100
AcDbBlockTableRecord
  2
_FILLED
  0
ENDTAB
  0
TABLE
  2
DIMSTYLE
  5
A
100
AcDbSymbolTable
 70
1
100
AcDbDimStyleTable
 71
0
  0
DIMSTYLE
105
213
100
AcDbSymbolTableRecord
100
AcDbDimStyleTableRecord
  2
STANDARD
 70
0
  3

  4

 40
1.0
 41
1.2144673689
 42
1.0
 43
0.38
 44
1.0
 45
0.0
 46
0.0
 47
0.01
 48
0.01
140
1.7002543165
141
0.09
142
0.0
143
25.4
144
1.0
145
0.0
146
1.0
147
0.625
 71
1
 72
0
 73
0
 74
0
 75
0
 76
0
 77
1
 78
8
 79
2
170
0
171
1
172
0
173
0
174
0
175
0
176
0
177
0
178
0
270
2
179
2
271
2
272
2
273
2
274
2
275
0
280
0
281
0
282
0
283
1
284
8
285
0
286
0
287
3
288
0
340
11
278
46
341
212
342
212
343
212
344
212
  0
ENDTAB
  0
ENDSEC
  0
SECTION
  2
BLOCKS
  0
BLOCK
  5
20
100
AcDbEntity
  8
0
100
AcDbBlockBegin
  2
*Model_Space
 70
0
 10
0.0
 20
0.0
 30
0.0
  3
*Model_Space
  1

  0
ENDBLK
  5
21
100
AcDbEntity
  8
0
100
AcDbBlockEnd
  0
BLOCK
  5
1C
100
AcDbEntity
  8
0
100
AcDbBlockBegin
  2
*Paper_Space
 70
0
 10
0.0
 20
0.0
 30
0.0
  3
*Paper_Space
  1

  0
ENDBLK
  5
1D
100
AcDbEntity
  8
0
100
AcDbBlockEnd
  0
BLOCK
  5
214
100
AcDbEntity
  8
0
100
AcDbBlockBegin
  2
_FILLED
 70
64
 10
0.0
 20
0.0
  3
_FILLED
  1

  0
SOLID
  5
215
100
AcDbEntity
  8
0
  6
BYBLOCK
 62
0
100
AcDbTrace
 10
0.0
 20
0.0
 11
-1.0
 21
0.25
 12
-1.0
 22
-0.25
 13
-1.0
 23
-0.25
  0
ENDBLK
  5
216
100
AcDbEntity
  8
0
  6
BYBLOCK
 62
0
100
AcDbBlockEnd
  0
ENDSEC
  0
SECTION
  2
ENTITIES
  0
LINE
  5
217
100
AcDbEntity
  8
0
100
AcDbLine
 62
7
  6
BYLAYER
 10
29.2640124737
 20
9.6244680867
 11
74.1640124737
 21
9.6244680867
  0
LINE
  5
218
100
AcDbEntity
  8
0
100
AcDbLine
 62
7
  6
BYLAYER
 10
50.2140124737
 20
13.1244680867
 11
38.2140124737
 21
13.1244680867
  0
LINE
  5
219
100
AcDbEntity
  8
0
100
AcDbLine
 62
7
  6
BYLAYER
 10
35.2140124737
 20
14.1244680867
 11
53.2140124737
 21
14.1244680867
  0
LINE
  5
21A
100
AcDbEntity
  8
0
100
AcDbLine
 62
7
  6
BYLAYER
 10
74.1640124737
 20
18.6244680867
 11
29.2640124737
 21
18.6244680867
  0
LINE
  5
21B
100
AcDbEntity
  8
0
100
AcDbLine
 62
7
  6
BYLAYER
 10
29.2640124737
 20
19.6244680867
 11
74.1640124737
 21
19.6244680867
  0
LINE
  5
21C
100
AcDbEntity
  8
0
100
AcDbLine
 62
7
  6
BYLAYER
 10
68.8140124737
 20
27.4799680867
 11
64.6140124737
 21
27.4799680867
  0
LINE
  5
21D
100
AcDbEntity
  8
0
100
AcDbLine
 62
7
  6
BYLAYER
 10
53.8140124737
 20
27.4799680867
 11
49.6140124737
 21
27.4799680867
  0
LINE
  5
21E
100
AcDbEntity
  8
0
100
AcDbLine
 62
7
  6
BYLAYER
 10
38.8140124737
 20
27.4799680867
 11
34.6140124737
 21
27.4799680867
  0
LINE
  5
21F
100
AcDbEntity
  8
0
100
AcDbLine
 62
7
  6
BYLAYER
 10
34.6140124737
 20
33.6711180867
 11
38.8140124737
 21
33.6711180867
  0
LINE
  5
220
100
AcDbEntity
  8
0
100
AcDbLine
 62
7
  6
BYLAYER
 10
49.6140124737
 20
33.6711180867
 11
53.8140124737
 21
33.6711180867
  0
LINE
  5
221
100
AcDbEntity
  8
0
100
AcDbLine
 62
7
  6
BYLAYER
 10
64.6140124737
 20
33.6711180867
 11
68.8140124737
 21
33.6711180867
  0
LINE
  5
222
100
AcDbEntity
  8
0
100
AcDbLine
 62
7
  6
BYLAYER
 10
21.7140124737
 20
88.8244680867
 11
21.7140124737
 21
93.1244680867
  0
LINE
  5
223
100
AcDbEntity
  8
0
100
AcDbLine
 62
7
  6
BYLAYER
 10
24.7140124737
 20
88.8244680867
 11
24.7140124737
 21
94.1244680867
  0
LINE
  5
224
100
AcDbEntity
  8
0
100
AcDbLine
 62
7
  6
BYLAYER
 10
24.7889667589
 20
64.9244680867
 11
24.7889667589
 21
70.6244680867
  0
LINE
  5
225
100
AcDbEntity
  8
0
100
AcDbLine
 62
7
  6
BYLAYER
 10
29.2140124737
 20
132.1244680867
 11
29.2140124737
 21
94.1244680867
  0
LINE
  5
226
100
AcDbEntity
  8
0
100
AcDbLine
 62
7
  6
BYLAYER
 10
29.2640124737
 20
9.6244680867
 11
29.2640124737
 21
70.6244680867
  0
LINE
  5
227
100
AcDbEntity
  8
0
100
AcDbLine
 62
7
  6
BYLAYER
 10
74.1640124737
 20
49.1244680867
 11
29.2640124737
 21
49.1244680867
  0
LINE
  5
228
100
AcDbEntity
  8
0
100
AcDbLine
 62
7
  6
BYLAYER
 10
32.0229145572
 20
115.9056741263
 11
31.9302010092
 21
132.1942671389
  0
LINE
  5
229
100
AcDbEntity
  8
0
100
AcDbLine
 62
7
  6
BYLAYER
 10
31.4640124737
 20
78.0244680867
 11
31.4640124737
 21
88.8244680867
  0
LINE
  5
22A
100
AcDbEntity
  8
0
100
AcDbLine
 62
7
  6
BYLAYER
 10
31.9302010097
 20
134.1244680867
 11
31.9302010097
 21
132.1942671095
  0
LINE
  5
22B
100
AcDbEntity
  8
0
100
AcDbLine
 62
7
  6
BYLAYER
 10
29.2640124737
 20
50.1244680867
 11
74.1640124737
 21
50.1244680867
  0
LINE
  5
22C
100
AcDbEntity
  8
0
100
AcDbLine
 62
7
  6
BYLAYER
 10
34.6140124737
 20
27.4799680867
 11
34.6140124737
 21
33.6711180867
  0
LINE
  5
22D
100
AcDbEntity
  8
0
100
AcDbLine
 62
7
  6
BYLAYER
 10
35.2140124737
 20
9.6244680867
 11
35.2140124737
 21
14.1244680867
  0
LINE
  5
22E
100
AcDbEntity
  8
0
100
AcDbLine
 62
7
  6
BYLAYER
 10
35.5140124737
 20
70.6244680867
 11
35.5140124737
 21
64.9244680867
  0
LINE
  5
22F
100
AcDbEntity
  8
0
100
AcDbLine
 62
7
  6
BYLAYER
 10
37.7650329881
 20
60.5244680867
 11
37.7650329881
 21
67.5244680867
  0
LINE
  5
230
100
AcDbEntity
  8
0
100
AcDbLine
 62
7
  6
BYLAYER
 10
38.8140124737
 20
33.6711180867
 11
38.8140124737
 21
27.4799680867
  0
LINE
  5
231
100
AcDbEntity
  8
0
100
AcDbLine
 62
7
  6
BYLAYER
 10
40.2140124737
 20
9.6244680867
 11
40.2140124737
 21
13.1244680867
  0
LINE
  5
232
100
AcDbEntity
  8
0
100
AcDbLine
 62
7
  6
BYLAYER
 10
40.7140124737
 20
70.6244680867
 11
40.7140124737
 21
78.0244680867
  0
LINE
  5
233
100
AcDbEntity
  8
0
100
AcDbLine
 62
7
  6
BYLAYER
 10
42.6640124737
 20
67.5244680867
 11
42.6640124737
 21
60.5244680867
  0
LINE
  5
234
100
AcDbEntity
  8
0
100
AcDbLine
 62
7
  6
BYLAYER
 10
37.7650329881
 20
60.5244680867
 11
65.6629919592
 21
60.5244680867
  0
LINE
  5
235
100
AcDbEntity
  8
0
100
AcDbLine
 62
7
  6
BYLAYER
 10
24.7889667589
 20
64.9244680867
 11
35.5140124737
 21
64.9244680867
  0
LINE
  5
236
100
AcDbEntity
  8
0
100
AcDbLine
 62
7
  6
BYLAYER
 10
67.9140124737
 20
64.9244680867
 11
78.6717343387
 21
64.9244680867
  0
LINE
  5
237
100
AcDbEntity
  8
0
100
AcDbLine
 62
7
  6
BYLAYER
 10
65.6629919592
 20
67.5244680867
 11
37.7650329881
 21
67.5244680867
  0
LINE
  5
238
100
AcDbEntity
  8
0
100
AcDbLine
 62
7
  6
BYLAYER
 10
48.2140124737
 20
13.1244680867
 11
48.2140124737
 21
9.6244680867
  0
LINE
  5
239
100
AcDbEntity
  8
0
100
AcDbLine
 62
7
  6
BYLAYER
 10
49.6140124737
 20
27.4799680867
 11
49.6140124737
 21
33.6711180867
  0
LINE
  5
23A
100
AcDbEntity
  8
0
100
AcDbLine
 62
7
  6
BYLAYER
 10
78.6717343387
 20
70.6244680867
 11
24.7889667589
 21
70.6244680867
  0
LINE
  5
23B
100
AcDbEntity
  8
0
100
AcDbLine
 62
7
  6
BYLAYER
 10
53.2140124737
 20
14.1244680867
 11
53.2140124737
 21
9.6244680867
  0
LINE
  5
23C
100
AcDbEntity
  8
0
100
AcDbLine
 62
7
  6
BYLAYER
 10
53.8140124737
 20
33.6711180867
 11
53.8140124737
 21
27.4799680867
  0
LINE
  5
23D
100
AcDbEntity
  8
0
100
AcDbLine
 62
7
  6
BYLAYER
 10
60.7640124737
 20
60.5244680867
 11
60.7640124737
 21
67.5244680867
  0
LINE
  5
23E
100
AcDbEntity
  8
0
100
AcDbLine
 62
7
  6
BYLAYER
 10
31.4640404193
 20
78.0244680867
 11
71.963984528
 21
78.0244680867
  0
LINE
  5
23F
100
AcDbEntity
  8
0
100
AcDbLine
 62
7
  6
BYLAYER
 10
62.7140124737
 20
70.6244680867
 11
62.7140124737
 21
78.0244680867
  0
LINE
  5
240
100
AcDbEntity
  8
0
100
AcDbLine
 62
7
  6
BYLAYER
 10
64.6140124737
 20
27.4799680867
 11
64.6140124737
 21
33.6711180867
  0
LINE
  5
241
100
AcDbEntity
  8
0
100
AcDbLine
 62
7
  6
BYLAYER
 10
65.2140124737
 20
132.1244680867
 11
65.2140124737
 21
134.1244680867
  0
LINE
  5
242
100
AcDbEntity
  8
0
100
AcDbLine
 62
7
  6
BYLAYER
 10
65.6140124737
 20
132.1244680867
 11
65.6140124737
 21
134.1244680867
  0
LINE
  5
243
100
AcDbEntity
  8
0
100
AcDbLine
 62
7
  6
BYLAYER
 10
65.6629919592
 20
67.5244680867
 11
65.6629919592
 21
60.5244680867
  0
LINE
  5
244
100
AcDbEntity
  8
0
100
AcDbLine
 62
7
  6
BYLAYER
 10
67.9140124737
 20
70.6244680867
 11
67.9140124737
 21
64.9244680867
  0
LINE
  5
245
100
AcDbEntity
  8
0
100
AcDbLine
 62
7
  6
BYLAYER
 10
68.8140124737
 20
33.6711180867
 11
68.8140124737
 21
27.4799680867
  0
LINE
  5
246
100
AcDbEntity
  8
0
100
AcDbLine
 62
7
  6
BYLAYER
 10
21.7140124737
 20
88.8244680867
 11
81.7140124737
 21
88.8244680867
  0
LINE
  5
247
100
AcDbEntity
  8
0
100
AcDbLine
 62
7
  6
BYLAYER
 10
71.4978237145
 20
132.1942670995
 11
71.4978237145
 21
134.1244680867
  0
LINE
  5
248
100
AcDbEntity
  8
0
100
AcDbLine
 62
7
  6
BYLAYER
 10
71.9640124737
 20
78.0244680867
 11
71.9640124737
 21
88.8244680867
  0
LINE
  5
249
100
AcDbEntity
  8
0
100
AcDbLine
 62
7
  6
BYLAYER
 10
74.1640124737
 20
9.6244680867
 11
74.1636972165
 21
70.6244680867
  0
LINE
  5
24A
100
AcDbEntity
  8
0
100
AcDbLine
 62
7
  6
BYLAYER
 10
74.2140124737
 20
132.1244680867
 11
74.2140124737
 21
94.1244680867
  0
LINE
  5
24B
100
AcDbEntity
  8
0
100
AcDbLine
 62
7
  6
BYLAYER
 10
71.4978239375
 20
132.194267119
 11
71.4051103901
 21
115.9056741263
  0
LINE
  5
24C
100
AcDbEntity
  8
0
100
AcDbLine
 62
7
  6
BYLAYER
 10
81.7140124737
 20
93.1244680867
 11
21.7140124737
 21
93.1244680867
  0
LINE
  5
24D
100
AcDbEntity
  8
0
100
AcDbLine
 62
7
  6
BYLAYER
 10
22.7140124737
 20
94.1244680867
 11
80.7140124737
 21
94.1244680867
  0
LINE
  5
24E
100
AcDbEntity
  8
0
100
AcDbLine
 62
7
  6
BYLAYER
 10
78.6290660264
 20
64.9244680867
 11
78.6290660264
 21
70.6244680867
  0
LINE
  5
24F
100
AcDbEntity
  8
0
100
AcDbLine
 62
7
  6
BYLAYER
 10
78.6717343387
 20
64.9244680867
 11
78.6717343387
 21
70.6244680867
  0
LINE
  5
250
100
AcDbEntity
  8
0
100
AcDbLine
 62
7
  6
BYLAYER
 10
78.7140124736
 20
88.8244680867
 11
78.7140124737
 21
94.1244680867
  0
LINE
  5
251
100
AcDbEntity
  8
0
100
AcDbLine
 62
7
  6
BYLAYER
 10
81.7140124737
 20
88.8244680867
 11
81.7140124737
 21
93.1244680867
  0
LINE
  5
252
100
AcDbEntity
  8
0
100
AcDbLine
 62
7
  6
BYLAYER
 10
61.5384970758
 20
101.8244680867
 11
41.8895278716
 21
101.8244680867
  0
LINE
  5
253
100
AcDbEntity
  8
0
100
AcDbLine
 62
7
  6
BYLAYER
 10
60.4468876755
 20
104.3244680867
 11
42.9811372718
 21
104.3244680867
  0
LINE
  5
254
100
AcDbEntity
  8
0
100
AcDbLine
 62
7
  6
BYLAYER
 10
32.0229145572
 20
115.9056741263
 11
71.4051103901
 21
115.9056741263
  0
LINE
  5
255
100
AcDbEntity
  8
0
100
AcDbLine
 62
7
  6
BYLAYER
 10
74.2140124737
 20
132.1244680867
 11
73.9709019827
 21
132.1244680867
  0
LINE
  5
256
100
AcDbEntity
  8
0
100
AcDbLine
 62
7
  6
BYLAYER
 10
65.6140124737
 20
132.1244680867
 11
65.2140124737
 21
132.1244680867
  0
LINE
  5
257
100
AcDbEntity
  8
0
100
AcDbLine
 62
7
  6
BYLAYER
 10
29.4571229646
 20
132.1244680867
 11
29.2140124737
 21
132.1244680867
  0
LINE
  5
258
100
AcDbEntity
  8
0
100
AcDbLine
 62
7
  6
BYLAYER
 10
71.4978239375
 20
132.194267119
 11
65.6140124737
 21
132.1942670801
  0
LINE
  5
259
100
AcDbEntity
  8
0
100
AcDbLine
 62
7
  6
BYLAYER
 10
65.2140124737
 20
132.1942670801
 11
31.9302010092
 21
132.1942671389
  0
LINE
  5
25A
100
AcDbEntity
  8
0
100
AcDbLine
 62
7
  6
BYLAYER
 10
31.2140169904
 20
134.1244680867
 11
72.2140079569
 21
134.1244680867
  0
ARC
  5
25B
100
AcDbEntity
  8
0
100
AcDbCircle
 62
7
  6
BYLAYER
 10
72.2140124737
 20
132.1244680867
 40
2.0
100
AcDbArc
 50
0.0
 51
90.0
  0
ARC
  5
25C
100
AcDbEntity
  8
0
100
AcDbCircle
 62
7
  6
BYLAYER
 10
31.2140124737
 20
132.1244680867
 40
2.0
100
AcDbArc
 50
90.0
 51
180.0
  0
ARC
  5
25D
100
AcDbEntity
  8
0
100
AcDbCircle
 62
7
  6
BYLAYER
 10
71.9906701065
 20
132.1588296032
 40
1.9656951298
100
AcDbArc
 50
83.9544163048
 51
84.6075919988
  0
ARC
  5
25E
100
AcDbEntity
  8
0
100
AcDbCircle
 62
7
  6
BYLAYER
 10
71.9921351406
 20
132.1771407527
 40
1.9473273567
100
AcDbArc
 50
84.599875425
 51
89.9892185091
  0
ARC
  5
25F
100
AcDbEntity
  8
0
100
AcDbCircle
 62
7
  6
BYLAYER
 10
22.7140124737
 20
93.1244680867
 40
1.0
100
AcDbArc
 50
90.0
 51
180.0
  0
ARC
  5
260
100
AcDbEntity
  8
0
100
AcDbCircle
 62
7
  6
BYLAYER
 10
80.7140124737
 20
93.1244680867
 40
1.0
100
AcDbArc
 50
0.0
 51
90.0
  0
SPLINE
  5
261
100
AcDbEntity
  8
0
100
AcDbSpline
 62
7
  6
BYLAYER
 70
0
 71
3
 72
12
 73
8
 74
0
 42
0.0000001
 43
0.0000001
 44
0.0000000001
 40
0.0
 40
0.0
 40
0.0
 40
0.0
 40
0.2656934239
 40
0.525799889
 40
0.7733178826
 40
0.8899880282
 40
1.0
 40
1.0
 40
1.0
 40
1.0
 10
35.2140124737
 20
14.1244680867
 30
0.0
 10
35.4711274923
 20
14.0094827548
 30
0.0
 10
35.9799744912
 20
13.7818287886
 30
0.0
 10
36.7372214814
 20
13.467843816
 30
0.0
 10
37.3653047323
 20
13.2544204141
 30
0.0
 10
37.8570356363
 20
13.1473388218
 30
0.0
 10
38.0973913526
 20
13.1244680867
 30
0.0
 10
38.2140124737
 20
13.1244680867
 30
0.0
  0
SPLINE
  5
262
100
AcDbEntity
  8
0
100
AcDbSpline
 62
7
  6
BYLAYER
 70
0
 71
3
 72
23
 73
19
 74
0
 42
0.0000001
 43
0.0000001
 44
0.0000000001
 40
0.0
 40
0.0
 40
0.0
 40
0.0
 40
0.0788713649
 40
0.1558558357
 40
0.2296427328
 40
0.2991788168
 40
0.3637985862
 40
0.4233657559
 40
0.4784130712
 40
0.530190294
 40
0.580500931
 40
0.631288975
 40
0.6841742475
 40
0.740201159
 40
0.7998513396
 40
0.8631895748
 40
0.9300200021
 40
1.0
 40
1.0
 40
1.0
 40
1.0
 10
73.8664976296
 20
115.8184253845
 30
0.0
 10
73.8623899066
 20
115.2303949817
 30
0.0
 10
73.8403188959
 20
114.0684356118
 30
0.0
 10
73.7594890004
 20
112.3579059869
 30
0.0
 10
73.6200010756
 20
110.7207460625
 30
0.0
 10
73.4061478914
 20
109.1841749806
 30
0.0
 10
73.0994964189
 20
107.7708422254
 30
0.0
 10
72.6806420315
 20
106.4984678301
 30
0.0
 10
72.1313449349
 20
105.3805327116
 30
0.0
 10
71.43811051
 20
104.427789722
 30
0.0
 10
70.5979052817
 20
103.6469714497
 30
0.0
 10
69.6194031948
 20
103.0348092596
 30
0.0
 10
68.5159924412
 20
102.5759496562
 30
0.0
 10
67.299831575
 20
102.2485731072
 30
0.0
 10
65.981591133
 20
102.0299953254
 30
0.0
 10
64.5716263052
 20
101.8986623188
 30
0.0
 10
63.0803508596
 20
101.8345156248
 30
0.0
 10
62.0602500647
 20
101.8244681307
 30
0.0
 10
61.5384970758
 20
101.8244680867
 30
0.0
  0
SPLINE
  5
263
100
AcDbEntity
  8
0
100
AcDbSpline
 62
7
  6
BYLAYER
 70
0
 71
3
 72
15
 73
11
 74
0
 42
0.0000001
 43
0.0000001
 44
0.0000000001
 40
0.0
 40
0.0
 40
0.0
 40
0.0
 40
0.155766871
 40
0.3159183242
 40
0.4728228097
 40
0.6178061385
 40
0.743590326
 40
0.8474851583
 40
0.9305432051
 40
1.0
 40
1.0
 40
1.0
 40
1.0
 10
61.5384970753
 20
101.8244680867
 30
0.0
 10
61.5384970753
 20
101.9763716905
 30
0.0
 10
61.5261300372
 20
102.2845738708
 30
0.0
 10
61.4698976758
 20
102.7428563123
 30
0.0
 10
61.3712077676
 20
103.1832698511
 30
0.0
 10
61.2355618312
 20
103.5789530865
 30
0.0
 10
61.0650879612
 20
103.9039648659
 30
0.0
 10
60.8730182057
 20
104.1444457856
 30
0.0
 10
60.6643919878
 20
104.2904110888
 30
0.0
 10
60.5146218305
 20
104.3244680867
 30
0.0
 10
60.4468876751
 20
104.3244680867
 30
0.0
  0
SPLINE
  5
264
100
AcDbEntity
  8
0
100
AcDbSpline
 62
7
  6
BYLAYER
 70
0
 71
3
 72
14
 73
10
 74
0
 42
0.0000001
 43
0.0000001
 44
0.0000000001
 40
0.0
 40
0.0
 40
0.0
 40
0.0
 40
0.3282427216
 40
0.4912784812
 40
0.6426814663
 40
0.774174241
 40
0.879771253
 40
0.95510772
 40
1.0
 40
1.0
 40
1.0
 40
1.0
 10
71.4051104477
 20
115.9056741138
 30
0.0
 10
71.6747030676
 20
115.9040020624
 30
0.0
 10
72.0781951182
 20
115.8993225474
 30
0.0
 10
72.6059314212
 20
115.8879781661
 30
0.0
 10
72.9720491561
 20
115.8773200923
 30
0.0
 10
73.290863368
 20
115.8645968279
 30
0.0
 10
73.5471856496
 20
115.8511156994
 30
0.0
 10
73.7320007868
 20
115.8365889864
 30
0.0
 10
73.8303600815
 20
115.8257464572
 30
0.0
 10
73.8664976294
 20
115.8184253699
 30
0.0
  0
SPLINE
  5
265
100
AcDbEntity
  8
0
100
AcDbSpline
 62
7
  6
BYLAYER
 70
0
 71
3
 72
15
 73
11
 74
0
 42
0.0000001
 43
0.0000001
 44
0.0000000001
 40
0.0
 40
0.0
 40
0.0
 40
0.0
 40
0.0694567947
 40
0.1525148412
 40
0.2564096732
 40
0.3821938602
 40
0.5271771888
 40
0.6840816745
 40
0.8442331282
 40
1.0
 40
1.0
 40
1.0
 40
1.0
 10
42.9811372175
 20
104.3244680867
 30
0.0
 10
42.9134030621
 20
104.3244680867
 30
0.0
 10
42.7636329051
 20
104.2904110893
 30
0.0
 10
42.5550066865
 20
104.144445788
 30
0.0
 10
42.3629369297
 20
103.90396487
 30
0.0
 10
42.192463058
 20
103.578953092
 30
0.0
 10
42.0568171198
 20
103.1832698568
 30
0.0
 10
41.9581272097
 20
102.7428563172
 30
0.0
 10
41.901894847
 20
102.2845738737
 30
0.0
 10
41.8895278085
 20
101.9763716915
 30
0.0
 10
41.8895278084
 20
101.8244680867
 30
0.0
  0
SPLINE
  5
266
100
AcDbEntity
  8
0
100
AcDbSpline
 62
7
  6
BYLAYER
 70
0
 71
3
 72
14
 73
10
 74
0
 42
0.0000001
 43
0.0000001
 44
0.0000000001
 40
0.0
 40
0.0
 40
0.0
 40
0.0
 40
0.3282427207
 40
0.49127848
 40
0.6426814651
 40
0.7741742399
 40
0.8797712522
 40
0.9551077197
 40
1.0
 40
1.0
 40
1.0
 40
1.0
 10
32.0229144846
 20
115.9056741258
 30
0.0
 10
31.7533218671
 20
115.9040020744
 30
0.0
 10
31.34982982
 20
115.8993225595
 30
0.0
 10
30.8220935213
 20
115.8879781786
 30
0.0
 10
30.4559757888
 20
115.8773201051
 30
0.0
 10
30.1371615786
 20
115.8645968411
 30
0.0
 10
29.8808392978
 20
115.8511157131
 30
0.0
 10
29.6960241608
 20
115.8365890004
 30
0.0
 10
29.597664866
 20
115.8257464716
 30
0.0
 10
29.561527318
 20
115.8184253845
 30
0.0
  0
SPLINE
  5
267
100
AcDbEntity
  8
0
100
AcDbSpline
 62
7
  6
BYLAYER
 70
0
 71
3
 72
15
 73
11
 74
0
 42
0.0000001
 43
0.0000001
 44
0.0000000001
 40
0.0
 40
0.0
 40
0.0
 40
0.0
 40
0.3520226431
 40
0.5140819533
 40
0.6599218436
 40
0.7849926394
 40
0.8852802899
 40
0.9576955855
 40
0.982714167
 40
1.0
 40
1.0
 40
1.0
 40
1.0
 10
31.930200846
 20
132.1942575548
 30
0.0
 10
31.6397376968
 20
132.1930822821
 30
0.0
 10
31.2155584732
 20
132.1893212488
 30
0.0
 10
30.6711116632
 20
132.1799900498
 30
0.0
 10
30.3139538884
 20
132.1714953625
 30
0.0
 10
30.0078103687
 20
132.1617267225
 30
0.0
 10
29.7623544112
 20
132.1509089159
 30
0.0
 10
29.5994673046
 20
132.1408986553
 30
0.0
 10
29.5052583584
 20
132.1317514346
 30
0.0
 10
29.4706214129
 20
132.1271458604
 30
0.0
 10
29.4566120249
 20
132.1244675346
 30
0.0
  0
SPLINE
  5
268
100
AcDbEntity
  8
0
100
AcDbSpline
 62
7
  6
BYLAYER
 70
0
 71
3
 72
11
 73
7
 74
0
 42
0.0000001
 43
0.0000001
 44
0.0000000001
 40
0.0
 40
0.0
 40
0.0
 40
0.0
 40
0.2512653383
 40
0.5016957999
 40
0.7511572033
 40
1.0
 40
1.0
 40
1.0
 40
1.0
 10
29.4571369168
 20
132.1244685811
 30
0.0
 10
29.4571369679
 20
132.3844933111
 30
0.0
 10
29.5596174744
 20
132.9093205864
 30
0.0
 10
29.9991828825
 20
133.5737968656
 30
0.0
 10
30.65656005
 20
134.0200033891
 30
0.0
 10
31.1780080471
 20
134.1244679023
 30
0.0
 10
31.435525783
 20
134.1244680149
 30
0.0
  0
SPLINE
  5
269
100
AcDbEntity
  8
0
100
AcDbSpline
 62
7
  6
BYLAYER
 70
0
 71
3
 72
12
 73
8
 74
0
 42
0.0000001
 43
0.0000001
 44
0.0000000001
 40
0.0
 40
0.0
 40
0.0
 40
0.0
 40
0.1100056643
 40
0.2266432258
 40
0.4741924357
 40
0.7343034751
 40
1.0
 40
1.0
 40
1.0
 40
1.0
 10
50.2140124737
 20
13.1244680867
 30
0.0
 10
50.3306264365
 20
13.1244680867
 30
0.0
 10
50.5709323037
 20
13.1474227484
 30
0.0
 10
51.0626625159
 20
13.254426615
 30
0.0
 10
51.6907581634
 20
13.467837979
 30
0.0
 10
52.448046893
 20
13.7818154083
 30
0.0
 10
52.9568954943
 20
14.0094818779
 30
0.0
 10
53.2140124737
 20
14.1244680867
 30
0.0
  0
SPLINE
  5
26A
100
AcDbEntity
  8
0
100
AcDbSpline
 62
7
  6
BYLAYER
 70
0
 71
3
 72
9
 73
5
 74
0
 42
0.0000001
 43
0.0000001
 44
0.0000000001
 40
0.0
 40
0.0
 40
0.0
 40
0.0
 40
0.4999990478
 40
1.0
 40
1.0
 40
1.0
 40
1.0
 10
29.4571229646
 20
132.1244680867
 30
0.0
 10
29.4737060628
 20
129.4067942465
 30
0.0
 10
29.5053325654
 20
123.9714263596
 30
0.0
 10
29.5432334052
 20
118.5360985984
 30
0.0
 10
29.5615273177
 20
115.8184253845
 30
0.0
  0
SPLINE
  5
26B
100
AcDbEntity
  8
0
100
AcDbSpline
 62
7
  6
BYLAYER
 70
0
 71
3
 72
23
 73
19
 74
0
 42
0.0000001
 43
0.0000001
 44
0.0000000001
 40
0.0
 40
0.0
 40
0.0
 40
0.0
 40
0.0788712269
 40
0.1558556753
 40
0.2296426525
 40
0.2991787878
 40
0.3637985759
 40
0.4233659211
 40
0.4784133146
 40
0.5301904787
 40
0.5805009408
 40
0.6312890095
 40
0.6841743284
 40
0.7402012338
 40
0.7998514132
 40
0.8631896186
 40
0.9300200061
 40
1.0
 40
1.0
 40
1.0
 40
1.0
 10
29.5615273177
 20
115.8184253845
 30
0.0
 10
29.565635015
 20
115.230395981
 30
0.0
 10
29.5877064068
 20
114.0684377551
 30
0.0
 10
29.6685363234
 20
112.3579086508
 30
0.0
 10
29.8080238125
 20
110.720747805
 30
0.0
 10
30.0218775049
 20
109.1841755041
 30
0.0
 10
30.328530744
 20
107.7708413426
 30
0.0
 10
30.7473813593
 20
106.4984635228
 30
0.0
 10
31.296677713
 20
105.3805263089
 30
0.0
 10
31.9899125713
 20
104.4277841847
 30
0.0
 10
32.8301244403
 20
103.6469755473
 30
0.0
 10
33.8086232409
 20
103.0348110067
 30
0.0
 10
34.9120328233
 20
102.5759460126
 30
0.0
 10
36.1281951979
 20
102.2485733281
 30
0.0
 10
37.4464350028
 20
102.029994136
 30
0.0
 10
38.8563993093
 20
101.8986595373
 30
0.0
 10
40.347674367
 20
101.8345144079
 30
0.0
 10
41.3677748863
 20
101.8244679773
 30
0.0
 10
41.8895278716
 20
101.8244680867
 30
0.0
  0
SPLINE
  5
26C
100
AcDbEntity
  8
0
100
AcDbSpline
 62
7
  6
BYLAYER
 70
0
 71
3
 72
9
 73
5
 74
0
 42
0.0000001
 43
0.0000001
 44
0.0000000001
 40
0.0
 40
0.0
 40
0.0
 40
0.0
 40
0.5000009522
 40
1.0
 40
1.0
 40
1.0
 40
1.0
 10
73.8664976296
 20
115.8184253845
 30
0.0
 10
73.8847907257
 20
118.5360986039
 30
0.0
 10
73.9226923848
 20
123.9714263593
 30
0.0
 10
73.9543196966
 20
129.4067942415
 30
0.0
 10
73.9709019827
 20
132.1244680867
 30
0.0
  0
SPLINE
  5
26D
100
AcDbEntity
  8
0
100
AcDbSpline
 62
7
  6
BYLAYER
 70
0
 71
3
 72
13
 73
9
 74
0
 42
0.0000001
 43
0.0000001
 44
0.0000000001
 40
0.0
 40
0.0
 40
0.0
 40
0.0
 40
0.1246821422
 40
0.249399102
 40
0.3742310604
 40
0.4993641511
 40
0.7493049736
 40
1.0
 40
1.0
 40
1.0
 40
1.0
 10
72.1976964441
 20
134.1135923609
 30
0.0
 10
72.3179201796
 20
134.1008597951
 30
0.0
 10
72.5566650451
 20
134.0531854773
 30
0.0
 10
72.8950795979
 20
133.9168551298
 30
0.0
 10
73.2032056437
 20
133.7203399522
 30
0.0
 10
73.5592135954
 20
133.3879698071
 30
0.0
 10
73.8818198592
 20
132.8574008208
 30
0.0
 10
73.9708917246
 20
132.3675507455
 30
0.0
 10
73.9708917823
 20
132.1244682303
 30
0.0
  0
SPLINE
  5
26E
100
AcDbEntity
  8
0
100
AcDbSpline
 62
7
  6
BYLAYER
 70
0
 71
3
 72
15
 73
11
 74
0
 42
0.0000001
 43
0.0000001
 44
0.0000000001
 40
0.0
 40
0.0
 40
0.0
 40
0.0
 40
0.0172857688
 40
0.04230442
 40
0.1147196491
 40
0.2150071391
 40
0.3400772758
 40
0.4859166263
 40
0.6479754892
 40
1.0
 40
1.0
 40
1.0
 40
1.0
 10
73.9713729847
 20
132.1244610363
 30
0.0
 10
73.9573639181
 20
132.1271395428
 30
0.0
 10
73.9227275508
 20
132.1317453209
 30
0.0
 10
73.8285202225
 20
132.1408929194
 30
0.0
 10
73.6656358902
 20
132.1509036771
 30
0.0
 10
73.4201846192
 20
132.1617216782
 30
0.0
 10
73.1140471496
 20
132.1714907101
 30
0.0
 10
72.7568964736
 20
132.1799857632
 30
0.0
 10
72.2124576779
 20
132.189317263
 30
0.0
 10
71.7882840916
 20
132.1930789345
 30
0.0
 10
71.497824061
 20
132.1942543234
 30
0.0
  0
SPLINE
  5
26F
100
AcDbEntity
  8
0
100
AcDbSpline
 62
7
  6
BYLAYER
 70
0
 71
3
 72
22
 73
18
 74
0
 42
0.0000001
 43
0.0000001
 44
0.0000000001
 40
0.0
 40
0.0
 40
0.0
 40
0.0
 40
0.0727026031
 40
0.1423540073
 40
0.2085468351
 40
0.2709712526
 40
0.329563912
 40
0.3846442687
 40
0.4371061641
 40
0.4884729688
 40
0.5406416721
 40
0.5953660676
 40
0.6538520031
 40
0.7165269375
 40
0.7832265752
 40
0.8533275203
 40
1.0
 40
1.0
 40
1.0
 40
1.0
 10
42.9811370539
 20
104.3244680867
 30
0.0
 10
42.5172581301
 20
104.3244685035
 30
0.0
 10
41.6089058502
 20
104.3326435916
 30
0.0
 10
40.2790411315
 20
104.3861969597
 30
0.0
 10
39.0180980665
 20
104.4958326804
 30
0.0
 10
37.8365597977
 20
104.6796657572
 30
0.0
 10
36.7453660781
 20
104.9564868431
 30
0.0
 10
35.7553095605
 20
105.345475832
 30
0.0
 10
34.8798817389
 20
105.8673503161
 30
0.0
 10
34.1301696954
 20
106.5318108876
 30
0.0
 10
33.5181257833
 20
107.342612685
 30
0.0
 10
33.0366485619
 20
108.286586569
 30
0.0
 10
32.6751526272
 20
109.3521101002
 30
0.0
 10
32.4127035288
 20
110.5232913161
 30
0.0
 10
32.231017138
 20
111.7839313443
 30
0.0
 10
32.0722603561
 20
113.5861995223
 30
0.0
 10
32.0299384622
 20
114.9698568004
 30
0.0
 10
32.0229139713
 20
115.9056741219
 30
0.0
  0
SPLINE
  5
270
100
AcDbEntity
  8
0
100
AcDbSpline
 62
7
  6
BYLAYER
 70
0
 71
3
 72
22
 73
18
 74
0
 42
0.0000001
 43
0.0000001
 44
0.0000000001
 40
0.0
 40
0.0
 40
0.0
 40
0.0
 40
0.146656238
 40
0.2167565763
 40
0.2834594636
 40
0.3461351527
 40
0.404620697
 40
0.4593458833
 40
0.5115156274
 40
0.5628826108
 40
0.6153446245
 40
0.6704259401
 40
0.7290196284
 40
0.7914445281
 40
0.8576390371
 40
0.9272944713
 40
1.0
 40
1.0
 40
1.0
 40
1.0
 10
71.4051103876
 20
115.9056741263
 30
0.0
 10
71.3980882706
 20
114.9699606099
 30
0.0
 10
71.3557720929
 20
113.5864111415
 30
0.0
 10
71.1970326073
 20
111.7842292445
 30
0.0
 10
71.0153715513
 20
110.5235642478
 30
0.0
 10
70.7529455663
 20
109.3523542092
 30
0.0
 10
70.3914671536
 20
108.2868173074
 30
0.0
 10
69.9100157273
 20
107.3428213928
 30
0.0
 10
69.298005097
 20
106.531979399
 30
0.0
 10
68.5483191493
 20
105.8674757429
 30
0.0
 10
67.672901592
 20
105.3455670407
 30
0.0
 10
66.6828420434
 20
104.9565488193
 30
0.0
 10
65.5916390788
 20
104.6797000877
 30
0.0
 10
64.4100829762
 20
104.4958483742
 30
0.0
 10
63.1491010511
 20
104.3862045983
 30
0.0
 10
61.8191816362
 20
104.3326466542
 30
0.0
 10
60.9107851706
 20
104.3244688259
 30
0.0
 10
60.4468876746
 20
104.3244680867
 30
0.0
  0
ENDSEC
  0
SECTION
  2
OBJECTS
  0
DICTIONARY
  5
C
100
AcDbDictionary
280
0
281
1
  3
ACAD_GROUP
350
D
  3
ACAD_MLINESTYLE
350
17
  3
ACAD_LAYOUT
350
1A
  3
ACAD_PLOTSETTINGS
350
19
  3
ACAD_PLOTSTYLENAME
350
E
  0
DICTIONARY
  5
D
102
{ACAD_REACTORS
330
C
102
}
100
AcDbDictionary
280
0
281
1
  0
ACDBDICTIONARYWDFLT
  5
E
102
{ACAD_REACTORS
330
C
102
}
100
AcDbDictionary
281
1
  3
Normal
350
F
100
AcDbDictionaryWithDefault
340
F
  0
DICTIONARY
  5
17
102
{ACAD_REACTORS
330
C
102
}
100
AcDbDictionary
280
0
281
1
  3
Standard
350
18
  0
DICTIONARY
  5
19
102
{ACAD_REACTORS
330
C
102
}
100
AcDbDictionary
281
1
  0
DICTIONARY
  5
1A
102
{ACAD_REACTORS
330
C
102
}
100
AcDbDictionary
281
1
  3
Model
350
271
  3
Layout1
350
272
  0
ACDBPLACEHOLDER
  5
F
102
{ACAD_REACTORS
330
E
102
}
  0
MLINESTYLE
  5
18
102
{ACAD_REACTORS
330
17
102
}
100
AcDbMlineStyle
  2
STANDARD
 70
0
  3

 62
256
 51
90.0
 52
90.0
 71
2
 49
0.5
 62
256
  6
BYLAYER
 49
-0.5
 62
256
  6
BYLAYER
  0
LAYOUT
  5
271
102
{ACAD_REACTORS
330
1A
102
}
100
AcDbPlotSettings
  1

  2
none_device
  4

  6

 40
0.0
 41
0.0
 42
0.0
 43
0.0
 44
210.0
 45
297.0
 46
0.0
 47
0.0
 48
0.0
 49
0.0
140
0.0
141
0.0
142
1.0
143
1.0
 70
1024
 72
1
 73
0
 74
0
  7

 75
0
147
1.0
148
0.0
149
0.0
100
AcDbLayout
  1
Model
 70
0
 71
0
 10
0.0
 20
0.0
 11
210.0
 21
297.0
 12
0.0
 22
0.0
 32
0.0
 14
0.0
 24
0.0
 34
0.0
 15
0.0
 25
0.0
 35
0.0
146
0.0
 13
0.0
 23
0.0
 33
0.0
 16
1.0
 26
0.0
 36
0.0
 17
0.0
 27
1.0
 37
0.0
 76
0
330
210
345
0
346
0
  0
LAYOUT
  5
272
102
{ACAD_REACTORS
330
1A
102
}
100
AcDbPlotSettings
  1

  2
none_device
  4

  6

 40
0.0
 41
0.0
 42
0.0
 43
0.0
 44
210.0
 45
297.0
 46
0.0
 47
0.0
 48
0.0
 49
0.0
140
0.0
141
0.0
142
1.0
143
1.0
 70
0
 72
1
 73
0
 74
0
  7

 75
0
147
1.0
148
0.0
149
0.0
100
AcDbLayout
  1
Layout1
 70
0
 71
1
 10
0.0
 20
0.0
 11
210.0
 21
297.0
 12
0.0
 22
0.0
 32
0.0
 14
0.0
 24
0.0
 34
0.0
 15
0.0
 25
0.0
 35
0.0
146
0.0
 13
0.0
 23
0.0
 33
0.0
 16
1.0
 26
0.0
 36
0.0
 17
0.0
 27
1.0
 37
0.0
 76
0
330
211
345
0
346
0
  0
ENDSEC
  0
EOF
